  0
SECTION
  2
HEADER
  9
$ACADVER
  1
AC1009
  9
$INSBASE
 10
0
 20
0
 30
0
  9
$EXTMIN
 10
0
 20
0
  9
$EXTMAX
 10
1682
 20
1188
  9
$LIMMIN
 10
0
 20
0
  9
$LIMMAX
 10
1682
 20
1188
  9
$LTSCALE
 40
2
  0
ENDSEC
  0
SECTION
  2
TABLES
  0
TABLE
  2
LTYPE
 70
     9
  0
LTYPE
  2
CONTINUOUS
 70
    64
  3
実線
 72
    65
 73
     0
 40
0.0
  0
LTYPE
  2
DASHED1
 70
    64
  3
--  --  --  --  --  --  --  --  
 72
    65
 73
     2
 40
2.5
 49
1.25
 49
-1.25
  0
LTYPE
  2
DASHED2
 70
    64
  3
----    ----    ----    ----    
 72
    65
 73
     2
 40
5.0
 49
2.5
 49
-2.5
  0
LTYPE
  2
DASHED3
 70
    64
  3
------  ------  ------  ------  
 72
    65
 73
     2
 40
5.0
 49
3.75
 49
-1.25
  0
LTYPE
  2
CENTER1
 70
    64
  3
----- - ----- - ----- - ----- - 
 72
    65
 73
     4
 40
10.0
 49
6.25
 49
-1.25
 49
1.25
 49
-1.25
  0
LTYPE
  2
CENTER2
 70
    64
  3
----------  --  ----------  --  
 72
    65
 73
     4
 40
20.0
 49
12.5
 49
-2.5
 49
2.5
 49
-2.5
  0
LTYPE
  2
PHANTOM1
 70
    64
  3
--- - - --- - - --- - - --- - - 
 72
    65
 73
     6
 40
10.0
 49
3.25
 49
-1.25
 49
1.25
 49
-1.25
 49
1.25
 49
-1.25
  0
LTYPE
  2
PHANTOM2
 70
    64
  3
--------  -  -  --------  -  -  
 72
    65
 73
     6
 40
20.0
 49
10.0
 49
-2.5
 49
1.25
 49
-2.5
 49
1.25
 49
-2.5
  0
LTYPE
  2
DOT
 70
    64
  3
-   -   -   -   -   -   -   -   
 72
    65
 73
     2
 40
2.5
 49
0.625
 49
-1.875
  0
LTYPE
  2
DUMMY
 70
    64
  3
ダミー
 72
    65
 73
     0
 40
0.0
  0
LTYPE
  2
RAND1
 70
    64
  3
ランダム線1
 72
    65
 73
     4
 40
10.0
 49
1.0
 49
-2.0
 49
3.0
 49
-4.0
  0
LTYPE
  2
RAND2
 70
    64
  3
ランダム線2
 72
    65
 73
     4
 40
14.0
 49
2.0
 49
-3.0
 49
4.0
 49
-5.0
  0
LTYPE
  2
RAND3
 70
    64
  3
ランダム線3
 72
    65
 73
     4
 40
18.0
 49
3.0
 49
-4.0
 49
5.0
 49
-6.0
  0
LTYPE
  2
RAND4
 70
    64
  3
ランダム線4
 72
    65
 73
     4
 40
22.0
 49
4.0
 49
-5.0
 49
6.0
 49
-7.0
  0
LTYPE
  2
RAND5
 70
    64
  3
ランダム線5
 72
    65
 73
     4
 40
26.0
 49
5.0
 49
-6.0
 49
7.0
 49
-8.0
  0
LTYPE
  2
LONG1
 70
    64
  3
----------  --  ----------  --  
 72
    65
 73
     4
 40
40.0
 49
32.5
 49
-2.5
 49
2.5
 49
-2.5
  0
LTYPE
  2
LONG2
 70
    64
  3
--------  -  -  --------  -  -  
 72
    65
 73
     6
 40
40.0
 49
30.0
 49
-2.5
 49
1.25
 49
-2.5
 49
1.25
 49
-2.5
  0
LTYPE
  2
LONG3
 70
    64
  3
+++++++++++++++..+++++++++++++++
 72
    65
 73
     2
 40
40.0
 49
37.5
 49
-2.5
  0
LTYPE
  2
LONG4
 70
    64
  3
+++++++++++++++..+++++++++++++++
 72
    65
 73
     2
 40
80.0
 49
75.0
 49
-5.0
  0
LTYPE
  2
LONG5
 70
    64
  3
----------  --  ----------  --  
 72
    65
 73
     4
 40
60.0
 49
37.5
 49
-7.5
 49
7.5
 49
-7.5
  0
LTYPE
  2
dashed
 70
   64
  3
-------   -------------   ------
 72
   65
 73
    2
 40
7.5
 49
6
 49
-1.5
  0
LTYPE
  2
dashed_spaced
 70
   64
  3
----        --------        ----
 72
   65
 73
    2
 40
12
 49
6
 49
-6
  0
LTYPE
  2
long_dashed_dotted
 70
   64
  3
------------- --- --------------
 72
   65
 73
    4
 40
15.25
 49
12
 49
-1.5
 49
0.25
 49
-1.5
  0
LTYPE
  2
long_dashed_double-dotted
 70
   64
  3
----------- --- --- ------------
 72
   65
 73
    6
 40
17
 49
12
 49
-1.5
 49
0.25
 49
-1.5
 49
0.25
 49
-1.5
  0
LTYPE
  2
long_dashed_triplicate-dotted
 70
   64
  3
--------- --- --- --- ----------
 72
   65
 73
    8
 40
18.75
 49
12
 49
-1.5
 49
0.25
 49
-1.5
 49
0.25
 49
-1.5
 49
0.25
 49
-1.5
  0
LTYPE
  2
dotted
 70
   64
  3
   -       -       -       -    
 72
   65
 73
    2
 40
1.75
 49
0.25
 49
-1.5
  0
LTYPE
  2
chain
 70
   64
  3
-------------- -- --------------
 72
   65
 73
    4
 40
18.5
 49
12
 49
-1.5
 49
3.5
 49
-1.5
  0
LTYPE
  2
chain_double_dash
 70
   64
  3
------------ -- -- -------------
 72
   65
 73
    6
 40
23.5
 49
12
 49
-1.5
 49
3.5
 49
-1.5
 49
3.5
 49
-1.5
  0
LTYPE
  2
dashed_dotted
 70
   64
  3
-----------     -     ----------
 72
   65
 73
    4
 40
9.25
 49
6
 49
-1.5
 49
0.25
 49
-1.5
  0
LTYPE
  2
double-dashed_dotted
 70
   64
  3
------   -----------   -   -----
 72
   65
 73
    6
 40
16.75
 49
6
 49
-1.5
 49
6
 49
-1.5
 49
0.25
 49
-1.5
  0
LTYPE
  2
dashed_double-dotted
 70
   64
  3
---------    -    -    ---------
 72
   65
 73
    6
 40
11
 49
6
 49
-1.5
 49
0.25
 49
-1.5
 49
0.25
 49
-1.5
  0
LTYPE
  2
double-dashed_double-dotted
 70
   64
  3
-----   ---------   -   -   ----
 72
   65
 73
    8
 40
18.5
 49
6
 49
-1.5
 49
6
 49
-1.5
 49
0.25
 49
-1.5
 49
0.25
 49
-1.5
  0
LTYPE
  2
dashed_triplicate-dotted
 70
   64
  3
-------    -    -    -    ------
 72
   65
 73
    8
 40
12.75
 49
6
 49
-1.5
 49
0.25
 49
-1.5
 49
0.25
 49
-1.5
 49
0.25
 49
-1.5
  0
LTYPE
  2
double-dashed_triplicate-dotted
 70
   64
  3
-----  ---------  -  -  -  -----
 72
   65
 73
   10
 40
20.25
 49
6
 49
-1.5
 49
6
 49
-1.5
 49
0.25
 49
-1.5
 49
0.25
 49
-1.5
 49
0.25
 49
-1.5
  0
LTYPE
  2
undefined
 70
   64
  3
--------------------------------
 72
   65
 73
    0
 40
0
  0
ENDTAB
  0
TABLE
  2
STYLE
  5
3
100
AcDbSymbolTable
 70
     1
  0
STYLE
  5
10
100
AcDbSymbolTableRecord
100
AcDbTextStyleTableRecord
  2
STANDARD
 70
     0
 40
0.0
 41
1.0
 50
0.0
 71
     0
 42
0.2
  3
txt
  4
bigfont.shx
  0
STYLE
  5
26
100
AcDbSymbolTableRecord
100
AcDbTextStyleTableRecord
  2
TATEGAKI
 70
    68
 40
0.0
 41
1.0
 50
0.0
 71
     0
 42
1.0
  3
txt
  4
bigfont.shx
  0
ENDTAB
  0
TABLE
  2
LAYER
 70
    2
  0
LAYER
  2
_0-0_0
 70
   64
 62
    7
  6
CONTINUOUS
  0
LAYER
  2
ADD_LINE
 70
   64
 62
    7
  6
CONTINUOUS
  0
ENDTAB
  0
ENDSEC
  0
SECTION
  2
BLOCKS
  0
ENDSEC
  0
SECTION
  2
ENTITIES
  0
ARC
  8
_0-0_0
  6
CONTINUOUS
 62
    7
 10
-403.27218650000009
 20
765.34997599999997
 40
0.2
 50
269.99999700000001
 51
20.376440000000013
  0
LINE
  8
_0-0_0
  6
CONTINUOUS
 62
    7
 10
-403.08468650000009
 20
765.41961700000002
 11
-404.3847045
 21
768.91961700000002
  0
ARC
  8
_0-0_0
  6
CONTINUOUS
 62
    7
 10
-404.57217450000007
 20
768.84997599999997
 40
0.2
 50
20.376439999999999
 51
159.62355600000001
  0
LINE
  8
_0-0_0
  6
CONTINUOUS
 62
    7
 10
-406.05966149999995
 20
765.41961700000002
 11
-404.75967450000007
 21
768.91961700000002
  0
ARC
  8
_0-0_0
  6
CONTINUOUS
 62
    7
 10
-405.87219249999998
 20
765.34997599999997
 40
0.2
 50
159.62355600000001
 51
269.99999700000001
  0
LINE
  8
_0-0_0
  6
CONTINUOUS
 62
    7
 10
-405.87219249999998
 20
765.14999399999999
 11
-403.27218650000009
 21
765.14999399999999
  0
LINE
  8
_0-0_0
  6
CONTINUOUS
 62
    7
 10
-568.50500550000015
 20
813.75271599999996
 11
-568.50500550000015
 21
813.75170900000001
  0
ARC
  8
_0-0_0
  6
CONTINUOUS
 62
    7
 10
-405.87219249999998
 20
779.94998199999998
 40
0.2
 50
90.000003000000007
 51
200.37643
  0
LINE
  8
_0-0_0
  6
CONTINUOUS
 62
    7
 10
-405.87219249999998
 20
780.14999399999999
 11
-403.27218650000009
 21
780.14999399999999
  0
ARC
  8
_0-0_0
  6
CONTINUOUS
 62
    7
 10
-408.07217450000007
 20
780.25
 40
0.5
 50
90.000003000000007
 51
179.99999099999999
  0
LINE
  8
_0-0_0
  6
CONTINUOUS
 62
    7
 10
-408.57217450000007
 20
780.25
 11
-408.57217450000007
 21
776.25
  0
ARC
  8
_0-0_0
  6
CONTINUOUS
 62
    7
 10
-408.07217450000007
 20
776.25
 40
0.5
 50
179.99999099999999
 51
269.99999700000001
  0
LINE
  8
_0-0_0
  6
CONTINUOUS
 62
    7
 10
-401.07217450000007
 20
775.75
 11
-408.07217450000007
 21
775.75
  0
ARC
  8
_0-0_0
  6
CONTINUOUS
 62
    7
 10
-401.07217450000007
 20
776.25
 40
0.5
 50
269.99999700000001
 51
0
  0
LINE
  8
_0-0_0
  6
CONTINUOUS
 62
    7
 10
-400.57217450000007
 20
776.25
 11
-400.57217450000007
 21
780.25
  0
ARC
  8
_0-0_0
  6
CONTINUOUS
 62
    7
 10
-401.07217450000007
 20
780.25
 40
0.5
 50
0
 51
90.000003000000007
  0
LINE
  8
_0-0_0
  6
CONTINUOUS
 62
    7
 10
-408.07217450000007
 20
780.75
 11
-401.07217450000007
 21
780.75
  0
LINE
  8
_0-0_0
  6
CONTINUOUS
 62
    7
 10
-406.05966149999995
 20
779.88034100000004
 11
-404.75967450000007
 21
776.38034100000004
  0
ARC
  8
_0-0_0
  6
CONTINUOUS
 62
    7
 10
-404.57217450000007
 20
776.44998199999998
 40
0.2
 50
200.37643
 51
339.62356199999999
  0
LINE
  8
_0-0_0
  6
CONTINUOUS
 62
    7
 10
-403.08468650000009
 20
779.88034100000004
 11
-404.3847045
 21
776.38034100000004
  0
ARC
  8
_0-0_0
  6
CONTINUOUS
 62
    7
 10
-403.27218650000009
 20
779.94998199999998
 40
0.2
 50
339.62356199999999
 51
90.000002999999978
  0
ARC
  8
_0-0_0
  6
CONTINUOUS
 62
    7
 10
1634.1276854999999
 20
779.94998199999998
 40
0.2
 50
90.000003000000007
 51
200.37643
  0
LINE
  8
_0-0_0
  6
CONTINUOUS
 62
    7
 10
1634.1276854999999
 20
780.14999399999999
 11
1636.7277835
 21
780.14999399999999
  0
ARC
  8
_0-0_0
  6
CONTINUOUS
 62
    7
 10
1631.9277345
 20
780.25
 40
0.5
 50
90.000003000000007
 51
179.99999099999999
  0
LINE
  8
_0-0_0
  6
CONTINUOUS
 62
    7
 10
1631.4277345
 20
780.25
 11
1631.4277345
 21
776.25
  0
ARC
  8
_0-0_0
  6
CONTINUOUS
 62
    7
 10
1631.9277345
 20
776.25
 40
0.5
 50
179.99999099999999
 51
269.99999700000001
  0
LINE
  8
_0-0_0
  6
CONTINUOUS
 62
    7
 10
1638.9277345
 20
775.75
 11
1631.9277345
 21
775.75
  0
ARC
  8
_0-0_0
  6
CONTINUOUS
 62
    7
 10
1638.9277345
 20
776.25
 40
0.5
 50
269.99999700000001
 51
0
  0
LINE
  8
_0-0_0
  6
CONTINUOUS
 62
    7
 10
1639.4277345
 20
776.25
 11
1639.4277345
 21
780.25
  0
ARC
  8
_0-0_0
  6
CONTINUOUS
 62
    7
 10
1638.9277345
 20
780.25
 40
0.5
 50
0
 51
90.000003000000007
  0
LINE
  8
_0-0_0
  6
CONTINUOUS
 62
    7
 10
1631.9277345
 20
780.75
 11
1638.9277345
 21
780.75
  0
LINE
  8
_0-0_0
  6
CONTINUOUS
 62
    7
 10
1633.9401854999999
 20
779.88034100000004
 11
1635.2402345
 21
776.38034100000004
  0
ARC
  8
_0-0_0
  6
CONTINUOUS
 62
    7
 10
1635.4277345
 20
776.44998199999998
 40
0.2
 50
200.37643
 51
339.62356199999999
  0
LINE
  8
_0-0_0
  6
CONTINUOUS
 62
    7
 10
1636.9152835
 20
779.88034100000004
 11
1635.6152345
 21
776.38034100000004
  0
ARC
  8
_0-0_0
  6
CONTINUOUS
 62
    7
 10
1636.7277835
 20
779.94998199999998
 40
0.2
 50
339.62356199999999
 51
90.000002999999978
  0
LINE
  8
_0-0_0
  6
CONTINUOUS
 62
    7
 10
1714.4277345
 20
802.14999399999999
 11
1714.4277345
 21
789.14999399999999
  0
LINE
  8
_0-0_0
  6
CONTINUOUS
 62
    7
 10
-458.57217450000007
 20
802.14999399999999
 11
-458.57217450000007
 21
789.14999399999999
  0
LINE
  8
_0-0_0
  6
CONTINUOUS
 62
    7
 10
-458.57217450000007
 20
802.14999399999999
 11
1714.4277345
 21
802.14999399999999
  0
LINE
  8
_0-0_0
  6
CONTINUOUS
 62
    7
 10
-458.57217450000007
 20
802.14999399999999
 11
-458.57217450000007
 21
820.75
  0
LINE
  8
_0-0_0
  6
CONTINUOUS
 62
    7
 10
-458.57217450000007
 20
823.25
 11
-458.57217450000007
 21
820.75
  0
LINE
  8
_0-0_0
  6
CONTINUOUS
 62
    7
 10
-458.57217450000007
 20
823.75
 11
-458.57217450000007
 21
823.25
  0
LINE
  8
_0-0_0
  6
CONTINUOUS
 62
    7
 10
-458.57217450000007
 20
775.75
 11
-458.57217450000007
 21
775.25
  0
LINE
  8
_0-0_0
  6
CONTINUOUS
 62
    7
 10
-458.57217450000007
 20
780.75
 11
-458.57217450000007
 21
775.75
  0
LINE
  8
_0-0_0
  6
CONTINUOUS
 62
    7
 10
-458.57217450000007
 20
781.25
 11
-458.57217450000007
 21
780.75
  0
LINE
  8
_0-0_0
  6
CONTINUOUS
 62
    7
 10
-458.57217450000007
 20
781.75
 11
-458.57217450000007
 21
781.25
  0
LINE
  8
_0-0_0
  6
CONTINUOUS
 62
    7
 10
-458.57217450000007
 20
784.94998199999998
 11
-458.57217450000007
 21
781.75
  0
LINE
  8
_0-0_0
  6
CONTINUOUS
 62
    7
 10
-458.57217450000007
 20
784.94998199999998
 11
-458.57217450000007
 21
789.14999399999999
  0
LINE
  8
_0-0_0
  6
CONTINUOUS
 62
    7
 10
-458.57217450000007
 20
789.14999399999999
 11
1714.4277345
 21
789.14999399999999
  0
LINE
  8
_0-0_0
  6
CONTINUOUS
 62
    7
 10
1714.4277345
 20
784.94998199999998
 11
1714.4277345
 21
789.14999399999999
  0
LINE
  8
_0-0_0
  6
CONTINUOUS
 62
    7
 10
1714.4277345
 20
781.75
 11
1714.4277345
 21
784.94998199999998
  0
LINE
  8
_0-0_0
  6
CONTINUOUS
 62
    7
 10
1714.4277345
 20
781.75
 11
1714.4277345
 21
781.25
  0
LINE
  8
_0-0_0
  6
CONTINUOUS
 62
    7
 10
1714.4277345
 20
781.25
 11
1714.4277345
 21
780.75
  0
LINE
  8
_0-0_0
  6
CONTINUOUS
 62
    7
 10
1714.4277345
 20
780.75
 11
1714.4277345
 21
775.75
  0
LINE
  8
_0-0_0
  6
CONTINUOUS
 62
    7
 10
1714.4277345
 20
775.75
 11
1714.4277345
 21
775.25
  0
LINE
  8
_0-0_0
  6
CONTINUOUS
 62
    7
 10
1714.4277345
 20
823.75
 11
1714.4277345
 21
823.25
  0
LINE
  8
_0-0_0
  6
CONTINUOUS
 62
    7
 10
1714.4277345
 20
820.75
 11
1714.4277345
 21
823.25
  0
LINE
  8
_0-0_0
  6
CONTINUOUS
 62
    7
 10
1714.4277345
 20
802.14999399999999
 11
1714.4277345
 21
820.75
  0
CIRCLE
  8
_0-0_0
  6
CONTINUOUS
 62
    7
 10
1677.9277345
 20
811.25
 40
6
  0
CIRCLE
  8
_0-0_0
  6
CONTINUOUS
 62
    7
 10
1577.9277345
 20
811.25
 40
6
  0
CIRCLE
  8
_0-0_0
  6
CONTINUOUS
 62
    7
 10
1477.9277345
 20
811.25
 40
6
  0
CIRCLE
  8
_0-0_0
  6
CONTINUOUS
 62
    7
 10
1377.9278565
 20
811.25
 40
6
  0
CIRCLE
  8
_0-0_0
  6
CONTINUOUS
 62
    7
 10
1277.9278565
 20
811.25
 40
6
  0
CIRCLE
  8
_0-0_0
  6
CONTINUOUS
 62
    7
 10
1177.9278565
 20
811.25
 40
6
  0
CIRCLE
  8
_0-0_0
  6
CONTINUOUS
 62
    7
 10
1077.9278565
 20
811.25
 40
6
  0
CIRCLE
  8
_0-0_0
  6
CONTINUOUS
 62
    7
 10
977.92785649999996
 20
811.25
 40
6
  0
CIRCLE
  8
_0-0_0
  6
CONTINUOUS
 62
    7
 10
877.92785649999996
 20
811.25
 40
6
  0
CIRCLE
  8
_0-0_0
  6
CONTINUOUS
 62
    7
 10
777.92785649999996
 20
811.25
 40
6
  0
CIRCLE
  8
_0-0_0
  6
CONTINUOUS
 62
    7
 10
677.92785649999996
 20
811.25
 40
6
  0
CIRCLE
  8
_0-0_0
  6
CONTINUOUS
 62
    7
 10
577.92785649999996
 20
811.25
 40
6
  0
CIRCLE
  8
_0-0_0
  6
CONTINUOUS
 62
    7
 10
477.92785649999996
 20
811.25
 40
6
  0
CIRCLE
  8
_0-0_0
  6
CONTINUOUS
 62
    7
 10
377.92782549999998
 20
811.25
 40
6
  0
CIRCLE
  8
_0-0_0
  6
CONTINUOUS
 62
    7
 10
277.92782549999993
 20
811.25
 40
6
  0
CIRCLE
  8
_0-0_0
  6
CONTINUOUS
 62
    7
 10
177.92782549999993
 20
811.25
 40
6
  0
CIRCLE
  8
_0-0_0
  6
CONTINUOUS
 62
    7
 10
77.927825499999926
 20
811.25
 40
6
  0
CIRCLE
  8
_0-0_0
  6
CONTINUOUS
 62
    7
 10
-22.072174500000074
 20
811.25
 40
6
  0
CIRCLE
  8
_0-0_0
  6
CONTINUOUS
 62
    7
 10
-122.07217450000007
 20
811.25
 40
6
  0
CIRCLE
  8
_0-0_0
  6
CONTINUOUS
 62
    7
 10
-222.07217450000007
 20
811.25
 40
6
  0
CIRCLE
  8
_0-0_0
  6
CONTINUOUS
 62
    7
 10
-322.07217450000007
 20
811.25
 40
6
  0
CIRCLE
  8
_0-0_0
  6
CONTINUOUS
 62
    7
 10
-422.07217450000007
 20
811.25
 40
6
  0
LINE
  8
_0-0_0
  6
CONTINUOUS
 62
    7
 10
-458.57217450000007
 20
820.75
 11
1714.4277345
 21
820.75
  0
LINE
  8
_0-0_0
  6
CONTINUOUS
 62
    7
 10
-458.57217450000007
 20
823.75
 11
1714.4277345
 21
823.75
  0
LINE
  8
_0-0_0
  6
CONTINUOUS
 62
    7
 10
-458.57217450000007
 20
823.25
 11
-461.07217450000007
 21
823.25
  0
LINE
  8
_0-0_0
  6
CONTINUOUS
 62
    7
 10
-461.07217450000007
 20
823.25
 11
-461.07217450000007
 21
822.75
  0
LINE
  8
_0-0_0
  6
CONTINUOUS
 62
    7
 10
-461.07217450000007
 20
822.75
 11
-461.07217450000007
 21
782.25
  0
LINE
  8
_0-0_0
  6
CONTINUOUS
 62
    7
 10
-458.57217450000007
 20
781.75
 11
-461.07217450000007
 21
781.75
  0
LINE
  8
_0-0_0
  6
CONTINUOUS
 62
    7
 10
-461.07217450000007
 20
782.25
 11
-461.07217450000007
 21
781.75
  0
LINE
  8
_0-0_0
  6
CONTINUOUS
 62
    7
 10
-461.07217450000007
 20
781.75
 11
-461.07217450000007
 21
780.75
  0
LINE
  8
_0-0_0
  6
CONTINUOUS
 62
    7
 10
-461.07217450000007
 20
780.75
 11
-461.07217450000007
 21
776.25
  0
LINE
  8
_0-0_0
  6
CONTINUOUS
 62
    7
 10
-458.57217450000007
 20
775.75
 11
-461.07217450000007
 21
775.75
  0
LINE
  8
_0-0_0
  6
CONTINUOUS
 62
    7
 10
-461.07217450000007
 20
776.25
 11
-461.07217450000007
 21
775.75
  0
LINE
  8
_0-0_0
  6
CONTINUOUS
 62
    7
 10
-458.57217450000007
 20
775.25
 11
1714.4277345
 21
775.25
  0
LINE
  8
_0-0_0
  6
CONTINUOUS
 62
    7
 10
-458.57217450000007
 20
781.25
 11
1714.4277345
 21
781.25
  0
LINE
  8
_0-0_0
  6
CONTINUOUS
 62
    7
 10
-458.57217450000007
 20
784.94998199999998
 11
1714.4277345
 21
784.94998199999998
  0
LINE
  8
_0-0_0
  6
CONTINUOUS
 62
    7
 10
1714.4277345
 20
823.25
 11
1716.9277345
 21
823.25
  0
LINE
  8
_0-0_0
  6
CONTINUOUS
 62
    7
 10
1716.9277345
 20
823.25
 11
1716.9277345
 21
822.75
  0
LINE
  8
_0-0_0
  6
CONTINUOUS
 62
    7
 10
1716.9277345
 20
822.75
 11
1716.9277345
 21
782.25
  0
LINE
  8
_0-0_0
  6
CONTINUOUS
 62
    7
 10
1714.4277345
 20
781.75
 11
1716.9277345
 21
781.75
  0
LINE
  8
_0-0_0
  6
CONTINUOUS
 62
    7
 10
1716.9277345
 20
782.25
 11
1716.9277345
 21
781.75
  0
LINE
  8
_0-0_0
  6
CONTINUOUS
 62
    7
 10
1716.9277345
 20
781.75
 11
1716.9277345
 21
780.75
  0
LINE
  8
_0-0_0
  6
CONTINUOUS
 62
    7
 10
1716.9277345
 20
780.75
 11
1716.9277345
 21
776.25
  0
LINE
  8
_0-0_0
  6
CONTINUOUS
 62
    7
 10
1714.4277345
 20
775.75
 11
1716.9277345
 21
775.75
  0
LINE
  8
_0-0_0
  6
CONTINUOUS
 62
    7
 10
1716.9277345
 20
776.25
 11
1716.9277345
 21
775.75
  0
LINE
  8
_0-0_0
  6
CONTINUOUS
 62
    7
 10
1714.4277345
 20
823.75
 11
1714.4277345
 21
823.44998199999998
  0
LINE
  8
_0-0_0
  6
CONTINUOUS
 62
    7
 10
1714.4277345
 20
823.44998199999998
 11
1714.4277345
 21
823.25
  0
CIRCLE
  8
_0-0_0
  6
CONTINUOUS
 62
    7
 10
1677.9277345
 20
811.25
 40
5.5
  0
CIRCLE
  8
_0-0_0
  6
CONTINUOUS
 62
    7
 10
1577.9277345
 20
811.25
 40
5.5
  0
CIRCLE
  8
_0-0_0
  6
CONTINUOUS
 62
    7
 10
1477.9277345
 20
811.25
 40
5.5
  0
CIRCLE
  8
_0-0_0
  6
CONTINUOUS
 62
    7
 10
1377.9278565
 20
811.25
 40
5.5
  0
CIRCLE
  8
_0-0_0
  6
CONTINUOUS
 62
    7
 10
1277.9278565
 20
811.25
 40
5.5
  0
CIRCLE
  8
_0-0_0
  6
CONTINUOUS
 62
    7
 10
1177.9278565
 20
811.25
 40
5.5
  0
CIRCLE
  8
_0-0_0
  6
CONTINUOUS
 62
    7
 10
1077.9278565
 20
811.25
 40
5.5
  0
CIRCLE
  8
_0-0_0
  6
CONTINUOUS
 62
    7
 10
977.92785649999996
 20
811.25
 40
5.5
  0
CIRCLE
  8
_0-0_0
  6
CONTINUOUS
 62
    7
 10
877.92785649999996
 20
811.25
 40
5.5
  0
CIRCLE
  8
_0-0_0
  6
CONTINUOUS
 62
    7
 10
777.92785649999996
 20
811.25
 40
5.5
  0
CIRCLE
  8
_0-0_0
  6
CONTINUOUS
 62
    7
 10
677.92785649999996
 20
811.25
 40
5.5
  0
CIRCLE
  8
_0-0_0
  6
CONTINUOUS
 62
    7
 10
577.92785649999996
 20
811.25
 40
5.5
  0
CIRCLE
  8
_0-0_0
  6
CONTINUOUS
 62
    7
 10
477.92785649999996
 20
811.25
 40
5.5
  0
CIRCLE
  8
_0-0_0
  6
CONTINUOUS
 62
    7
 10
377.92782549999998
 20
811.25
 40
5.5
  0
CIRCLE
  8
_0-0_0
  6
CONTINUOUS
 62
    7
 10
277.92782549999993
 20
811.25
 40
5.5
  0
CIRCLE
  8
_0-0_0
  6
CONTINUOUS
 62
    7
 10
177.92782549999993
 20
811.25
 40
5.5
  0
CIRCLE
  8
_0-0_0
  6
CONTINUOUS
 62
    7
 10
77.927825499999926
 20
811.25
 40
5.5
  0
CIRCLE
  8
_0-0_0
  6
CONTINUOUS
 62
    7
 10
-22.072174500000074
 20
811.25
 40
5.5
  0
CIRCLE
  8
_0-0_0
  6
CONTINUOUS
 62
    7
 10
-122.07217450000007
 20
811.25
 40
5.5
  0
CIRCLE
  8
_0-0_0
  6
CONTINUOUS
 62
    7
 10
-222.07217450000007
 20
811.25
 40
5.5
  0
CIRCLE
  8
_0-0_0
  6
CONTINUOUS
 62
    7
 10
-322.07217450000007
 20
811.25
 40
5.5
  0
CIRCLE
  8
_0-0_0
  6
CONTINUOUS
 62
    7
 10
-422.07217450000007
 20
811.25
 40
5.5
  0
CIRCLE
  8
_0-0_0
  6
CONTINUOUS
 62
    7
 10
1677.9277345
 20
811.25
 40
3.5
  0
CIRCLE
  8
_0-0_0
  6
CONTINUOUS
 62
    7
 10
1577.9277345
 20
811.25
 40
3.5
  0
CIRCLE
  8
_0-0_0
  6
CONTINUOUS
 62
    7
 10
1477.9277345
 20
811.25
 40
3.5
  0
CIRCLE
  8
_0-0_0
  6
CONTINUOUS
 62
    7
 10
1377.9278565
 20
811.25
 40
3.5
  0
CIRCLE
  8
_0-0_0
  6
CONTINUOUS
 62
    7
 10
1277.9278565
 20
811.25
 40
3.5
  0
CIRCLE
  8
_0-0_0
  6
CONTINUOUS
 62
    7
 10
1177.9278565
 20
811.25
 40
3.5
  0
CIRCLE
  8
_0-0_0
  6
CONTINUOUS
 62
    7
 10
1077.9278565
 20
811.25
 40
3.5
  0
CIRCLE
  8
_0-0_0
  6
CONTINUOUS
 62
    7
 10
977.92785649999996
 20
811.25
 40
3.5
  0
CIRCLE
  8
_0-0_0
  6
CONTINUOUS
 62
    7
 10
877.92785649999996
 20
811.25
 40
3.5
  0
CIRCLE
  8
_0-0_0
  6
CONTINUOUS
 62
    7
 10
777.92785649999996
 20
811.25
 40
3.5
  0
CIRCLE
  8
_0-0_0
  6
CONTINUOUS
 62
    7
 10
677.92785649999996
 20
811.25
 40
3.5
  0
CIRCLE
  8
_0-0_0
  6
CONTINUOUS
 62
    7
 10
577.92785649999996
 20
811.25
 40
3.5
  0
CIRCLE
  8
_0-0_0
  6
CONTINUOUS
 62
    7
 10
477.92785649999996
 20
811.25
 40
3.5
  0
CIRCLE
  8
_0-0_0
  6
CONTINUOUS
 62
    7
 10
377.92782549999998
 20
811.25
 40
3.5
  0
CIRCLE
  8
_0-0_0
  6
CONTINUOUS
 62
    7
 10
277.92782549999993
 20
811.25
 40
3.5
  0
CIRCLE
  8
_0-0_0
  6
CONTINUOUS
 62
    7
 10
177.92782549999993
 20
811.25
 40
3.5
  0
CIRCLE
  8
_0-0_0
  6
CONTINUOUS
 62
    7
 10
77.927825499999926
 20
811.25
 40
3.5
  0
CIRCLE
  8
_0-0_0
  6
CONTINUOUS
 62
    7
 10
-22.072174500000074
 20
811.25
 40
3.5
  0
CIRCLE
  8
_0-0_0
  6
CONTINUOUS
 62
    7
 10
-122.07217450000007
 20
811.25
 40
3.5
  0
CIRCLE
  8
_0-0_0
  6
CONTINUOUS
 62
    7
 10
-222.07217450000007
 20
811.25
 40
3.5
  0
CIRCLE
  8
_0-0_0
  6
CONTINUOUS
 62
    7
 10
-322.07217450000007
 20
811.25
 40
3.5
  0
CIRCLE
  8
_0-0_0
  6
CONTINUOUS
 62
    7
 10
-422.07217450000007
 20
811.25
 40
3.5
  0
LINE
  8
_0-0_0
  6
CONTINUOUS
 62
    7
 10
-452.07217450000007
 20
773.25
 11
-447.07217450000007
 21
773.25
  0
LINE
  8
_0-0_0
  6
CONTINUOUS
 62
    7
 10
-447.07217450000007
 20
773.25
 11
-445.27218650000009
 21
773.25
  0
LINE
  8
_0-0_0
  6
CONTINUOUS
 62
    7
 10
-445.27218650000009
 20
773.25
 11
-444.57217450000007
 21
773.25
  0
ARC
  8
_0-0_0
  6
CONTINUOUS
 62
    7
 10
-445.27218650000009
 20
772.75
 40
0.5
 50
0
 51
90.000003000000007
  0
ARC
  8
_0-0_0
  6
CONTINUOUS
 62
    7
 10
-452.07217450000007
 20
772.75
 40
0.5
 50
90.000003000000007
 51
179.99999099999999
  0
ARC
  8
_0-0_0
  6
CONTINUOUS
 62
    7
 10
-348.57217450000007
 20
772.75
 40
0.5
 50
0
 51
90.000003000000007
  0
LINE
  8
_0-0_0
  6
CONTINUOUS
 62
    7
 10
-444.57217450000007
 20
773.25
 11
-444.57217450000007
 21
771.75
  0
LINE
  8
_0-0_0
  6
CONTINUOUS
 62
    7
 10
-444.57217450000007
 20
773.75
 11
-444.57217450000007
 21
773.25
  0
LINE
  8
_0-0_0
  6
CONTINUOUS
 62
    7
 10
-444.57217450000007
 20
774.25
 11
-444.57217450000007
 21
773.75
  0
LINE
  8
_0-0_0
  6
CONTINUOUS
 62
    7
 10
-444.57217450000007
 20
775.25
 11
-444.57217450000007
 21
774.25
  0
LINE
  8
_0-0_0
  6
CONTINUOUS
 62
    7
 10
-440.57217450000007
 20
773.25
 11
-439.87219249999998
 21
773.25
  0
LINE
  8
_0-0_0
  6
CONTINUOUS
 62
    7
 10
-444.77218650000009
 20
772.75
 11
-444.77218650000009
 21
771.75
  0
LINE
  8
_0-0_0
  6
CONTINUOUS
 62
    7
 10
-441.57217450000007
 20
746.25
 11
-441.57217450000007
 21
747.84997599999997
  0
LINE
  8
_0-0_0
  6
CONTINUOUS
 62
    7
 10
-441.57217450000007
 20
746.25
 11
-447.07217450000007
 21
746.25
  0
LINE
  8
_0-0_0
  6
CONTINUOUS
 62
    7
 10
-425.57217450000007
 20
752.94998199999998
 11
-383.57217450000007
 21
752.94998199999998
  0
LINE
  8
_0-0_0
  6
CONTINUOUS
 62
    7
 10
-425.57217450000007
 20
772.54998799999998
 11
-383.57217450000007
 21
772.54998799999998
  0
LINE
  8
_0-0_0
  6
CONTINUOUS
 62
    7
 10
-362.07217450000007
 20
746.25
 11
-371.57217450000007
 21
746.25
  0
LINE
  8
_0-0_0
  6
CONTINUOUS
 62
    7
 10
-371.57217450000007
 20
746.25
 11
-371.57217450000007
 21
747.84997599999997
  0
ARC
  8
_0-0_0
  6
CONTINUOUS
 62
    7
 10
-371.87219249999998
 20
747.84997599999997
 40
0.2999999999999999
 50
0
 51
90.000003000000007
  0
LINE
  8
_0-0_0
  6
CONTINUOUS
 62
    7
 10
-372.57217450000007
 20
748.14999399999999
 11
-371.87219249999998
 21
748.14999399999999
  0
LINE
  8
_0-0_0
  6
CONTINUOUS
 62
    7
 10
-373.07217450000007
 20
748.54998799999998
 11
-372.57217450000007
 21
748.54998799999998
  0
LINE
  8
_0-0_0
  6
CONTINUOUS
 62
    7
 10
-386.57217450000007
 20
748.54998799999998
 11
-373.07217450000007
 21
748.54998799999998
  0
ARC
  8
_0-0_0
  6
CONTINUOUS
 62
    7
 10
-389.07217450000007
 20
748.54998799999998
 40
2.5
 50
0
 51
90.000003000000007
  0
LINE
  8
_0-0_0
  6
CONTINUOUS
 62
    7
 10
-420.07217450000007
 20
751.04998799999998
 11
-389.07217450000007
 21
751.04998799999998
  0
ARC
  8
_0-0_0
  6
CONTINUOUS
 62
    7
 10
-420.07217450000007
 20
748.54998799999998
 40
2.5
 50
90.000003000000007
 51
179.99999099999999
  0
LINE
  8
_0-0_0
  6
CONTINUOUS
 62
    7
 10
-440.07217450000007
 20
748.54998799999998
 11
-422.57217450000007
 21
748.54998799999998
  0
LINE
  8
_0-0_0
  6
CONTINUOUS
 62
    7
 10
-440.57217450000007
 20
748.54998799999998
 11
-440.07217450000007
 21
748.54998799999998
  0
LINE
  8
_0-0_0
  6
CONTINUOUS
 62
    7
 10
-441.27218650000009
 20
748.14999399999999
 11
-440.57217450000007
 21
748.14999399999999
  0
ARC
  8
_0-0_0
  6
CONTINUOUS
 62
    7
 10
-441.27218650000009
 20
747.84997599999997
 40
0.2999999999999999
 50
90.000003000000007
 51
179.99999099999999
  0
LINE
  8
_0-0_0
  6
CONTINUOUS
 62
    7
 10
-452.57217450000007
 20
770.97485400000005
 11
-452.57217450000007
 21
772.75
  0
LINE
  8
_0-0_0
  6
CONTINUOUS
 62
    7
 10
-447.57217450000007
 20
773.75
 11
-447.57217450000007
 21
773.25
  0
LINE
  8
_0-0_0
  6
CONTINUOUS
 62
    7
 10
-447.57217450000007
 20
769.80355800000007
 11
-447.57217450000007
 21
769.90853900000002
  0
LINE
  8
_0-0_0
  6
CONTINUOUS
 62
    7
 10
-447.57217450000007
 20
773.75
 11
-447.57217450000007
 21
775.24996899999996
  0
LINE
  8
_0-0_0
  6
CONTINUOUS
 62
    7
 10
-348.07217450000007
 20
775.24996899999996
 11
-348.07217450000007
 21
773.75
  0
LINE
  8
_0-0_0
  6
CONTINUOUS
 62
    7
 10
-348.07217450000007
 20
773.75
 11
-348.07217450000007
 21
772.75
  0
LINE
  8
_0-0_0
  6
CONTINUOUS
 62
    7
 10
-348.07217450000007
 20
771.94998199999998
 11
-348.07217450000007
 21
772.75
  0
LINE
  8
_0-0_0
  6
CONTINUOUS
 62
    7
 10
-348.57217450000007
 20
773.25
 11
-348.07217450000007
 21
773.25
  0
LINE
  8
_0-0_0
  6
CONTINUOUS
 62
    7
 10
-361.07217450000007
 20
773.25
 11
-348.57217450000007
 21
773.25
  0
LINE
  8
_0-0_0
  6
CONTINUOUS
 62
    7
 10
-348.07217450000007
 20
775.25
 11
-348.07217450000007
 21
774.25
  0
LINE
  8
_0-0_0
  6
CONTINUOUS
 62
    7
 10
-348.07217450000007
 20
773.75
 11
-348.07217450000007
 21
773.25
  0
LINE
  8
_0-0_0
  6
CONTINUOUS
 62
    7
 10
-348.07217450000007
 20
774.25
 11
-348.07217450000007
 21
773.75
  0
ARC
  8
_0-0_0
  6
CONTINUOUS
 62
    7
 10
-442.57217450000007
 20
771.75
 40
2
 50
179.99999099999999
 51
0
  0
LINE
  8
_0-0_0
  6
CONTINUOUS
 62
    7
 10
-361.57217450000007
 20
773.25
 11
-361.07217450000007
 21
773.25
  0
LINE
  8
_0-0_0
  6
CONTINUOUS
 62
    7
 10
-361.57217450000007
 20
772.75
 11
-361.57217450000007
 21
773.25
  0
LINE
  8
_0-0_0
  6
CONTINUOUS
 62
    7
 10
-361.57217450000007
 20
771.75
 11
-361.57217450000007
 21
771.94998199999998
  0
ARC
  8
_0-0_0
  6
CONTINUOUS
 62
    7
 10
-363.57217450000007
 20
771.75
 40
2
 50
179.99999099999999
 51
0
  0
LINE
  8
_0-0_0
  6
CONTINUOUS
 62
    7
 10
-365.57217450000007
 20
773.25
 11
-365.57217450000007
 21
771.75
  0
LINE
  8
_0-0_0
  6
CONTINUOUS
 62
    7
 10
-366.27218650000009
 20
773.25
 11
-365.57217450000007
 21
773.25
  0
LINE
  8
_0-0_0
  6
CONTINUOUS
 62
    7
 10
-440.57217450000007
 20
771.75
 11
-440.57217450000007
 21
773.25
  0
LINE
  8
_0-0_0
  6
CONTINUOUS
 62
    7
 10
-444.57217450000007
 20
774.25
 11
-348.07217450000007
 21
774.25
  0
ARC
  8
_0-0_0
  6
CONTINUOUS
 62
    7
 10
-439.87219249999998
 20
772.75
 40
0.5
 50
90.000003000000007
 51
179.99999099999999
  0
ARC
  8
_0-0_0
  6
CONTINUOUS
 62
    7
 10
-442.57217450000007
 20
771.75
 40
2.2000000000000002
 50
179.99999099999999
 51
0
  0
LINE
  8
_0-0_0
  6
CONTINUOUS
 62
    7
 10
-440.57217450000007
 20
748.14999399999999
 11
-440.07217450000007
 21
748.14999399999999
  0
LINE
  8
_0-0_0
  6
CONTINUOUS
 62
    7
 10
-440.07217450000007
 20
748.54998799999998
 11
-440.07217450000007
 21
748.14999399999999
  0
LINE
  8
_0-0_0
  6
CONTINUOUS
 62
    7
 10
-422.57217450000007
 20
748.54998799999998
 11
-386.57217450000007
 21
748.54998799999998
  0
LINE
  8
_0-0_0
  6
CONTINUOUS
 62
    7
 10
-373.07217450000007
 20
748.14999399999999
 11
-372.57217450000007
 21
748.14999399999999
  0
LINE
  8
_0-0_0
  6
CONTINUOUS
 62
    7
 10
-373.07217450000007
 20
748.54998799999998
 11
-373.07217450000007
 21
748.14999399999999
  0
LINE
  8
_0-0_0
  6
CONTINUOUS
 62
    7
 10
-362.07217450000007
 20
745.75
 11
-371.07217450000007
 21
745.75
  0
ARC
  8
_0-0_0
  6
CONTINUOUS
 62
    7
 10
-371.07217450000007
 20
746.25
 40
0.5
 50
179.99999099999999
 51
269.99999700000001
  0
LINE
  8
_0-0_0
  6
CONTINUOUS
 62
    7
 10
-362.07217450000007
 20
746.25
 11
-361.57217450000007
 21
746.25
  0
LINE
  8
_0-0_0
  6
CONTINUOUS
 62
    7
 10
-361.57217450000007
 20
746.25
 11
-361.57217450000007
 21
746.44998199999998
  0
LINE
  8
_0-0_0
  6
CONTINUOUS
 62
    7
 10
-357.07217450000007
 20
746.64999399999999
 11
-361.37219249999998
 21
746.64999399999999
  0
LINE
  8
_0-0_0
  6
CONTINUOUS
 62
    7
 10
-356.57217450000007
 20
747.14999399999999
 11
-356.57217450000007
 21
748.92511000000002
  0
ARC
  8
_0-0_0
  6
CONTINUOUS
 62
    7
 10
-359.62014750000003
 20
748.86898799999994
 40
3.0490550000000001
 50
1.0548960000000001
 51
14.838094000000002
  0
LINE
  8
_0-0_0
  6
CONTINUOUS
 62
    7
 10
-357.07217450000007
 20
749.84997599999997
 11
-361.43972750000012
 21
749.84997599999997
  0
LINE
  8
_0-0_0
  6
CONTINUOUS
 62
    7
 10
-361.57217450000007
 20
749.99142499999994
 11
-361.57217450000007
 21
750.33367900000007
  0
ARC
  8
_0-0_0
  6
CONTINUOUS
 62
    7
 10
-363.57217450000007
 20
771.75
 40
2.2000000000000002
 50
179.99999099999999
 51
303.74900400000001
  0
LINE
  8
_0-0_0
  6
CONTINUOUS
 62
    7
 10
-365.77218650000009
 20
772.75
 11
-365.77218650000009
 21
771.75
  0
LINE
  8
_0-0_0
  6
CONTINUOUS
 62
    7
 10
-366.27218650000009
 20
773.25
 11
-439.87219249999998
 21
773.25
  0
LINE
  8
_0-0_0
  6
CONTINUOUS
 62
    7
 10
-440.37219249999998
 20
771.75
 11
-440.37219249999998
 21
772.75
  0
LINE
  8
_0-0_0
  6
CONTINUOUS
 62
    7
 10
-439.87219249999998
 20
771.54998799999998
 11
-439.87219249999998
 21
771.75
  0
ARC
  8
_0-0_0
  6
CONTINUOUS
 62
    7
 10
-438.87219249999998
 20
771.54998799999998
 40
1
 50
90.000003000000007
 51
179.99999099999999
  0
LINE
  8
_0-0_0
  6
CONTINUOUS
 62
    7
 10
-438.87219249999998
 20
772.54998799999998
 11
-425.57217450000007
 21
772.54998799999998
  0
LINE
  8
_0-0_0
  6
CONTINUOUS
 62
    7
 10
-383.57217450000007
 20
772.54998799999998
 11
-369.57217450000007
 21
772.54998799999998
  0
ARC
  8
_0-0_0
  6
CONTINUOUS
 62
    7
 10
-369.57217450000007
 20
769.54998799999998
 40
3
 50
0
 51
90.000003000000007
  0
LINE
  8
_0-0_0
  6
CONTINUOUS
 62
    7
 10
-366.57217450000007
 20
755.94998199999998
 11
-366.57217450000007
 21
769.54998799999998
  0
ARC
  8
_0-0_0
  6
CONTINUOUS
 62
    7
 10
-369.57217450000007
 20
755.94998199999998
 40
3
 50
269.99999700000001
 51
0
  0
LINE
  8
_0-0_0
  6
CONTINUOUS
 62
    7
 10
-369.57217450000007
 20
752.94998199999998
 11
-383.57217450000007
 21
752.94998199999998
  0
LINE
  8
_0-0_0
  6
CONTINUOUS
 62
    7
 10
-425.57217450000007
 20
752.94998199999998
 11
-439.57217450000007
 21
752.94998199999998
  0
ARC
  8
_0-0_0
  6
CONTINUOUS
 62
    7
 10
-439.57217450000007
 20
755.94998199999998
 40
3
 50
179.99999099999999
 51
269.99999700000001
  0
LINE
  8
_0-0_0
  6
CONTINUOUS
 62
    7
 10
-442.57217450000007
 20
768.18768299999999
 11
-442.57217450000007
 21
755.94998199999998
  0
ARC
  8
_0-0_0
  6
CONTINUOUS
 62
    7
 10
-441.57217450000007
 20
768.18768299999999
 40
1
 50
105.68034800000001
 51
179.99999100000002
  0
ARC
  8
_0-0_0
  6
CONTINUOUS
 62
    7
 10
-449.52420050000001
 20
771.03097500000001
 40
3.0490550000000001
 50
181.05489
 51
194.838089
  0
LINE
  8
_0-0_0
  6
CONTINUOUS
 62
    7
 10
-447.70465150000018
 20
770.04998799999998
 11
-452.07217450000007
 21
770.04998799999998
  0
LINE
  8
_0-0_0
  6
CONTINUOUS
 62
    7
 10
-447.57217450000007
 20
749.99142499999994
 11
-447.57217450000007
 21
750.096405
  0
LINE
  8
_0-0_0
  6
CONTINUOUS
 62
    7
 10
-447.70465150000018
 20
749.84997599999997
 11
-452.07217450000007
 21
749.84997599999997
  0
ARC
  8
_0-0_0
  6
CONTINUOUS
 62
    7
 10
-449.52304049999998
 20
748.86834700000009
 40
3.050319
 50
165.15540799999999
 51
178.932897
  0
LINE
  8
_0-0_0
  6
CONTINUOUS
 62
    7
 10
-452.57217450000007
 20
747.14999399999999
 11
-452.57217450000007
 21
748.92511000000002
  0
LINE
  8
_0-0_0
  6
CONTINUOUS
 62
    7
 10
-447.77218650000009
 20
746.64999399999999
 11
-452.07217450000007
 21
746.64999399999999
  0
LINE
  8
_0-0_0
  6
CONTINUOUS
 62
    7
 10
-447.57217450000007
 20
746.25
 11
-447.57217450000007
 21
746.44998199999998
  0
LINE
  8
_0-0_0
  6
CONTINUOUS
 62
    7
 10
-447.57217450000007
 20
746.25
 11
-447.07217450000007
 21
746.25
  0
LINE
  8
_0-0_0
  6
CONTINUOUS
 62
    7
 10
-442.07217450000007
 20
745.75
 11
-447.07217450000007
 21
745.75
  0
ARC
  8
_0-0_0
  6
CONTINUOUS
 62
    7
 10
-442.07217450000007
 20
746.25
 40
0.5
 50
269.99999700000001
 51
0
  0
LINE
  8
_0-0_0
  6
CONTINUOUS
 62
    7
 10
-452.25393650000001
 20
770.04998799999998
 11
-452.27426149999997
 21
770.05099500000006
  0
LINE
  8
_0-0_0
  6
CONTINUOUS
 62
    7
 10
-452.27426149999997
 20
770.05099500000006
 11
-452.29470850000007
 21
770.05413799999997
  0
LINE
  8
_0-0_0
  6
CONTINUOUS
 62
    7
 10
-452.29470850000007
 20
770.05413799999997
 11
-452.32150249999995
 21
770.06173699999999
  0
LINE
  8
_0-0_0
  6
CONTINUOUS
 62
    7
 10
-452.32150249999995
 20
770.06173699999999
 11
-452.34713749999992
 21
770.07312000000002
  0
LINE
  8
_0-0_0
  6
CONTINUOUS
 62
    7
 10
-452.34713749999992
 20
770.07312000000002
 11
-452.37094150000007
 21
770.08798200000001
  0
LINE
  8
_0-0_0
  6
CONTINUOUS
 62
    7
 10
-452.37094150000007
 20
770.08798200000001
 11
-452.38772549999999
 21
770.10150099999998
  0
LINE
  8
_0-0_0
  6
CONTINUOUS
 62
    7
 10
-452.38772549999999
 20
770.10150099999998
 11
-452.40322850000007
 21
770.11672999999996
  0
LINE
  8
_0-0_0
  6
CONTINUOUS
 62
    7
 10
-452.40322850000007
 20
770.11672999999996
 11
-452.43011449999995
 21
770.15136699999994
  0
LINE
  8
_0-0_0
  6
CONTINUOUS
 62
    7
 10
-452.43011449999995
 20
770.15136699999994
 11
-452.45114150000018
 21
770.18969700000002
  0
LINE
  8
_0-0_0
  6
CONTINUOUS
 62
    7
 10
-452.45114150000018
 20
770.18969700000002
 11
-452.46316550000006
 21
770.21963499999993
  0
LINE
  8
_0-0_0
  6
CONTINUOUS
 62
    7
 10
-452.46316550000006
 20
770.21963499999993
 11
-452.4721985000001
 21
770.25
  0
LINE
  8
_0-0_0
  6
CONTINUOUS
 62
    7
 10
-452.56100450000008
 20
770.75
 11
-459.57217450000007
 21
770.75
  0
LINE
  8
_0-0_0
  6
CONTINUOUS
 62
    7
 10
-459.57217450000007
 20
770.75
 11
-464.24765049999996
 21
770.75
  0
LINE
  8
_0-0_0
  6
CONTINUOUS
 62
    7
 10
-459.57217450000007
 20
770.75
 11
-459.57217450000007
 21
768.75
  0
LINE
  8
_0-0_0
  6
CONTINUOUS
 62
    7
 10
-447.57217450000007
 20
768.75
 11
-447.57217450000007
 21
769.80355800000007
  0
ARC
  8
_0-0_0
  6
CONTINUOUS
 62
    7
 10
-348.57217450000007
 20
771.94998199999998
 40
0.5
 50
269.99999700000001
 51
0
  0
ARC
  8
_0-0_0
  6
CONTINUOUS
 62
    7
 10
-361.07217450000007
 20
772.75
 40
0.5
 50
90.000003000000007
 51
179.99999099999999
  0
LINE
  8
_0-0_0
  6
CONTINUOUS
 62
    7
 10
-361.57217450000007
 20
771.94998199999998
 11
-361.57217450000007
 21
772.75
  0
LINE
  8
_0-0_0
  6
CONTINUOUS
 62
    7
 10
-441.37219249999998
 20
748.13284299999998
 11
-441.37219249999998
 21
746.14999399999999
  0
LINE
  8
_0-0_0
  6
CONTINUOUS
 62
    7
 10
-441.37219249999998
 20
746.14999399999999
 11
-440.37219249999998
 21
746.14999399999999
  0
LINE
  8
_0-0_0
  6
CONTINUOUS
 62
    7
 10
-440.07217450000007
 20
748.14999399999999
 11
-373.07217450000007
 21
748.14999399999999
  0
LINE
  8
_0-0_0
  6
CONTINUOUS
 62
    7
 10
-440.37219249999998
 20
746.14999399999999
 11
-372.77218650000009
 21
746.14999399999999
  0
LINE
  8
_0-0_0
  6
CONTINUOUS
 62
    7
 10
-372.77218650000009
 20
746.14999399999999
 11
-371.77218650000009
 21
746.14999399999999
  0
LINE
  8
_0-0_0
  6
CONTINUOUS
 62
    7
 10
-371.77218650000009
 20
748.13284299999998
 11
-371.77218650000009
 21
746.14999399999999
  0
LINE
  8
_0-0_0
  6
CONTINUOUS
 62
    7
 10
-361.57217450000007
 20
746.25
 11
-362.07217450000007
 21
745.75
  0
ARC
  8
_0-0_0
  6
CONTINUOUS
 62
    7
 10
-361.37219249999998
 20
746.44998199999998
 40
0.2
 50
90.000003000000007
 51
179.99999099999999
  0
ARC
  8
_0-0_0
  6
CONTINUOUS
 62
    7
 10
-357.07217450000007
 20
747.14999399999999
 40
0.5
 50
269.99999700000001
 51
0
  0
LINE
  8
_0-0_0
  6
CONTINUOUS
 62
    7
 10
-356.89044250000006
 20
749.84997599999997
 11
-356.87008650000007
 21
749.84896900000001
  0
LINE
  8
_0-0_0
  6
CONTINUOUS
 62
    7
 10
-356.87008650000007
 20
749.84896900000001
 11
-356.84970150000004
 21
749.84582499999999
  0
LINE
  8
_0-0_0
  6
CONTINUOUS
 62
    7
 10
-356.84970150000004
 20
749.84582499999999
 11
-356.82284550000008
 21
749.83822600000008
  0
LINE
  8
_0-0_0
  6
CONTINUOUS
 62
    7
 10
-356.82284550000008
 20
749.83822600000008
 11
-356.79721050000012
 21
749.82687399999998
  0
LINE
  8
_0-0_0
  6
CONTINUOUS
 62
    7
 10
-356.79721050000012
 20
749.82687399999998
 11
-356.77340750000008
 21
749.81198100000006
  0
LINE
  8
_0-0_0
  6
CONTINUOUS
 62
    7
 10
-356.77340750000008
 20
749.81198100000006
 11
-356.75668350000001
 21
749.79846199999997
  0
LINE
  8
_0-0_0
  6
CONTINUOUS
 62
    7
 10
-356.75668350000001
 20
749.79846199999997
 11
-356.74118050000016
 21
749.78326399999992
  0
LINE
  8
_0-0_0
  6
CONTINUOUS
 62
    7
 10
-356.74118050000016
 20
749.78326399999992
 11
-356.71426450000013
 21
749.74859600000002
  0
LINE
  8
_0-0_0
  6
CONTINUOUS
 62
    7
 10
-356.71426450000013
 20
749.74859600000002
 11
-356.69320650000009
 21
749.71026600000005
  0
LINE
  8
_0-0_0
  6
CONTINUOUS
 62
    7
 10
-356.69320650000009
 20
749.71026600000005
 11
-356.68124450000005
 21
749.68035899999995
  0
LINE
  8
_0-0_0
  6
CONTINUOUS
 62
    7
 10
-356.68124450000005
 20
749.68035899999995
 11
-356.67218049999997
 21
749.64999399999999
  0
LINE
  8
_0-0_0
  6
CONTINUOUS
 62
    7
 10
-356.89044250000006
 20
749.84997599999997
 11
-357.07217450000007
 21
749.84997599999997
  0
LINE
  8
_0-0_0
  6
CONTINUOUS
 62
    7
 10
-361.57217450000007
 20
768.29998799999998
 11
-361.57217450000007
 21
770.79998799999998
  0
LINE
  8
_0-0_0
  6
CONTINUOUS
 62
    7
 10
-361.57217450000007
 20
768.29998799999998
 11
-361.57217450000007
 21
751.79998799999998
  0
LINE
  8
_0-0_0
  6
CONTINUOUS
 62
    7
 10
-361.57217450000007
 20
750.33367900000007
 11
-361.57217450000007
 21
751.79998799999998
  0
ARC
  8
_0-0_0
  6
CONTINUOUS
 62
    7
 10
-362.07217450000007
 20
769.50500499999998
 40
0.5
 50
0
 51
123.74898500000002
  0
ARC
  8
_0-0_0
  6
CONTINUOUS
 62
    7
 10
-361.40188650000005
 20
750.02328499999999
 40
0.1734229999999999
 50
181.12417600000003
 51
270.64883800000007
  0
LINE
  8
_0-0_0
  6
CONTINUOUS
 62
    7
 10
-361.57623349999994
 20
750.04998799999998
 11
-361.57614150000018
 21
750.01986699999998
  0
ARC
  8
_0-0_0
  6
CONTINUOUS
 62
    7
 10
-366.27218650000009
 20
772.75
 40
0.5
 50
0
 51
90.000003000000007
  0
ARC
  8
_0-0_0
  6
CONTINUOUS
 62
    7
 10
-442.57217450000007
 20
771.75
 40
2.7000000000000002
 50
285.68033600000007
 51
0.0000000000000381
  0
ARC
  8
_0-0_0
  6
CONTINUOUS
 62
    7
 10
-425.57217450000007
 20
755.94998199999998
 40
3
 50
269.99999700000001
 51
0
  0
LINE
  8
_0-0_0
  6
CONTINUOUS
 62
    7
 10
-422.57217450000007
 20
755.94998199999998
 11
-422.57217450000007
 21
769.54998799999998
  0
ARC
  8
_0-0_0
  6
CONTINUOUS
 62
    7
 10
-425.57217450000007
 20
769.54998799999998
 40
3
 50
0
 51
90.000003000000007
  0
ARC
  8
_0-0_0
  6
CONTINUOUS
 62
    7
 10
-430.07217450000007
 20
765.25
 40
4.5
 50
269.99999700000001
 51
90.000002999999992
  0
LINE
  8
_0-0_0
  6
CONTINUOUS
 62
    7
 10
-430.07217450000007
 20
760.75
 11
-435.07217450000007
 21
760.75
  0
ARC
  8
_0-0_0
  6
CONTINUOUS
 62
    7
 10
-435.07217450000007
 20
765.25
 40
4.5
 50
90.000003000000007
 51
269.99999700000006
  0
LINE
  8
_0-0_0
  6
CONTINUOUS
 62
    7
 10
-435.07217450000007
 20
769.75
 11
-430.07217450000007
 21
769.75
  0
ARC
  8
_0-0_0
  6
CONTINUOUS
 62
    7
 10
-383.57217450000007
 20
755.94998199999998
 40
3
 50
179.99999099999999
 51
269.99999700000001
  0
LINE
  8
_0-0_0
  6
CONTINUOUS
 62
    7
 10
-386.57217450000007
 20
769.54998799999998
 11
-386.57217450000007
 21
755.94998199999998
  0
ARC
  8
_0-0_0
  6
CONTINUOUS
 62
    7
 10
-383.57217450000007
 20
769.54998799999998
 40
3
 50
90.000003000000007
 51
179.99999099999999
  0
ARC
  8
_0-0_0
  6
CONTINUOUS
 62
    7
 10
-374.07217450000007
 20
765.25
 40
4.5
 50
269.99999700000001
 51
90.000002999999992
  0
LINE
  8
_0-0_0
  6
CONTINUOUS
 62
    7
 10
-374.07217450000007
 20
760.75
 11
-379.07217450000007
 21
760.75
  0
ARC
  8
_0-0_0
  6
CONTINUOUS
 62
    7
 10
-379.07217450000007
 20
765.25
 40
4.5
 50
90.000003000000007
 51
269.99999700000006
  0
LINE
  8
_0-0_0
  6
CONTINUOUS
 62
    7
 10
-379.07217450000007
 20
769.75
 11
-374.07217450000007
 21
769.75
  0
LINE
  8
_0-0_0
  6
CONTINUOUS
 62
    7
 10
-452.07217450000007
 20
770.04998799999998
 11
-452.25393650000001
 21
770.04998799999998
  0
LINE
  8
_0-0_0
  6
CONTINUOUS
 62
    7
 10
-447.57217450000007
 20
768.75
 11
-447.57217450000007
 21
751.14999399999999
  0
LINE
  8
_0-0_0
  6
CONTINUOUS
 62
    7
 10
-447.57217450000007
 20
750.096405
 11
-447.57217450000007
 21
751.14999399999999
  0
ARC
  8
_0-0_0
  6
CONTINUOUS
 62
    7
 10
-447.7424625000001
 20
750.02328499999999
 40
0.1734209999999999
 50
269.35085600000002
 51
358.87625300000002
  0
LINE
  8
_0-0_0
  6
CONTINUOUS
 62
    7
 10
-447.5681454999999
 20
750.04998799999998
 11
-447.56820650000009
 21
750.01986699999998
  0
LINE
  8
_0-0_0
  6
CONTINUOUS
 62
    7
 10
-447.5681454999999
 20
769.84997599999997
 11
-447.56820650000009
 21
769.88012700000002
  0
ARC
  8
_0-0_0
  6
CONTINUOUS
 62
    7
 10
-447.7424625000001
 20
769.87670900000001
 40
0.1734219999999999
 50
1.1236539999999999
 51
90.649110000000007
  0
LINE
  8
_0-0_0
  6
CONTINUOUS
 62
    7
 10
-452.07217450000007
 20
749.84997599999997
 11
-452.25393650000001
 21
749.84997599999997
  0
LINE
  8
_0-0_0
  6
CONTINUOUS
 62
    7
 10
-452.25393650000001
 20
749.84997599999997
 11
-452.27426149999997
 21
749.84896900000001
  0
LINE
  8
_0-0_0
  6
CONTINUOUS
 62
    7
 10
-452.27426149999997
 20
749.84896900000001
 11
-452.29470850000007
 21
749.84582499999999
  0
LINE
  8
_0-0_0
  6
CONTINUOUS
 62
    7
 10
-452.29470850000007
 20
749.84582499999999
 11
-452.32150249999995
 21
749.83822600000008
  0
LINE
  8
_0-0_0
  6
CONTINUOUS
 62
    7
 10
-452.32150249999995
 20
749.83822600000008
 11
-452.34713749999992
 21
749.82687399999998
  0
LINE
  8
_0-0_0
  6
CONTINUOUS
 62
    7
 10
-452.34713749999992
 20
749.82687399999998
 11
-452.37094150000007
 21
749.81198100000006
  0
LINE
  8
_0-0_0
  6
CONTINUOUS
 62
    7
 10
-452.37094150000007
 20
749.81198100000006
 11
-452.38772549999999
 21
749.79846199999997
  0
LINE
  8
_0-0_0
  6
CONTINUOUS
 62
    7
 10
-452.38772549999999
 20
749.79846199999997
 11
-452.40322850000007
 21
749.78326399999992
  0
LINE
  8
_0-0_0
  6
CONTINUOUS
 62
    7
 10
-452.40322850000007
 20
749.78326399999992
 11
-452.43011449999995
 21
749.74859600000002
  0
LINE
  8
_0-0_0
  6
CONTINUOUS
 62
    7
 10
-452.43011449999995
 20
749.74859600000002
 11
-452.45114150000018
 21
749.71026600000005
  0
LINE
  8
_0-0_0
  6
CONTINUOUS
 62
    7
 10
-452.45114150000018
 20
749.71026600000005
 11
-452.46316550000006
 21
749.68035899999995
  0
LINE
  8
_0-0_0
  6
CONTINUOUS
 62
    7
 10
-452.46316550000006
 20
749.68035899999995
 11
-452.4721985000001
 21
749.64999399999999
  0
ARC
  8
_0-0_0
  6
CONTINUOUS
 62
    7
 10
-452.07217450000007
 20
747.14999399999999
 40
0.5
 50
179.99999099999999
 51
269.99999700000001
  0
ARC
  8
_0-0_0
  6
CONTINUOUS
 62
    7
 10
-447.77218650000009
 20
746.44998199999998
 40
0.2
 50
0
 51
90.000003000000007
  0
LINE
  8
_0-0_0
  6
CONTINUOUS
 62
    7
 10
-447.57217450000007
 20
746.25
 11
-447.07217450000007
 21
745.75
  0
ARC
  8
_0-0_0
  6
CONTINUOUS
 62
    7
 10
-464.24765049999996
 20
768.75
 40
2
 50
90.000003000000007
 51
108.434997
  0
LINE
  8
_0-0_0
  6
CONTINUOUS
 62
    7
 10
-459.57217450000007
 20
768.25
 11
-459.57217450000007
 21
768.75
  0
LINE
  8
_0-0_0
  6
CONTINUOUS
 62
    7
 10
-459.57217450000007
 20
765.25
 11
-459.57217450000007
 21
764.75
  0
LINE
  8
_0-0_0
  6
CONTINUOUS
 62
    7
 10
-459.57217450000007
 20
765.25
 11
-459.57217450000007
 21
768.25
  0
ARC
  8
_0-0_0
  6
CONTINUOUS
 62
    7
 10
-453.57217450000007
 20
765.44998199999998
 40
0.500016
 50
0.001164
 51
179.99560600000004
  0
LINE
  8
_0-0_0
  6
CONTINUOUS
 62
    7
 10
-454.07217450000007
 20
765.44998199999998
 11
-454.07217450000007
 21
753.44998199999998
  0
ARC
  8
_0-0_0
  6
CONTINUOUS
 62
    7
 10
-453.57217450000007
 20
753.45001200000002
 40
0.500016
 50
180.00117
 51
359.995611
  0
LINE
  8
_0-0_0
  6
CONTINUOUS
 62
    7
 10
-453.07217450000007
 20
765.44998199999998
 11
-453.07217450000007
 21
753.44998199999998
  0
ARC
  8
_0-0_0
  6
CONTINUOUS
 62
    7
 10
-455.07217450000007
 20
765.44998199999998
 40
0.500016
 50
0.001164
 51
179.99560600000004
  0
LINE
  8
_0-0_0
  6
CONTINUOUS
 62
    7
 10
-455.57217450000007
 20
765.44998199999998
 11
-455.57217450000007
 21
753.44998199999998
  0
ARC
  8
_0-0_0
  6
CONTINUOUS
 62
    7
 10
-455.07217450000007
 20
753.45001200000002
 40
0.500016
 50
180.00117
 51
359.995611
  0
LINE
  8
_0-0_0
  6
CONTINUOUS
 62
    7
 10
-454.57217450000007
 20
765.44998199999998
 11
-454.57217450000007
 21
753.44998199999998
  0
ARC
  8
_0-0_0
  6
CONTINUOUS
 62
    7
 10
-456.57217450000007
 20
765.44998199999998
 40
0.500016
 50
0.001164
 51
179.99560600000004
  0
LINE
  8
_0-0_0
  6
CONTINUOUS
 62
    7
 10
-457.07217450000007
 20
765.44998199999998
 11
-457.07217450000007
 21
753.44998199999998
  0
ARC
  8
_0-0_0
  6
CONTINUOUS
 62
    7
 10
-456.57217450000007
 20
753.45001200000002
 40
0.500016
 50
180.00117
 51
359.995611
  0
LINE
  8
_0-0_0
  6
CONTINUOUS
 62
    7
 10
-456.07217450000007
 20
765.44998199999998
 11
-456.07217450000007
 21
753.44998199999998
  0
ARC
  8
_0-0_0
  6
CONTINUOUS
 62
    7
 10
-458.07217450000007
 20
765.44998199999998
 40
0.500016
 50
0.001164
 51
179.99560600000004
  0
LINE
  8
_0-0_0
  6
CONTINUOUS
 62
    7
 10
-458.57217450000007
 20
765.44998199999998
 11
-458.57217450000007
 21
753.44998199999998
  0
ARC
  8
_0-0_0
  6
CONTINUOUS
 62
    7
 10
-458.07217450000007
 20
753.45001200000002
 40
0.500016
 50
180.00117
 51
359.995611
  0
LINE
  8
_0-0_0
  6
CONTINUOUS
 62
    7
 10
-457.57217450000007
 20
765.44998199999998
 11
-457.57217450000007
 21
753.44998199999998
  0
LINE
  8
_0-0_0
  6
CONTINUOUS
 62
    7
 10
-361.57217450000007
 20
771.44998199999998
 11
-361.07217450000007
 21
771.44998199999998
  0
LINE
  8
_0-0_0
  6
CONTINUOUS
 62
    7
 10
-361.07217450000007
 20
771.44998199999998
 11
-348.57217450000007
 21
771.44998199999998
  0
ARC
  8
_0-0_0
  6
CONTINUOUS
 62
    7
 10
-361.07217450000007
 20
771.94998199999998
 40
0.5
 50
179.99999099999999
 51
269.99999700000001
  0
LINE
  8
_0-0_0
  6
CONTINUOUS
 62
    7
 10
-361.57217450000007
 20
771.08395399999995
 11
-361.57217450000007
 21
771.44998199999998
  0
LINE
  8
_0-0_0
  6
CONTINUOUS
 62
    7
 10
-361.57217450000007
 20
770.83346600000004
 11
-361.57217450000007
 21
770.79998799999998
  0
LINE
  8
_0-0_0
  6
CONTINUOUS
 62
    7
 10
-361.57217450000007
 20
771.08395399999995
 11
-361.57217450000007
 21
770.83346600000004
  0
CIRCLE
  8
_0-0_0
  6
CONTINUOUS
 62
    7
 10
-442.57217450000007
 20
771.75
 40
1.4750000000000001
  0
CIRCLE
  8
_0-0_0
  6
CONTINUOUS
 62
    7
 10
-363.57217450000007
 20
771.75
 40
1.4750000000000001
  0
LINE
  8
_0-0_0
  6
CONTINUOUS
 62
    7
 10
-361.57217450000007
 20
746.09997599999997
 11
-361.57217450000007
 21
746.25
  0
LINE
  8
_0-0_0
  6
CONTINUOUS
 62
    7
 10
-356.07217450000007
 20
746.09997599999997
 11
-361.57217450000007
 21
746.09997599999997
  0
LINE
  8
_0-0_0
  6
CONTINUOUS
 62
    7
 10
-356.07217450000007
 20
748.64999399999999
 11
-356.57217450000007
 21
748.64999399999999
  0
LINE
  8
_0-0_0
  6
CONTINUOUS
 62
    7
 10
-361.07217450000007
 20
771.29998799999998
 11
-361.57217450000007
 21
770.79998799999998
  0
LINE
  8
_0-0_0
  6
CONTINUOUS
 62
    7
 10
-361.07217450000007
 20
771.29998799999998
 11
-356.07217450000007
 21
771.29998799999998
  0
LINE
  8
_0-0_0
  6
CONTINUOUS
 62
    7
 10
-452.56100450000008
 20
749.14999399999999
 11
-464.24765049999996
 21
749.14999399999999
  0
LINE
  8
_0-0_0
  6
CONTINUOUS
 62
    7
 10
-465.32217450000007
 20
770.49996899999996
 11
-464.88009650000004
 21
770.64733899999999
  0
LINE
  8
_0-0_0
  6
CONTINUOUS
 62
    7
 10
-469.04653950000011
 20
765.25
 11
-469.73989849999998
 21
765.25
  0
LINE
  8
_0-0_0
  6
CONTINUOUS
 62
    7
 10
-469.04653950000011
 20
765.25
 11
-464.72195450000004
 21
765.25
  0
LINE
  8
_0-0_0
  6
CONTINUOUS
 62
    7
 10
-464.24765049999996
 20
765.25
 11
-464.72195450000004
 21
765.25
  0
LINE
  8
_0-0_0
  6
CONTINUOUS
 62
    7
 10
-459.57217450000007
 20
765.25
 11
-464.24765049999996
 21
765.25
  0
LINE
  8
_0-0_0
  6
CONTINUOUS
 62
    7
 10
-361.57217450000007
 20
745.95355199999995
 11
-361.57217450000007
 21
746.09997599999997
  0
LINE
  8
_0-0_0
  6
CONTINUOUS
 62
    7
 10
-361.57217450000007
 20
745.89642300000003
 11
-361.57217450000007
 21
745.95355199999995
  0
LINE
  8
_0-0_0
  6
CONTINUOUS
 62
    7
 10
-361.57217450000007
 20
745.75
 11
-361.57217450000007
 21
745.89642300000003
  0
ARC
  8
_0-0_0
  6
CONTINUOUS
 62
    7
 10
-356.07217450000007
 20
746.59997599999997
 40
0.5
 50
269.99999700000001
 51
0
  0
LINE
  8
_0-0_0
  6
CONTINUOUS
 62
    7
 10
-355.57217450000007
 20
748.15570100000002
 11
-355.57217450000007
 21
746.59997599999997
  0
ARC
  8
_0-0_0
  6
CONTINUOUS
 62
    7
 10
-356.05911250000008
 20
748.15234400000008
 40
0.4869939999999999
 50
0.394923
 51
23.93947
  0
ARC
  8
_0-0_0
  6
CONTINUOUS
 62
    7
 10
-356.07217450000007
 20
748.14999399999999
 40
0.5
 50
23.578231000000002
 51
90.000002999999992
  0
LINE
  8
_0-0_0
  6
CONTINUOUS
 62
    7
 10
-355.57217450000007
 20
768.29998799999998
 11
-355.57217450000007
 21
770.79998799999998
  0
ARC
  8
_0-0_0
  6
CONTINUOUS
 62
    7
 10
-356.07217450000007
 20
770.79998799999998
 40
0.5
 50
0
 51
90.000003000000007
  0
LINE
  8
_0-0_0
  6
CONTINUOUS
 62
    7
 10
-356.07217450000007
 20
755
 11
-358.27218650000009
 21
755
  0
LINE
  8
_0-0_0
  6
CONTINUOUS
 62
    7
 10
-355.57217450000007
 20
768.29998799999998
 11
-355.57217450000007
 21
755.5
  0
LINE
  8
_0-0_0
  6
CONTINUOUS
 62
    7
 10
-358.57217450000007
 20
754.69998199999998
 11
-358.57217450000007
 21
752.12167399999998
  0
LINE
  8
_0-0_0
  6
CONTINUOUS
 62
    7
 10
-428.60064749999992
 20
761.14999399999999
 11
-436.54373149999992
 21
761.14999399999999
  0
ARC
  8
_0-0_0
  6
CONTINUOUS
 62
    7
 10
-436.54373149999992
 20
761.64999399999999
 40
0.5
 50
210.00000299999999
 51
269.99999700000001
  0
LINE
  8
_0-0_0
  6
CONTINUOUS
 62
    7
 10
-436.97674550000011
 20
761.39999399999999
 11
-439.05520650000017
 21
765
  0
ARC
  8
_0-0_0
  6
CONTINUOUS
 62
    7
 10
-438.62219249999998
 20
765.25
 40
0.5
 50
149.99999700000001
 51
210.00000299999996
  0
LINE
  8
_0-0_0
  6
CONTINUOUS
 62
    7
 10
-439.05520650000017
 20
765.5
 11
-436.97674550000011
 21
769.09997599999997
  0
ARC
  8
_0-0_0
  6
CONTINUOUS
 62
    7
 10
-436.54373149999992
 20
768.84997599999997
 40
0.5
 50
90.000003000000007
 51
149.99999700000001
  0
LINE
  8
_0-0_0
  6
CONTINUOUS
 62
    7
 10
-436.54373149999992
 20
769.34997599999997
 11
-428.60064749999992
 21
769.34997599999997
  0
ARC
  8
_0-0_0
  6
CONTINUOUS
 62
    7
 10
-428.60064749999992
 20
768.84997599999997
 40
0.5
 50
30.000001000000001
 51
90.000003000000007
  0
LINE
  8
_0-0_0
  6
CONTINUOUS
 62
    7
 10
-428.16763349999997
 20
769.09997599999997
 11
-426.08917250000013
 21
765.5
  0
ARC
  8
_0-0_0
  6
CONTINUOUS
 62
    7
 10
-426.52218650000009
 20
765.25
 40
0.5
 50
329.99998900000003
 51
30.000000999999983
  0
LINE
  8
_0-0_0
  6
CONTINUOUS
 62
    7
 10
-426.08917250000013
 20
765
 11
-428.16763349999997
 21
761.39999399999999
  0
ARC
  8
_0-0_0
  6
CONTINUOUS
 62
    7
 10
-428.60064749999992
 20
761.64999399999999
 40
0.5
 50
269.99999700000001
 51
329.99998900000003
  0
ARC
  8
_0-0_0
  6
CONTINUOUS
 62
    7
 10
-380.60147150000012
 20
761.75
 40
0.5
 50
210.00000299999999
 51
269.99999700000001
  0
LINE
  8
_0-0_0
  6
CONTINUOUS
 62
    7
 10
-381.03445450000004
 20
761.5
 11
-383.05520650000017
 21
765
  0
ARC
  8
_0-0_0
  6
CONTINUOUS
 62
    7
 10
-382.62219249999998
 20
765.25
 40
0.5
 50
149.99999700000001
 51
210.00000299999996
  0
LINE
  8
_0-0_0
  6
CONTINUOUS
 62
    7
 10
-383.05520650000017
 20
765.5
 11
-381.03445450000004
 21
769
  0
ARC
  8
_0-0_0
  6
CONTINUOUS
 62
    7
 10
-380.60147150000012
 20
768.75
 40
0.5
 50
90.000003000000007
 51
149.99999700000001
  0
LINE
  8
_0-0_0
  6
CONTINUOUS
 62
    7
 10
-380.60147150000012
 20
769.25
 11
-372.54290750000018
 21
769.25
  0
ARC
  8
_0-0_0
  6
CONTINUOUS
 62
    7
 10
-372.54290750000018
 20
768.75
 40
0.5
 50
30.000001000000001
 51
90.000003000000007
  0
LINE
  8
_0-0_0
  6
CONTINUOUS
 62
    7
 10
-372.1098935
 20
769
 11
-370.08917250000013
 21
765.5
  0
ARC
  8
_0-0_0
  6
CONTINUOUS
 62
    7
 10
-370.52218650000009
 20
765.25
 40
0.5
 50
329.99998900000003
 51
30.000000999999983
  0
LINE
  8
_0-0_0
  6
CONTINUOUS
 62
    7
 10
-370.08917250000013
 20
765
 11
-372.1098935
 21
761.5
  0
ARC
  8
_0-0_0
  6
CONTINUOUS
 62
    7
 10
-372.54290750000018
 20
761.75
 40
0.5
 50
269.99999700000001
 51
329.99998900000003
  0
LINE
  8
_0-0_0
  6
CONTINUOUS
 62
    7
 10
-372.54290750000018
 20
761.25
 11
-380.60147150000012
 21
761.25
  0
LINE
  8
_0-0_0
  6
CONTINUOUS
 62
    7
 10
-464.88009650000004
 20
749.25262500000008
 11
-464.76058950000015
 21
749.21701000000007
  0
LINE
  8
_0-0_0
  6
CONTINUOUS
 62
    7
 10
-464.76058950000015
 20
749.21701000000007
 11
-464.63903849999997
 21
749.18911700000001
  0
LINE
  8
_0-0_0
  6
CONTINUOUS
 62
    7
 10
-464.63903849999997
 20
749.18911700000001
 11
-464.51589950000016
 21
749.16906700000004
  0
LINE
  8
_0-0_0
  6
CONTINUOUS
 62
    7
 10
-464.51589950000016
 20
749.16906700000004
 11
-464.39169349999997
 21
749.15695200000005
  0
LINE
  8
_0-0_0
  6
CONTINUOUS
 62
    7
 10
-464.39169349999997
 20
749.15695200000005
 11
-464.26687650000008
 21
749.15283199999999
  0
LINE
  8
_0-0_0
  6
CONTINUOUS
 62
    7
 10
-464.26687650000008
 20
749.15283199999999
 11
-464.24765049999996
 21
749.15289299999995
  0
ARC
  8
_0-0_0
  6
CONTINUOUS
 62
    7
 10
-464.24765049999996
 20
751.14999399999999
 40
2
 50
251.56498899999997
 51
269.99999700000001
  0
LINE
  8
_0-0_0
  6
CONTINUOUS
 62
    7
 10
-470.57217450000007
 20
766.00003100000004
 11
-470.57217450000007
 21
764.87899800000002
  0
LINE
  8
_0-0_0
  6
CONTINUOUS
 62
    7
 10
-442.37219249999998
 20
770.64999399999999
 11
-442.77218650000009
 21
770.64999399999999
  0
LINE
  8
_0-0_0
  6
CONTINUOUS
 62
    7
 10
-442.37219249999998
 20
770.64999399999999
 11
-442.37219249999998
 21
771.29998799999998
  0
ARC
  8
_0-0_0
  6
CONTINUOUS
 62
    7
 10
-442.12219249999998
 20
771.29998799999998
 40
0.25
 50
90.000003000000007
 51
179.99999099999999
  0
LINE
  8
_0-0_0
  6
CONTINUOUS
 62
    7
 10
-442.12219249999998
 20
771.54998799999998
 11
-441.4721985000001
 21
771.54998799999998
  0
LINE
  8
_0-0_0
  6
CONTINUOUS
 62
    7
 10
-441.4721985000001
 20
771.54998799999998
 11
-441.4721985000001
 21
771.94998199999998
  0
LINE
  8
_0-0_0
  6
CONTINUOUS
 62
    7
 10
-442.12219249999998
 20
771.94998199999998
 11
-441.4721985000001
 21
771.94998199999998
  0
ARC
  8
_0-0_0
  6
CONTINUOUS
 62
    7
 10
-442.12219249999998
 20
772.19998199999998
 40
0.25
 50
179.99999099999999
 51
269.99999700000001
  0
LINE
  8
_0-0_0
  6
CONTINUOUS
 62
    7
 10
-442.37219249999998
 20
772.84997599999997
 11
-442.37219249999998
 21
772.19998199999998
  0
LINE
  8
_0-0_0
  6
CONTINUOUS
 62
    7
 10
-442.37219249999998
 20
772.84997599999997
 11
-442.77218650000009
 21
772.84997599999997
  0
LINE
  8
_0-0_0
  6
CONTINUOUS
 62
    7
 10
-442.77218650000009
 20
772.84997599999997
 11
-442.77218650000009
 21
772.19998199999998
  0
ARC
  8
_0-0_0
  6
CONTINUOUS
 62
    7
 10
-443.02218650000009
 20
772.19998199999998
 40
0.25
 50
269.99999700000001
 51
0
  0
LINE
  8
_0-0_0
  6
CONTINUOUS
 62
    7
 10
-443.02218650000009
 20
771.94998199999998
 11
-443.67221050000012
 21
771.94998199999998
  0
LINE
  8
_0-0_0
  6
CONTINUOUS
 62
    7
 10
-443.67221050000012
 20
771.54998799999998
 11
-443.67221050000012
 21
771.94998199999998
  0
LINE
  8
_0-0_0
  6
CONTINUOUS
 62
    7
 10
-443.02218650000009
 20
771.54998799999998
 11
-443.67221050000012
 21
771.54998799999998
  0
ARC
  8
_0-0_0
  6
CONTINUOUS
 62
    7
 10
-443.02218650000009
 20
771.29998799999998
 40
0.25
 50
0
 51
90.000003000000007
  0
LINE
  8
_0-0_0
  6
CONTINUOUS
 62
    7
 10
-442.77218650000009
 20
770.64999399999999
 11
-442.77218650000009
 21
771.29998799999998
  0
LINE
  8
_0-0_0
  6
CONTINUOUS
 62
    7
 10
-363.37219249999998
 20
770.64999399999999
 11
-363.77218650000009
 21
770.64999399999999
  0
LINE
  8
_0-0_0
  6
CONTINUOUS
 62
    7
 10
-363.37219249999998
 20
770.64999399999999
 11
-363.37219249999998
 21
771.29998799999998
  0
ARC
  8
_0-0_0
  6
CONTINUOUS
 62
    7
 10
-363.12219249999998
 20
771.29998799999998
 40
0.25
 50
90.000003000000007
 51
179.99999099999999
  0
LINE
  8
_0-0_0
  6
CONTINUOUS
 62
    7
 10
-363.12219249999998
 20
771.54998799999998
 11
-362.4721985000001
 21
771.54998799999998
  0
LINE
  8
_0-0_0
  6
CONTINUOUS
 62
    7
 10
-362.4721985000001
 20
771.54998799999998
 11
-362.4721985000001
 21
771.94998199999998
  0
LINE
  8
_0-0_0
  6
CONTINUOUS
 62
    7
 10
-363.12219249999998
 20
771.94998199999998
 11
-362.4721985000001
 21
771.94998199999998
  0
ARC
  8
_0-0_0
  6
CONTINUOUS
 62
    7
 10
-363.12219249999998
 20
772.19998199999998
 40
0.25
 50
179.99999099999999
 51
269.99999700000001
  0
LINE
  8
_0-0_0
  6
CONTINUOUS
 62
    7
 10
-363.37219249999998
 20
772.84997599999997
 11
-363.37219249999998
 21
772.19998199999998
  0
LINE
  8
_0-0_0
  6
CONTINUOUS
 62
    7
 10
-363.37219249999998
 20
772.84997599999997
 11
-363.77218650000009
 21
772.84997599999997
  0
LINE
  8
_0-0_0
  6
CONTINUOUS
 62
    7
 10
-363.77218650000009
 20
772.84997599999997
 11
-363.77218650000009
 21
772.19998199999998
  0
ARC
  8
_0-0_0
  6
CONTINUOUS
 62
    7
 10
-364.02218650000009
 20
772.19998199999998
 40
0.25
 50
269.99999700000001
 51
0
  0
LINE
  8
_0-0_0
  6
CONTINUOUS
 62
    7
 10
-364.02218650000009
 20
771.94998199999998
 11
-364.67218049999997
 21
771.94998199999998
  0
LINE
  8
_0-0_0
  6
CONTINUOUS
 62
    7
 10
-364.67218049999997
 20
771.54998799999998
 11
-364.67218049999997
 21
771.94998199999998
  0
LINE
  8
_0-0_0
  6
CONTINUOUS
 62
    7
 10
-364.02218650000009
 20
771.54998799999998
 11
-364.67218049999997
 21
771.54998799999998
  0
ARC
  8
_0-0_0
  6
CONTINUOUS
 62
    7
 10
-364.02218650000009
 20
771.29998799999998
 40
0.25
 50
0
 51
90.000003000000007
  0
LINE
  8
_0-0_0
  6
CONTINUOUS
 62
    7
 10
-363.77218650000009
 20
770.64999399999999
 11
-363.77218650000009
 21
771.29998799999998
  0
LINE
  8
_0-0_0
  6
CONTINUOUS
 62
    7
 10
-356.07217450000007
 20
745.75
 11
-361.57217450000007
 21
745.75
  0
LINE
  8
_0-0_0
  6
CONTINUOUS
 62
    7
 10
-355.57217450000007
 20
752
 11
-355.57217450000007
 21
755.5
  0
LINE
  8
_0-0_0
  6
CONTINUOUS
 62
    7
 10
-355.57217450000007
 20
752
 11
-355.57217450000007
 21
751.64999399999999
  0
LINE
  8
_0-0_0
  6
CONTINUOUS
 62
    7
 10
-355.57217450000007
 20
748.15570100000002
 11
-355.57217450000007
 21
751.64999399999999
  0
LINE
  8
_0-0_0
  6
CONTINUOUS
 62
    7
 10
-355.57217450000007
 20
746.307098
 11
-355.57217450000007
 21
746.59997599999997
  0
LINE
  8
_0-0_0
  6
CONTINUOUS
 62
    7
 10
-355.57217450000007
 20
746.307098
 11
-355.57217450000007
 21
746.25
  0
LINE
  8
_0-0_0
  6
CONTINUOUS
 62
    7
 10
-358.57217450000007
 20
750.57128899999998
 11
-358.57217450000007
 21
752.12167399999998
  0
LINE
  8
_0-0_0
  6
CONTINUOUS
 62
    7
 10
-358.57217450000007
 20
749.85012800000004
 11
-358.57217450000007
 21
750.57128899999998
  0
ARC
  8
_0-0_0
  6
CONTINUOUS
 62
    7
 10
-356.07217450000007
 20
755.5
 40
0.5
 50
269.99999700000001
 51
0
  0
ARC
  8
_0-0_0
  6
CONTINUOUS
 62
    7
 10
-358.27218650000009
 20
754.69998199999998
 40
0.2999999999999999
 50
90.000003000000007
 51
179.99999099999999
  0
LINE
  8
_0-0_0
  6
CONTINUOUS
 62
    7
 10
-469.20465150000018
 20
750.69415299999991
 11
-464.88009650000004
 21
749.25262500000008
  0
LINE
  8
_0-0_0
  6
CONTINUOUS
 62
    7
 10
-470.57217450000007
 20
752.59149200000002
 11
-470.57217450000007
 21
755.94229100000007
  0
LINE
  8
_0-0_0
  6
CONTINUOUS
 62
    7
 10
-470.57217450000007
 20
763.957672
 11
-470.57217450000007
 21
764.87899800000002
  0
ARC
  8
_0-0_0
  6
CONTINUOUS
 62
    7
 10
-468.57217450000007
 20
752.59149200000002
 40
2
 50
179.99999099999999
 51
251.56498899999997
  0
LINE
  8
_0-0_0
  6
CONTINUOUS
 62
    7
 10
-485.57217450000007
 20
769.47543300000007
 11
-485.57217450000007
 21
769.32870500000001
  0
LINE
  8
_0-0_0
  6
CONTINUOUS
 62
    7
 10
-485.57217450000007
 20
769.66595499999994
 11
-485.57217450000007
 21
769.47543300000007
  0
LINE
  8
_0-0_0
  6
CONTINUOUS
 62
    7
 10
-485.57217450000007
 20
769.84097300000008
 11
-485.57217450000007
 21
769.66595499999994
  0
LINE
  8
_0-0_0
  6
CONTINUOUS
 62
    7
 10
-485.57217450000007
 20
769.99856599999998
 11
-485.57217450000007
 21
769.84097300000008
  0
LINE
  8
_0-0_0
  6
CONTINUOUS
 62
    7
 10
-485.57217450000007
 20
770.13699300000007
 11
-485.57217450000007
 21
769.99856599999998
  0
LINE
  8
_0-0_0
  6
CONTINUOUS
 62
    7
 10
-485.57217450000007
 20
770.25476099999992
 11
-485.57217450000007
 21
770.13699300000007
  0
LINE
  8
_0-0_0
  6
CONTINUOUS
 62
    7
 10
-485.57217450000007
 20
770.35052500000006
 11
-485.57217450000007
 21
770.25476099999992
  0
LINE
  8
_0-0_0
  6
CONTINUOUS
 62
    7
 10
-485.57217450000007
 20
770.42330900000002
 11
-485.57217450000007
 21
770.35052500000006
  0
LINE
  8
_0-0_0
  6
CONTINUOUS
 62
    7
 10
-485.57217450000007
 20
770.47228999999993
 11
-485.57217450000007
 21
770.42330900000002
  0
LINE
  8
_0-0_0
  6
CONTINUOUS
 62
    7
 10
-485.57217450000007
 20
770.5
 11
-485.57217450000007
 21
770.47228999999993
  0
LINE
  8
_0-0_0
  6
CONTINUOUS
 62
    7
 10
-485.57217450000007
 20
770.5
 11
-485.57217450000007
 21
770.49688700000002
  0
LINE
  8
_0-0_0
  6
CONTINUOUS
 62
    7
 10
-485.57217450000007
 20
766.00305200000003
 11
-485.57217450000007
 21
766
  0
LINE
  8
_0-0_0
  6
CONTINUOUS
 62
    7
 10
-485.57217450000007
 20
766.02767900000003
 11
-485.57217450000007
 21
766
  0
LINE
  8
_0-0_0
  6
CONTINUOUS
 62
    7
 10
-485.57217450000007
 20
766.07665999999995
 11
-485.57217450000007
 21
766.02767900000003
  0
LINE
  8
_0-0_0
  6
CONTINUOUS
 62
    7
 10
-485.57217450000007
 20
766.14941399999998
 11
-485.57217450000007
 21
766.07665999999995
  0
LINE
  8
_0-0_0
  6
CONTINUOUS
 62
    7
 10
-485.57217450000007
 20
766.24520899999993
 11
-485.57217450000007
 21
766.14941399999998
  0
LINE
  8
_0-0_0
  6
CONTINUOUS
 62
    7
 10
-485.57217450000007
 20
766.27542100000005
 11
-485.57217450000007
 21
766.24520899999993
  0
LINE
  8
_0-0_0
  6
CONTINUOUS
 62
    7
 10
-485.57217450000007
 20
766.362976
 11
-485.57217450000007
 21
766.27542100000005
  0
LINE
  8
_0-0_0
  6
CONTINUOUS
 62
    7
 10
-485.57217450000007
 20
766.50140399999998
 11
-485.57217450000007
 21
766.362976
  0
LINE
  8
_0-0_0
  6
CONTINUOUS
 62
    7
 10
-485.57217450000007
 20
766.658997
 11
-485.57217450000007
 21
766.50140399999998
  0
LINE
  8
_0-0_0
  6
CONTINUOUS
 62
    7
 10
-485.57217450000007
 20
766.83401500000002
 11
-485.57217450000007
 21
766.658997
  0
LINE
  8
_0-0_0
  6
CONTINUOUS
 62
    7
 10
-485.57217450000007
 20
767.02453600000001
 11
-485.57217450000007
 21
766.83401500000002
  0
LINE
  8
_0-0_0
  6
CONTINUOUS
 62
    7
 10
-485.57217450000007
 20
767.22851600000001
 11
-485.57217450000007
 21
767.02453600000001
  0
LINE
  8
_0-0_0
  6
CONTINUOUS
 62
    7
 10
-485.57217450000007
 20
767.44366500000001
 11
-485.57217450000007
 21
767.22851600000001
  0
LINE
  8
_0-0_0
  6
CONTINUOUS
 62
    7
 10
-485.57217450000007
 20
767.66763300000002
 11
-485.57217450000007
 21
767.44366500000001
  0
LINE
  8
_0-0_0
  6
CONTINUOUS
 62
    7
 10
-485.57217450000007
 20
767.89801
 11
-485.57217450000007
 21
767.66763300000002
  0
LINE
  8
_0-0_0
  6
CONTINUOUS
 62
    7
 10
-485.57217450000007
 20
768.13223300000004
 11
-485.57217450000007
 21
767.89801
  0
LINE
  8
_0-0_0
  6
CONTINUOUS
 62
    7
 10
-485.57217450000007
 20
768.36773700000003
 11
-485.57217450000007
 21
768.13223300000004
  0
LINE
  8
_0-0_0
  6
CONTINUOUS
 62
    7
 10
-485.57217450000007
 20
768.60195900000008
 11
-485.57217450000007
 21
768.36773700000003
  0
LINE
  8
_0-0_0
  6
CONTINUOUS
 62
    7
 10
-485.57217450000007
 20
768.83233599999994
 11
-485.57217450000007
 21
768.60195900000008
  0
LINE
  8
_0-0_0
  6
CONTINUOUS
 62
    7
 10
-485.57217450000007
 20
769.05630500000007
 11
-485.57217450000007
 21
768.83233599999994
  0
LINE
  8
_0-0_0
  6
CONTINUOUS
 62
    7
 10
-485.57217450000007
 20
769.27145399999995
 11
-485.57217450000007
 21
769.05630500000007
  0
LINE
  8
_0-0_0
  6
CONTINUOUS
 62
    7
 10
-485.57217450000007
 20
769.32870500000001
 11
-485.57217450000007
 21
769.27145399999995
  0
LINE
  8
_0-0_0
  6
CONTINUOUS
 62
    7
 10
-470.27218650000009
 20
762.16198699999995
 11
-470.33096350000005
 21
762.40881300000001
  0
LINE
  8
_0-0_0
  6
CONTINUOUS
 62
    7
 10
-470.33096350000005
 20
762.40881300000001
 11
-470.38076750000005
 21
762.601135
  0
LINE
  8
_0-0_0
  6
CONTINUOUS
 62
    7
 10
-470.38076750000005
 20
762.601135
 11
-470.45187350000015
 21
762.86694299999999
  0
LINE
  8
_0-0_0
  6
CONTINUOUS
 62
    7
 10
-470.45187350000015
 20
762.86694299999999
 11
-470.48483250000004
 21
762.993652
  0
LINE
  8
_0-0_0
  6
CONTINUOUS
 62
    7
 10
-470.48483250000004
 20
762.993652
 11
-470.51010150000002
 21
763.09707600000002
  0
LINE
  8
_0-0_0
  6
CONTINUOUS
 62
    7
 10
-470.51010150000002
 20
763.09707600000002
 11
-470.53213550000009
 21
763.19702099999995
  0
LINE
  8
_0-0_0
  6
CONTINUOUS
 62
    7
 10
-470.53213550000009
 20
763.19702099999995
 11
-470.55349750000005
 21
763.31472800000006
  0
LINE
  8
_0-0_0
  6
CONTINUOUS
 62
    7
 10
-470.55349750000005
 20
763.31472800000006
 11
-470.56210349999992
 21
763.37686200000007
  0
LINE
  8
_0-0_0
  6
CONTINUOUS
 62
    7
 10
-470.56210349999992
 20
763.37686200000007
 11
-470.5681454999999
 21
763.43746899999996
  0
LINE
  8
_0-0_0
  6
CONTINUOUS
 62
    7
 10
-470.5681454999999
 20
763.43746899999996
 11
-470.5711675
 21
763.48669399999994
  0
LINE
  8
_0-0_0
  6
CONTINUOUS
 62
    7
 10
-470.5711675
 20
763.48669399999994
 11
-470.57217450000007
 21
763.53491200000008
  0
LINE
  8
_0-0_0
  6
CONTINUOUS
 62
    7
 10
-470.27218650000009
 20
757.737976
 11
-470.18872050000004
 21
758.11663799999997
  0
LINE
  8
_0-0_0
  6
CONTINUOUS
 62
    7
 10
-470.18872050000004
 20
758.11663799999997
 11
-470.14865150000014
 21
758.30816700000003
  0
LINE
  8
_0-0_0
  6
CONTINUOUS
 62
    7
 10
-470.14865150000014
 20
758.30816700000003
 11
-470.09255950000011
 21
758.598206
  0
LINE
  8
_0-0_0
  6
CONTINUOUS
 62
    7
 10
-470.09255950000011
 20
758.598206
 11
-470.0549625000001
 21
758.81778000000008
  0
LINE
  8
_0-0_0
  6
CONTINUOUS
 62
    7
 10
-470.0549625000001
 20
758.81778000000008
 11
-470.02230850000001
 21
759.03903200000002
  0
LINE
  8
_0-0_0
  6
CONTINUOUS
 62
    7
 10
-470.02230850000001
 20
759.03903200000002
 11
-469.99514750000003
 21
759.26583900000003
  0
LINE
  8
_0-0_0
  6
CONTINUOUS
 62
    7
 10
-469.99514750000003
 20
759.26583900000003
 11
-469.97506750000002
 21
759.49322499999994
  0
LINE
  8
_0-0_0
  6
CONTINUOUS
 62
    7
 10
-469.97506750000002
 20
759.49322499999994
 11
-469.96792649999998
 21
759.60696400000006
  0
LINE
  8
_0-0_0
  6
CONTINUOUS
 62
    7
 10
-469.96792649999998
 20
759.60696400000006
 11
-469.96276850000004
 21
759.720642
  0
LINE
  8
_0-0_0
  6
CONTINUOUS
 62
    7
 10
-469.96276850000004
 20
759.720642
 11
-469.9590455
 21
759.87207000000001
  0
LINE
  8
_0-0_0
  6
CONTINUOUS
 62
    7
 10
-469.9590455
 20
759.87207000000001
 11
-469.95901550000008
 21
760.02331500000003
  0
LINE
  8
_0-0_0
  6
CONTINUOUS
 62
    7
 10
-469.95901550000008
 20
760.02331500000003
 11
-469.96255550000001
 21
760.17437700000005
  0
LINE
  8
_0-0_0
  6
CONTINUOUS
 62
    7
 10
-469.96255550000001
 20
760.17437700000005
 11
-469.97207649999996
 21
760.36291499999993
  0
LINE
  8
_0-0_0
  6
CONTINUOUS
 62
    7
 10
-469.97207649999996
 20
760.36291499999993
 11
-469.98693850000018
 21
760.55117799999994
  0
LINE
  8
_0-0_0
  6
CONTINUOUS
 62
    7
 10
-469.98693850000018
 20
760.55117799999994
 11
-470.00686650000011
 21
760.739105
  0
LINE
  8
_0-0_0
  6
CONTINUOUS
 62
    7
 10
-470.00686650000011
 20
760.739105
 11
-470.02325450000012
 21
760.86798099999999
  0
LINE
  8
_0-0_0
  6
CONTINUOUS
 62
    7
 10
-470.02325450000012
 20
760.86798099999999
 11
-470.04165650000004
 21
760.99664299999995
  0
LINE
  8
_0-0_0
  6
CONTINUOUS
 62
    7
 10
-470.04165650000004
 20
760.99664299999995
 11
-470.06582649999996
 21
761.14855999999997
  0
LINE
  8
_0-0_0
  6
CONTINUOUS
 62
    7
 10
-470.06582649999996
 20
761.14855999999997
 11
-470.09222450000016
 21
761.29992700000003
  0
LINE
  8
_0-0_0
  6
CONTINUOUS
 62
    7
 10
-470.09222450000016
 20
761.29992700000003
 11
-470.14840750000008
 21
761.59054600000002
  0
LINE
  8
_0-0_0
  6
CONTINUOUS
 62
    7
 10
-470.14840750000008
 20
761.59054600000002
 11
-470.18856849999997
 21
761.78250100000002
  0
LINE
  8
_0-0_0
  6
CONTINUOUS
 62
    7
 10
-470.18856849999997
 20
761.78250100000002
 11
-470.27218650000009
 21
762.16198699999995
  0
LINE
  8
_0-0_0
  6
CONTINUOUS
 62
    7
 10
-470.27218650000009
 20
757.737976
 11
-470.33099349999998
 21
757.49111900000003
  0
LINE
  8
_0-0_0
  6
CONTINUOUS
 62
    7
 10
-470.33099349999998
 20
757.49111900000003
 11
-470.38076750000005
 21
757.29879800000003
  0
LINE
  8
_0-0_0
  6
CONTINUOUS
 62
    7
 10
-470.38076750000005
 20
757.29879800000003
 11
-470.45187350000015
 21
757.033051
  0
LINE
  8
_0-0_0
  6
CONTINUOUS
 62
    7
 10
-470.45187350000015
 20
757.033051
 11
-470.48483250000004
 21
756.906342
  0
LINE
  8
_0-0_0
  6
CONTINUOUS
 62
    7
 10
-470.48483250000004
 20
756.906342
 11
-470.51010150000002
 21
756.80291699999998
  0
LINE
  8
_0-0_0
  6
CONTINUOUS
 62
    7
 10
-470.51010150000002
 20
756.80291699999998
 11
-470.53213550000009
 21
756.70294200000001
  0
LINE
  8
_0-0_0
  6
CONTINUOUS
 62
    7
 10
-470.53213550000009
 20
756.70294200000001
 11
-470.55349750000005
 21
756.58523600000001
  0
LINE
  8
_0-0_0
  6
CONTINUOUS
 62
    7
 10
-470.55349750000005
 20
756.58523600000001
 11
-470.56210349999992
 21
756.52310199999999
  0
LINE
  8
_0-0_0
  6
CONTINUOUS
 62
    7
 10
-470.56210349999992
 20
756.52310199999999
 11
-470.5681454999999
 21
756.46249399999999
  0
LINE
  8
_0-0_0
  6
CONTINUOUS
 62
    7
 10
-470.5681454999999
 20
756.46249399999999
 11
-470.5711675
 21
756.41326900000001
  0
LINE
  8
_0-0_0
  6
CONTINUOUS
 62
    7
 10
-470.5711675
 20
756.41326900000001
 11
-470.57217450000007
 21
756.36505099999999
  0
ARC
  8
_0-0_0
  6
CONTINUOUS
 62
    7
 10
-356.07217450000007
 20
746.25
 40
0.5
 50
269.99999700000001
 51
0
  0
LINE
  8
_0-0_0
  6
CONTINUOUS
 62
    7
 10
-356.11651649999999
 20
750.57128899999998
 11
-356.11651649999999
 21
753.89999399999999
  0
LINE
  8
_0-0_0
  6
CONTINUOUS
 62
    7
 10
-356.11651649999999
 20
749.39999399999999
 11
-356.11651649999999
 21
750.57128899999998
  0
CIRCLE
  8
_0-0_0
  6
CONTINUOUS
 62
    7
 10
-432.57217450000007
 20
765.25
 40
2.5
  0
CIRCLE
  8
_0-0_0
  6
CONTINUOUS
 62
    7
 10
-376.57217450000007
 20
765.25
 40
2.5
  0
LINE
  8
_0-0_0
  6
CONTINUOUS
 62
    7
 10
-470.57217450000007
 20
756.05767800000001
 11
-480.27999850000015
 21
756.05767800000001
  0
LINE
  8
_0-0_0
  6
CONTINUOUS
 62
    7
 10
-480.27999850000015
 20
753.44998199999998
 11
-480.33450349999998
 21
753.51992799999994
  0
LINE
  8
_0-0_0
  6
CONTINUOUS
 62
    7
 10
-480.33450349999998
 20
753.51992799999994
 11
-480.38558950000015
 21
753.58874500000002
  0
LINE
  8
_0-0_0
  6
CONTINUOUS
 62
    7
 10
-480.38558950000015
 20
753.58874500000002
 11
-480.43322750000016
 21
753.65625
  0
LINE
  8
_0-0_0
  6
CONTINUOUS
 62
    7
 10
-480.43322750000016
 20
753.65625
 11
-480.47775249999995
 21
753.72280899999998
  0
LINE
  8
_0-0_0
  6
CONTINUOUS
 62
    7
 10
-480.47775249999995
 20
753.72280899999998
 11
-480.53244050000012
 21
753.81033300000001
  0
LINE
  8
_0-0_0
  6
CONTINUOUS
 62
    7
 10
-480.53244050000012
 20
753.81033300000001
 11
-480.58197050000012
 21
753.89645399999995
  0
LINE
  8
_0-0_0
  6
CONTINUOUS
 62
    7
 10
-480.58197050000012
 20
753.89645399999995
 11
-480.62643449999996
 21
753.98126200000002
  0
LINE
  8
_0-0_0
  6
CONTINUOUS
 62
    7
 10
-480.62643449999996
 20
753.98126200000002
 11
-480.67340150000018
 21
754.08160399999997
  0
LINE
  8
_0-0_0
  6
CONTINUOUS
 62
    7
 10
-480.67340150000018
 20
754.08160399999997
 11
-480.7135925
 21
754.18051100000002
  0
LINE
  8
_0-0_0
  6
CONTINUOUS
 62
    7
 10
-480.7135925
 20
754.18051100000002
 11
-480.74728449999998
 21
754.27825899999993
  0
LINE
  8
_0-0_0
  6
CONTINUOUS
 62
    7
 10
-480.74728449999998
 20
754.27825899999993
 11
-480.77456649999999
 21
754.375092
  0
LINE
  8
_0-0_0
  6
CONTINUOUS
 62
    7
 10
-480.77456649999999
 20
754.375092
 11
-480.79562350000015
 21
754.47113000000002
  0
LINE
  8
_0-0_0
  6
CONTINUOUS
 62
    7
 10
-480.79562350000015
 20
754.47113000000002
 11
-480.81155450000006
 21
754.57498199999998
  0
LINE
  8
_0-0_0
  6
CONTINUOUS
 62
    7
 10
-480.81155450000006
 20
754.57498199999998
 11
-480.82028250000008
 21
754.678406
  0
LINE
  8
_0-0_0
  6
CONTINUOUS
 62
    7
 10
-480.82028250000008
 20
754.678406
 11
-480.82193050000001
 21
754.78164700000002
  0
LINE
  8
_0-0_0
  6
CONTINUOUS
 62
    7
 10
-480.82193050000001
 20
754.78164700000002
 11
-480.81646750000004
 21
754.88494900000001
  0
LINE
  8
_0-0_0
  6
CONTINUOUS
 62
    7
 10
-480.81646750000004
 20
754.88494900000001
 11
-480.80386350000003
 21
754.98852499999998
  0
LINE
  8
_0-0_0
  6
CONTINUOUS
 62
    7
 10
-480.80386350000003
 20
754.98852499999998
 11
-480.78402750000009
 21
755.09268199999997
  0
LINE
  8
_0-0_0
  6
CONTINUOUS
 62
    7
 10
-480.78402750000009
 20
755.09268199999997
 11
-480.75689749999992
 21
755.197632
  0
LINE
  8
_0-0_0
  6
CONTINUOUS
 62
    7
 10
-480.75689749999992
 20
755.197632
 11
-480.72225950000006
 21
755.30367999999999
  0
LINE
  8
_0-0_0
  6
CONTINUOUS
 62
    7
 10
-480.72225950000006
 20
755.30367999999999
 11
-480.67990150000014
 21
755.41104100000007
  0
LINE
  8
_0-0_0
  6
CONTINUOUS
 62
    7
 10
-480.67990150000014
 20
755.41104100000007
 11
-480.6295775000001
 21
755.52005000000008
  0
LINE
  8
_0-0_0
  6
CONTINUOUS
 62
    7
 10
-480.6295775000001
 20
755.52005000000008
 11
-480.57534850000002
 21
755.623199
  0
LINE
  8
_0-0_0
  6
CONTINUOUS
 62
    7
 10
-480.57534850000002
 20
755.623199
 11
-480.51364150000018
 21
755.72824100000003
  0
LINE
  8
_0-0_0
  6
CONTINUOUS
 62
    7
 10
-480.51364150000018
 20
755.72824100000003
 11
-480.44412250000005
 21
755.83547999999996
  0
LINE
  8
_0-0_0
  6
CONTINUOUS
 62
    7
 10
-480.44412250000005
 20
755.83547999999996
 11
-480.36639450000007
 21
755.94519000000003
  0
LINE
  8
_0-0_0
  6
CONTINUOUS
 62
    7
 10
-480.36639450000007
 20
755.94519000000003
 11
-480.27999850000015
 21
756.05767800000001
  0
LINE
  8
_0-0_0
  6
CONTINUOUS
 62
    7
 10
-470.57217450000007
 20
753.44998199999998
 11
-480.27999850000015
 21
753.44998199999998
  0
LINE
  8
_0-0_0
  6
CONTINUOUS
 62
    7
 10
-470.57217450000007
 20
755.94229100000007
 11
-470.57217450000007
 21
756.05767800000001
  0
LINE
  8
_0-0_0
  6
CONTINUOUS
 62
    7
 10
-480.32217450000007
 20
753.44998199999998
 11
-480.27999850000015
 21
753.44998199999998
  0
LINE
  8
_0-0_0
  6
CONTINUOUS
 62
    7
 10
-470.57217450000007
 20
763.84228499999995
 11
-480.27999850000015
 21
763.84228499999995
  0
LINE
  8
_0-0_0
  6
CONTINUOUS
 62
    7
 10
-470.57217450000007
 20
763.957672
 11
-470.57217450000007
 21
763.84228499999995
  0
LINE
  8
_0-0_0
  6
CONTINUOUS
 62
    7
 10
-480.27999850000015
 20
763.84228499999995
 11
-480.33450349999998
 21
763.91223100000002
  0
LINE
  8
_0-0_0
  6
CONTINUOUS
 62
    7
 10
-480.33450349999998
 20
763.91223100000002
 11
-480.38558950000015
 21
763.98104899999998
  0
LINE
  8
_0-0_0
  6
CONTINUOUS
 62
    7
 10
-480.38558950000015
 20
763.98104899999998
 11
-480.43322750000016
 21
764.04855300000008
  0
LINE
  8
_0-0_0
  6
CONTINUOUS
 62
    7
 10
-480.43322750000016
 20
764.04855300000008
 11
-480.47775249999995
 21
764.11511199999995
  0
LINE
  8
_0-0_0
  6
CONTINUOUS
 62
    7
 10
-480.47775249999995
 20
764.11511199999995
 11
-480.53244050000012
 21
764.20263699999998
  0
LINE
  8
_0-0_0
  6
CONTINUOUS
 62
    7
 10
-480.53244050000012
 20
764.20263699999998
 11
-480.58197050000012
 21
764.28875700000003
  0
LINE
  8
_0-0_0
  6
CONTINUOUS
 62
    7
 10
-480.58197050000012
 20
764.28875700000003
 11
-480.62643449999996
 21
764.37359600000002
  0
LINE
  8
_0-0_0
  6
CONTINUOUS
 62
    7
 10
-480.62643449999996
 20
764.37359600000002
 11
-480.67340150000018
 21
764.47390700000005
  0
LINE
  8
_0-0_0
  6
CONTINUOUS
 62
    7
 10
-480.67340150000018
 20
764.47390700000005
 11
-480.7135925
 21
764.57281499999999
  0
LINE
  8
_0-0_0
  6
CONTINUOUS
 62
    7
 10
-480.7135925
 20
764.57281499999999
 11
-480.74728449999998
 21
764.67059300000005
  0
LINE
  8
_0-0_0
  6
CONTINUOUS
 62
    7
 10
-480.74728449999998
 20
764.67059300000005
 11
-480.77456649999999
 21
764.76739500000008
  0
LINE
  8
_0-0_0
  6
CONTINUOUS
 62
    7
 10
-480.77456649999999
 20
764.76739500000008
 11
-480.79562350000015
 21
764.86343399999998
  0
LINE
  8
_0-0_0
  6
CONTINUOUS
 62
    7
 10
-480.79562350000015
 20
764.86343399999998
 11
-480.81155450000006
 21
764.96728499999995
  0
LINE
  8
_0-0_0
  6
CONTINUOUS
 62
    7
 10
-480.81155450000006
 20
764.96728499999995
 11
-480.82028250000008
 21
765.07070900000008
  0
LINE
  8
_0-0_0
  6
CONTINUOUS
 62
    7
 10
-480.82028250000008
 20
765.07070900000008
 11
-480.82193050000001
 21
765.17394999999999
  0
LINE
  8
_0-0_0
  6
CONTINUOUS
 62
    7
 10
-480.82193050000001
 20
765.17394999999999
 11
-480.81646750000004
 21
765.27725199999998
  0
LINE
  8
_0-0_0
  6
CONTINUOUS
 62
    7
 10
-480.81646750000004
 20
765.27725199999998
 11
-480.80386350000003
 21
765.38082899999995
  0
LINE
  8
_0-0_0
  6
CONTINUOUS
 62
    7
 10
-480.80386350000003
 20
765.38082899999995
 11
-480.78402750000009
 21
765.48498500000005
  0
LINE
  8
_0-0_0
  6
CONTINUOUS
 62
    7
 10
-480.78402750000009
 20
765.48498500000005
 11
-480.75689749999992
 21
765.58993499999997
  0
LINE
  8
_0-0_0
  6
CONTINUOUS
 62
    7
 10
-480.75689749999992
 20
765.58993499999997
 11
-480.72225950000006
 21
765.69598399999995
  0
LINE
  8
_0-0_0
  6
CONTINUOUS
 62
    7
 10
-480.72225950000006
 20
765.69598399999995
 11
-480.67990150000014
 21
765.80334500000004
  0
LINE
  8
_0-0_0
  6
CONTINUOUS
 62
    7
 10
-480.67990150000014
 20
765.80334500000004
 11
-480.6295775000001
 21
765.91235400000005
  0
LINE
  8
_0-0_0
  6
CONTINUOUS
 62
    7
 10
-480.6295775000001
 20
765.91235400000005
 11
-480.58389250000005
 21
766
  0
LINE
  8
_0-0_0
  6
CONTINUOUS
 62
    7
 10
-485.57217450000007
 20
769.47543300000007
 11
-485.82217450000007
 21
769.5
  0
LINE
  8
_0-0_0
  6
CONTINUOUS
 62
    7
 10
-485.57217450000007
 20
769.27145399999995
 11
-485.82217450000007
 21
769.5
  0
LINE
  8
_0-0_0
  6
CONTINUOUS
 62
    7
 10
-485.57217450000007
 20
769.66595499999994
 11
-485.82217450000007
 21
769.71945200000005
  0
LINE
  8
_0-0_0
  6
CONTINUOUS
 62
    7
 10
-485.57217450000007
 20
769.47543300000007
 11
-485.82217450000007
 21
769.71945200000005
  0
LINE
  8
_0-0_0
  6
CONTINUOUS
 62
    7
 10
-485.57217450000007
 20
769.84097300000008
 11
-485.82217450000007
 21
769.922821
  0
LINE
  8
_0-0_0
  6
CONTINUOUS
 62
    7
 10
-485.57217450000007
 20
769.66595499999994
 11
-485.82217450000007
 21
769.922821
  0
LINE
  8
_0-0_0
  6
CONTINUOUS
 62
    7
 10
-485.57217450000007
 20
769.99856599999998
 11
-485.82217450000007
 21
770.10784899999999
  0
LINE
  8
_0-0_0
  6
CONTINUOUS
 62
    7
 10
-485.57217450000007
 20
769.84097300000008
 11
-485.82217450000007
 21
770.10784899999999
  0
LINE
  8
_0-0_0
  6
CONTINUOUS
 62
    7
 10
-485.57217450000007
 20
770.13699300000007
 11
-485.82217450000007
 21
770.27252199999998
  0
LINE
  8
_0-0_0
  6
CONTINUOUS
 62
    7
 10
-485.57217450000007
 20
769.99856599999998
 11
-485.82217450000007
 21
770.27252199999998
  0
LINE
  8
_0-0_0
  6
CONTINUOUS
 62
    7
 10
-485.57217450000007
 20
770.25476099999992
 11
-485.82217450000007
 21
770.41503899999998
  0
LINE
  8
_0-0_0
  6
CONTINUOUS
 62
    7
 10
-485.57217450000007
 20
770.13699300000007
 11
-485.82217450000007
 21
770.41503899999998
  0
LINE
  8
_0-0_0
  6
CONTINUOUS
 62
    7
 10
-485.57217450000007
 20
770.35052500000006
 11
-485.82217450000007
 21
770.53384400000004
  0
LINE
  8
_0-0_0
  6
CONTINUOUS
 62
    7
 10
-485.57217450000007
 20
770.25476099999992
 11
-485.82217450000007
 21
770.53384400000004
  0
LINE
  8
_0-0_0
  6
CONTINUOUS
 62
    7
 10
-485.57217450000007
 20
770.42330900000002
 11
-485.82217450000007
 21
770.62762500000008
  0
LINE
  8
_0-0_0
  6
CONTINUOUS
 62
    7
 10
-485.57217450000007
 20
770.35052500000006
 11
-485.82217450000007
 21
770.62762500000008
  0
LINE
  8
_0-0_0
  6
CONTINUOUS
 62
    7
 10
-485.57217450000007
 20
770.47228999999993
 11
-485.82217450000007
 21
770.69534299999998
  0
LINE
  8
_0-0_0
  6
CONTINUOUS
 62
    7
 10
-485.57217450000007
 20
770.42330900000002
 11
-485.82217450000007
 21
770.69534299999998
  0
LINE
  8
_0-0_0
  6
CONTINUOUS
 62
    7
 10
-485.57217450000007
 20
770.49688700000002
 11
-485.82217450000007
 21
770.73629800000003
  0
LINE
  8
_0-0_0
  6
CONTINUOUS
 62
    7
 10
-485.57217450000007
 20
770.47228999999993
 11
-485.82217450000007
 21
770.73629800000003
  0
LINE
  8
_0-0_0
  6
CONTINUOUS
 62
    7
 10
-485.57217450000007
 20
770.49688700000002
 11
-485.82217450000007
 21
770.75
  0
LINE
  8
_0-0_0
  6
CONTINUOUS
 62
    7
 10
-485.57217450000007
 20
766.00305200000003
 11
-485.82217450000007
 21
765.75
  0
LINE
  8
_0-0_0
  6
CONTINUOUS
 62
    7
 10
-485.57217450000007
 20
766.02767900000003
 11
-485.82217450000007
 21
765.76367200000004
  0
LINE
  8
_0-0_0
  6
CONTINUOUS
 62
    7
 10
-485.57217450000007
 20
766.00305200000003
 11
-485.82217450000007
 21
765.76367200000004
  0
LINE
  8
_0-0_0
  6
CONTINUOUS
 62
    7
 10
-485.57217450000007
 20
766.07665999999995
 11
-485.82217450000007
 21
765.80462599999998
  0
LINE
  8
_0-0_0
  6
CONTINUOUS
 62
    7
 10
-485.57217450000007
 20
766.02767900000003
 11
-485.82217450000007
 21
765.80462599999998
  0
LINE
  8
_0-0_0
  6
CONTINUOUS
 62
    7
 10
-485.57217450000007
 20
766.14941399999998
 11
-485.82217450000007
 21
765.872345
  0
LINE
  8
_0-0_0
  6
CONTINUOUS
 62
    7
 10
-485.57217450000007
 20
766.07665999999995
 11
-485.82217450000007
 21
765.872345
  0
LINE
  8
_0-0_0
  6
CONTINUOUS
 62
    7
 10
-485.57217450000007
 20
766.24520899999993
 11
-485.82217450000007
 21
765.96612499999992
  0
LINE
  8
_0-0_0
  6
CONTINUOUS
 62
    7
 10
-485.57217450000007
 20
766.14941399999998
 11
-485.82217450000007
 21
765.96612499999992
  0
LINE
  8
_0-0_0
  6
CONTINUOUS
 62
    7
 10
-485.57217450000007
 20
766.24520899999993
 11
-485.70214850000002
 21
766.16137700000002
  0
LINE
  8
_0-0_0
  6
CONTINUOUS
 62
    7
 10
-485.57217450000007
 20
766.362976
 11
-485.82217450000007
 21
766.08492999999999
  0
LINE
  8
_0-0_0
  6
CONTINUOUS
 62
    7
 10
-485.70214850000002
 20
766.16137700000002
 11
-485.82217450000007
 21
766.08492999999999
  0
LINE
  8
_0-0_0
  6
CONTINUOUS
 62
    7
 10
-485.57217450000007
 20
766.50140399999998
 11
-485.82217450000007
 21
766.22744799999998
  0
LINE
  8
_0-0_0
  6
CONTINUOUS
 62
    7
 10
-485.57217450000007
 20
766.362976
 11
-485.82217450000007
 21
766.22744799999998
  0
LINE
  8
_0-0_0
  6
CONTINUOUS
 62
    7
 10
-485.57217450000007
 20
766.658997
 11
-485.82217450000007
 21
766.39211999999998
  0
LINE
  8
_0-0_0
  6
CONTINUOUS
 62
    7
 10
-485.57217450000007
 20
766.50140399999998
 11
-485.82217450000007
 21
766.39211999999998
  0
LINE
  8
_0-0_0
  6
CONTINUOUS
 62
    7
 10
-485.57217450000007
 20
766.83401500000002
 11
-485.82217450000007
 21
766.57714800000008
  0
LINE
  8
_0-0_0
  6
CONTINUOUS
 62
    7
 10
-485.57217450000007
 20
766.658997
 11
-485.82217450000007
 21
766.57714800000008
  0
LINE
  8
_0-0_0
  6
CONTINUOUS
 62
    7
 10
-485.57217450000007
 20
767.02453600000001
 11
-485.82217450000007
 21
766.78051800000003
  0
LINE
  8
_0-0_0
  6
CONTINUOUS
 62
    7
 10
-485.57217450000007
 20
766.83401500000002
 11
-485.82217450000007
 21
766.78051800000003
  0
LINE
  8
_0-0_0
  6
CONTINUOUS
 62
    7
 10
-485.57217450000007
 20
767.22851600000001
 11
-485.82217450000007
 21
767
  0
LINE
  8
_0-0_0
  6
CONTINUOUS
 62
    7
 10
-485.57217450000007
 20
767.02453600000001
 11
-485.82217450000007
 21
767
  0
LINE
  8
_0-0_0
  6
CONTINUOUS
 62
    7
 10
-485.57217450000007
 20
767.44366500000001
 11
-485.82217450000007
 21
767.23315400000001
  0
LINE
  8
_0-0_0
  6
CONTINUOUS
 62
    7
 10
-485.57217450000007
 20
767.22851600000001
 11
-485.82217450000007
 21
767.23315400000001
  0
LINE
  8
_0-0_0
  6
CONTINUOUS
 62
    7
 10
-485.57217450000007
 20
767.66763300000002
 11
-485.82217450000007
 21
767.47744799999998
  0
LINE
  8
_0-0_0
  6
CONTINUOUS
 62
    7
 10
-485.57217450000007
 20
767.44366500000001
 11
-485.82217450000007
 21
767.47744799999998
  0
LINE
  8
_0-0_0
  6
CONTINUOUS
 62
    7
 10
-485.57217450000007
 20
767.89801
 11
-485.82217450000007
 21
767.73019399999998
  0
LINE
  8
_0-0_0
  6
CONTINUOUS
 62
    7
 10
-485.57217450000007
 20
767.66763300000002
 11
-485.82217450000007
 21
767.73019399999998
  0
LINE
  8
_0-0_0
  6
CONTINUOUS
 62
    7
 10
-485.57217450000007
 20
768.13223300000004
 11
-485.82217450000007
 21
767.98864700000001
  0
LINE
  8
_0-0_0
  6
CONTINUOUS
 62
    7
 10
-485.57217450000007
 20
767.89801
 11
-485.82217450000007
 21
767.98864700000001
  0
LINE
  8
_0-0_0
  6
CONTINUOUS
 62
    7
 10
-485.57217450000007
 20
768.36773700000003
 11
-485.82217450000007
 21
768.25
  0
LINE
  8
_0-0_0
  6
CONTINUOUS
 62
    7
 10
-485.57217450000007
 20
768.13223300000004
 11
-485.82217450000007
 21
768.25
  0
LINE
  8
_0-0_0
  6
CONTINUOUS
 62
    7
 10
-485.57217450000007
 20
768.60195900000008
 11
-485.82217450000007
 21
768.51129200000003
  0
LINE
  8
_0-0_0
  6
CONTINUOUS
 62
    7
 10
-485.57217450000007
 20
768.36773700000003
 11
-485.82217450000007
 21
768.51129200000003
  0
LINE
  8
_0-0_0
  6
CONTINUOUS
 62
    7
 10
-485.57217450000007
 20
768.83233599999994
 11
-485.82217450000007
 21
768.76977499999998
  0
LINE
  8
_0-0_0
  6
CONTINUOUS
 62
    7
 10
-485.57217450000007
 20
768.60195900000008
 11
-485.82217450000007
 21
768.76977499999998
  0
LINE
  8
_0-0_0
  6
CONTINUOUS
 62
    7
 10
-485.57217450000007
 20
769.05630500000007
 11
-485.82217450000007
 21
769.02252199999998
  0
LINE
  8
_0-0_0
  6
CONTINUOUS
 62
    7
 10
-485.57217450000007
 20
768.83233599999994
 11
-485.82217450000007
 21
769.02252199999998
  0
LINE
  8
_0-0_0
  6
CONTINUOUS
 62
    7
 10
-485.57217450000007
 20
769.27145399999995
 11
-485.82217450000007
 21
769.26681499999995
  0
LINE
  8
_0-0_0
  6
CONTINUOUS
 62
    7
 10
-485.57217450000007
 20
769.05630500000007
 11
-485.82217450000007
 21
769.26681499999995
  0
LINE
  8
_0-0_0
  6
CONTINUOUS
 62
    7
 10
-470.57217450000007
 20
761.512024
 11
-470.57217450000007
 21
762.55767800000001
  0
LINE
  8
_0-0_0
  6
CONTINUOUS
 62
    7
 10
-470.57217450000007
 20
763.84228499999995
 11
-470.57217450000007
 21
762.55767800000001
  0
LINE
  8
_0-0_0
  6
CONTINUOUS
 62
    7
 10
-470.57217450000007
 20
761.512024
 11
-470.57217450000007
 21
758.38793899999996
  0
LINE
  8
_0-0_0
  6
CONTINUOUS
 62
    7
 10
-470.57217450000007
 20
757.34228499999995
 11
-470.57217450000007
 21
756.05767800000001
  0
LINE
  8
_0-0_0
  6
CONTINUOUS
 62
    7
 10
-470.57217450000007
 20
757.34228499999995
 11
-470.57217450000007
 21
758.38793899999996
  0
LINE
  8
_0-0_0
  6
CONTINUOUS
 62
    7
 10
-355.9721985000001
 20
750.69113199999993
 11
-355.9721985000001
 21
753.64999399999999
  0
LINE
  8
_0-0_0
  6
CONTINUOUS
 62
    7
 10
-355.9721985000001
 20
749.64999399999999
 11
-355.9721985000001
 21
750.69113199999993
  0
LINE
  8
_0-0_0
  6
CONTINUOUS
 62
    7
 10
-470.57217450000007
 20
757.34228499999995
 11
-480.27999850000015
 21
757.34228499999995
  0
ARC
  8
_0-0_0
  6
CONTINUOUS
 62
    7
 10
-475.39828549999993
 20
756.69909699999994
 40
4.9238749999999998
 50
172.49424200000001
 51
181.535968
  0
ARC
  8
_0-0_0
  6
CONTINUOUS
 62
    7
 10
-475.36026050000009
 20
756.70404099999996
 40
4.9620009999999999
 50
181.58130700000004
 51
187.48478900000003
  0
LINE
  8
_0-0_0
  6
CONTINUOUS
 62
    7
 10
-481.57217450000007
 20
757.21844499999997
 11
-481.57217450000007
 21
754.69998199999998
  0
LINE
  8
_0-0_0
  6
CONTINUOUS
 62
    7
 10
-481.57217450000007
 20
765.19998199999998
 11
-481.57217450000007
 21
757.21844499999997
  0
LINE
  8
_0-0_0
  6
CONTINUOUS
 62
    7
 10
-480.27999850000015
 20
762.55767800000001
 11
-480.37435950000008
 21
762.31106599999998
  0
LINE
  8
_0-0_0
  6
CONTINUOUS
 62
    7
 10
-480.37435950000008
 20
762.31106599999998
 11
-480.4582825
 21
762.07110599999999
  0
LINE
  8
_0-0_0
  6
CONTINUOUS
 62
    7
 10
-480.4582825
 20
762.07110599999999
 11
-480.53244050000012
 21
761.83697499999994
  0
LINE
  8
_0-0_0
  6
CONTINUOUS
 62
    7
 10
-480.53244050000012
 20
761.83697499999994
 11
-480.59732050000002
 21
761.60794099999998
  0
LINE
  8
_0-0_0
  6
CONTINUOUS
 62
    7
 10
-480.59732050000002
 20
761.60794099999998
 11
-480.65338150000002
 21
761.38327000000004
  0
LINE
  8
_0-0_0
  6
CONTINUOUS
 62
    7
 10
-480.65338150000002
 20
761.38327000000004
 11
-480.70095850000007
 21
761.16229199999998
  0
LINE
  8
_0-0_0
  6
CONTINUOUS
 62
    7
 10
-480.70095850000007
 20
761.16229199999998
 11
-480.74035649999996
 21
760.94436599999995
  0
LINE
  8
_0-0_0
  6
CONTINUOUS
 62
    7
 10
-480.74035649999996
 20
760.94436599999995
 11
-480.7718205000001
 21
760.72891200000004
  0
LINE
  8
_0-0_0
  6
CONTINUOUS
 62
    7
 10
-480.7718205000001
 20
760.72891200000004
 11
-480.79562350000015
 21
760.51538099999993
  0
LINE
  8
_0-0_0
  6
CONTINUOUS
 62
    7
 10
-480.79562350000015
 20
760.51538099999993
 11
-480.81155450000006
 21
760.30767800000001
  0
LINE
  8
_0-0_0
  6
CONTINUOUS
 62
    7
 10
-480.81155450000006
 20
760.30767800000001
 11
-480.82028250000008
 21
760.10082999999997
  0
LINE
  8
_0-0_0
  6
CONTINUOUS
 62
    7
 10
-480.82028250000008
 20
760.10082999999997
 11
-480.82193050000001
 21
759.89434800000004
  0
LINE
  8
_0-0_0
  6
CONTINUOUS
 62
    7
 10
-480.82193050000001
 20
759.89434800000004
 11
-480.81646750000004
 21
759.68777499999999
  0
LINE
  8
_0-0_0
  6
CONTINUOUS
 62
    7
 10
-480.81646750000004
 20
759.68777499999999
 11
-480.80386350000003
 21
759.480591
  0
LINE
  8
_0-0_0
  6
CONTINUOUS
 62
    7
 10
-480.80386350000003
 20
759.480591
 11
-480.78402750000009
 21
759.27227799999991
  0
LINE
  8
_0-0_0
  6
CONTINUOUS
 62
    7
 10
-480.78402750000009
 20
759.27227799999991
 11
-480.75689749999992
 21
759.06237800000008
  0
LINE
  8
_0-0_0
  6
CONTINUOUS
 62
    7
 10
-480.75689749999992
 20
759.06237800000008
 11
-480.72225950000006
 21
758.85031099999992
  0
LINE
  8
_0-0_0
  6
CONTINUOUS
 62
    7
 10
-480.72225950000006
 20
758.85031099999992
 11
-480.67990150000014
 21
758.63555900000006
  0
LINE
  8
_0-0_0
  6
CONTINUOUS
 62
    7
 10
-480.67990150000014
 20
758.63555900000006
 11
-480.6295775000001
 21
758.41754200000003
  0
LINE
  8
_0-0_0
  6
CONTINUOUS
 62
    7
 10
-480.6295775000001
 20
758.41754200000003
 11
-480.57534850000002
 21
758.21124299999997
  0
LINE
  8
_0-0_0
  6
CONTINUOUS
 62
    7
 10
-480.57534850000002
 20
758.21124299999997
 11
-480.51364150000018
 21
758.00116000000003
  0
LINE
  8
_0-0_0
  6
CONTINUOUS
 62
    7
 10
-480.51364150000018
 20
758.00116000000003
 11
-480.44412250000005
 21
757.78668199999993
  0
LINE
  8
_0-0_0
  6
CONTINUOUS
 62
    7
 10
-480.44412250000005
 20
757.78668199999993
 11
-480.36639450000007
 21
757.56726099999992
  0
LINE
  8
_0-0_0
  6
CONTINUOUS
 62
    7
 10
-480.36639450000007
 20
757.56726099999992
 11
-480.27999850000015
 21
757.34228499999995
  0
ARC
  8
_0-0_0
  6
CONTINUOUS
 62
    7
 10
-475.40844749999997
 20
763.19998199999998
 40
4.9136889999999998
 50
172.48898299999999
 51
187.51101699999998
  0
LINE
  8
_0-0_0
  6
CONTINUOUS
 62
    7
 10
-470.57217450000007
 20
762.55767800000001
 11
-480.27999850000015
 21
762.55767800000001
  0
LINE
  8
_0-0_0
  6
CONTINUOUS
 62
    7
 10
-495.32217450000007
 20
769.47543300000007
 11
-495.07217450000007
 21
769.5
  0
LINE
  8
_0-0_0
  6
CONTINUOUS
 62
    7
 10
-495.07217450000007
 20
769.5
 11
-485.82217450000007
 21
769.5
  0
LINE
  8
_0-0_0
  6
CONTINUOUS
 62
    7
 10
-495.32217450000007
 20
769.27145399999995
 11
-495.07217450000007
 21
769.5
  0
LINE
  8
_0-0_0
  6
CONTINUOUS
 62
    7
 10
-495.32217450000007
 20
769.27145399999995
 11
-485.57217450000007
 21
769.27145399999995
  0
LINE
  8
_0-0_0
  6
CONTINUOUS
 62
    7
 10
-495.32217450000007
 20
769.66595499999994
 11
-495.07217450000007
 21
769.71945200000005
  0
LINE
  8
_0-0_0
  6
CONTINUOUS
 62
    7
 10
-495.07217450000007
 20
769.71945200000005
 11
-485.82217450000007
 21
769.71945200000005
  0
LINE
  8
_0-0_0
  6
CONTINUOUS
 62
    7
 10
-495.32217450000007
 20
769.47543300000007
 11
-495.07217450000007
 21
769.71945200000005
  0
LINE
  8
_0-0_0
  6
CONTINUOUS
 62
    7
 10
-495.32217450000007
 20
769.84097300000008
 11
-495.07217450000007
 21
769.922821
  0
LINE
  8
_0-0_0
  6
CONTINUOUS
 62
    7
 10
-495.07217450000007
 20
769.922821
 11
-485.82217450000007
 21
769.922821
  0
LINE
  8
_0-0_0
  6
CONTINUOUS
 62
    7
 10
-495.32217450000007
 20
769.66595499999994
 11
-495.07217450000007
 21
769.922821
  0
LINE
  8
_0-0_0
  6
CONTINUOUS
 62
    7
 10
-495.32217450000007
 20
769.99856599999998
 11
-495.07217450000007
 21
770.10784899999999
  0
LINE
  8
_0-0_0
  6
CONTINUOUS
 62
    7
 10
-495.07217450000007
 20
770.10784899999999
 11
-485.82217450000007
 21
770.10784899999999
  0
LINE
  8
_0-0_0
  6
CONTINUOUS
 62
    7
 10
-495.32217450000007
 20
769.84097300000008
 11
-495.07217450000007
 21
770.10784899999999
  0
LINE
  8
_0-0_0
  6
CONTINUOUS
 62
    7
 10
-495.32217450000007
 20
770.13699300000007
 11
-495.07217450000007
 21
770.27252199999998
  0
LINE
  8
_0-0_0
  6
CONTINUOUS
 62
    7
 10
-495.07217450000007
 20
770.27252199999998
 11
-485.82217450000007
 21
770.27252199999998
  0
LINE
  8
_0-0_0
  6
CONTINUOUS
 62
    7
 10
-495.32217450000007
 20
769.99856599999998
 11
-495.07217450000007
 21
770.27252199999998
  0
LINE
  8
_0-0_0
  6
CONTINUOUS
 62
    7
 10
-495.32217450000007
 20
770.25476099999992
 11
-495.07217450000007
 21
770.41503899999998
  0
LINE
  8
_0-0_0
  6
CONTINUOUS
 62
    7
 10
-495.07217450000007
 20
770.41503899999998
 11
-485.82217450000007
 21
770.41503899999998
  0
LINE
  8
_0-0_0
  6
CONTINUOUS
 62
    7
 10
-495.32217450000007
 20
770.13699300000007
 11
-495.07217450000007
 21
770.41503899999998
  0
LINE
  8
_0-0_0
  6
CONTINUOUS
 62
    7
 10
-495.32217450000007
 20
770.35052500000006
 11
-495.07217450000007
 21
770.53384400000004
  0
LINE
  8
_0-0_0
  6
CONTINUOUS
 62
    7
 10
-495.07217450000007
 20
770.53384400000004
 11
-485.82217450000007
 21
770.53384400000004
  0
LINE
  8
_0-0_0
  6
CONTINUOUS
 62
    7
 10
-495.32217450000007
 20
770.25476099999992
 11
-495.07217450000007
 21
770.53384400000004
  0
LINE
  8
_0-0_0
  6
CONTINUOUS
 62
    7
 10
-495.32217450000007
 20
770.42330900000002
 11
-495.07217450000007
 21
770.62762500000008
  0
LINE
  8
_0-0_0
  6
CONTINUOUS
 62
    7
 10
-495.07217450000007
 20
770.62762500000008
 11
-485.82217450000007
 21
770.62762500000008
  0
LINE
  8
_0-0_0
  6
CONTINUOUS
 62
    7
 10
-495.32217450000007
 20
770.35052500000006
 11
-495.07217450000007
 21
770.62762500000008
  0
LINE
  8
_0-0_0
  6
CONTINUOUS
 62
    7
 10
-495.32217450000007
 20
770.47228999999993
 11
-495.07217450000007
 21
770.69534299999998
  0
LINE
  8
_0-0_0
  6
CONTINUOUS
 62
    7
 10
-495.07217450000007
 20
770.69534299999998
 11
-485.82217450000007
 21
770.69534299999998
  0
LINE
  8
_0-0_0
  6
CONTINUOUS
 62
    7
 10
-495.32217450000007
 20
770.42330900000002
 11
-495.07217450000007
 21
770.69534299999998
  0
LINE
  8
_0-0_0
  6
CONTINUOUS
 62
    7
 10
-495.32217450000007
 20
770.49688700000002
 11
-495.07217450000007
 21
770.73629800000003
  0
LINE
  8
_0-0_0
  6
CONTINUOUS
 62
    7
 10
-495.07217450000007
 20
770.73629800000003
 11
-485.82217450000007
 21
770.73629800000003
  0
LINE
  8
_0-0_0
  6
CONTINUOUS
 62
    7
 10
-495.32217450000007
 20
770.47228999999993
 11
-495.07217450000007
 21
770.73629800000003
  0
LINE
  8
_0-0_0
  6
CONTINUOUS
 62
    7
 10
-495.07217450000007
 20
770.75
 11
-485.82217450000007
 21
770.75
  0
LINE
  8
_0-0_0
  6
CONTINUOUS
 62
    7
 10
-495.32217450000007
 20
770.49688700000002
 11
-495.07217450000007
 21
770.75
  0
LINE
  8
_0-0_0
  6
CONTINUOUS
 62
    7
 10
-495.32217450000007
 20
766.00305200000003
 11
-495.07217450000007
 21
765.75
  0
LINE
  8
_0-0_0
  6
CONTINUOUS
 62
    7
 10
-495.07217450000007
 20
765.75
 11
-485.82217450000007
 21
765.75
  0
LINE
  8
_0-0_0
  6
CONTINUOUS
 62
    7
 10
-495.32217450000007
 20
766.02767900000003
 11
-495.07217450000007
 21
765.76367200000004
  0
LINE
  8
_0-0_0
  6
CONTINUOUS
 62
    7
 10
-495.07217450000007
 20
765.76367200000004
 11
-485.82217450000007
 21
765.76367200000004
  0
LINE
  8
_0-0_0
  6
CONTINUOUS
 62
    7
 10
-495.32217450000007
 20
766.00305200000003
 11
-495.07217450000007
 21
765.76367200000004
  0
LINE
  8
_0-0_0
  6
CONTINUOUS
 62
    7
 10
-495.32217450000007
 20
766.07665999999995
 11
-495.07217450000007
 21
765.80462599999998
  0
LINE
  8
_0-0_0
  6
CONTINUOUS
 62
    7
 10
-495.07217450000007
 20
765.80462599999998
 11
-485.82217450000007
 21
765.80462599999998
  0
LINE
  8
_0-0_0
  6
CONTINUOUS
 62
    7
 10
-495.32217450000007
 20
766.02767900000003
 11
-495.07217450000007
 21
765.80462599999998
  0
LINE
  8
_0-0_0
  6
CONTINUOUS
 62
    7
 10
-495.32217450000007
 20
766.14941399999998
 11
-495.07217450000007
 21
765.872345
  0
LINE
  8
_0-0_0
  6
CONTINUOUS
 62
    7
 10
-495.07217450000007
 20
765.872345
 11
-485.82217450000007
 21
765.872345
  0
LINE
  8
_0-0_0
  6
CONTINUOUS
 62
    7
 10
-495.32217450000007
 20
766.07665999999995
 11
-495.07217450000007
 21
765.872345
  0
LINE
  8
_0-0_0
  6
CONTINUOUS
 62
    7
 10
-495.32217450000007
 20
766.24520899999993
 11
-495.07217450000007
 21
765.96612499999992
  0
LINE
  8
_0-0_0
  6
CONTINUOUS
 62
    7
 10
-495.07217450000007
 20
765.96612499999992
 11
-485.82217450000007
 21
765.96612499999992
  0
LINE
  8
_0-0_0
  6
CONTINUOUS
 62
    7
 10
-495.32217450000007
 20
766.14941399999998
 11
-495.07217450000007
 21
765.96612499999992
  0
LINE
  8
_0-0_0
  6
CONTINUOUS
 62
    7
 10
-495.07217450000007
 20
766.08492999999999
 11
-485.82217450000007
 21
766.08492999999999
  0
LINE
  8
_0-0_0
  6
CONTINUOUS
 62
    7
 10
-495.19223050000005
 20
766.16137700000002
 11
-495.07217450000007
 21
766.08492999999999
  0
LINE
  8
_0-0_0
  6
CONTINUOUS
 62
    7
 10
-495.32217450000007
 20
766.24520899999993
 11
-495.19223050000005
 21
766.16137700000002
  0
LINE
  8
_0-0_0
  6
CONTINUOUS
 62
    7
 10
-495.32217450000007
 20
766.362976
 11
-495.07217450000007
 21
766.08492999999999
  0
LINE
  8
_0-0_0
  6
CONTINUOUS
 62
    7
 10
-495.32217450000007
 20
766.50140399999998
 11
-495.07217450000007
 21
766.22744799999998
  0
LINE
  8
_0-0_0
  6
CONTINUOUS
 62
    7
 10
-495.07217450000007
 20
766.22744799999998
 11
-485.82217450000007
 21
766.22744799999998
  0
LINE
  8
_0-0_0
  6
CONTINUOUS
 62
    7
 10
-495.32217450000007
 20
766.362976
 11
-495.07217450000007
 21
766.22744799999998
  0
LINE
  8
_0-0_0
  6
CONTINUOUS
 62
    7
 10
-495.32217450000007
 20
766.658997
 11
-495.07217450000007
 21
766.39211999999998
  0
LINE
  8
_0-0_0
  6
CONTINUOUS
 62
    7
 10
-495.07217450000007
 20
766.39211999999998
 11
-485.82217450000007
 21
766.39211999999998
  0
LINE
  8
_0-0_0
  6
CONTINUOUS
 62
    7
 10
-495.32217450000007
 20
766.50140399999998
 11
-495.07217450000007
 21
766.39211999999998
  0
LINE
  8
_0-0_0
  6
CONTINUOUS
 62
    7
 10
-495.32217450000007
 20
766.83401500000002
 11
-495.07217450000007
 21
766.57714800000008
  0
LINE
  8
_0-0_0
  6
CONTINUOUS
 62
    7
 10
-495.07217450000007
 20
766.57714800000008
 11
-485.82217450000007
 21
766.57714800000008
  0
LINE
  8
_0-0_0
  6
CONTINUOUS
 62
    7
 10
-495.32217450000007
 20
766.658997
 11
-495.07217450000007
 21
766.57714800000008
  0
LINE
  8
_0-0_0
  6
CONTINUOUS
 62
    7
 10
-495.32217450000007
 20
767.02453600000001
 11
-495.07217450000007
 21
766.78051800000003
  0
LINE
  8
_0-0_0
  6
CONTINUOUS
 62
    7
 10
-495.07217450000007
 20
766.78051800000003
 11
-485.82217450000007
 21
766.78051800000003
  0
LINE
  8
_0-0_0
  6
CONTINUOUS
 62
    7
 10
-495.32217450000007
 20
766.83401500000002
 11
-495.07217450000007
 21
766.78051800000003
  0
LINE
  8
_0-0_0
  6
CONTINUOUS
 62
    7
 10
-495.32217450000007
 20
767.22851600000001
 11
-495.07217450000007
 21
767
  0
LINE
  8
_0-0_0
  6
CONTINUOUS
 62
    7
 10
-495.07217450000007
 20
767
 11
-485.82217450000007
 21
767
  0
LINE
  8
_0-0_0
  6
CONTINUOUS
 62
    7
 10
-495.32217450000007
 20
767.22851600000001
 11
-485.57217450000007
 21
767.22851600000001
  0
LINE
  8
_0-0_0
  6
CONTINUOUS
 62
    7
 10
-495.32217450000007
 20
767.02453600000001
 11
-495.07217450000007
 21
767
  0
LINE
  8
_0-0_0
  6
CONTINUOUS
 62
    7
 10
-495.32217450000007
 20
767.44366500000001
 11
-495.07217450000007
 21
767.23315400000001
  0
LINE
  8
_0-0_0
  6
CONTINUOUS
 62
    7
 10
-495.07217450000007
 20
767.23315400000001
 11
-485.82217450000007
 21
767.23315400000001
  0
LINE
  8
_0-0_0
  6
CONTINUOUS
 62
    7
 10
-495.32217450000007
 20
767.44366500000001
 11
-485.57217450000007
 21
767.44366500000001
  0
LINE
  8
_0-0_0
  6
CONTINUOUS
 62
    7
 10
-495.32217450000007
 20
767.22851600000001
 11
-495.07217450000007
 21
767.23315400000001
  0
LINE
  8
_0-0_0
  6
CONTINUOUS
 62
    7
 10
-495.32217450000007
 20
767.66763300000002
 11
-495.07217450000007
 21
767.47744799999998
  0
LINE
  8
_0-0_0
  6
CONTINUOUS
 62
    7
 10
-495.07217450000007
 20
767.47744799999998
 11
-485.82217450000007
 21
767.47744799999998
  0
LINE
  8
_0-0_0
  6
CONTINUOUS
 62
    7
 10
-495.32217450000007
 20
767.66763300000002
 11
-485.57217450000007
 21
767.66763300000002
  0
LINE
  8
_0-0_0
  6
CONTINUOUS
 62
    7
 10
-495.32217450000007
 20
767.44366500000001
 11
-495.07217450000007
 21
767.47744799999998
  0
LINE
  8
_0-0_0
  6
CONTINUOUS
 62
    7
 10
-495.32217450000007
 20
767.89801
 11
-495.07217450000007
 21
767.73019399999998
  0
LINE
  8
_0-0_0
  6
CONTINUOUS
 62
    7
 10
-495.07217450000007
 20
767.73019399999998
 11
-485.82217450000007
 21
767.73019399999998
  0
LINE
  8
_0-0_0
  6
CONTINUOUS
 62
    7
 10
-495.32217450000007
 20
767.89801
 11
-485.57217450000007
 21
767.89801
  0
LINE
  8
_0-0_0
  6
CONTINUOUS
 62
    7
 10
-495.32217450000007
 20
767.66763300000002
 11
-495.07217450000007
 21
767.73019399999998
  0
LINE
  8
_0-0_0
  6
CONTINUOUS
 62
    7
 10
-495.32217450000007
 20
768.13223300000004
 11
-495.07217450000007
 21
767.98864700000001
  0
LINE
  8
_0-0_0
  6
CONTINUOUS
 62
    7
 10
-495.07217450000007
 20
767.98864700000001
 11
-485.82217450000007
 21
767.98864700000001
  0
LINE
  8
_0-0_0
  6
CONTINUOUS
 62
    7
 10
-495.32217450000007
 20
768.13223300000004
 11
-485.57217450000007
 21
768.13223300000004
  0
LINE
  8
_0-0_0
  6
CONTINUOUS
 62
    7
 10
-495.32217450000007
 20
767.89801
 11
-495.07217450000007
 21
767.98864700000001
  0
LINE
  8
_0-0_0
  6
CONTINUOUS
 62
    7
 10
-495.32217450000007
 20
768.36773700000003
 11
-495.07217450000007
 21
768.25
  0
LINE
  8
_0-0_0
  6
CONTINUOUS
 62
    7
 10
-495.07217450000007
 20
768.25
 11
-485.82217450000007
 21
768.25
  0
LINE
  8
_0-0_0
  6
CONTINUOUS
 62
    7
 10
-495.32217450000007
 20
768.36773700000003
 11
-485.57217450000007
 21
768.36773700000003
  0
LINE
  8
_0-0_0
  6
CONTINUOUS
 62
    7
 10
-495.32217450000007
 20
768.13223300000004
 11
-495.07217450000007
 21
768.25
  0
LINE
  8
_0-0_0
  6
CONTINUOUS
 62
    7
 10
-495.32217450000007
 20
768.60195900000008
 11
-495.07217450000007
 21
768.51129200000003
  0
LINE
  8
_0-0_0
  6
CONTINUOUS
 62
    7
 10
-495.07217450000007
 20
768.51129200000003
 11
-485.82217450000007
 21
768.51129200000003
  0
LINE
  8
_0-0_0
  6
CONTINUOUS
 62
    7
 10
-495.32217450000007
 20
768.60195900000008
 11
-485.57217450000007
 21
768.60195900000008
  0
LINE
  8
_0-0_0
  6
CONTINUOUS
 62
    7
 10
-495.32217450000007
 20
768.36773700000003
 11
-495.07217450000007
 21
768.51129200000003
  0
LINE
  8
_0-0_0
  6
CONTINUOUS
 62
    7
 10
-495.32217450000007
 20
768.83233599999994
 11
-495.07217450000007
 21
768.76977499999998
  0
LINE
  8
_0-0_0
  6
CONTINUOUS
 62
    7
 10
-495.07217450000007
 20
768.76977499999998
 11
-485.82217450000007
 21
768.76977499999998
  0
LINE
  8
_0-0_0
  6
CONTINUOUS
 62
    7
 10
-495.32217450000007
 20
768.83233599999994
 11
-485.57217450000007
 21
768.83233599999994
  0
LINE
  8
_0-0_0
  6
CONTINUOUS
 62
    7
 10
-495.32217450000007
 20
768.60195900000008
 11
-495.07217450000007
 21
768.76977499999998
  0
LINE
  8
_0-0_0
  6
CONTINUOUS
 62
    7
 10
-495.32217450000007
 20
769.05630500000007
 11
-495.07217450000007
 21
769.02252199999998
  0
LINE
  8
_0-0_0
  6
CONTINUOUS
 62
    7
 10
-495.07217450000007
 20
769.02252199999998
 11
-485.82217450000007
 21
769.02252199999998
  0
LINE
  8
_0-0_0
  6
CONTINUOUS
 62
    7
 10
-495.32217450000007
 20
769.05630500000007
 11
-485.57217450000007
 21
769.05630500000007
  0
LINE
  8
_0-0_0
  6
CONTINUOUS
 62
    7
 10
-495.32217450000007
 20
768.83233599999994
 11
-495.07217450000007
 21
769.02252199999998
  0
LINE
  8
_0-0_0
  6
CONTINUOUS
 62
    7
 10
-495.32217450000007
 20
769.27145399999995
 11
-495.07217450000007
 21
769.26681499999995
  0
LINE
  8
_0-0_0
  6
CONTINUOUS
 62
    7
 10
-495.07217450000007
 20
769.26681499999995
 11
-485.82217450000007
 21
769.26681499999995
  0
LINE
  8
_0-0_0
  6
CONTINUOUS
 62
    7
 10
-495.32217450000007
 20
769.05630500000007
 11
-495.07217450000007
 21
769.26681499999995
  0
LINE
  8
_0-0_0
  6
CONTINUOUS
 62
    7
 10
-495.57217450000007
 20
770.25
 11
-495.57217450000007
 21
766.49481200000002
  0
LINE
  8
_0-0_0
  6
CONTINUOUS
 62
    7
 10
-495.57217450000007
 20
766.49481200000002
 11
-495.57217450000007
 21
766.25
  0
LINE
  8
_0-0_0
  6
CONTINUOUS
 62
    7
 10
-481.9721985000001
 20
764.94998199999998
 11
-481.9721985000001
 21
762.44998199999998
  0
LINE
  8
_0-0_0
  6
CONTINUOUS
 62
    7
 10
-481.9721985000001
 20
762.44998199999998
 11
-481.9721985000001
 21
754.94998199999998
  0
LINE
  8
_0-0_0
  6
CONTINUOUS
 62
    7
 10
-482.77218650000009
 20
764.48809800000004
 11
-482.77218650000009
 21
762.21905500000003
  0
LINE
  8
_0-0_0
  6
CONTINUOUS
 62
    7
 10
-482.77218650000009
 20
762.21905500000003
 11
-482.77218650000009
 21
755.41186500000003
  0
LINE
  8
_0-0_0
  6
CONTINUOUS
 62
    7
 10
-540.77218650000009
 20
763.94998199999998
 11
-540.77218650000009
 21
763.94863899999996
  0
LINE
  8
_0-0_0
  6
CONTINUOUS
 62
    7
 10
-540.77218650000009
 20
763.94863899999996
 11
-540.77218650000009
 21
755.94998199999998
  0
LINE
  8
_0-0_0
  6
CONTINUOUS
 62
    7
 10
-485.57217450000007
 20
749.40307600000006
 11
-485.57217450000007
 21
749.39999399999999
  0
LINE
  8
_0-0_0
  6
CONTINUOUS
 62
    7
 10
-485.57217450000007
 20
749.42770399999995
 11
-485.57217450000007
 21
749.40307600000006
  0
LINE
  8
_0-0_0
  6
CONTINUOUS
 62
    7
 10
-485.57217450000007
 20
749.47665400000005
 11
-485.57217450000007
 21
749.42770399999995
  0
LINE
  8
_0-0_0
  6
CONTINUOUS
 62
    7
 10
-485.57217450000007
 20
749.54943800000001
 11
-485.57217450000007
 21
749.47665400000005
  0
LINE
  8
_0-0_0
  6
CONTINUOUS
 62
    7
 10
-485.57217450000007
 20
749.64520300000004
 11
-485.57217450000007
 21
749.54943800000001
  0
LINE
  8
_0-0_0
  6
CONTINUOUS
 62
    7
 10
-485.57217450000007
 20
749.67541499999993
 11
-485.57217450000007
 21
749.64520300000004
  0
LINE
  8
_0-0_0
  6
CONTINUOUS
 62
    7
 10
-485.57217450000007
 20
749.76297
 11
-485.57217450000007
 21
749.67541499999993
  0
LINE
  8
_0-0_0
  6
CONTINUOUS
 62
    7
 10
-485.57217450000007
 20
749.90139799999997
 11
-485.57217450000007
 21
749.76297
  0
LINE
  8
_0-0_0
  6
CONTINUOUS
 62
    7
 10
-485.57217450000007
 20
750.05898999999999
 11
-485.57217450000007
 21
749.90139799999997
  0
LINE
  8
_0-0_0
  6
CONTINUOUS
 62
    7
 10
-485.57217450000007
 20
750.23400900000001
 11
-485.57217450000007
 21
750.05898999999999
  0
LINE
  8
_0-0_0
  6
CONTINUOUS
 62
    7
 10
-485.57217450000007
 20
750.42453
 11
-485.57217450000007
 21
750.23400900000001
  0
LINE
  8
_0-0_0
  6
CONTINUOUS
 62
    7
 10
-485.57217450000007
 20
750.62851000000001
 11
-485.57217450000007
 21
750.42453
  0
LINE
  8
_0-0_0
  6
CONTINUOUS
 62
    7
 10
-485.57217450000007
 20
750.843658
 11
-485.57217450000007
 21
750.62851000000001
  0
LINE
  8
_0-0_0
  6
CONTINUOUS
 62
    7
 10
-485.57217450000007
 20
751.06762700000002
 11
-485.57217450000007
 21
750.843658
  0
LINE
  8
_0-0_0
  6
CONTINUOUS
 62
    7
 10
-485.57217450000007
 20
751.29800399999999
 11
-485.57217450000007
 21
751.06762700000002
  0
LINE
  8
_0-0_0
  6
CONTINUOUS
 62
    7
 10
-485.57217450000007
 20
751.53222699999992
 11
-485.57217450000007
 21
751.29800399999999
  0
LINE
  8
_0-0_0
  6
CONTINUOUS
 62
    7
 10
-485.57217450000007
 20
751.76773100000003
 11
-485.57217450000007
 21
751.53222699999992
  0
LINE
  8
_0-0_0
  6
CONTINUOUS
 62
    7
 10
-485.57217450000007
 20
752.00195299999996
 11
-485.57217450000007
 21
751.76773100000003
  0
LINE
  8
_0-0_0
  6
CONTINUOUS
 62
    7
 10
-485.57217450000007
 20
752.23233000000005
 11
-485.57217450000007
 21
752.00195299999996
  0
LINE
  8
_0-0_0
  6
CONTINUOUS
 62
    7
 10
-485.57217450000007
 20
752.45629899999994
 11
-485.57217450000007
 21
752.23233000000005
  0
LINE
  8
_0-0_0
  6
CONTINUOUS
 62
    7
 10
-485.57217450000007
 20
752.67144800000005
 11
-485.57217450000007
 21
752.45629899999994
  0
LINE
  8
_0-0_0
  6
CONTINUOUS
 62
    7
 10
-485.57217450000007
 20
752.72869900000001
 11
-485.57217450000007
 21
752.67144800000005
  0
LINE
  8
_0-0_0
  6
CONTINUOUS
 62
    7
 10
-485.57217450000007
 20
749.40307600000006
 11
-485.82217450000007
 21
749.14999399999999
  0
LINE
  8
_0-0_0
  6
CONTINUOUS
 62
    7
 10
-485.57217450000007
 20
749.42770399999995
 11
-485.82217450000007
 21
749.16369600000007
  0
LINE
  8
_0-0_0
  6
CONTINUOUS
 62
    7
 10
-485.57217450000007
 20
749.40307600000006
 11
-485.82217450000007
 21
749.16369600000007
  0
LINE
  8
_0-0_0
  6
CONTINUOUS
 62
    7
 10
-485.57217450000007
 20
749.47665400000005
 11
-485.82217450000007
 21
749.20461999999998
  0
LINE
  8
_0-0_0
  6
CONTINUOUS
 62
    7
 10
-485.57217450000007
 20
749.42770399999995
 11
-485.82217450000007
 21
749.20461999999998
  0
LINE
  8
_0-0_0
  6
CONTINUOUS
 62
    7
 10
-485.57217450000007
 20
749.54943800000001
 11
-485.82217450000007
 21
749.27233899999999
  0
LINE
  8
_0-0_0
  6
CONTINUOUS
 62
    7
 10
-485.57217450000007
 20
749.47665400000005
 11
-485.82217450000007
 21
749.27233899999999
  0
LINE
  8
_0-0_0
  6
CONTINUOUS
 62
    7
 10
-485.57217450000007
 20
749.64520300000004
 11
-485.82217450000007
 21
749.36611900000003
  0
LINE
  8
_0-0_0
  6
CONTINUOUS
 62
    7
 10
-485.57217450000007
 20
749.54943800000001
 11
-485.82217450000007
 21
749.36611900000003
  0
LINE
  8
_0-0_0
  6
CONTINUOUS
 62
    7
 10
-485.57217450000007
 20
749.64520300000004
 11
-485.70214850000002
 21
749.56137100000001
  0
LINE
  8
_0-0_0
  6
CONTINUOUS
 62
    7
 10
-485.57217450000007
 20
749.76297
 11
-485.82217450000007
 21
749.48492399999998
  0
LINE
  8
_0-0_0
  6
CONTINUOUS
 62
    7
 10
-485.70214850000002
 20
749.56137100000001
 11
-485.82217450000007
 21
749.48492399999998
  0
LINE
  8
_0-0_0
  6
CONTINUOUS
 62
    7
 10
-485.57217450000007
 20
749.90139799999997
 11
-485.82217450000007
 21
749.62744099999998
  0
LINE
  8
_0-0_0
  6
CONTINUOUS
 62
    7
 10
-485.57217450000007
 20
749.76297
 11
-485.82217450000007
 21
749.62744099999998
  0
LINE
  8
_0-0_0
  6
CONTINUOUS
 62
    7
 10
-485.57217450000007
 20
750.05898999999999
 11
-485.82217450000007
 21
749.79211400000008
  0
LINE
  8
_0-0_0
  6
CONTINUOUS
 62
    7
 10
-485.57217450000007
 20
749.90139799999997
 11
-485.82217450000007
 21
749.79211400000008
  0
LINE
  8
_0-0_0
  6
CONTINUOUS
 62
    7
 10
-485.57217450000007
 20
750.23400900000001
 11
-485.82217450000007
 21
749.97717299999999
  0
LINE
  8
_0-0_0
  6
CONTINUOUS
 62
    7
 10
-485.57217450000007
 20
750.05898999999999
 11
-485.82217450000007
 21
749.97717299999999
  0
LINE
  8
_0-0_0
  6
CONTINUOUS
 62
    7
 10
-485.57217450000007
 20
750.42453
 11
-485.82217450000007
 21
750.18051100000002
  0
LINE
  8
_0-0_0
  6
CONTINUOUS
 62
    7
 10
-485.57217450000007
 20
750.23400900000001
 11
-485.82217450000007
 21
750.18051100000002
  0
LINE
  8
_0-0_0
  6
CONTINUOUS
 62
    7
 10
-485.57217450000007
 20
750.62851000000001
 11
-485.82217450000007
 21
750.39999399999999
  0
LINE
  8
_0-0_0
  6
CONTINUOUS
 62
    7
 10
-485.57217450000007
 20
750.42453
 11
-485.82217450000007
 21
750.39999399999999
  0
LINE
  8
_0-0_0
  6
CONTINUOUS
 62
    7
 10
-485.57217450000007
 20
750.843658
 11
-485.82217450000007
 21
750.63314800000001
  0
LINE
  8
_0-0_0
  6
CONTINUOUS
 62
    7
 10
-485.57217450000007
 20
750.62851000000001
 11
-485.82217450000007
 21
750.63314800000001
  0
LINE
  8
_0-0_0
  6
CONTINUOUS
 62
    7
 10
-485.57217450000007
 20
751.06762700000002
 11
-485.82217450000007
 21
750.87744099999998
  0
LINE
  8
_0-0_0
  6
CONTINUOUS
 62
    7
 10
-485.57217450000007
 20
750.843658
 11
-485.82217450000007
 21
750.87744099999998
  0
LINE
  8
_0-0_0
  6
CONTINUOUS
 62
    7
 10
-485.57217450000007
 20
751.29800399999999
 11
-485.82217450000007
 21
751.13018799999998
  0
LINE
  8
_0-0_0
  6
CONTINUOUS
 62
    7
 10
-485.57217450000007
 20
751.06762700000002
 11
-485.82217450000007
 21
751.13018799999998
  0
LINE
  8
_0-0_0
  6
CONTINUOUS
 62
    7
 10
-485.57217450000007
 20
751.53222699999992
 11
-485.82217450000007
 21
751.38867200000004
  0
LINE
  8
_0-0_0
  6
CONTINUOUS
 62
    7
 10
-485.57217450000007
 20
751.29800399999999
 11
-485.82217450000007
 21
751.38867200000004
  0
LINE
  8
_0-0_0
  6
CONTINUOUS
 62
    7
 10
-485.57217450000007
 20
751.76773100000003
 11
-485.82217450000007
 21
751.64999399999999
  0
LINE
  8
_0-0_0
  6
CONTINUOUS
 62
    7
 10
-485.57217450000007
 20
751.53222699999992
 11
-485.82217450000007
 21
751.64999399999999
  0
LINE
  8
_0-0_0
  6
CONTINUOUS
 62
    7
 10
-485.57217450000007
 20
752.00195299999996
 11
-485.82217450000007
 21
751.91131599999994
  0
LINE
  8
_0-0_0
  6
CONTINUOUS
 62
    7
 10
-485.57217450000007
 20
751.76773100000003
 11
-485.82217450000007
 21
751.91131599999994
  0
LINE
  8
_0-0_0
  6
CONTINUOUS
 62
    7
 10
-485.57217450000007
 20
752.23233000000005
 11
-485.82217450000007
 21
752.16976899999997
  0
LINE
  8
_0-0_0
  6
CONTINUOUS
 62
    7
 10
-485.57217450000007
 20
752.00195299999996
 11
-485.82217450000007
 21
752.16976899999997
  0
LINE
  8
_0-0_0
  6
CONTINUOUS
 62
    7
 10
-485.57217450000007
 20
752.45629899999994
 11
-485.82217450000007
 21
752.42251599999997
  0
LINE
  8
_0-0_0
  6
CONTINUOUS
 62
    7
 10
-485.57217450000007
 20
752.23233000000005
 11
-485.82217450000007
 21
752.42251599999997
  0
LINE
  8
_0-0_0
  6
CONTINUOUS
 62
    7
 10
-485.57217450000007
 20
752.67144800000005
 11
-485.82217450000007
 21
752.66680900000006
  0
LINE
  8
_0-0_0
  6
CONTINUOUS
 62
    7
 10
-485.57217450000007
 20
752.45629899999994
 11
-485.82217450000007
 21
752.66680900000006
  0
LINE
  8
_0-0_0
  6
CONTINUOUS
 62
    7
 10
-485.57217450000007
 20
752.87542699999995
 11
-485.57217450000007
 21
752.72869900000001
  0
LINE
  8
_0-0_0
  6
CONTINUOUS
 62
    7
 10
-485.57217450000007
 20
752.87542699999995
 11
-485.82217450000007
 21
752.89999399999999
  0
LINE
  8
_0-0_0
  6
CONTINUOUS
 62
    7
 10
-485.57217450000007
 20
752.67144800000005
 11
-485.82217450000007
 21
752.89999399999999
  0
LINE
  8
_0-0_0
  6
CONTINUOUS
 62
    7
 10
-485.57217450000007
 20
753.06594799999993
 11
-485.57217450000007
 21
752.87542699999995
  0
LINE
  8
_0-0_0
  6
CONTINUOUS
 62
    7
 10
-485.57217450000007
 20
753.24096699999996
 11
-485.57217450000007
 21
753.06594799999993
  0
LINE
  8
_0-0_0
  6
CONTINUOUS
 62
    7
 10
-485.57217450000007
 20
753.39855999999997
 11
-485.57217450000007
 21
753.24096699999996
  0
LINE
  8
_0-0_0
  6
CONTINUOUS
 62
    7
 10
-485.57217450000007
 20
753.53698699999995
 11
-485.57217450000007
 21
753.39855999999997
  0
LINE
  8
_0-0_0
  6
CONTINUOUS
 62
    7
 10
-485.57217450000007
 20
753.65475500000002
 11
-485.57217450000007
 21
753.53698699999995
  0
LINE
  8
_0-0_0
  6
CONTINUOUS
 62
    7
 10
-485.57217450000007
 20
753.75054899999998
 11
-485.57217450000007
 21
753.65475500000002
  0
LINE
  8
_0-0_0
  6
CONTINUOUS
 62
    7
 10
-485.57217450000007
 20
753.82330300000001
 11
-485.57217450000007
 21
753.75054899999998
  0
LINE
  8
_0-0_0
  6
CONTINUOUS
 62
    7
 10
-485.57217450000007
 20
753.87228400000004
 11
-485.57217450000007
 21
753.82330300000001
  0
LINE
  8
_0-0_0
  6
CONTINUOUS
 62
    7
 10
-485.57217450000007
 20
753.89999399999999
 11
-485.57217450000007
 21
753.87228400000004
  0
LINE
  8
_0-0_0
  6
CONTINUOUS
 62
    7
 10
-485.57217450000007
 20
753.89999399999999
 11
-485.57217450000007
 21
753.89691199999993
  0
LINE
  8
_0-0_0
  6
CONTINUOUS
 62
    7
 10
-495.32217450000007
 20
749.40307600000006
 11
-495.07217450000007
 21
749.14999399999999
  0
LINE
  8
_0-0_0
  6
CONTINUOUS
 62
    7
 10
-495.07217450000007
 20
749.14999399999999
 11
-485.82217450000007
 21
749.14999399999999
  0
LINE
  8
_0-0_0
  6
CONTINUOUS
 62
    7
 10
-495.32217450000007
 20
749.42770399999995
 11
-495.07217450000007
 21
749.16369600000007
  0
LINE
  8
_0-0_0
  6
CONTINUOUS
 62
    7
 10
-495.07217450000007
 20
749.16369600000007
 11
-485.82217450000007
 21
749.16369600000007
  0
LINE
  8
_0-0_0
  6
CONTINUOUS
 62
    7
 10
-495.32217450000007
 20
749.40307600000006
 11
-495.07217450000007
 21
749.16369600000007
  0
LINE
  8
_0-0_0
  6
CONTINUOUS
 62
    7
 10
-495.32217450000007
 20
749.47665400000005
 11
-495.07217450000007
 21
749.20461999999998
  0
LINE
  8
_0-0_0
  6
CONTINUOUS
 62
    7
 10
-495.07217450000007
 20
749.20461999999998
 11
-485.82217450000007
 21
749.20461999999998
  0
LINE
  8
_0-0_0
  6
CONTINUOUS
 62
    7
 10
-495.32217450000007
 20
749.42770399999995
 11
-495.07217450000007
 21
749.20461999999998
  0
LINE
  8
_0-0_0
  6
CONTINUOUS
 62
    7
 10
-495.32217450000007
 20
749.54943800000001
 11
-495.07217450000007
 21
749.27233899999999
  0
LINE
  8
_0-0_0
  6
CONTINUOUS
 62
    7
 10
-495.07217450000007
 20
749.27233899999999
 11
-485.82217450000007
 21
749.27233899999999
  0
LINE
  8
_0-0_0
  6
CONTINUOUS
 62
    7
 10
-495.32217450000007
 20
749.47665400000005
 11
-495.07217450000007
 21
749.27233899999999
  0
LINE
  8
_0-0_0
  6
CONTINUOUS
 62
    7
 10
-495.32217450000007
 20
749.64520300000004
 11
-495.07217450000007
 21
749.36611900000003
  0
LINE
  8
_0-0_0
  6
CONTINUOUS
 62
    7
 10
-495.07217450000007
 20
749.36611900000003
 11
-485.82217450000007
 21
749.36611900000003
  0
LINE
  8
_0-0_0
  6
CONTINUOUS
 62
    7
 10
-495.32217450000007
 20
749.54943800000001
 11
-495.07217450000007
 21
749.36611900000003
  0
LINE
  8
_0-0_0
  6
CONTINUOUS
 62
    7
 10
-495.07217450000007
 20
749.48492399999998
 11
-485.82217450000007
 21
749.48492399999998
  0
LINE
  8
_0-0_0
  6
CONTINUOUS
 62
    7
 10
-495.19223050000005
 20
749.56137100000001
 11
-495.07217450000007
 21
749.48492399999998
  0
LINE
  8
_0-0_0
  6
CONTINUOUS
 62
    7
 10
-495.32217450000007
 20
749.64520300000004
 11
-495.19223050000005
 21
749.56137100000001
  0
LINE
  8
_0-0_0
  6
CONTINUOUS
 62
    7
 10
-495.32217450000007
 20
749.76297
 11
-495.07217450000007
 21
749.48492399999998
  0
LINE
  8
_0-0_0
  6
CONTINUOUS
 62
    7
 10
-495.32217450000007
 20
749.90139799999997
 11
-495.07217450000007
 21
749.62744099999998
  0
LINE
  8
_0-0_0
  6
CONTINUOUS
 62
    7
 10
-495.07217450000007
 20
749.62744099999998
 11
-485.82217450000007
 21
749.62744099999998
  0
LINE
  8
_0-0_0
  6
CONTINUOUS
 62
    7
 10
-495.32217450000007
 20
749.76297
 11
-495.07217450000007
 21
749.62744099999998
  0
LINE
  8
_0-0_0
  6
CONTINUOUS
 62
    7
 10
-495.32217450000007
 20
750.05898999999999
 11
-495.07217450000007
 21
749.79211400000008
  0
LINE
  8
_0-0_0
  6
CONTINUOUS
 62
    7
 10
-495.07217450000007
 20
749.79211400000008
 11
-485.82217450000007
 21
749.79211400000008
  0
LINE
  8
_0-0_0
  6
CONTINUOUS
 62
    7
 10
-495.32217450000007
 20
749.90139799999997
 11
-495.07217450000007
 21
749.79211400000008
  0
LINE
  8
_0-0_0
  6
CONTINUOUS
 62
    7
 10
-495.32217450000007
 20
750.23400900000001
 11
-495.07217450000007
 21
749.97717299999999
  0
LINE
  8
_0-0_0
  6
CONTINUOUS
 62
    7
 10
-495.07217450000007
 20
749.97717299999999
 11
-485.82217450000007
 21
749.97717299999999
  0
LINE
  8
_0-0_0
  6
CONTINUOUS
 62
    7
 10
-495.32217450000007
 20
750.05898999999999
 11
-495.07217450000007
 21
749.97717299999999
  0
LINE
  8
_0-0_0
  6
CONTINUOUS
 62
    7
 10
-495.32217450000007
 20
750.42453
 11
-495.07217450000007
 21
750.18051100000002
  0
LINE
  8
_0-0_0
  6
CONTINUOUS
 62
    7
 10
-495.07217450000007
 20
750.18051100000002
 11
-485.82217450000007
 21
750.18051100000002
  0
LINE
  8
_0-0_0
  6
CONTINUOUS
 62
    7
 10
-495.32217450000007
 20
750.23400900000001
 11
-495.07217450000007
 21
750.18051100000002
  0
LINE
  8
_0-0_0
  6
CONTINUOUS
 62
    7
 10
-495.32217450000007
 20
750.62851000000001
 11
-495.07217450000007
 21
750.39999399999999
  0
LINE
  8
_0-0_0
  6
CONTINUOUS
 62
    7
 10
-495.07217450000007
 20
750.39999399999999
 11
-485.82217450000007
 21
750.39999399999999
  0
LINE
  8
_0-0_0
  6
CONTINUOUS
 62
    7
 10
-495.32217450000007
 20
750.62851000000001
 11
-485.57217450000007
 21
750.62851000000001
  0
LINE
  8
_0-0_0
  6
CONTINUOUS
 62
    7
 10
-495.32217450000007
 20
750.42453
 11
-495.07217450000007
 21
750.39999399999999
  0
LINE
  8
_0-0_0
  6
CONTINUOUS
 62
    7
 10
-495.32217450000007
 20
750.843658
 11
-495.07217450000007
 21
750.63314800000001
  0
LINE
  8
_0-0_0
  6
CONTINUOUS
 62
    7
 10
-495.07217450000007
 20
750.63314800000001
 11
-485.82217450000007
 21
750.63314800000001
  0
LINE
  8
_0-0_0
  6
CONTINUOUS
 62
    7
 10
-495.32217450000007
 20
750.843658
 11
-485.57217450000007
 21
750.843658
  0
LINE
  8
_0-0_0
  6
CONTINUOUS
 62
    7
 10
-495.32217450000007
 20
750.62851000000001
 11
-495.07217450000007
 21
750.63314800000001
  0
LINE
  8
_0-0_0
  6
CONTINUOUS
 62
    7
 10
-495.32217450000007
 20
751.06762700000002
 11
-495.07217450000007
 21
750.87744099999998
  0
LINE
  8
_0-0_0
  6
CONTINUOUS
 62
    7
 10
-495.07217450000007
 20
750.87744099999998
 11
-485.82217450000007
 21
750.87744099999998
  0
LINE
  8
_0-0_0
  6
CONTINUOUS
 62
    7
 10
-495.32217450000007
 20
751.06762700000002
 11
-485.57217450000007
 21
751.06762700000002
  0
LINE
  8
_0-0_0
  6
CONTINUOUS
 62
    7
 10
-495.32217450000007
 20
750.843658
 11
-495.07217450000007
 21
750.87744099999998
  0
LINE
  8
_0-0_0
  6
CONTINUOUS
 62
    7
 10
-495.32217450000007
 20
751.29800399999999
 11
-495.07217450000007
 21
751.13018799999998
  0
LINE
  8
_0-0_0
  6
CONTINUOUS
 62
    7
 10
-495.07217450000007
 20
751.13018799999998
 11
-485.82217450000007
 21
751.13018799999998
  0
LINE
  8
_0-0_0
  6
CONTINUOUS
 62
    7
 10
-495.32217450000007
 20
751.29800399999999
 11
-485.57217450000007
 21
751.29800399999999
  0
LINE
  8
_0-0_0
  6
CONTINUOUS
 62
    7
 10
-495.32217450000007
 20
751.06762700000002
 11
-495.07217450000007
 21
751.13018799999998
  0
LINE
  8
_0-0_0
  6
CONTINUOUS
 62
    7
 10
-495.32217450000007
 20
751.53222699999992
 11
-495.07217450000007
 21
751.38867200000004
  0
LINE
  8
_0-0_0
  6
CONTINUOUS
 62
    7
 10
-495.07217450000007
 20
751.38867200000004
 11
-485.82217450000007
 21
751.38867200000004
  0
LINE
  8
_0-0_0
  6
CONTINUOUS
 62
    7
 10
-495.32217450000007
 20
751.53222699999992
 11
-485.57217450000007
 21
751.53222699999992
  0
LINE
  8
_0-0_0
  6
CONTINUOUS
 62
    7
 10
-495.32217450000007
 20
751.29800399999999
 11
-495.07217450000007
 21
751.38867200000004
  0
LINE
  8
_0-0_0
  6
CONTINUOUS
 62
    7
 10
-495.32217450000007
 20
751.76773100000003
 11
-495.07217450000007
 21
751.64999399999999
  0
LINE
  8
_0-0_0
  6
CONTINUOUS
 62
    7
 10
-495.07217450000007
 20
751.64999399999999
 11
-485.82217450000007
 21
751.64999399999999
  0
LINE
  8
_0-0_0
  6
CONTINUOUS
 62
    7
 10
-495.32217450000007
 20
751.76773100000003
 11
-485.57217450000007
 21
751.76773100000003
  0
LINE
  8
_0-0_0
  6
CONTINUOUS
 62
    7
 10
-495.32217450000007
 20
751.53222699999992
 11
-495.07217450000007
 21
751.64999399999999
  0
LINE
  8
_0-0_0
  6
CONTINUOUS
 62
    7
 10
-495.32217450000007
 20
752.00195299999996
 11
-495.07217450000007
 21
751.91131599999994
  0
LINE
  8
_0-0_0
  6
CONTINUOUS
 62
    7
 10
-495.07217450000007
 20
751.91131599999994
 11
-485.82217450000007
 21
751.91131599999994
  0
LINE
  8
_0-0_0
  6
CONTINUOUS
 62
    7
 10
-495.32217450000007
 20
752.00195299999996
 11
-485.57217450000007
 21
752.00195299999996
  0
LINE
  8
_0-0_0
  6
CONTINUOUS
 62
    7
 10
-495.32217450000007
 20
751.76773100000003
 11
-495.07217450000007
 21
751.91131599999994
  0
LINE
  8
_0-0_0
  6
CONTINUOUS
 62
    7
 10
-495.32217450000007
 20
752.23233000000005
 11
-495.07217450000007
 21
752.16976899999997
  0
LINE
  8
_0-0_0
  6
CONTINUOUS
 62
    7
 10
-495.07217450000007
 20
752.16976899999997
 11
-485.82217450000007
 21
752.16976899999997
  0
LINE
  8
_0-0_0
  6
CONTINUOUS
 62
    7
 10
-495.32217450000007
 20
752.23233000000005
 11
-485.57217450000007
 21
752.23233000000005
  0
LINE
  8
_0-0_0
  6
CONTINUOUS
 62
    7
 10
-495.32217450000007
 20
752.00195299999996
 11
-495.07217450000007
 21
752.16976899999997
  0
LINE
  8
_0-0_0
  6
CONTINUOUS
 62
    7
 10
-495.32217450000007
 20
752.45629899999994
 11
-495.07217450000007
 21
752.42251599999997
  0
LINE
  8
_0-0_0
  6
CONTINUOUS
 62
    7
 10
-495.07217450000007
 20
752.42251599999997
 11
-485.82217450000007
 21
752.42251599999997
  0
LINE
  8
_0-0_0
  6
CONTINUOUS
 62
    7
 10
-495.32217450000007
 20
752.45629899999994
 11
-485.57217450000007
 21
752.45629899999994
  0
LINE
  8
_0-0_0
  6
CONTINUOUS
 62
    7
 10
-495.32217450000007
 20
752.23233000000005
 11
-495.07217450000007
 21
752.42251599999997
  0
LINE
  8
_0-0_0
  6
CONTINUOUS
 62
    7
 10
-495.32217450000007
 20
752.67144800000005
 11
-495.07217450000007
 21
752.66680900000006
  0
LINE
  8
_0-0_0
  6
CONTINUOUS
 62
    7
 10
-495.07217450000007
 20
752.66680900000006
 11
-485.82217450000007
 21
752.66680900000006
  0
LINE
  8
_0-0_0
  6
CONTINUOUS
 62
    7
 10
-495.32217450000007
 20
752.67144800000005
 11
-485.57217450000007
 21
752.67144800000005
  0
LINE
  8
_0-0_0
  6
CONTINUOUS
 62
    7
 10
-495.32217450000007
 20
752.45629899999994
 11
-495.07217450000007
 21
752.66680900000006
  0
LINE
  8
_0-0_0
  6
CONTINUOUS
 62
    7
 10
-495.32217450000007
 20
752.87542699999995
 11
-495.07217450000007
 21
752.89999399999999
  0
LINE
  8
_0-0_0
  6
CONTINUOUS
 62
    7
 10
-495.07217450000007
 20
752.89999399999999
 11
-485.82217450000007
 21
752.89999399999999
  0
LINE
  8
_0-0_0
  6
CONTINUOUS
 62
    7
 10
-495.32217450000007
 20
752.67144800000005
 11
-495.07217450000007
 21
752.89999399999999
  0
LINE
  8
_0-0_0
  6
CONTINUOUS
 62
    7
 10
-485.57217450000007
 20
753.06594799999993
 11
-485.82217450000007
 21
753.11944599999993
  0
LINE
  8
_0-0_0
  6
CONTINUOUS
 62
    7
 10
-485.57217450000007
 20
752.87542699999995
 11
-485.82217450000007
 21
753.11944599999993
  0
LINE
  8
_0-0_0
  6
CONTINUOUS
 62
    7
 10
-485.57217450000007
 20
753.24096699999996
 11
-485.82217450000007
 21
753.32281499999999
  0
LINE
  8
_0-0_0
  6
CONTINUOUS
 62
    7
 10
-485.57217450000007
 20
753.06594799999993
 11
-485.82217450000007
 21
753.32281499999999
  0
LINE
  8
_0-0_0
  6
CONTINUOUS
 62
    7
 10
-485.57217450000007
 20
753.39855999999997
 11
-485.82217450000007
 21
753.50784299999998
  0
LINE
  8
_0-0_0
  6
CONTINUOUS
 62
    7
 10
-485.57217450000007
 20
753.24096699999996
 11
-485.82217450000007
 21
753.50784299999998
  0
LINE
  8
_0-0_0
  6
CONTINUOUS
 62
    7
 10
-485.57217450000007
 20
753.53698699999995
 11
-485.82217450000007
 21
753.67251599999997
  0
LINE
  8
_0-0_0
  6
CONTINUOUS
 62
    7
 10
-485.57217450000007
 20
753.39855999999997
 11
-485.82217450000007
 21
753.67251599999997
  0
LINE
  8
_0-0_0
  6
CONTINUOUS
 62
    7
 10
-485.57217450000007
 20
753.65475500000002
 11
-485.82217450000007
 21
753.81506300000001
  0
LINE
  8
_0-0_0
  6
CONTINUOUS
 62
    7
 10
-485.57217450000007
 20
753.53698699999995
 11
-485.82217450000007
 21
753.81506300000001
  0
LINE
  8
_0-0_0
  6
CONTINUOUS
 62
    7
 10
-485.57217450000007
 20
753.75054899999998
 11
-485.82217450000007
 21
753.93383799999992
  0
LINE
  8
_0-0_0
  6
CONTINUOUS
 62
    7
 10
-485.57217450000007
 20
753.65475500000002
 11
-485.82217450000007
 21
753.93383799999992
  0
LINE
  8
_0-0_0
  6
CONTINUOUS
 62
    7
 10
-485.57217450000007
 20
753.82330300000001
 11
-485.82217450000007
 21
754.02761800000007
  0
LINE
  8
_0-0_0
  6
CONTINUOUS
 62
    7
 10
-485.57217450000007
 20
753.75054899999998
 11
-485.82217450000007
 21
754.02761800000007
  0
LINE
  8
_0-0_0
  6
CONTINUOUS
 62
    7
 10
-485.57217450000007
 20
753.87228400000004
 11
-485.82217450000007
 21
754.09533699999997
  0
LINE
  8
_0-0_0
  6
CONTINUOUS
 62
    7
 10
-485.57217450000007
 20
753.82330300000001
 11
-485.82217450000007
 21
754.09533699999997
  0
LINE
  8
_0-0_0
  6
CONTINUOUS
 62
    7
 10
-485.57217450000007
 20
753.89691199999993
 11
-485.82217450000007
 21
754.13629200000003
  0
LINE
  8
_0-0_0
  6
CONTINUOUS
 62
    7
 10
-485.57217450000007
 20
753.87228400000004
 11
-485.82217450000007
 21
754.13629200000003
  0
LINE
  8
_0-0_0
  6
CONTINUOUS
 62
    7
 10
-485.57217450000007
 20
753.89691199999993
 11
-485.82217450000007
 21
754.14999399999999
  0
LINE
  8
_0-0_0
  6
CONTINUOUS
 62
    7
 10
-495.57217450000007
 20
749.89483599999994
 11
-495.57217450000007
 21
749.64999399999999
  0
LINE
  8
_0-0_0
  6
CONTINUOUS
 62
    7
 10
-495.32217450000007
 20
752.87542699999995
 11
-495.07217450000007
 21
753.11944599999993
  0
LINE
  8
_0-0_0
  6
CONTINUOUS
 62
    7
 10
-495.32217450000007
 20
753.06594799999993
 11
-495.07217450000007
 21
753.11944599999993
  0
LINE
  8
_0-0_0
  6
CONTINUOUS
 62
    7
 10
-495.32217450000007
 20
753.06594799999993
 11
-495.07217450000007
 21
753.32281499999999
  0
LINE
  8
_0-0_0
  6
CONTINUOUS
 62
    7
 10
-495.32217450000007
 20
753.24096699999996
 11
-495.07217450000007
 21
753.32281499999999
  0
LINE
  8
_0-0_0
  6
CONTINUOUS
 62
    7
 10
-495.32217450000007
 20
753.24096699999996
 11
-495.07217450000007
 21
753.50784299999998
  0
LINE
  8
_0-0_0
  6
CONTINUOUS
 62
    7
 10
-495.32217450000007
 20
753.39855999999997
 11
-495.07217450000007
 21
753.50784299999998
  0
LINE
  8
_0-0_0
  6
CONTINUOUS
 62
    7
 10
-495.32217450000007
 20
753.39855999999997
 11
-495.07217450000007
 21
753.67251599999997
  0
LINE
  8
_0-0_0
  6
CONTINUOUS
 62
    7
 10
-495.32217450000007
 20
753.53698699999995
 11
-495.07217450000007
 21
753.67251599999997
  0
LINE
  8
_0-0_0
  6
CONTINUOUS
 62
    7
 10
-495.32217450000007
 20
753.53698699999995
 11
-495.07217450000007
 21
753.81506300000001
  0
LINE
  8
_0-0_0
  6
CONTINUOUS
 62
    7
 10
-495.32217450000007
 20
753.65475500000002
 11
-495.07217450000007
 21
753.81506300000001
  0
LINE
  8
_0-0_0
  6
CONTINUOUS
 62
    7
 10
-495.32217450000007
 20
753.65475500000002
 11
-495.07217450000007
 21
753.93383799999992
  0
LINE
  8
_0-0_0
  6
CONTINUOUS
 62
    7
 10
-495.32217450000007
 20
753.75054899999998
 11
-495.07217450000007
 21
753.93383799999992
  0
LINE
  8
_0-0_0
  6
CONTINUOUS
 62
    7
 10
-495.32217450000007
 20
753.75054899999998
 11
-495.07217450000007
 21
754.02761800000007
  0
LINE
  8
_0-0_0
  6
CONTINUOUS
 62
    7
 10
-495.32217450000007
 20
753.82330300000001
 11
-495.07217450000007
 21
754.02761800000007
  0
LINE
  8
_0-0_0
  6
CONTINUOUS
 62
    7
 10
-495.32217450000007
 20
753.82330300000001
 11
-495.07217450000007
 21
754.09533699999997
  0
LINE
  8
_0-0_0
  6
CONTINUOUS
 62
    7
 10
-495.32217450000007
 20
753.87228400000004
 11
-495.07217450000007
 21
754.09533699999997
  0
LINE
  8
_0-0_0
  6
CONTINUOUS
 62
    7
 10
-495.32217450000007
 20
753.87228400000004
 11
-495.07217450000007
 21
754.13629200000003
  0
LINE
  8
_0-0_0
  6
CONTINUOUS
 62
    7
 10
-495.32217450000007
 20
753.89691199999993
 11
-495.07217450000007
 21
754.13629200000003
  0
LINE
  8
_0-0_0
  6
CONTINUOUS
 62
    7
 10
-495.32217450000007
 20
753.89691199999993
 11
-495.07217450000007
 21
754.14999399999999
  0
LINE
  8
_0-0_0
  6
CONTINUOUS
 62
    7
 10
-495.57217450000007
 20
753.64999399999999
 11
-495.57217450000007
 21
749.89483599999994
  0
LINE
  8
_0-0_0
  6
CONTINUOUS
 62
    7
 10
-495.07217450000007
 20
753.11944599999993
 11
-485.82217450000007
 21
753.11944599999993
  0
LINE
  8
_0-0_0
  6
CONTINUOUS
 62
    7
 10
-495.07217450000007
 20
753.32281499999999
 11
-485.82217450000007
 21
753.32281499999999
  0
LINE
  8
_0-0_0
  6
CONTINUOUS
 62
    7
 10
-495.07217450000007
 20
753.50784299999998
 11
-485.82217450000007
 21
753.50784299999998
  0
LINE
  8
_0-0_0
  6
CONTINUOUS
 62
    7
 10
-495.07217450000007
 20
753.67251599999997
 11
-485.82217450000007
 21
753.67251599999997
  0
LINE
  8
_0-0_0
  6
CONTINUOUS
 62
    7
 10
-495.07217450000007
 20
753.81506300000001
 11
-485.82217450000007
 21
753.81506300000001
  0
LINE
  8
_0-0_0
  6
CONTINUOUS
 62
    7
 10
-495.07217450000007
 20
753.93383799999992
 11
-485.82217450000007
 21
753.93383799999992
  0
LINE
  8
_0-0_0
  6
CONTINUOUS
 62
    7
 10
-495.07217450000007
 20
754.02761800000007
 11
-485.82217450000007
 21
754.02761800000007
  0
LINE
  8
_0-0_0
  6
CONTINUOUS
 62
    7
 10
-495.07217450000007
 20
754.09533699999997
 11
-485.82217450000007
 21
754.09533699999997
  0
LINE
  8
_0-0_0
  6
CONTINUOUS
 62
    7
 10
-495.07217450000007
 20
754.13629200000003
 11
-485.82217450000007
 21
754.13629200000003
  0
LINE
  8
_0-0_0
  6
CONTINUOUS
 62
    7
 10
-495.07217450000007
 20
754.14999399999999
 11
-485.82217450000007
 21
754.14999399999999
  0
LINE
  8
_0-0_0
  6
CONTINUOUS
 62
    7
 10
-459.57217450000007
 20
770.5
 11
-485.57217450000007
 21
770.5
  0
LINE
  8
_0-0_0
  6
CONTINUOUS
 62
    7
 10
-459.57217450000007
 20
766
 11
-485.57217450000007
 21
766
  0
LINE
  8
_0-0_0
  6
CONTINUOUS
 62
    7
 10
-358.57217450000007
 20
753.89999399999999
 11
-356.11651649999999
 21
753.89999399999999
  0
LINE
  8
_0-0_0
  6
CONTINUOUS
 62
    7
 10
-356.61758450000002
 20
749.39999399999999
 11
-356.11651649999999
 21
749.39999399999999
  0
LINE
  8
_0-0_0
  6
CONTINUOUS
 62
    7
 10
-485.57217450000007
 20
770.5
 11
-485.82217450000007
 21
770.75
  0
LINE
  8
_0-0_0
  6
CONTINUOUS
 62
    7
 10
-485.57217450000007
 20
766
 11
-485.82217450000007
 21
765.75
  0
LINE
  8
_0-0_0
  6
CONTINUOUS
 62
    7
 10
-355.9721985000001
 20
753.64999399999999
 11
-356.11651649999999
 21
753.89999399999999
  0
LINE
  8
_0-0_0
  6
CONTINUOUS
 62
    7
 10
-355.9721985000001
 20
749.64999399999999
 11
-356.11651649999999
 21
749.39999399999999
  0
LINE
  8
_0-0_0
  6
CONTINUOUS
 62
    7
 10
-481.57217450000007
 20
754.69998199999998
 11
-480.32217450000007
 21
753.44998199999998
  0
LINE
  8
_0-0_0
  6
CONTINUOUS
 62
    7
 10
-481.57217450000007
 20
765.19998199999998
 11
-480.77218650000009
 21
765.99996899999996
  0
LINE
  8
_0-0_0
  6
CONTINUOUS
 62
    7
 10
-495.57217450000007
 20
770.25
 11
-495.07235750000018
 21
770.74981700000001
  0
LINE
  8
_0-0_0
  6
CONTINUOUS
 62
    7
 10
-495.57217450000007
 20
766.25
 11
-495.07235750000018
 21
765.75015299999995
  0
LINE
  8
_0-0_0
  6
CONTINUOUS
 62
    7
 10
-481.57217450000007
 20
764.94998199999998
 11
-481.9721985000001
 21
764.94998199999998
  0
LINE
  8
_0-0_0
  6
CONTINUOUS
 62
    7
 10
-481.57217450000007
 20
754.94998199999998
 11
-481.9721985000001
 21
754.94998199999998
  0
LINE
  8
_0-0_0
  6
CONTINUOUS
 62
    7
 10
-482.77218650000009
 20
764.48809800000004
 11
-481.9721985000001
 21
764.94998199999998
  0
LINE
  8
_0-0_0
  6
CONTINUOUS
 62
    7
 10
-482.77218650000009
 20
755.41186500000003
 11
-481.9721985000001
 21
754.94998199999998
  0
LINE
  8
_0-0_0
  6
CONTINUOUS
 62
    7
 10
-482.77218650000009
 20
763.94998199999998
 11
-540.77218650000009
 21
763.94998199999998
  0
LINE
  8
_0-0_0
  6
CONTINUOUS
 62
    7
 10
-482.77218650000009
 20
755.94998199999998
 11
-540.77218650000009
 21
755.94998199999998
  0
LINE
  8
_0-0_0
  6
CONTINUOUS
 62
    7
 10
-465.32223550000003
 20
749.39999399999999
 11
-485.57217450000007
 21
749.39999399999999
  0
LINE
  8
_0-0_0
  6
CONTINUOUS
 62
    7
 10
-485.57217450000007
 20
749.39999399999999
 11
-485.82217450000007
 21
749.14999399999999
  0
LINE
  8
_0-0_0
  6
CONTINUOUS
 62
    7
 10
-480.77218650000009
 20
753.89999399999999
 11
-485.57217450000007
 21
753.89999399999999
  0
LINE
  8
_0-0_0
  6
CONTINUOUS
 62
    7
 10
-485.57217450000007
 20
753.89999399999999
 11
-485.82217450000007
 21
754.14999399999999
  0
LINE
  8
_0-0_0
  6
CONTINUOUS
 62
    7
 10
-495.57217450000007
 20
749.64999399999999
 11
-495.07235750000018
 21
749.15014599999995
  0
LINE
  8
_0-0_0
  6
CONTINUOUS
 62
    7
 10
-495.57217450000007
 20
753.64999399999999
 11
-495.07235750000018
 21
754.14984099999992
  0
LINE
  8
_0-0_0
  6
CONTINUOUS
 62
    7
 10
-573.68322750000016
 20
780.14999399999999
 11
-573.58313050000015
 21
780.14999399999999
  0
LINE
  8
_0-0_0
  6
CONTINUOUS
 62
    7
 10
-573.58313050000015
 20
779.88034100000004
 11
-573.58313050000015
 21
780.14999399999999
  0
LINE
  8
_0-0_0
  6
CONTINUOUS
 62
    7
 10
-573.68322750000016
 20
780.25
 11
-573.68322750000016
 21
780.75
  0
LINE
  8
_0-0_0
  6
CONTINUOUS
 62
    7
 10
-573.68322750000016
 20
780.25
 11
-573.68322750000016
 21
776.25
  0
LINE
  8
_0-0_0
  6
CONTINUOUS
 62
    7
 10
-573.68322750000016
 20
775.75
 11
-573.68322750000016
 21
776.25
  0
LINE
  8
_0-0_0
  6
CONTINUOUS
 62
    7
 10
-573.58313050000015
 20
779.88034100000004
 11
-573.58313050000015
 21
776.38034100000004
  0
LINE
  8
_0-0_0
  6
CONTINUOUS
 62
    7
 10
-573.58313050000015
 20
776.25
 11
-573.58313050000015
 21
776.38034100000004
  0
LINE
  8
_0-0_0
  6
CONTINUOUS
 62
    7
 10
-573.78320350000013
 20
780.75
 11
-573.68322750000016
 21
780.75
  0
LINE
  8
_0-0_0
  6
CONTINUOUS
 62
    7
 10
-573.78320350000013
 20
775.75
 11
-573.68322750000016
 21
775.75
  0
LINE
  8
_0-0_0
  6
CONTINUOUS
 62
    7
 10
-569.08313050000015
 20
802.14999399999999
 11
-569.08313050000015
 21
789.14999399999999
  0
LINE
  8
_0-0_0
  6
CONTINUOUS
 62
    7
 10
-568.88317850000021
 20
802.14999399999999
 11
-569.08313050000015
 21
802.14999399999999
  0
LINE
  8
_0-0_0
  6
CONTINUOUS
 62
    7
 10
-568.88317850000021
 20
789.14999399999999
 11
-569.08313050000015
 21
789.14999399999999
  0
LINE
  8
_0-0_0
  6
CONTINUOUS
 62
    7
 10
-568.88317850000021
 20
802.14999399999999
 11
-568.88317850000021
 21
820.75
  0
LINE
  8
_0-0_0
  6
CONTINUOUS
 62
    7
 10
-568.78320350000013
 20
820.75
 11
-568.88317850000021
 21
820.75
  0
LINE
  8
_0-0_0
  6
CONTINUOUS
 62
    7
 10
-568.78320350000013
 20
823.25
 11
-568.78320350000013
 21
820.75
  0
ARC
  8
_0-0_0
  6
CONTINUOUS
 62
    7
 10
-569.28320350000013
 20
823.25
 40
0.5
 50
0
 51
90.000003000000007
  0
LINE
  8
_0-0_0
  6
CONTINUOUS
 62
    7
 10
-569.28320350000013
 20
823.75
 11
-572.28320350000013
 21
823.75
  0
ARC
  8
_0-0_0
  6
CONTINUOUS
 62
    7
 10
-572.28320350000013
 20
823.25
 40
0.5
 50
90.000003000000007
 51
179.99999099999999
  0
ARC
  8
_0-0_0
  6
CONTINUOUS
 62
    7
 10
-576.78320350000013
 20
775.75
 40
0.5
 50
179.99999099999999
 51
269.99999700000001
  0
LINE
  8
_0-0_0
  6
CONTINUOUS
 62
    7
 10
-574.28320350000013
 20
775.25
 11
-576.78320350000013
 21
775.25
  0
ARC
  8
_0-0_0
  6
CONTINUOUS
 62
    7
 10
-574.28320350000013
 20
775.75
 40
0.5
 50
269.99999700000001
 51
0
  0
LINE
  8
_0-0_0
  6
CONTINUOUS
 62
    7
 10
-573.78320350000013
 20
780.75
 11
-573.78320350000013
 21
775.75
  0
ARC
  8
_0-0_0
  6
CONTINUOUS
 62
    7
 10
-573.28320350000013
 20
780.75
 40
0.5
 50
90.000003000000007
 51
179.99999099999999
  0
LINE
  8
_0-0_0
  6
CONTINUOUS
 62
    7
 10
-569.28320350000013
 20
781.25
 11
-573.28320350000013
 21
781.25
  0
ARC
  8
_0-0_0
  6
CONTINUOUS
 62
    7
 10
-569.28320350000013
 20
781.75
 40
0.5
 50
269.99999700000001
 51
0
  0
LINE
  8
_0-0_0
  6
CONTINUOUS
 62
    7
 10
-568.78320350000013
 20
784.94998199999998
 11
-568.78320350000013
 21
781.75
  0
LINE
  8
_0-0_0
  6
CONTINUOUS
 62
    7
 10
-568.88317850000021
 20
784.94998199999998
 11
-568.78320350000013
 21
784.94998199999998
  0
LINE
  8
_0-0_0
  6
CONTINUOUS
 62
    7
 10
-568.88317850000021
 20
784.94998199999998
 11
-568.88317850000021
 21
789.14999399999999
  0
LINE
  8
_0-0_0
  6
CONTINUOUS
 62
    7
 10
-569.78320350000013
 20
823.25
 11
-587.58313050000015
 21
823.25
  0
ARC
  8
_0-0_0
  6
CONTINUOUS
 62
    7
 10
-569.78320350000013
 20
822.75
 40
0.5
 50
0
 51
90.000003000000007
  0
LINE
  8
_0-0_0
  6
CONTINUOUS
 62
    7
 10
-569.28320350000013
 20
822.75
 11
-569.28320350000013
 21
782.25
  0
ARC
  8
_0-0_0
  6
CONTINUOUS
 62
    7
 10
-569.78320350000013
 20
782.25
 40
0.5
 50
269.99999700000001
 51
0
  0
LINE
  8
_0-0_0
  6
CONTINUOUS
 62
    7
 10
-573.28320350000013
 20
781.75
 11
-569.78320350000013
 21
781.75
  0
ARC
  8
_0-0_0
  6
CONTINUOUS
 62
    7
 10
-573.28320350000013
 20
780.75
 40
1
 50
90.000003000000007
 51
179.99999099999999
  0
LINE
  8
_0-0_0
  6
CONTINUOUS
 62
    7
 10
-574.28320350000013
 20
780.75
 11
-574.28320350000013
 21
776.25
  0
ARC
  8
_0-0_0
  6
CONTINUOUS
 62
    7
 10
-574.78320350000013
 20
776.25
 40
0.5
 50
269.99999700000001
 51
0
  0
LINE
  8
_0-0_0
  6
CONTINUOUS
 62
    7
 10
-591.78320350000013
 20
775.75
 11
-574.78320350000013
 21
775.75
  0
LINE
  8
_0-0_0
  6
CONTINUOUS
 62
    7
 10
-573.28320350000013
 20
823.44998199999998
 11
-573.28320350000013
 21
823.25
  0
ARC
  8
_0-0_0
  6
CONTINUOUS
 62
    7
 10
-573.58313050000015
 20
823.44998199999998
 40
0.2999999999999999
 50
0
 51
90.000003000000007
  0
LINE
  8
_0-0_0
  6
CONTINUOUS
 62
    7
 10
-573.58313050000015
 20
823.75
 11
-588.28320350000013
 21
823.75
  0
ARC
  8
_0-0_0
  6
CONTINUOUS
 62
    7
 10
-588.28320350000013
 20
823.44998199999998
 40
0.2999999999999999
 50
90.000003000000007
 51
179.99999099999999
  0
LINE
  8
_0-0_0
  6
CONTINUOUS
 62
    7
 10
-588.58313050000015
 20
823.44998199999998
 11
-588.58313050000015
 21
820.25
  0
LINE
  8
_0-0_0
  6
CONTINUOUS
 62
    7
 10
-588.58313050000015
 20
820.25
 11
-594.28320350000013
 21
820.25
  0
LINE
  8
_0-0_0
  6
CONTINUOUS
 62
    7
 10
-594.28320350000013
 20
820.25
 11
-595.08313050000015
 21
819.44998199999998
  0
ARC
  8
_0-0_0
  6
CONTINUOUS
 62
    7
 10
-587.58313050000015
 20
822.75
 40
0.5
 50
90.000003000000007
 51
179.99999099999999
  0
LINE
  8
_0-0_0
  6
CONTINUOUS
 62
    7
 10
-588.08313050000015
 20
822.75
 11
-588.08313050000015
 21
819.94998199999998
  0
ARC
  8
_0-0_0
  6
CONTINUOUS
 62
    7
 10
-588.58313050000015
 20
819.94998199999998
 40
0.5
 50
269.99999700000001
 51
0
  0
LINE
  8
_0-0_0
  6
CONTINUOUS
 62
    7
 10
-588.58313050000015
 20
819.44998199999998
 11
-596.78320350000013
 21
819.44998199999998
  0
ARC
  8
_0-0_0
  6
CONTINUOUS
 62
    7
 10
-596.78320350000013
 20
818.94998199999998
 40
0.5
 50
90.000003000000007
 51
179.99999099999999
  0
LINE
  8
_0-0_0
  6
CONTINUOUS
 62
    7
 10
-597.28320350000013
 20
782.25
 11
-597.28320350000013
 21
818.94998199999998
  0
ARC
  8
_0-0_0
  6
CONTINUOUS
 62
    7
 10
-596.78320350000013
 20
782.25
 40
0.5
 50
179.99999099999999
 51
269.99999700000001
  0
LINE
  8
_0-0_0
  6
CONTINUOUS
 62
    7
 10
-596.78320350000013
 20
781.75
 11
-593.28320350000013
 21
781.75
  0
ARC
  8
_0-0_0
  6
CONTINUOUS
 62
    7
 10
-593.28320350000013
 20
780.75
 40
1
 50
0
 51
90.000003000000007
  0
LINE
  8
_0-0_0
  6
CONTINUOUS
 62
    7
 10
-592.28320350000013
 20
776.25
 11
-592.28320350000013
 21
780.75
  0
ARC
  8
_0-0_0
  6
CONTINUOUS
 62
    7
 10
-591.78320350000013
 20
776.25
 40
0.5
 50
179.99999099999999
 51
269.99999700000001
  0
CIRCLE
  8
_0-0_0
  6
CONTINUOUS
 62
    7
 10
-583.28320350000013
 20
784.75
 40
2.0670000000000002
  0
LINE
  8
_0-0_0
  6
CONTINUOUS
 62
    7
 10
-595.28320350000013
 20
819.75
 11
-595.28320350000013
 21
819.44998199999998
  0
LINE
  8
_0-0_0
  6
CONTINUOUS
 62
    7
 10
-595.28320350000013
 20
819.75
 11
-597.28320350000013
 21
819.75
  0
ARC
  8
_0-0_0
  6
CONTINUOUS
 62
    7
 10
-597.28320350000013
 20
819.25
 40
0.5
 50
90.000003000000007
 51
179.99999099999999
  0
LINE
  8
_0-0_0
  6
CONTINUOUS
 62
    7
 10
-597.78320350000013
 20
819.25
 11
-597.78320350000013
 21
781.75
  0
ARC
  8
_0-0_0
  6
CONTINUOUS
 62
    7
 10
-597.28320350000013
 20
781.75
 40
0.5
 50
179.99999099999999
 51
269.99999700000001
  0
LINE
  8
_0-0_0
  6
CONTINUOUS
 62
    7
 10
-593.28320350000013
 20
781.25
 11
-597.28320350000013
 21
781.25
  0
ARC
  8
_0-0_0
  6
CONTINUOUS
 62
    7
 10
-593.28320350000013
 20
780.75
 40
0.5
 50
0
 51
90.000003000000007
  0
LINE
  8
_0-0_0
  6
CONTINUOUS
 62
    7
 10
-592.78320350000013
 20
775.75
 11
-592.78320350000013
 21
780.75
  0
ARC
  8
_0-0_0
  6
CONTINUOUS
 62
    7
 10
-592.28320350000013
 20
775.75
 40
0.5
 50
179.99999099999999
 51
269.99999700000001
  0
LINE
  8
_0-0_0
  6
CONTINUOUS
 62
    7
 10
-592.28320350000013
 20
775.25
 11
-589.78320350000013
 21
775.25
  0
ARC
  8
_0-0_0
  6
CONTINUOUS
 62
    7
 10
-589.78320350000013
 20
775.75
 40
0.5
 50
269.99999700000001
 51
0
  0
LINE
  8
_0-0_0
  6
CONTINUOUS
 62
    7
 10
-573.68322750000016
 20
776.25
 11
-573.58313050000015
 21
776.25
  0
LINE
  8
_0-0_0
  6
CONTINUOUS
 62
    7
 10
-573.68322750000016
 20
776.25
 11
-573.58313050000015
 21
776.25
  0
LINE
  8
_0-0_0
  6
CONTINUOUS
 62
    7
 10
-592.08313050000015
 20
773.25
 11
-587.88317850000021
 21
773.25
  0
LINE
  8
_0-0_0
  6
CONTINUOUS
 62
    7
 10
-576.28320350000013
 20
773.25
 11
-578.68322750000016
 21
773.25
  0
LINE
  8
_0-0_0
  6
CONTINUOUS
 62
    7
 10
-576.28320350000013
 20
773.25
 11
-575.08313050000015
 21
773.25
  0
ARC
  8
_0-0_0
  6
CONTINUOUS
 62
    7
 10
-575.08313050000015
 20
772.75
 40
0.5
 50
0
 51
90.000003000000007
  0
ARC
  8
_0-0_0
  6
CONTINUOUS
 62
    7
 10
-576.28320350000013
 20
772.75
 40
0.5
 50
90.000003000000007
 51
179.99999099999999
  0
ARC
  8
_0-0_0
  6
CONTINUOUS
 62
    7
 10
-578.68322750000016
 20
773.75
 40
0.5
 50
179.99999099999999
 51
269.99999700000001
  0
ARC
  8
_0-0_0
  6
CONTINUOUS
 62
    7
 10
-587.88317850000021
 20
773.75
 40
0.5
 50
269.99999700000001
 51
0
  0
ARC
  8
_0-0_0
  6
CONTINUOUS
 62
    7
 10
-592.08313050000015
 20
772.75
 40
0.5
 50
90.000003000000007
 51
179.99999099999999
  0
LINE
  8
_0-0_0
  6
CONTINUOUS
 62
    7
 10
-591.08313050000015
 20
773.75
 11
-591.08313050000015
 21
773.25
  0
ARC
  8
_0-0_0
  6
CONTINUOUS
 62
    7
 10
-590.58313050000015
 20
773.75
 40
0.5
 50
90.000003000000007
 51
179.99999099999999
  0
LINE
  8
_0-0_0
  6
CONTINUOUS
 62
    7
 10
-589.08313050000015
 20
774.25
 11
-590.58313050000015
 21
774.25
  0
ARC
  8
_0-0_0
  6
CONTINUOUS
 62
    7
 10
-589.08313050000015
 20
775.25
 40
1
 50
269.99999700000001
 51
0
  0
LINE
  8
_0-0_0
  6
CONTINUOUS
 62
    7
 10
-588.08313050000015
 20
775.75
 11
-588.08313050000015
 21
775.25
  0
LINE
  8
_0-0_0
  6
CONTINUOUS
 62
    7
 10
-587.58313050000015
 20
775.75
 11
-587.58313050000015
 21
774.75
  0
ARC
  8
_0-0_0
  6
CONTINUOUS
 62
    7
 10
-589.08313050000015
 20
774.75
 40
1.5
 50
269.99999700000001
 51
0
  0
ARC
  8
_0-0_0
  6
CONTINUOUS
 62
    7
 10
-577.48315450000018
 20
774.75
 40
1.5
 50
179.99999099999999
 51
269.99999700000001
  0
LINE
  8
_0-0_0
  6
CONTINUOUS
 62
    7
 10
-575.48315450000018
 20
773.75
 11
-575.48315450000018
 21
773.25
  0
ARC
  8
_0-0_0
  6
CONTINUOUS
 62
    7
 10
-575.98315450000018
 20
773.75
 40
0.5
 50
0
 51
90.000003000000007
  0
LINE
  8
_0-0_0
  6
CONTINUOUS
 62
    7
 10
-577.48315450000018
 20
774.25
 11
-575.98315450000018
 21
774.25
  0
ARC
  8
_0-0_0
  6
CONTINUOUS
 62
    7
 10
-577.48315450000018
 20
775.25
 40
1
 50
179.99999099999999
 51
269.99999700000001
  0
LINE
  8
_0-0_0
  6
CONTINUOUS
 62
    7
 10
-578.48315450000018
 20
775.75
 11
-578.48315450000018
 21
775.25
  0
LINE
  8
_0-0_0
  6
CONTINUOUS
 62
    7
 10
-578.98315450000018
 20
775.75
 11
-578.98315450000018
 21
774.75
  0
LINE
  8
_0-0_0
  6
CONTINUOUS
 62
    7
 10
-574.58313050000015
 20
746.25
 11
-574.58313050000015
 21
747.14999399999999
  0
LINE
  8
_0-0_0
  6
CONTINUOUS
 62
    7
 10
-574.58313050000015
 20
747.14999399999999
 11
-574.58313050000015
 21
749.64999399999999
  0
LINE
  8
_0-0_0
  6
CONTINUOUS
 62
    7
 10
-574.58313050000015
 20
749.64999399999999
 11
-574.58313050000015
 21
770.25
  0
LINE
  8
_0-0_0
  6
CONTINUOUS
 62
    7
 10
-574.58313050000015
 20
770.25
 11
-574.58313050000015
 21
772.75
  0
LINE
  8
_0-0_0
  6
CONTINUOUS
 62
    7
 10
-576.78320350000013
 20
772.75
 11
-576.78320350000013
 21
771.50497399999995
  0
LINE
  8
_0-0_0
  6
CONTINUOUS
 62
    7
 10
-579.18322750000016
 20
773.75
 11
-579.18322750000016
 21
775.54998799999998
  0
ARC
  8
_0-0_0
  6
CONTINUOUS
 62
    7
 10
-579.68322750000016
 20
775.54998799999998
 40
0.5
 50
0
 51
23.579369
  0
LINE
  8
_0-0_0
  6
CONTINUOUS
 62
    7
 10
-587.38317850000021
 20
773.75
 11
-587.38317850000021
 21
775.54998799999998
  0
ARC
  8
_0-0_0
  6
CONTINUOUS
 62
    7
 10
-586.88317850000021
 20
775.54998799999998
 40
0.5
 50
156.420635
 51
179.99999099999999
  0
LINE
  8
_0-0_0
  6
CONTINUOUS
 62
    7
 10
-592.58313050000015
 20
746.25
 11
-592.58313050000015
 21
756.44998199999998
  0
LINE
  8
_0-0_0
  6
CONTINUOUS
 62
    7
 10
-592.58313050000015
 20
756.44998199999998
 11
-592.58313050000015
 21
757.44998199999998
  0
LINE
  8
_0-0_0
  6
CONTINUOUS
 62
    7
 10
-592.58313050000015
 20
757.44998199999998
 11
-592.58313050000015
 21
762.44998199999998
  0
LINE
  8
_0-0_0
  6
CONTINUOUS
 62
    7
 10
-592.58313050000015
 20
762.44998199999998
 11
-592.58313050000015
 21
763.44998199999998
  0
LINE
  8
_0-0_0
  6
CONTINUOUS
 62
    7
 10
-592.58313050000015
 20
772.75
 11
-592.58313050000015
 21
763.44998199999998
  0
LINE
  8
_0-0_0
  6
CONTINUOUS
 62
    7
 10
-573.78320350000013
 20
771.75
 11
-574.58313050000015
 21
771.75
  0
LINE
  8
_0-0_0
  6
CONTINUOUS
 62
    7
 10
-573.78320350000013
 20
772.54998799999998
 11
-574.58313050000015
 21
772.54998799999998
  0
LINE
  8
_0-0_0
  6
CONTINUOUS
 62
    7
 10
-573.78320350000013
 20
771.54998799999998
 11
-573.78320350000013
 21
772.54998799999998
  0
LINE
  8
_0-0_0
  6
CONTINUOUS
 62
    7
 10
-573.78320350000013
 20
752.94998199999998
 11
-574.58313050000015
 21
752.94998199999998
  0
LINE
  8
_0-0_0
  6
CONTINUOUS
 62
    7
 10
-573.78320350000013
 20
752.94998199999998
 11
-573.78320350000013
 21
755.94998199999998
  0
LINE
  8
_0-0_0
  6
CONTINUOUS
 62
    7
 10
-573.78320350000013
 20
768.18768299999999
 11
-573.78320350000013
 21
755.94998199999998
  0
LINE
  8
_0-0_0
  6
CONTINUOUS
 62
    7
 10
-573.78320350000013
 20
768.18768299999999
 11
-573.78320350000013
 21
769.15045199999997
  0
LINE
  8
_0-0_0
  6
CONTINUOUS
 62
    7
 10
-574.58313050000015
 20
769.15045199999997
 11
-574.58313050000015
 21
771.75
  0
ARC
  8
_0-0_0
  6
CONTINUOUS
 62
    7
 10
-580.19812050000019
 20
768.43203700000004
 40
5.7120379999999997
 50
18.558475999999999
 51
26.433648000000002
  0
ARC
  8
_0-0_0
  6
CONTINUOUS
 62
    7
 10
-574.78320350000013
 20
770.25
 40
0.2
 50
269.99999700000001
 51
0
  0
ARC
  8
_0-0_0
  6
CONTINUOUS
 62
    7
 10
-574.78320350000013
 20
749.64999399999999
 40
0.2
 50
0
 51
90.000003000000007
  0
ARC
  8
_0-0_0
  6
CONTINUOUS
 62
    7
 10
-580.19799850000004
 20
751.46801800000003
 40
5.711964
 50
333.565022
 51
341.44031000000001
  0
ARC
  8
_0-0_0
  6
CONTINUOUS
 62
    7
 10
-575.08313050000015
 20
747.14999399999999
 40
0.5
 50
269.99999700000001
 51
0
  0
LINE
  8
_0-0_0
  6
CONTINUOUS
 62
    7
 10
-575.08313050000015
 20
746.25
 11
-574.58313050000015
 21
746.25
  0
LINE
  8
_0-0_0
  6
CONTINUOUS
 62
    7
 10
-574.58313050000015
 20
746.25
 11
-575.08313050000015
 21
745.75
  0
ARC
  8
_0-0_0
  6
CONTINUOUS
 62
    7
 10
-576.78320350000013
 20
768.75
 40
2.2999999999999998
 50
34.417387999999995
 51
79.713437000000013
  0
LINE
  8
_0-0_0
  6
CONTINUOUS
 62
    7
 10
-574.84448250000014
 20
770.04998799999998
 11
-574.88586450000003
 21
770.04998799999998
  0
LINE
  8
_0-0_0
  6
CONTINUOUS
 62
    7
 10
-574.84448250000014
 20
770.04998799999998
 11
-574.83496150000019
 21
770.05102499999998
  0
LINE
  8
_0-0_0
  6
CONTINUOUS
 62
    7
 10
-574.83496150000019
 20
770.05102499999998
 11
-574.8254394999999
 21
770.05419899999993
  0
LINE
  8
_0-0_0
  6
CONTINUOUS
 62
    7
 10
-574.8254394999999
 20
770.05419899999993
 11
-574.81616250000002
 21
770.05960099999993
  0
LINE
  8
_0-0_0
  6
CONTINUOUS
 62
    7
 10
-574.81616250000002
 20
770.05960099999993
 11
-574.80737350000004
 21
770.06710799999996
  0
LINE
  8
_0-0_0
  6
CONTINUOUS
 62
    7
 10
-574.80737350000004
 20
770.06710799999996
 11
-574.79199250000011
 21
770.08776899999998
  0
LINE
  8
_0-0_0
  6
CONTINUOUS
 62
    7
 10
-574.79199250000011
 20
770.08776899999998
 11
-574.78027350000002
 21
770.11502100000007
  0
LINE
  8
_0-0_0
  6
CONTINUOUS
 62
    7
 10
-574.78027350000002
 20
770.11502100000007
 11
-574.77307150000001
 21
770.147156
  0
LINE
  8
_0-0_0
  6
CONTINUOUS
 62
    7
 10
-574.77307150000001
 20
770.147156
 11
-574.77111850000006
 21
770.18221999999992
  0
LINE
  8
_0-0_0
  6
CONTINUOUS
 62
    7
 10
-574.77111850000006
 20
770.18221999999992
 11
-574.7750245000002
 21
770.21838400000001
  0
LINE
  8
_0-0_0
  6
CONTINUOUS
 62
    7
 10
-574.7750245000002
 20
770.21838400000001
 11
-574.78320350000013
 21
770.25
  0
ARC
  8
_0-0_0
  6
CONTINUOUS
 62
    7
 10
-576.28320350000013
 20
771.50497399999995
 40
0.5
 50
179.99999099999999
 51
259.71343899999994
  0
LINE
  8
_0-0_0
  6
CONTINUOUS
 62
    7
 10
-591.78320350000013
 20
768.75
 11
-591.78320350000013
 21
755.14999399999999
  0
LINE
  8
_0-0_0
  6
CONTINUOUS
 62
    7
 10
-591.78320350000013
 20
754.64999399999999
 11
-591.78320350000013
 21
755.14999399999999
  0
LINE
  8
_0-0_0
  6
CONTINUOUS
 62
    7
 10
-591.78320350000013
 20
751.64999399999999
 11
-591.78320350000013
 21
754.64999399999999
  0
LINE
  8
_0-0_0
  6
CONTINUOUS
 62
    7
 10
-591.78320350000013
 20
751.14999399999999
 11
-591.78320350000013
 21
751.64999399999999
  0
ARC
  8
_0-0_0
  6
CONTINUOUS
 62
    7
 10
-589.78320350000013
 20
768.75
 40
2
 50
93.840255999999997
 51
179.99999099999999
  0
LINE
  8
_0-0_0
  6
CONTINUOUS
 62
    7
 10
-589.78320350000013
 20
770.75
 11
-580.78320350000013
 21
770.75
  0
LINE
  8
_0-0_0
  6
CONTINUOUS
 62
    7
 10
-576.78320350000013
 20
770.75
 11
-577.28320350000013
 21
770.75
  0
LINE
  8
_0-0_0
  6
CONTINUOUS
 62
    7
 10
-577.28320350000013
 20
770.75
 11
-580.28320350000013
 21
770.75
  0
LINE
  8
_0-0_0
  6
CONTINUOUS
 62
    7
 10
-580.78320350000013
 20
770.75
 11
-580.28320350000013
 21
770.75
  0
ARC
  8
_0-0_0
  6
CONTINUOUS
 62
    7
 10
-576.78320350000013
 20
768.75
 40
2
 50
0
 51
90.000003000000007
  0
LINE
  8
_0-0_0
  6
CONTINUOUS
 62
    7
 10
-592.78320350000013
 20
771.75
 11
-592.58313050000015
 21
771.75
  0
LINE
  8
_0-0_0
  6
CONTINUOUS
 62
    7
 10
-592.78320350000013
 20
772.54998799999998
 11
-592.58313050000015
 21
772.54998799999998
  0
LINE
  8
_0-0_0
  6
CONTINUOUS
 62
    7
 10
-592.78320350000013
 20
772.54998799999998
 11
-592.78320350000013
 21
771.75012199999992
  0
LINE
  8
_0-0_0
  6
CONTINUOUS
 62
    7
 10
-592.78320350000013
 20
752.94998199999998
 11
-592.58313050000015
 21
752.94998199999998
  0
LINE
  8
_0-0_0
  6
CONTINUOUS
 62
    7
 10
-592.78320350000013
 20
755.94998199999998
 11
-592.78320350000013
 21
752.94998199999998
  0
LINE
  8
_0-0_0
  6
CONTINUOUS
 62
    7
 10
-592.78320350000013
 20
768.18768299999999
 11
-592.78320350000013
 21
755.94998199999998
  0
LINE
  8
_0-0_0
  6
CONTINUOUS
 62
    7
 10
-592.78320350000013
 20
769.15045199999997
 11
-592.78320350000013
 21
768.18768299999999
  0
ARC
  8
_0-0_0
  6
CONTINUOUS
 62
    7
 10
-592.08313050000015
 20
762.44998199999998
 40
0.5
 50
90.000003000000007
 51
179.99999099999999
  0
ARC
  8
_0-0_0
  6
CONTINUOUS
 62
    7
 10
-592.08313050000015
 20
757.44998199999998
 40
0.5
 50
179.99999099999999
 51
269.99999700000001
  0
LINE
  8
_0-0_0
  6
CONTINUOUS
 62
    7
 10
-592.58313050000015
 20
746.25
 11
-592.08313050000015
 21
746.25
  0
LINE
  8
_0-0_0
  6
CONTINUOUS
 62
    7
 10
-592.58313050000015
 20
746.25
 11
-592.08313050000015
 21
745.75
  0
LINE
  8
_0-0_0
  6
CONTINUOUS
 62
    7
 10
-574.58313050000015
 20
752.95001200000002
 11
-574.58313050000015
 21
751.79998799999998
  0
ARC
  8
_0-0_0
  6
CONTINUOUS
 62
    7
 10
-576.98315450000018
 20
751.79998799999998
 40
2.3999999999999999
 50
359.58604600000001
 51
0.0000099999999787
  0
LINE
  8
_0-0_0
  6
CONTINUOUS
 62
    7
 10
-573.78320350000013
 20
769.15045199999997
 11
-573.78320350000013
 21
771.75
  0
LINE
  8
_0-0_0
  6
CONTINUOUS
 62
    7
 10
-574.78320350000013
 20
770.04998799999998
 11
-574.84448250000014
 21
770.04998799999998
  0
LINE
  8
_0-0_0
  6
CONTINUOUS
 62
    7
 10
-574.88586450000003
 20
770.04998799999998
 11
-574.88806150000005
 21
770.04998799999998
  0
LINE
  8
_0-0_0
  6
CONTINUOUS
 62
    7
 10
-575.08313050000015
 20
746.25
 11
-592.08313050000015
 21
746.25
  0
LINE
  8
_0-0_0
  6
CONTINUOUS
 62
    7
 10
-575.01977549999992
 20
750.04998799999998
 11
-574.98278849999997
 21
749.97976700000004
  0
LINE
  8
_0-0_0
  6
CONTINUOUS
 62
    7
 10
-574.98278849999997
 20
749.97976700000004
 11
-574.96313450000002
 21
749.94528200000002
  0
LINE
  8
_0-0_0
  6
CONTINUOUS
 62
    7
 10
-574.96313450000002
 20
749.94528200000002
 11
-574.93713350000007
 21
749.90344200000004
  0
LINE
  8
_0-0_0
  6
CONTINUOUS
 62
    7
 10
-574.93713350000007
 20
749.90344200000004
 11
-574.92382850000013
 21
749.88439900000003
  0
LINE
  8
_0-0_0
  6
CONTINUOUS
 62
    7
 10
-574.92382850000013
 20
749.88439900000003
 11
-574.90539549999994
 21
749.86200000000008
  0
LINE
  8
_0-0_0
  6
CONTINUOUS
 62
    7
 10
-574.90539549999994
 20
749.86200000000008
 11
-574.89270050000005
 21
749.85137899999995
  0
LINE
  8
_0-0_0
  6
CONTINUOUS
 62
    7
 10
-574.89270050000005
 20
749.85137899999995
 11
-574.88806150000005
 21
749.84997599999997
  0
LINE
  8
_0-0_0
  6
CONTINUOUS
 62
    7
 10
-574.88586450000003
 20
749.84997599999997
 11
-574.88806150000005
 21
749.84997599999997
  0
LINE
  8
_0-0_0
  6
CONTINUOUS
 62
    7
 10
-575.01977549999992
 20
769.84997599999997
 11
-574.98278849999997
 21
769.92022700000007
  0
LINE
  8
_0-0_0
  6
CONTINUOUS
 62
    7
 10
-574.98278849999997
 20
769.92022700000007
 11
-574.96313450000002
 21
769.95468099999994
  0
LINE
  8
_0-0_0
  6
CONTINUOUS
 62
    7
 10
-574.96313450000002
 20
769.95468099999994
 11
-574.93713350000007
 21
769.99652100000003
  0
LINE
  8
_0-0_0
  6
CONTINUOUS
 62
    7
 10
-574.93713350000007
 20
769.99652100000003
 11
-574.92382850000013
 21
770.01556400000004
  0
LINE
  8
_0-0_0
  6
CONTINUOUS
 62
    7
 10
-574.92382850000013
 20
770.01556400000004
 11
-574.90539549999994
 21
770.03796399999999
  0
LINE
  8
_0-0_0
  6
CONTINUOUS
 62
    7
 10
-574.90539549999994
 20
770.03796399999999
 11
-574.89270050000005
 21
770.04858400000001
  0
LINE
  8
_0-0_0
  6
CONTINUOUS
 62
    7
 10
-574.89270050000005
 20
770.04858400000001
 11
-574.88806150000005
 21
770.04998799999998
  0
LINE
  8
_0-0_0
  6
CONTINUOUS
 62
    7
 10
-574.88586450000003
 20
749.84997599999997
 11
-574.84448250000014
 21
749.84997599999997
  0
LINE
  8
_0-0_0
  6
CONTINUOUS
 62
    7
 10
-574.78320350000013
 20
749.84997599999997
 11
-574.84448250000014
 21
749.84997599999997
  0
LINE
  8
_0-0_0
  6
CONTINUOUS
 62
    7
 10
-574.84448250000014
 20
749.84997599999997
 11
-574.83496150000019
 21
749.84893799999998
  0
LINE
  8
_0-0_0
  6
CONTINUOUS
 62
    7
 10
-574.83496150000019
 20
749.84893799999998
 11
-574.8254394999999
 21
749.84576399999992
  0
LINE
  8
_0-0_0
  6
CONTINUOUS
 62
    7
 10
-574.8254394999999
 20
749.84576399999992
 11
-574.81616250000002
 21
749.84036300000002
  0
LINE
  8
_0-0_0
  6
CONTINUOUS
 62
    7
 10
-574.81616250000002
 20
749.84036300000002
 11
-574.80737350000004
 21
749.832855
  0
LINE
  8
_0-0_0
  6
CONTINUOUS
 62
    7
 10
-574.80737350000004
 20
749.832855
 11
-574.79199250000011
 21
749.81222500000001
  0
LINE
  8
_0-0_0
  6
CONTINUOUS
 62
    7
 10
-574.79199250000011
 20
749.81222500000001
 11
-574.78027350000002
 21
749.784943
  0
LINE
  8
_0-0_0
  6
CONTINUOUS
 62
    7
 10
-574.78027350000002
 20
749.784943
 11
-574.77307150000001
 21
749.75280799999996
  0
LINE
  8
_0-0_0
  6
CONTINUOUS
 62
    7
 10
-574.77307150000001
 20
749.75280799999996
 11
-574.77111850000006
 21
749.71774299999993
  0
LINE
  8
_0-0_0
  6
CONTINUOUS
 62
    7
 10
-574.77111850000006
 20
749.71774299999993
 11
-574.7750245000002
 21
749.68157999999994
  0
LINE
  8
_0-0_0
  6
CONTINUOUS
 62
    7
 10
-574.7750245000002
 20
749.68157999999994
 11
-574.78320350000013
 21
749.64999399999999
  0
ARC
  8
_0-0_0
  6
CONTINUOUS
 62
    7
 10
-576.78320350000013
 20
751.14999399999999
 40
2.2999999999999998
 50
280.28656300000006
 51
325.58260500000006
  0
LINE
  8
_0-0_0
  6
CONTINUOUS
 62
    7
 10
-575.08313050000015
 20
746.64999399999999
 11
-576.28320350000013
 21
746.64999399999999
  0
LINE
  8
_0-0_0
  6
CONTINUOUS
 62
    7
 10
-575.08313050000015
 20
745.75
 11
-592.08313050000015
 21
745.75
  0
LINE
  8
_0-0_0
  6
CONTINUOUS
 62
    7
 10
-591.78320350000013
 20
762.94998199999998
 11
-592.08313050000015
 21
762.94998199999998
  0
ARC
  8
_0-0_0
  6
CONTINUOUS
 62
    7
 10
-591.28320350000013
 20
755.14999399999999
 40
0.5
 50
179.99999099999999
 51
269.99999700000001
  0
CIRCLE
  8
_0-0_0
  6
CONTINUOUS
 62
    7
 10
-589.28320350000013
 20
751.64999399999999
 40
2.5
  0
LINE
  8
_0-0_0
  6
CONTINUOUS
 62
    7
 10
-586.28320350000013
 20
749.14999399999999
 11
-589.28320350000013
 21
749.14999399999999
  0
LINE
  8
_0-0_0
  6
CONTINUOUS
 62
    7
 10
-585.78320350000013
 20
749.14999399999999
 11
-586.28320350000013
 21
749.14999399999999
  0
ARC
  8
_0-0_0
  6
CONTINUOUS
 62
    7
 10
-589.78320350000013
 20
751.14999399999999
 40
2
 50
179.99999099999999
 51
269.99999700000001
  0
LINE
  8
_0-0_0
  6
CONTINUOUS
 62
    7
 10
-589.28320350000013
 20
749.14999399999999
 11
-589.78320350000013
 21
749.14999399999999
  0
LINE
  8
_0-0_0
  6
CONTINUOUS
 62
    7
 10
-589.78320350000013
 20
770.64733899999999
 11
-589.79907249999997
 21
770.67459099999996
  0
LINE
  8
_0-0_0
  6
CONTINUOUS
 62
    7
 10
-589.79907249999997
 20
770.67459099999996
 11
-589.81494150000003
 21
770.69757099999993
  0
LINE
  8
_0-0_0
  6
CONTINUOUS
 62
    7
 10
-589.81494150000003
 20
770.69757099999993
 11
-589.82885750000014
 21
770.71432499999992
  0
LINE
  8
_0-0_0
  6
CONTINUOUS
 62
    7
 10
-589.82885750000014
 20
770.71432499999992
 11
-589.84277350000002
 21
770.72766100000001
  0
LINE
  8
_0-0_0
  6
CONTINUOUS
 62
    7
 10
-589.84277350000002
 20
770.72766100000001
 11
-589.85498050000001
 21
770.73660300000006
  0
LINE
  8
_0-0_0
  6
CONTINUOUS
 62
    7
 10
-589.85498050000001
 20
770.73660300000006
 11
-589.8671875
 21
770.74279799999999
  0
LINE
  8
_0-0_0
  6
CONTINUOUS
 62
    7
 10
-589.8671875
 20
770.74279799999999
 11
-589.87805150000008
 21
770.74609400000008
  0
LINE
  8
_0-0_0
  6
CONTINUOUS
 62
    7
 10
-589.87805150000008
 20
770.74609400000008
 11
-589.88879450000013
 21
770.74713100000008
  0
LINE
  8
_0-0_0
  6
CONTINUOUS
 62
    7
 10
-589.88879450000013
 20
770.74713100000008
 11
-589.89123549999999
 21
770.74707000000001
  0
LINE
  8
_0-0_0
  6
CONTINUOUS
 62
    7
 10
-574.78320350000013
 20
768.25
 11
-574.78320350000013
 21
768.75
  0
CIRCLE
  8
_0-0_0
  6
CONTINUOUS
 62
    7
 10
-577.28320350000013
 20
768.25
 40
2.5
  0
LINE
  8
_0-0_0
  6
CONTINUOUS
 62
    7
 10
-574.78320350000013
 20
765.25
 11
-574.78320350000013
 21
764.75
  0
LINE
  8
_0-0_0
  6
CONTINUOUS
 62
    7
 10
-574.78320350000013
 20
765.25
 11
-574.78320350000013
 21
768.25
  0
ARC
  8
_0-0_0
  6
CONTINUOUS
 62
    7
 10
-580.78320350000013
 20
770.25
 40
0.5
 50
0
 51
90.000003000000007
  0
LINE
  8
_0-0_0
  6
CONTINUOUS
 62
    7
 10
-574.78320350000013
 20
751.14999399999999
 11
-574.78320350000013
 21
764.75
  0
LINE
  8
_0-0_0
  6
CONTINUOUS
 62
    7
 10
-592.78320350000013
 20
771.75
 11
-592.78320350000013
 21
769.15045199999997
  0
LINE
  8
_0-0_0
  6
CONTINUOUS
 62
    7
 10
-592.08313050000015
 20
756.94998199999998
 11
-591.78320350000013
 21
756.94998199999998
  0
LINE
  8
_0-0_0
  6
CONTINUOUS
 62
    7
 10
-574.58313050000015
 20
772.55004899999994
 11
-574.58313050000015
 21
772.75
  0
ARC
  8
_0-0_0
  6
CONTINUOUS
 62
    7
 10
-576.78320350000013
 20
751.14999399999999
 40
2
 50
273.84026500000004
 51
0.000010000000014
  0
LINE
  8
_0-0_0
  6
CONTINUOUS
 62
    7
 10
-576.78320350000013
 20
749.14999399999999
 11
-585.78320350000013
 21
749.14999399999999
  0
ARC
  8
_0-0_0
  6
CONTINUOUS
 62
    7
 10
-576.28320350000013
 20
748.39498900000001
 40
0.5
 50
100.28656100000001
 51
179.99999099999999
  0
LINE
  8
_0-0_0
  6
CONTINUOUS
 62
    7
 10
-576.78320350000013
 20
747.14999399999999
 11
-576.78320350000013
 21
748.39498900000001
  0
ARC
  8
_0-0_0
  6
CONTINUOUS
 62
    7
 10
-576.28320350000013
 20
747.14999399999999
 40
0.5
 50
179.99999099999999
 51
269.99999700000001
  0
LINE
  8
_0-0_0
  6
CONTINUOUS
 62
    7
 10
-591.20617650000008
 20
754.64999399999999
 11
-591.28320350000013
 21
754.64999399999999
  0
LINE
  8
_0-0_0
  6
CONTINUOUS
 62
    7
 10
-589.28320350000013
 20
754.64999399999999
 11
-589.76464850000002
 21
754.64999399999999
  0
LINE
  8
_0-0_0
  6
CONTINUOUS
 62
    7
 10
-589.76464850000002
 20
754.64999399999999
 11
-591.20617650000008
 21
754.64999399999999
  0
LINE
  8
_0-0_0
  6
CONTINUOUS
 62
    7
 10
-586.28320350000013
 20
749.64999399999999
 11
-586.28320350000013
 21
749.72695900000008
  0
LINE
  8
_0-0_0
  6
CONTINUOUS
 62
    7
 10
-586.28320350000013
 20
751.16848800000002
 11
-586.28320350000013
 21
749.72695900000008
  0
LINE
  8
_0-0_0
  6
CONTINUOUS
 62
    7
 10
-586.28320350000013
 20
751.16848800000002
 11
-586.28320350000013
 21
751.64999399999999
  0
ARC
  8
_0-0_0
  6
CONTINUOUS
 62
    7
 10
-589.28320350000013
 20
751.64999399999999
 40
3
 50
0
 51
89.999995999999996
  0
ARC
  8
_0-0_0
  6
CONTINUOUS
 62
    7
 10
-585.78320350000013
 20
749.64999399999999
 40
0.5
 50
179.99999099999999
 51
269.99999700000001
  0
LINE
  8
_0-0_0
  6
CONTINUOUS
 62
    7
 10
-580.28320350000013
 20
770.17300399999999
 11
-580.28320350000013
 21
770.25
  0
LINE
  8
_0-0_0
  6
CONTINUOUS
 62
    7
 10
-580.28320350000013
 20
768.73147599999993
 11
-580.28320350000013
 21
770.17300399999999
  0
LINE
  8
_0-0_0
  6
CONTINUOUS
 62
    7
 10
-580.28320350000013
 20
768.25
 11
-580.28320350000013
 21
768.73147599999993
  0
ARC
  8
_0-0_0
  6
CONTINUOUS
 62
    7
 10
-577.28320350000013
 20
768.25
 40
3
 50
179.99999099999999
 51
269.99999700000001
  0
LINE
  8
_0-0_0
  6
CONTINUOUS
 62
    7
 10
-576.80163549999997
 20
765.25
 11
-577.28320350000013
 21
765.25
  0
LINE
  8
_0-0_0
  6
CONTINUOUS
 62
    7
 10
-576.80163549999997
 20
765.25
 11
-575.36010750000014
 21
765.25
  0
LINE
  8
_0-0_0
  6
CONTINUOUS
 62
    7
 10
-575.28320350000013
 20
765.25
 11
-575.36010750000014
 21
765.25
  0
ARC
  8
_0-0_0
  6
CONTINUOUS
 62
    7
 10
-575.28320350000013
 20
764.75
 40
0.5
 50
0
 51
90.000003000000007
  0
LINE
  8
_0-0_0
  6
CONTINUOUS
 62
    7
 10
-576.78320350000013
 20
749.25262500000008
 11
-576.76733450000006
 21
749.22537199999999
  0
LINE
  8
_0-0_0
  6
CONTINUOUS
 62
    7
 10
-576.76733450000006
 20
749.22537199999999
 11
-576.75146450000011
 21
749.20239300000003
  0
LINE
  8
_0-0_0
  6
CONTINUOUS
 62
    7
 10
-576.75146450000011
 20
749.20239300000003
 11
-576.73742650000008
 21
749.18563799999993
  0
LINE
  8
_0-0_0
  6
CONTINUOUS
 62
    7
 10
-576.73742650000008
 20
749.18563799999993
 11
-576.72363249999989
 21
749.17230199999995
  0
LINE
  8
_0-0_0
  6
CONTINUOUS
 62
    7
 10
-576.72363249999989
 20
749.17230199999995
 11
-576.71142550000013
 21
749.16339100000005
  0
LINE
  8
_0-0_0
  6
CONTINUOUS
 62
    7
 10
-576.71142550000013
 20
749.16339100000005
 11
-576.69921849999992
 21
749.15716599999996
  0
LINE
  8
_0-0_0
  6
CONTINUOUS
 62
    7
 10
-576.69921849999992
 20
749.15716599999996
 11
-576.68835450000006
 21
749.15390000000002
  0
LINE
  8
_0-0_0
  6
CONTINUOUS
 62
    7
 10
-576.68835450000006
 20
749.15390000000002
 11
-576.67761250000012
 21
749.15283199999999
  0
LINE
  8
_0-0_0
  6
CONTINUOUS
 62
    7
 10
-576.67761250000012
 20
749.15283199999999
 11
-576.67517150000003
 21
749.15289299999995
  0
ARC
  8
_0-0_0
  6
CONTINUOUS
 62
    7
 10
-586.51330550000011
 20
758.77673299999992
 40
3.063399
 50
199.82113599999997
 51
205.28948099999999
  0
ARC
  8
_0-0_0
  6
CONTINUOUS
 62
    7
 10
-586.51367250000021
 20
761.12335200000007
 40
3.0630549999999999
 50
154.710137
 51
160.17869999999999
  0
ARC
  8
_0-0_0
  6
CONTINUOUS
 62
    7
 10
-583.28320350000013
 20
759.94998199999998
 40
6.5
 50
160.10415599999999
 51
199.895612
  0
ARC
  8
_0-0_0
  6
CONTINUOUS
 62
    7
 10
-580.05310050000003
 20
761.12322999999992
 40
3.0633949999999999
 50
19.82113
 51
25.289566000000001
  0
ARC
  8
_0-0_0
  6
CONTINUOUS
 62
    7
 10
-580.05273450000004
 20
758.776611
 40
3.0630519999999999
 50
334.71006
 51
340.17869200000001
  0
LINE
  8
_0-0_0
  6
CONTINUOUS
 62
    7
 10
-582.54150449999997
 20
753.44998199999998
 11
-578.02490250000005
 21
756.05767800000001
  0
LINE
  8
_0-0_0
  6
CONTINUOUS
 62
    7
 10
-584.02490250000005
 20
753.44998199999998
 11
-582.54150449999997
 21
753.44998199999998
  0
LINE
  8
_0-0_0
  6
CONTINUOUS
 62
    7
 10
-588.54150449999997
 20
756.05767800000001
 11
-584.02490250000005
 21
753.44998199999998
  0
LINE
  8
_0-0_0
  6
CONTINUOUS
 62
    7
 10
-589.28320350000013
 20
762.55767800000001
 11
-589.28320350000013
 21
757.34228499999995
  0
LINE
  8
_0-0_0
  6
CONTINUOUS
 62
    7
 10
-588.54150449999997
 20
756.05767800000001
 11
-589.28320350000013
 21
757.34228499999995
  0
LINE
  8
_0-0_0
  6
CONTINUOUS
 62
    7
 10
-584.02490250000005
 20
766.44998199999998
 11
-588.54150449999997
 21
763.84228499999995
  0
LINE
  8
_0-0_0
  6
CONTINUOUS
 62
    7
 10
-588.83569350000016
 20
763.332855
 11
-589.28320350000013
 21
762.55767800000001
  0
LINE
  8
_0-0_0
  6
CONTINUOUS
 62
    7
 10
-588.83569350000016
 20
763.332855
 11
-588.54150449999997
 21
763.84228499999995
  0
LINE
  8
_0-0_0
  6
CONTINUOUS
 62
    7
 10
-582.54150449999997
 20
766.44998199999998
 11
-584.02490250000005
 21
766.44998199999998
  0
LINE
  8
_0-0_0
  6
CONTINUOUS
 62
    7
 10
-578.02490250000005
 20
763.84228499999995
 11
-582.54150449999997
 21
766.44998199999998
  0
ARC
  8
_0-0_0
  6
CONTINUOUS
 62
    7
 10
-583.28320350000013
 20
759.94998199999998
 40
6.5
 50
340.10416099999998
 51
19.895609999999952
  0
LINE
  8
_0-0_0
  6
CONTINUOUS
 62
    7
 10
-577.73071350000009
 20
756.56710799999996
 11
-577.28320350000013
 21
757.34228499999995
  0
LINE
  8
_0-0_0
  6
CONTINUOUS
 62
    7
 10
-577.73071350000009
 20
756.56710799999996
 11
-578.02490250000005
 21
756.05767800000001
  0
CIRCLE
  8
_0-0_0
  6
CONTINUOUS
 62
    7
 10
-583.28320350000013
 20
759.94998199999998
 40
5.25
  0
LINE
  8
_0-0_0
  6
CONTINUOUS
 62
    7
 10
-577.28320350000013
 20
762.55767800000001
 11
-577.28320350000013
 21
757.34228499999995
  0
LINE
  8
_0-0_0
  6
CONTINUOUS
 62
    7
 10
-578.02490250000005
 20
763.84228499999995
 11
-577.28320350000013
 21
762.55767800000001
  0
LINE
  8
_0-0_0
  6
CONTINUOUS
 62
    7
 10
-575.39611850000006
 20
769.47543300000007
 11
-575.11816450000015
 21
769.5
  0
LINE
  8
_0-0_0
  6
CONTINUOUS
 62
    7
 10
-575.27844249999998
 20
769.27145399999995
 11
-575.11816450000015
 21
769.5
  0
LINE
  8
_0-0_0
  6
CONTINUOUS
 62
    7
 10
-575.53466849999995
 20
769.66595499999994
 11
-575.26062050000019
 21
769.71945200000005
  0
LINE
  8
_0-0_0
  6
CONTINUOUS
 62
    7
 10
-575.39611850000006
 20
769.47543300000007
 11
-575.26062050000019
 21
769.71945200000005
  0
LINE
  8
_0-0_0
  6
CONTINUOUS
 62
    7
 10
-575.69213850000006
 20
769.84097300000008
 11
-575.42529349999995
 21
769.922821
  0
LINE
  8
_0-0_0
  6
CONTINUOUS
 62
    7
 10
-575.53466849999995
 20
769.66595499999994
 11
-575.42529349999995
 21
769.922821
  0
LINE
  8
_0-0_0
  6
CONTINUOUS
 62
    7
 10
-575.8671875
 20
769.99856599999998
 11
-575.61035149999998
 21
770.10784899999999
  0
LINE
  8
_0-0_0
  6
CONTINUOUS
 62
    7
 10
-575.69213850000006
 20
769.84097300000008
 11
-575.61035149999998
 21
770.10784899999999
  0
LINE
  8
_0-0_0
  6
CONTINUOUS
 62
    7
 10
-576.05773950000003
 20
770.13699300000007
 11
-575.81372050000004
 21
770.27252199999998
  0
LINE
  8
_0-0_0
  6
CONTINUOUS
 62
    7
 10
-575.8671875
 20
769.99856599999998
 11
-575.81372050000004
 21
770.27252199999998
  0
LINE
  8
_0-0_0
  6
CONTINUOUS
 62
    7
 10
-576.26171849999992
 20
770.25476099999992
 11
-576.03320350000013
 21
770.41503899999998
  0
LINE
  8
_0-0_0
  6
CONTINUOUS
 62
    7
 10
-576.05773950000003
 20
770.13699300000007
 11
-576.03320350000013
 21
770.41503899999998
  0
LINE
  8
_0-0_0
  6
CONTINUOUS
 62
    7
 10
-576.47680650000007
 20
770.35052500000006
 11
-576.26635750000014
 21
770.53384400000004
  0
LINE
  8
_0-0_0
  6
CONTINUOUS
 62
    7
 10
-576.26171849999992
 20
770.25476099999992
 11
-576.26635750000014
 21
770.53384400000004
  0
LINE
  8
_0-0_0
  6
CONTINUOUS
 62
    7
 10
-576.70080550000011
 20
770.42330900000002
 11
-576.51062050000019
 21
770.62762500000008
  0
LINE
  8
_0-0_0
  6
CONTINUOUS
 62
    7
 10
-576.47680650000007
 20
770.35052500000006
 11
-576.51062050000019
 21
770.62762500000008
  0
LINE
  8
_0-0_0
  6
CONTINUOUS
 62
    7
 10
-576.93115250000005
 20
770.47228999999993
 11
-576.76342750000003
 21
770.69534299999998
  0
LINE
  8
_0-0_0
  6
CONTINUOUS
 62
    7
 10
-576.70080550000011
 20
770.42330900000002
 11
-576.76342750000003
 21
770.69534299999998
  0
LINE
  8
_0-0_0
  6
CONTINUOUS
 62
    7
 10
-577.16540549999991
 20
770.49688700000002
 11
-577.02185050000003
 21
770.73629800000003
  0
LINE
  8
_0-0_0
  6
CONTINUOUS
 62
    7
 10
-576.93115250000005
 20
770.47228999999993
 11
-577.02185050000003
 21
770.73629800000003
  0
LINE
  8
_0-0_0
  6
CONTINUOUS
 62
    7
 10
-577.40100149999989
 20
770.49688700000002
 11
-577.28320350000013
 21
770.75
  0
LINE
  8
_0-0_0
  6
CONTINUOUS
 62
    7
 10
-577.16540549999991
 20
770.49688700000002
 11
-577.28320350000013
 21
770.75
  0
LINE
  8
_0-0_0
  6
CONTINUOUS
 62
    7
 10
-577.63513150000017
 20
770.47228999999993
 11
-577.54455550000011
 21
770.73629800000003
  0
LINE
  8
_0-0_0
  6
CONTINUOUS
 62
    7
 10
-577.40100149999989
 20
770.49688700000002
 11
-577.54455550000011
 21
770.73629800000003
  0
LINE
  8
_0-0_0
  6
CONTINUOUS
 62
    7
 10
-577.86547849999988
 20
770.42330900000002
 11
-577.80297849999988
 21
770.69534299999998
  0
LINE
  8
_0-0_0
  6
CONTINUOUS
 62
    7
 10
-577.63513150000017
 20
770.47228999999993
 11
-577.80297849999988
 21
770.69534299999998
  0
LINE
  8
_0-0_0
  6
CONTINUOUS
 62
    7
 10
-578.08947750000016
 20
770.35052500000006
 11
-578.05578650000007
 21
770.62762500000008
  0
LINE
  8
_0-0_0
  6
CONTINUOUS
 62
    7
 10
-577.86547849999988
 20
770.42330900000002
 11
-578.05578650000007
 21
770.62762500000008
  0
LINE
  8
_0-0_0
  6
CONTINUOUS
 62
    7
 10
-578.3046875
 20
770.25476099999992
 11
-578.3000485
 21
770.53384400000004
  0
LINE
  8
_0-0_0
  6
CONTINUOUS
 62
    7
 10
-578.08947750000016
 20
770.35052500000006
 11
-578.3000485
 21
770.53384400000004
  0
LINE
  8
_0-0_0
  6
CONTINUOUS
 62
    7
 10
-578.42419449999989
 20
770.33859299999995
 11
-578.53320350000013
 21
770.41503899999998
  0
LINE
  8
_0-0_0
  6
CONTINUOUS
 62
    7
 10
-578.3046875
 20
770.25476099999992
 11
-578.42419449999989
 21
770.33859299999995
  0
LINE
  8
_0-0_0
  6
CONTINUOUS
 62
    7
 10
-578.5086675
 20
770.13699300000007
 11
-578.53320350000013
 21
770.41503899999998
  0
LINE
  8
_0-0_0
  6
CONTINUOUS
 62
    7
 10
-578.69921849999992
 20
769.99856599999998
 11
-578.7526855000001
 21
770.27252199999998
  0
LINE
  8
_0-0_0
  6
CONTINUOUS
 62
    7
 10
-578.5086675
 20
770.13699300000007
 11
-578.7526855000001
 21
770.27252199999998
  0
LINE
  8
_0-0_0
  6
CONTINUOUS
 62
    7
 10
-578.87414549999994
 20
769.84097300000008
 11
-578.95605449999994
 21
770.10784899999999
  0
LINE
  8
_0-0_0
  6
CONTINUOUS
 62
    7
 10
-578.69921849999992
 20
769.99856599999998
 11
-578.95605449999994
 21
770.10784899999999
  0
LINE
  8
_0-0_0
  6
CONTINUOUS
 62
    7
 10
-579.03173850000007
 20
769.66595499999994
 11
-579.14099149999993
 21
769.922821
  0
LINE
  8
_0-0_0
  6
CONTINUOUS
 62
    7
 10
-578.87414549999994
 20
769.84097300000008
 11
-579.14099149999993
 21
769.922821
  0
LINE
  8
_0-0_0
  6
CONTINUOUS
 62
    7
 10
-579.17016650000005
 20
769.47543300000007
 11
-579.30578650000007
 21
769.71945200000005
  0
LINE
  8
_0-0_0
  6
CONTINUOUS
 62
    7
 10
-579.03173850000007
 20
769.66595499999994
 11
-579.30578650000007
 21
769.71945200000005
  0
LINE
  8
_0-0_0
  6
CONTINUOUS
 62
    7
 10
-579.28796349999993
 20
769.27145399999995
 11
-579.44824250000011
 21
769.5
  0
LINE
  8
_0-0_0
  6
CONTINUOUS
 62
    7
 10
-579.17016650000005
 20
769.47543300000007
 11
-579.44824250000011
 21
769.5
  0
LINE
  8
_0-0_0
  6
CONTINUOUS
 62
    7
 10
-579.38378950000015
 20
769.05630500000007
 11
-579.56701650000014
 21
769.26681499999995
  0
LINE
  8
_0-0_0
  6
CONTINUOUS
 62
    7
 10
-579.28796349999993
 20
769.27145399999995
 11
-579.56701650000014
 21
769.26681499999995
  0
LINE
  8
_0-0_0
  6
CONTINUOUS
 62
    7
 10
-579.45654349999995
 20
768.83233599999994
 11
-579.66088850000006
 21
769.02252199999998
  0
LINE
  8
_0-0_0
  6
CONTINUOUS
 62
    7
 10
-579.38378950000015
 20
769.05630500000007
 11
-579.66088850000006
 21
769.02252199999998
  0
LINE
  8
_0-0_0
  6
CONTINUOUS
 62
    7
 10
-579.50549350000006
 20
768.60195900000008
 11
-579.72851549999996
 21
768.76977499999998
  0
LINE
  8
_0-0_0
  6
CONTINUOUS
 62
    7
 10
-579.45654349999995
 20
768.83233599999994
 11
-579.72851549999996
 21
768.76977499999998
  0
LINE
  8
_0-0_0
  6
CONTINUOUS
 62
    7
 10
-579.50549350000006
 20
768.60195900000008
 11
-579.76953150000008
 21
768.51129200000003
  0
LINE
  8
_0-0_0
  6
CONTINUOUS
 62
    7
 10
-579.5301515000001
 20
768.36773700000003
 11
-579.76953150000008
 21
768.51129200000003
  0
LINE
  8
_0-0_0
  6
CONTINUOUS
 62
    7
 10
-579.5301515000001
 20
768.13223300000004
 11
-579.78320350000013
 21
768.25
  0
LINE
  8
_0-0_0
  6
CONTINUOUS
 62
    7
 10
-579.5301515000001
 20
768.36773700000003
 11
-579.78320350000013
 21
768.25
  0
LINE
  8
_0-0_0
  6
CONTINUOUS
 62
    7
 10
-579.50549350000006
 20
767.89801
 11
-579.76953150000008
 21
767.98864700000001
  0
LINE
  8
_0-0_0
  6
CONTINUOUS
 62
    7
 10
-579.5301515000001
 20
768.13223300000004
 11
-579.76953150000008
 21
767.98864700000001
  0
LINE
  8
_0-0_0
  6
CONTINUOUS
 62
    7
 10
-579.45654349999995
 20
767.66763300000002
 11
-579.72851549999996
 21
767.73019399999998
  0
LINE
  8
_0-0_0
  6
CONTINUOUS
 62
    7
 10
-579.50549350000006
 20
767.89801
 11
-579.72851549999996
 21
767.73019399999998
  0
LINE
  8
_0-0_0
  6
CONTINUOUS
 62
    7
 10
-579.38378950000015
 20
767.44366500000001
 11
-579.66088850000006
 21
767.47744799999998
  0
LINE
  8
_0-0_0
  6
CONTINUOUS
 62
    7
 10
-579.45654349999995
 20
767.66763300000002
 11
-579.66088850000006
 21
767.47744799999998
  0
LINE
  8
_0-0_0
  6
CONTINUOUS
 62
    7
 10
-579.28796349999993
 20
767.22851600000001
 11
-579.56701650000014
 21
767.23315400000001
  0
LINE
  8
_0-0_0
  6
CONTINUOUS
 62
    7
 10
-579.38378950000015
 20
767.44366500000001
 11
-579.56701650000014
 21
767.23315400000001
  0
LINE
  8
_0-0_0
  6
CONTINUOUS
 62
    7
 10
-579.17016650000005
 20
767.02453600000001
 11
-579.44824250000011
 21
767
  0
LINE
  8
_0-0_0
  6
CONTINUOUS
 62
    7
 10
-579.28796349999993
 20
767.22851600000001
 11
-579.44824250000011
 21
767
  0
LINE
  8
_0-0_0
  6
CONTINUOUS
 62
    7
 10
-579.03173850000007
 20
766.83401500000002
 11
-579.30578650000007
 21
766.78051800000003
  0
LINE
  8
_0-0_0
  6
CONTINUOUS
 62
    7
 10
-579.17016650000005
 20
767.02453600000001
 11
-579.30578650000007
 21
766.78051800000003
  0
LINE
  8
_0-0_0
  6
CONTINUOUS
 62
    7
 10
-578.87414549999994
 20
766.658997
 11
-579.14099149999993
 21
766.57714800000008
  0
LINE
  8
_0-0_0
  6
CONTINUOUS
 62
    7
 10
-579.03173850000007
 20
766.83401500000002
 11
-579.14099149999993
 21
766.57714800000008
  0
LINE
  8
_0-0_0
  6
CONTINUOUS
 62
    7
 10
-578.69921849999992
 20
766.50140399999998
 11
-578.95605449999994
 21
766.39211999999998
  0
LINE
  8
_0-0_0
  6
CONTINUOUS
 62
    7
 10
-578.87414549999994
 20
766.658997
 11
-578.95605449999994
 21
766.39211999999998
  0
LINE
  8
_0-0_0
  6
CONTINUOUS
 62
    7
 10
-578.5086675
 20
766.362976
 11
-578.7526855000001
 21
766.22744799999998
  0
LINE
  8
_0-0_0
  6
CONTINUOUS
 62
    7
 10
-578.69921849999992
 20
766.50140399999998
 11
-578.7526855000001
 21
766.22744799999998
  0
LINE
  8
_0-0_0
  6
CONTINUOUS
 62
    7
 10
-578.3046875
 20
766.24520899999993
 11
-578.53320350000013
 21
766.08492999999999
  0
LINE
  8
_0-0_0
  6
CONTINUOUS
 62
    7
 10
-578.5086675
 20
766.362976
 11
-578.53320350000013
 21
766.08492999999999
  0
LINE
  8
_0-0_0
  6
CONTINUOUS
 62
    7
 10
-578.08947750000016
 20
766.14941399999998
 11
-578.3000485
 21
765.96612499999992
  0
LINE
  8
_0-0_0
  6
CONTINUOUS
 62
    7
 10
-578.3046875
 20
766.24520899999993
 11
-578.3000485
 21
765.96612499999992
  0
LINE
  8
_0-0_0
  6
CONTINUOUS
 62
    7
 10
-577.86547849999988
 20
766.07665999999995
 11
-578.05578650000007
 21
765.872345
  0
LINE
  8
_0-0_0
  6
CONTINUOUS
 62
    7
 10
-578.08947750000016
 20
766.14941399999998
 11
-578.05578650000007
 21
765.872345
  0
LINE
  8
_0-0_0
  6
CONTINUOUS
 62
    7
 10
-577.63513150000017
 20
766.02767900000003
 11
-577.80297849999988
 21
765.80462599999998
  0
LINE
  8
_0-0_0
  6
CONTINUOUS
 62
    7
 10
-577.86547849999988
 20
766.07665999999995
 11
-577.80297849999988
 21
765.80462599999998
  0
LINE
  8
_0-0_0
  6
CONTINUOUS
 62
    7
 10
-577.40100149999989
 20
766.00305200000003
 11
-577.54455550000011
 21
765.76367200000004
  0
LINE
  8
_0-0_0
  6
CONTINUOUS
 62
    7
 10
-577.63513150000017
 20
766.02767900000003
 11
-577.54455550000011
 21
765.76367200000004
  0
LINE
  8
_0-0_0
  6
CONTINUOUS
 62
    7
 10
-577.16540549999991
 20
766.00305200000003
 11
-577.28320350000013
 21
765.75
  0
LINE
  8
_0-0_0
  6
CONTINUOUS
 62
    7
 10
-577.40100149999989
 20
766.00305200000003
 11
-577.28320350000013
 21
765.75
  0
LINE
  8
_0-0_0
  6
CONTINUOUS
 62
    7
 10
-576.93115250000005
 20
766.02767900000003
 11
-577.02185050000003
 21
765.76367200000004
  0
LINE
  8
_0-0_0
  6
CONTINUOUS
 62
    7
 10
-577.16540549999991
 20
766.00305200000003
 11
-577.02185050000003
 21
765.76367200000004
  0
LINE
  8
_0-0_0
  6
CONTINUOUS
 62
    7
 10
-576.70080550000011
 20
766.07665999999995
 11
-576.76342750000003
 21
765.80462599999998
  0
LINE
  8
_0-0_0
  6
CONTINUOUS
 62
    7
 10
-576.93115250000005
 20
766.02767900000003
 11
-576.76342750000003
 21
765.80462599999998
  0
LINE
  8
_0-0_0
  6
CONTINUOUS
 62
    7
 10
-576.47680650000007
 20
766.14941399999998
 11
-576.51062050000019
 21
765.872345
  0
LINE
  8
_0-0_0
  6
CONTINUOUS
 62
    7
 10
-576.70080550000011
 20
766.07665999999995
 11
-576.51062050000019
 21
765.872345
  0
LINE
  8
_0-0_0
  6
CONTINUOUS
 62
    7
 10
-576.26171849999992
 20
766.24520899999993
 11
-576.26635750000014
 21
765.96612499999992
  0
LINE
  8
_0-0_0
  6
CONTINUOUS
 62
    7
 10
-576.47680650000007
 20
766.14941399999998
 11
-576.26635750000014
 21
765.96612499999992
  0
LINE
  8
_0-0_0
  6
CONTINUOUS
 62
    7
 10
-576.14221249999991
 20
766.16137700000002
 11
-576.03320350000013
 21
766.08492999999999
  0
LINE
  8
_0-0_0
  6
CONTINUOUS
 62
    7
 10
-576.26171849999992
 20
766.24520899999993
 11
-576.14221249999991
 21
766.16137700000002
  0
LINE
  8
_0-0_0
  6
CONTINUOUS
 62
    7
 10
-576.05773950000003
 20
766.362976
 11
-576.03320350000013
 21
766.08492999999999
  0
LINE
  8
_0-0_0
  6
CONTINUOUS
 62
    7
 10
-575.8671875
 20
766.50140399999998
 11
-575.81372050000004
 21
766.22744799999998
  0
LINE
  8
_0-0_0
  6
CONTINUOUS
 62
    7
 10
-576.05773950000003
 20
766.362976
 11
-575.81372050000004
 21
766.22744799999998
  0
LINE
  8
_0-0_0
  6
CONTINUOUS
 62
    7
 10
-575.69213850000006
 20
766.658997
 11
-575.61035149999998
 21
766.39211999999998
  0
LINE
  8
_0-0_0
  6
CONTINUOUS
 62
    7
 10
-575.8671875
 20
766.50140399999998
 11
-575.61035149999998
 21
766.39211999999998
  0
LINE
  8
_0-0_0
  6
CONTINUOUS
 62
    7
 10
-575.53466849999995
 20
766.83401500000002
 11
-575.42529349999995
 21
766.57714800000008
  0
LINE
  8
_0-0_0
  6
CONTINUOUS
 62
    7
 10
-575.69213850000006
 20
766.658997
 11
-575.42529349999995
 21
766.57714800000008
  0
LINE
  8
_0-0_0
  6
CONTINUOUS
 62
    7
 10
-575.39611850000006
 20
767.02453600000001
 11
-575.26062050000019
 21
766.78051800000003
  0
LINE
  8
_0-0_0
  6
CONTINUOUS
 62
    7
 10
-575.53466849999995
 20
766.83401500000002
 11
-575.26062050000019
 21
766.78051800000003
  0
LINE
  8
_0-0_0
  6
CONTINUOUS
 62
    7
 10
-575.27844249999998
 20
767.22851600000001
 11
-575.11816450000015
 21
767
  0
LINE
  8
_0-0_0
  6
CONTINUOUS
 62
    7
 10
-575.39611850000006
 20
767.02453600000001
 11
-575.11816450000015
 21
767
  0
LINE
  8
_0-0_0
  6
CONTINUOUS
 62
    7
 10
-575.18261750000011
 20
767.44366500000001
 11
-574.99926750000009
 21
767.23315400000001
  0
LINE
  8
_0-0_0
  6
CONTINUOUS
 62
    7
 10
-575.27844249999998
 20
767.22851600000001
 11
-574.99926750000009
 21
767.23315400000001
  0
LINE
  8
_0-0_0
  6
CONTINUOUS
 62
    7
 10
-575.10986350000007
 20
767.66763300000002
 11
-574.90551750000009
 21
767.47744799999998
  0
LINE
  8
_0-0_0
  6
CONTINUOUS
 62
    7
 10
-575.18261750000011
 20
767.44366500000001
 11
-574.90551750000009
 21
767.47744799999998
  0
LINE
  8
_0-0_0
  6
CONTINUOUS
 62
    7
 10
-575.06091349999997
 20
767.89801
 11
-574.83776850000004
 21
767.73019399999998
  0
LINE
  8
_0-0_0
  6
CONTINUOUS
 62
    7
 10
-575.10986350000007
 20
767.66763300000002
 11
-574.83776850000004
 21
767.73019399999998
  0
LINE
  8
_0-0_0
  6
CONTINUOUS
 62
    7
 10
-575.03625550000015
 20
768.13223300000004
 11
-574.79687550000017
 21
767.98864700000001
  0
LINE
  8
_0-0_0
  6
CONTINUOUS
 62
    7
 10
-575.06091349999997
 20
767.89801
 11
-574.79687550000017
 21
767.98864700000001
  0
LINE
  8
_0-0_0
  6
CONTINUOUS
 62
    7
 10
-575.03625550000015
 20
768.36773700000003
 11
-574.78320350000013
 21
768.25
  0
LINE
  8
_0-0_0
  6
CONTINUOUS
 62
    7
 10
-575.03625550000015
 20
768.13223300000004
 11
-574.78320350000013
 21
768.25
  0
LINE
  8
_0-0_0
  6
CONTINUOUS
 62
    7
 10
-575.06091349999997
 20
768.60195900000008
 11
-574.79687550000017
 21
768.51129200000003
  0
LINE
  8
_0-0_0
  6
CONTINUOUS
 62
    7
 10
-575.03625550000015
 20
768.36773700000003
 11
-574.79687550000017
 21
768.51129200000003
  0
LINE
  8
_0-0_0
  6
CONTINUOUS
 62
    7
 10
-575.10986350000007
 20
768.83233599999994
 11
-574.83776850000004
 21
768.76977499999998
  0
LINE
  8
_0-0_0
  6
CONTINUOUS
 62
    7
 10
-575.06091349999997
 20
768.60195900000008
 11
-574.83776850000004
 21
768.76977499999998
  0
LINE
  8
_0-0_0
  6
CONTINUOUS
 62
    7
 10
-575.18261750000011
 20
769.05630500000007
 11
-574.90551750000009
 21
769.02252199999998
  0
LINE
  8
_0-0_0
  6
CONTINUOUS
 62
    7
 10
-575.10986350000007
 20
768.83233599999994
 11
-574.90551750000009
 21
769.02252199999998
  0
LINE
  8
_0-0_0
  6
CONTINUOUS
 62
    7
 10
-575.27844249999998
 20
769.27145399999995
 11
-574.99926750000009
 21
769.26681499999995
  0
LINE
  8
_0-0_0
  6
CONTINUOUS
 62
    7
 10
-575.18261750000011
 20
769.05630500000007
 11
-574.99926750000009
 21
769.26681499999995
  0
CIRCLE
  8
_0-0_0
  6
CONTINUOUS
 62
    7
 10
-577.28320350000013
 20
768.25
 40
2
  0
CIRCLE
  8
_0-0_0
  6
CONTINUOUS
 62
    7
 10
-583.28320350000013
 20
759.94998199999998
 40
5
  0
LINE
  8
_0-0_0
  6
CONTINUOUS
 62
    7
 10
-576.70104949999995
 20
767.25
 11
-577.86535649999996
 21
767.25
  0
LINE
  8
_0-0_0
  6
CONTINUOUS
 62
    7
 10
-577.86535649999996
 20
767.25
 11
-578.43322750000016
 21
768.25
  0
LINE
  8
_0-0_0
  6
CONTINUOUS
 62
    7
 10
-578.43322750000016
 20
768.25
 11
-577.86535649999996
 21
769.25
  0
LINE
  8
_0-0_0
  6
CONTINUOUS
 62
    7
 10
-577.86535649999996
 20
769.25
 11
-576.70104949999995
 21
769.25
  0
LINE
  8
_0-0_0
  6
CONTINUOUS
 62
    7
 10
-576.70104949999995
 20
769.25
 11
-576.13317850000021
 21
768.25
  0
LINE
  8
_0-0_0
  6
CONTINUOUS
 62
    7
 10
-576.13317850000021
 20
768.25
 11
-576.70104949999995
 21
767.25
  0
CIRCLE
  8
_0-0_0
  6
CONTINUOUS
 62
    7
 10
-583.28320350000013
 20
759.94998199999998
 40
4.5381200000000002
  0
CIRCLE
  8
_0-0_0
  6
CONTINUOUS
 62
    7
 10
-583.28320350000013
 20
759.94998199999998
 40
4
  0
LINE
  8
_0-0_0
  6
CONTINUOUS
 62
    7
 10
-591.17016650000005
 20
750.42453
 11
-591.44824250000011
 21
750.39999399999999
  0
LINE
  8
_0-0_0
  6
CONTINUOUS
 62
    7
 10
-591.28796349999993
 20
750.62851000000001
 11
-591.44824250000011
 21
750.39999399999999
  0
LINE
  8
_0-0_0
  6
CONTINUOUS
 62
    7
 10
-591.03173850000007
 20
750.23400900000001
 11
-591.30578650000007
 21
750.18051100000002
  0
LINE
  8
_0-0_0
  6
CONTINUOUS
 62
    7
 10
-591.17016650000005
 20
750.42453
 11
-591.30578650000007
 21
750.18051100000002
  0
LINE
  8
_0-0_0
  6
CONTINUOUS
 62
    7
 10
-590.87414549999994
 20
750.05898999999999
 11
-591.14099149999993
 21
749.97717299999999
  0
LINE
  8
_0-0_0
  6
CONTINUOUS
 62
    7
 10
-591.03173850000007
 20
750.23400900000001
 11
-591.14099149999993
 21
749.97717299999999
  0
LINE
  8
_0-0_0
  6
CONTINUOUS
 62
    7
 10
-590.6990965
 20
749.90139799999997
 11
-590.95605449999994
 21
749.79211400000008
  0
LINE
  8
_0-0_0
  6
CONTINUOUS
 62
    7
 10
-590.87414549999994
 20
750.05898999999999
 11
-590.95605449999994
 21
749.79211400000008
  0
LINE
  8
_0-0_0
  6
CONTINUOUS
 62
    7
 10
-590.5086675
 20
749.76297
 11
-590.7526855000001
 21
749.62744099999998
  0
LINE
  8
_0-0_0
  6
CONTINUOUS
 62
    7
 10
-590.6990965
 20
749.90139799999997
 11
-590.7526855000001
 21
749.62744099999998
  0
LINE
  8
_0-0_0
  6
CONTINUOUS
 62
    7
 10
-590.3046875
 20
749.64520300000004
 11
-590.53320350000013
 21
749.48492399999998
  0
LINE
  8
_0-0_0
  6
CONTINUOUS
 62
    7
 10
-590.5086675
 20
749.76297
 11
-590.53320350000013
 21
749.48492399999998
  0
LINE
  8
_0-0_0
  6
CONTINUOUS
 62
    7
 10
-590.08947750000016
 20
749.54943800000001
 11
-590.3000485
 21
749.36611900000003
  0
LINE
  8
_0-0_0
  6
CONTINUOUS
 62
    7
 10
-590.3046875
 20
749.64520300000004
 11
-590.3000485
 21
749.36611900000003
  0
LINE
  8
_0-0_0
  6
CONTINUOUS
 62
    7
 10
-589.86547849999988
 20
749.47665400000005
 11
-590.05578650000007
 21
749.27233899999999
  0
LINE
  8
_0-0_0
  6
CONTINUOUS
 62
    7
 10
-590.08947750000016
 20
749.54943800000001
 11
-590.05578650000007
 21
749.27233899999999
  0
LINE
  8
_0-0_0
  6
CONTINUOUS
 62
    7
 10
-589.63513150000017
 20
749.42770399999995
 11
-589.80297849999988
 21
749.20461999999998
  0
LINE
  8
_0-0_0
  6
CONTINUOUS
 62
    7
 10
-589.86547849999988
 20
749.47665400000005
 11
-589.80297849999988
 21
749.20461999999998
  0
LINE
  8
_0-0_0
  6
CONTINUOUS
 62
    7
 10
-589.40100149999989
 20
749.40307600000006
 11
-589.54455550000011
 21
749.16369600000007
  0
LINE
  8
_0-0_0
  6
CONTINUOUS
 62
    7
 10
-589.63513150000017
 20
749.42770399999995
 11
-589.54455550000011
 21
749.16369600000007
  0
LINE
  8
_0-0_0
  6
CONTINUOUS
 62
    7
 10
-589.16540549999991
 20
749.40307600000006
 11
-589.28320350000013
 21
749.14999399999999
  0
LINE
  8
_0-0_0
  6
CONTINUOUS
 62
    7
 10
-589.40100149999989
 20
749.40307600000006
 11
-589.28320350000013
 21
749.14999399999999
  0
LINE
  8
_0-0_0
  6
CONTINUOUS
 62
    7
 10
-588.93115250000005
 20
749.42770399999995
 11
-589.02185050000003
 21
749.16369600000007
  0
LINE
  8
_0-0_0
  6
CONTINUOUS
 62
    7
 10
-589.16540549999991
 20
749.40307600000006
 11
-589.02185050000003
 21
749.16369600000007
  0
LINE
  8
_0-0_0
  6
CONTINUOUS
 62
    7
 10
-588.70080550000011
 20
749.47665400000005
 11
-588.76342750000003
 21
749.20461999999998
  0
LINE
  8
_0-0_0
  6
CONTINUOUS
 62
    7
 10
-588.93115250000005
 20
749.42770399999995
 11
-588.76342750000003
 21
749.20461999999998
  0
LINE
  8
_0-0_0
  6
CONTINUOUS
 62
    7
 10
-588.47680650000007
 20
749.54943800000001
 11
-588.51062050000019
 21
749.27233899999999
  0
LINE
  8
_0-0_0
  6
CONTINUOUS
 62
    7
 10
-588.70080550000011
 20
749.47665400000005
 11
-588.51062050000019
 21
749.27233899999999
  0
LINE
  8
_0-0_0
  6
CONTINUOUS
 62
    7
 10
-588.26171849999992
 20
749.64520300000004
 11
-588.26635750000014
 21
749.36611900000003
  0
LINE
  8
_0-0_0
  6
CONTINUOUS
 62
    7
 10
-588.47680650000007
 20
749.54943800000001
 11
-588.26635750000014
 21
749.36611900000003
  0
LINE
  8
_0-0_0
  6
CONTINUOUS
 62
    7
 10
-588.14221249999991
 20
749.56137100000001
 11
-588.03320350000013
 21
749.48492399999998
  0
LINE
  8
_0-0_0
  6
CONTINUOUS
 62
    7
 10
-588.26171849999992
 20
749.64520300000004
 11
-588.14221249999991
 21
749.56137100000001
  0
LINE
  8
_0-0_0
  6
CONTINUOUS
 62
    7
 10
-588.05773950000003
 20
749.76297
 11
-588.03320350000013
 21
749.48492399999998
  0
LINE
  8
_0-0_0
  6
CONTINUOUS
 62
    7
 10
-587.8671875
 20
749.90139799999997
 11
-587.81372050000004
 21
749.62744099999998
  0
LINE
  8
_0-0_0
  6
CONTINUOUS
 62
    7
 10
-588.05773950000003
 20
749.76297
 11
-587.81372050000004
 21
749.62744099999998
  0
LINE
  8
_0-0_0
  6
CONTINUOUS
 62
    7
 10
-587.69213850000006
 20
750.05898999999999
 11
-587.61035149999998
 21
749.79211400000008
  0
LINE
  8
_0-0_0
  6
CONTINUOUS
 62
    7
 10
-587.8671875
 20
749.90139799999997
 11
-587.61035149999998
 21
749.79211400000008
  0
LINE
  8
_0-0_0
  6
CONTINUOUS
 62
    7
 10
-587.53466849999995
 20
750.23400900000001
 11
-587.42529349999995
 21
749.97717299999999
  0
LINE
  8
_0-0_0
  6
CONTINUOUS
 62
    7
 10
-587.69213850000006
 20
750.05898999999999
 11
-587.42529349999995
 21
749.97717299999999
  0
LINE
  8
_0-0_0
  6
CONTINUOUS
 62
    7
 10
-587.39611850000006
 20
750.42453
 11
-587.26062050000019
 21
750.18051100000002
  0
LINE
  8
_0-0_0
  6
CONTINUOUS
 62
    7
 10
-587.53466849999995
 20
750.23400900000001
 11
-587.26062050000019
 21
750.18051100000002
  0
LINE
  8
_0-0_0
  6
CONTINUOUS
 62
    7
 10
-587.27844249999998
 20
750.62851000000001
 11
-587.11816450000015
 21
750.39999399999999
  0
LINE
  8
_0-0_0
  6
CONTINUOUS
 62
    7
 10
-587.39611850000006
 20
750.42453
 11
-587.11816450000015
 21
750.39999399999999
  0
LINE
  8
_0-0_0
  6
CONTINUOUS
 62
    7
 10
-587.18261750000011
 20
750.843658
 11
-586.99926750000009
 21
750.63314800000001
  0
LINE
  8
_0-0_0
  6
CONTINUOUS
 62
    7
 10
-587.27844249999998
 20
750.62851000000001
 11
-586.99926750000009
 21
750.63314800000001
  0
LINE
  8
_0-0_0
  6
CONTINUOUS
 62
    7
 10
-587.10986350000007
 20
751.06762700000002
 11
-586.90551750000009
 21
750.87744099999998
  0
LINE
  8
_0-0_0
  6
CONTINUOUS
 62
    7
 10
-587.18261750000011
 20
750.843658
 11
-586.90551750000009
 21
750.87744099999998
  0
LINE
  8
_0-0_0
  6
CONTINUOUS
 62
    7
 10
-587.06091349999997
 20
751.29800399999999
 11
-586.83776850000004
 21
751.13018799999998
  0
LINE
  8
_0-0_0
  6
CONTINUOUS
 62
    7
 10
-587.10986350000007
 20
751.06762700000002
 11
-586.83776850000004
 21
751.13018799999998
  0
LINE
  8
_0-0_0
  6
CONTINUOUS
 62
    7
 10
-587.03625550000015
 20
751.53222699999992
 11
-586.79687550000017
 21
751.38867200000004
  0
LINE
  8
_0-0_0
  6
CONTINUOUS
 62
    7
 10
-587.06091349999997
 20
751.29800399999999
 11
-586.79687550000017
 21
751.38867200000004
  0
LINE
  8
_0-0_0
  6
CONTINUOUS
 62
    7
 10
-587.03625550000015
 20
751.76773100000003
 11
-586.78320350000013
 21
751.64999399999999
  0
LINE
  8
_0-0_0
  6
CONTINUOUS
 62
    7
 10
-587.03625550000015
 20
751.53222699999992
 11
-586.78320350000013
 21
751.64999399999999
  0
LINE
  8
_0-0_0
  6
CONTINUOUS
 62
    7
 10
-587.06091349999997
 20
752.00195299999996
 11
-586.79687550000017
 21
751.91131599999994
  0
LINE
  8
_0-0_0
  6
CONTINUOUS
 62
    7
 10
-587.03625550000015
 20
751.76773100000003
 11
-586.79687550000017
 21
751.91131599999994
  0
LINE
  8
_0-0_0
  6
CONTINUOUS
 62
    7
 10
-587.10986350000007
 20
752.23233000000005
 11
-586.83776850000004
 21
752.16976899999997
  0
LINE
  8
_0-0_0
  6
CONTINUOUS
 62
    7
 10
-587.06091349999997
 20
752.00195299999996
 11
-586.83776850000004
 21
752.16976899999997
  0
LINE
  8
_0-0_0
  6
CONTINUOUS
 62
    7
 10
-587.18261750000011
 20
752.45629899999994
 11
-586.90551750000009
 21
752.42251599999997
  0
LINE
  8
_0-0_0
  6
CONTINUOUS
 62
    7
 10
-587.10986350000007
 20
752.23233000000005
 11
-586.90551750000009
 21
752.42251599999997
  0
LINE
  8
_0-0_0
  6
CONTINUOUS
 62
    7
 10
-587.27844249999998
 20
752.67144800000005
 11
-586.99926750000009
 21
752.66680900000006
  0
LINE
  8
_0-0_0
  6
CONTINUOUS
 62
    7
 10
-587.18261750000011
 20
752.45629899999994
 11
-586.99926750000009
 21
752.66680900000006
  0
LINE
  8
_0-0_0
  6
CONTINUOUS
 62
    7
 10
-587.39611850000006
 20
752.87542699999995
 11
-587.11816450000015
 21
752.89999399999999
  0
LINE
  8
_0-0_0
  6
CONTINUOUS
 62
    7
 10
-587.27844249999998
 20
752.67144800000005
 11
-587.11816450000015
 21
752.89999399999999
  0
LINE
  8
_0-0_0
  6
CONTINUOUS
 62
    7
 10
-590.6990965
 20
753.39855999999997
 11
-590.7526855000001
 21
753.67251599999997
  0
LINE
  8
_0-0_0
  6
CONTINUOUS
 62
    7
 10
-590.6990965
 20
753.39855999999997
 11
-590.95605449999994
 21
753.50784299999998
  0
LINE
  8
_0-0_0
  6
CONTINUOUS
 62
    7
 10
-590.87414549999994
 20
753.24096699999996
 11
-590.95605449999994
 21
753.50784299999998
  0
LINE
  8
_0-0_0
  6
CONTINUOUS
 62
    7
 10
-590.87414549999994
 20
753.24096699999996
 11
-591.14099149999993
 21
753.32281499999999
  0
LINE
  8
_0-0_0
  6
CONTINUOUS
 62
    7
 10
-591.03173850000007
 20
753.06594799999993
 11
-591.14099149999993
 21
753.32281499999999
  0
LINE
  8
_0-0_0
  6
CONTINUOUS
 62
    7
 10
-591.03173850000007
 20
753.06594799999993
 11
-591.30578650000007
 21
753.11944599999993
  0
LINE
  8
_0-0_0
  6
CONTINUOUS
 62
    7
 10
-591.17016650000005
 20
752.87542699999995
 11
-591.30578650000007
 21
753.11944599999993
  0
LINE
  8
_0-0_0
  6
CONTINUOUS
 62
    7
 10
-591.17016650000005
 20
752.87542699999995
 11
-591.44824250000011
 21
752.89999399999999
  0
LINE
  8
_0-0_0
  6
CONTINUOUS
 62
    7
 10
-591.28796349999993
 20
752.67144800000005
 11
-591.44824250000011
 21
752.89999399999999
  0
LINE
  8
_0-0_0
  6
CONTINUOUS
 62
    7
 10
-591.28796349999993
 20
752.67144800000005
 11
-591.56701650000014
 21
752.66680900000006
  0
LINE
  8
_0-0_0
  6
CONTINUOUS
 62
    7
 10
-591.38378950000015
 20
752.45629899999994
 11
-591.56701650000014
 21
752.66680900000006
  0
LINE
  8
_0-0_0
  6
CONTINUOUS
 62
    7
 10
-591.38378950000015
 20
752.45629899999994
 11
-591.66088850000006
 21
752.42251599999997
  0
LINE
  8
_0-0_0
  6
CONTINUOUS
 62
    7
 10
-591.45654349999995
 20
752.23233000000005
 11
-591.66088850000006
 21
752.42251599999997
  0
LINE
  8
_0-0_0
  6
CONTINUOUS
 62
    7
 10
-591.45654349999995
 20
752.23233000000005
 11
-591.72851549999996
 21
752.16976899999997
  0
LINE
  8
_0-0_0
  6
CONTINUOUS
 62
    7
 10
-591.50549350000006
 20
752.00195299999996
 11
-591.72851549999996
 21
752.16976899999997
  0
LINE
  8
_0-0_0
  6
CONTINUOUS
 62
    7
 10
-591.50549350000006
 20
752.00195299999996
 11
-591.76953150000008
 21
751.91131599999994
  0
LINE
  8
_0-0_0
  6
CONTINUOUS
 62
    7
 10
-591.5301515000001
 20
751.76773100000003
 11
-591.76953150000008
 21
751.91131599999994
  0
LINE
  8
_0-0_0
  6
CONTINUOUS
 62
    7
 10
-591.5301515000001
 20
751.76773100000003
 11
-591.78320350000013
 21
751.64999399999999
  0
LINE
  8
_0-0_0
  6
CONTINUOUS
 62
    7
 10
-591.5301515000001
 20
751.53222699999992
 11
-591.78320350000013
 21
751.64999399999999
  0
LINE
  8
_0-0_0
  6
CONTINUOUS
 62
    7
 10
-591.5301515000001
 20
751.53222699999992
 11
-591.76953150000008
 21
751.38867200000004
  0
LINE
  8
_0-0_0
  6
CONTINUOUS
 62
    7
 10
-591.50549350000006
 20
751.29800399999999
 11
-591.76953150000008
 21
751.38867200000004
  0
LINE
  8
_0-0_0
  6
CONTINUOUS
 62
    7
 10
-591.50549350000006
 20
751.29800399999999
 11
-591.72851549999996
 21
751.13018799999998
  0
LINE
  8
_0-0_0
  6
CONTINUOUS
 62
    7
 10
-591.45654349999995
 20
751.06762700000002
 11
-591.72851549999996
 21
751.13018799999998
  0
LINE
  8
_0-0_0
  6
CONTINUOUS
 62
    7
 10
-591.45654349999995
 20
751.06762700000002
 11
-591.66088850000006
 21
750.87744099999998
  0
LINE
  8
_0-0_0
  6
CONTINUOUS
 62
    7
 10
-591.38378950000015
 20
750.843658
 11
-591.66088850000006
 21
750.87744099999998
  0
LINE
  8
_0-0_0
  6
CONTINUOUS
 62
    7
 10
-591.38378950000015
 20
750.843658
 11
-591.56701650000014
 21
750.63314800000001
  0
LINE
  8
_0-0_0
  6
CONTINUOUS
 62
    7
 10
-591.28796349999993
 20
750.62851000000001
 11
-591.56701650000014
 21
750.63314800000001
  0
CIRCLE
  8
_0-0_0
  6
CONTINUOUS
 62
    7
 10
-589.28320350000013
 20
751.64999399999999
 40
2
  0
LINE
  8
_0-0_0
  6
CONTINUOUS
 62
    7
 10
-590.42419449999989
 20
753.73858599999994
 11
-590.53320350000013
 21
753.81506300000001
  0
LINE
  8
_0-0_0
  6
CONTINUOUS
 62
    7
 10
-590.5086675
 20
753.53698699999995
 11
-590.53320350000013
 21
753.81506300000001
  0
LINE
  8
_0-0_0
  6
CONTINUOUS
 62
    7
 10
-590.5086675
 20
753.53698699999995
 11
-590.7526855000001
 21
753.67251599999997
  0
LINE
  8
_0-0_0
  6
CONTINUOUS
 62
    7
 10
-587.39611850000006
 20
752.87542699999995
 11
-587.26062050000019
 21
753.11944599999993
  0
LINE
  8
_0-0_0
  6
CONTINUOUS
 62
    7
 10
-587.53466849999995
 20
753.06594799999993
 11
-587.26062050000019
 21
753.11944599999993
  0
LINE
  8
_0-0_0
  6
CONTINUOUS
 62
    7
 10
-587.53466849999995
 20
753.06594799999993
 11
-587.42529349999995
 21
753.32281499999999
  0
LINE
  8
_0-0_0
  6
CONTINUOUS
 62
    7
 10
-587.69213850000006
 20
753.24096699999996
 11
-587.42529349999995
 21
753.32281499999999
  0
LINE
  8
_0-0_0
  6
CONTINUOUS
 62
    7
 10
-587.69213850000006
 20
753.24096699999996
 11
-587.61035149999998
 21
753.50784299999998
  0
LINE
  8
_0-0_0
  6
CONTINUOUS
 62
    7
 10
-587.8671875
 20
753.39855999999997
 11
-587.61035149999998
 21
753.50784299999998
  0
LINE
  8
_0-0_0
  6
CONTINUOUS
 62
    7
 10
-587.8671875
 20
753.39855999999997
 11
-587.81372050000004
 21
753.67251599999997
  0
LINE
  8
_0-0_0
  6
CONTINUOUS
 62
    7
 10
-588.05773950000003
 20
753.53698699999995
 11
-587.81372050000004
 21
753.67251599999997
  0
LINE
  8
_0-0_0
  6
CONTINUOUS
 62
    7
 10
-588.05773950000003
 20
753.53698699999995
 11
-588.03320350000013
 21
753.81506300000001
  0
LINE
  8
_0-0_0
  6
CONTINUOUS
 62
    7
 10
-588.26171849999992
 20
753.65475500000002
 11
-588.03320350000013
 21
753.81506300000001
  0
LINE
  8
_0-0_0
  6
CONTINUOUS
 62
    7
 10
-588.26171849999992
 20
753.65475500000002
 11
-588.26635750000014
 21
753.93383799999992
  0
LINE
  8
_0-0_0
  6
CONTINUOUS
 62
    7
 10
-588.47680650000007
 20
753.75054899999998
 11
-588.26635750000014
 21
753.93383799999992
  0
LINE
  8
_0-0_0
  6
CONTINUOUS
 62
    7
 10
-588.47680650000007
 20
753.75054899999998
 11
-588.51062050000019
 21
754.02761800000007
  0
LINE
  8
_0-0_0
  6
CONTINUOUS
 62
    7
 10
-588.70080550000011
 20
753.82330300000001
 11
-588.51062050000019
 21
754.02761800000007
  0
LINE
  8
_0-0_0
  6
CONTINUOUS
 62
    7
 10
-588.70080550000011
 20
753.82330300000001
 11
-588.76342750000003
 21
754.09533699999997
  0
LINE
  8
_0-0_0
  6
CONTINUOUS
 62
    7
 10
-588.93115250000005
 20
753.87228400000004
 11
-588.76342750000003
 21
754.09533699999997
  0
LINE
  8
_0-0_0
  6
CONTINUOUS
 62
    7
 10
-588.93115250000005
 20
753.87228400000004
 11
-589.02185050000003
 21
754.13629200000003
  0
LINE
  8
_0-0_0
  6
CONTINUOUS
 62
    7
 10
-589.16540549999991
 20
753.89691199999993
 11
-589.02185050000003
 21
754.13629200000003
  0
LINE
  8
_0-0_0
  6
CONTINUOUS
 62
    7
 10
-589.16540549999991
 20
753.89691199999993
 11
-589.28320350000013
 21
754.14999399999999
  0
LINE
  8
_0-0_0
  6
CONTINUOUS
 62
    7
 10
-589.40100149999989
 20
753.89691199999993
 11
-589.28320350000013
 21
754.14999399999999
  0
LINE
  8
_0-0_0
  6
CONTINUOUS
 62
    7
 10
-589.40100149999989
 20
753.89691199999993
 11
-589.54455550000011
 21
754.13629200000003
  0
LINE
  8
_0-0_0
  6
CONTINUOUS
 62
    7
 10
-589.63513150000017
 20
753.87228400000004
 11
-589.54455550000011
 21
754.13629200000003
  0
LINE
  8
_0-0_0
  6
CONTINUOUS
 62
    7
 10
-589.63513150000017
 20
753.87228400000004
 11
-589.80297849999988
 21
754.09533699999997
  0
LINE
  8
_0-0_0
  6
CONTINUOUS
 62
    7
 10
-589.86547849999988
 20
753.82330300000001
 11
-589.80297849999988
 21
754.09533699999997
  0
LINE
  8
_0-0_0
  6
CONTINUOUS
 62
    7
 10
-589.86547849999988
 20
753.82330300000001
 11
-590.05578650000007
 21
754.02761800000007
  0
LINE
  8
_0-0_0
  6
CONTINUOUS
 62
    7
 10
-590.08947750000016
 20
753.75054899999998
 11
-590.05578650000007
 21
754.02761800000007
  0
LINE
  8
_0-0_0
  6
CONTINUOUS
 62
    7
 10
-590.08947750000016
 20
753.75054899999998
 11
-590.3000485
 21
753.93383799999992
  0
LINE
  8
_0-0_0
  6
CONTINUOUS
 62
    7
 10
-590.3046875
 20
753.65475500000002
 11
-590.3000485
 21
753.93383799999992
  0
LINE
  8
_0-0_0
  6
CONTINUOUS
 62
    7
 10
-590.3046875
 20
753.65475500000002
 11
-590.42419449999989
 21
753.73858599999994
  0
LINE
  8
_0-0_0
  6
CONTINUOUS
 62
    7
 10
-588.70104949999995
 20
750.64999399999999
 11
-589.86535649999996
 21
750.64999399999999
  0
LINE
  8
_0-0_0
  6
CONTINUOUS
 62
    7
 10
-589.86535649999996
 20
750.64999399999999
 11
-590.43322750000016
 21
751.64999399999999
  0
LINE
  8
_0-0_0
  6
CONTINUOUS
 62
    7
 10
-590.43322750000016
 20
751.64999399999999
 11
-589.86535649999996
 21
752.64999399999999
  0
LINE
  8
_0-0_0
  6
CONTINUOUS
 62
    7
 10
-589.86535649999996
 20
752.64999399999999
 11
-588.70104949999995
 21
752.64999399999999
  0
LINE
  8
_0-0_0
  6
CONTINUOUS
 62
    7
 10
-588.70104949999995
 20
752.64999399999999
 11
-588.13317850000021
 21
751.64999399999999
  0
LINE
  8
_0-0_0
  6
CONTINUOUS
 62
    7
 10
-588.13317850000021
 20
751.64999399999999
 11
-588.70104949999995
 21
750.64999399999999
  0
LINE
  8
_0-0_0
  6
CONTINUOUS
 62
    7
 10
-574.58313050000015
 20
769.05029300000001
 11
-574.58313050000015
 21
769.05627400000003
  0
LINE
  8
_0-0_0
  6
CONTINUOUS
 62
    7
 10
-574.58313050000015
 20
770.25
 11
-574.58349649999991
 21
770.23788500000001
  0
LINE
  8
_0-0_0
  6
CONTINUOUS
 62
    7
 10
-574.58349649999991
 20
749.66210899999999
 11
-574.58313050000015
 21
749.64999399999999
  0
ARC
  8
_0-0_0
  6
CONTINUOUS
 62
    7
 10
-589.78320350000013
 20
768.75
 40
2
 50
90.000003000000007
 51
93.840255999999997
  0
ARC
  8
_0-0_0
  6
CONTINUOUS
 62
    7
 10
-576.78320350000013
 20
751.14999399999999
 40
2
 50
269.99999700000001
 51
273.84026499999999
  0
ENDSEC
  0
EOF
