  0
SECTION
  2
HEADER
  9
$ACADVER
  1
AC1009
  9
$INSBASE
 10
0
 20
0
 30
0
  9
$EXTMIN
 10
0
 20
0
  9
$EXTMAX
 10
1682
 20
1188
  9
$LIMMIN
 10
0
 20
0
  9
$LIMMAX
 10
1682
 20
1188
  9
$LTSCALE
 40
2
  0
ENDSEC
  0
SECTION
  2
TABLES
  0
TABLE
  2
LTYPE
 70
     9
  0
LTYPE
  2
CONTINUOUS
 70
    64
  3
実線
 72
    65
 73
     0
 40
0.0
  0
LTYPE
  2
DASHED1
 70
    64
  3
--  --  --  --  --  --  --  --  
 72
    65
 73
     2
 40
2.5
 49
1.25
 49
-1.25
  0
LTYPE
  2
DASHED2
 70
    64
  3
----    ----    ----    ----    
 72
    65
 73
     2
 40
5.0
 49
2.5
 49
-2.5
  0
LTYPE
  2
DASHED3
 70
    64
  3
------  ------  ------  ------  
 72
    65
 73
     2
 40
5.0
 49
3.75
 49
-1.25
  0
LTYPE
  2
CENTER1
 70
    64
  3
----- - ----- - ----- - ----- - 
 72
    65
 73
     4
 40
10.0
 49
6.25
 49
-1.25
 49
1.25
 49
-1.25
  0
LTYPE
  2
CENTER2
 70
    64
  3
----------  --  ----------  --  
 72
    65
 73
     4
 40
20.0
 49
12.5
 49
-2.5
 49
2.5
 49
-2.5
  0
LTYPE
  2
PHANTOM1
 70
    64
  3
--- - - --- - - --- - - --- - - 
 72
    65
 73
     6
 40
10.0
 49
3.25
 49
-1.25
 49
1.25
 49
-1.25
 49
1.25
 49
-1.25
  0
LTYPE
  2
PHANTOM2
 70
    64
  3
--------  -  -  --------  -  -  
 72
    65
 73
     6
 40
20.0
 49
10.0
 49
-2.5
 49
1.25
 49
-2.5
 49
1.25
 49
-2.5
  0
LTYPE
  2
DOT
 70
    64
  3
-   -   -   -   -   -   -   -   
 72
    65
 73
     2
 40
2.5
 49
0.625
 49
-1.875
  0
LTYPE
  2
DUMMY
 70
    64
  3
ダミー
 72
    65
 73
     0
 40
0.0
  0
LTYPE
  2
RAND1
 70
    64
  3
ランダム線1
 72
    65
 73
     4
 40
10.0
 49
1.0
 49
-2.0
 49
3.0
 49
-4.0
  0
LTYPE
  2
RAND2
 70
    64
  3
ランダム線2
 72
    65
 73
     4
 40
14.0
 49
2.0
 49
-3.0
 49
4.0
 49
-5.0
  0
LTYPE
  2
RAND3
 70
    64
  3
ランダム線3
 72
    65
 73
     4
 40
18.0
 49
3.0
 49
-4.0
 49
5.0
 49
-6.0
  0
LTYPE
  2
RAND4
 70
    64
  3
ランダム線4
 72
    65
 73
     4
 40
22.0
 49
4.0
 49
-5.0
 49
6.0
 49
-7.0
  0
LTYPE
  2
RAND5
 70
    64
  3
ランダム線5
 72
    65
 73
     4
 40
26.0
 49
5.0
 49
-6.0
 49
7.0
 49
-8.0
  0
LTYPE
  2
LONG1
 70
    64
  3
----------  --  ----------  --  
 72
    65
 73
     4
 40
40.0
 49
32.5
 49
-2.5
 49
2.5
 49
-2.5
  0
LTYPE
  2
LONG2
 70
    64
  3
--------  -  -  --------  -  -  
 72
    65
 73
     6
 40
40.0
 49
30.0
 49
-2.5
 49
1.25
 49
-2.5
 49
1.25
 49
-2.5
  0
LTYPE
  2
LONG3
 70
    64
  3
+++++++++++++++..+++++++++++++++
 72
    65
 73
     2
 40
40.0
 49
37.5
 49
-2.5
  0
LTYPE
  2
LONG4
 70
    64
  3
+++++++++++++++..+++++++++++++++
 72
    65
 73
     2
 40
80.0
 49
75.0
 49
-5.0
  0
LTYPE
  2
LONG5
 70
    64
  3
----------  --  ----------  --  
 72
    65
 73
     4
 40
60.0
 49
37.5
 49
-7.5
 49
7.5
 49
-7.5
  0
LTYPE
  2
dashed
 70
   64
  3
-------   -------------   ------
 72
   65
 73
    2
 40
7.5
 49
6
 49
-1.5
  0
LTYPE
  2
dashed_spaced
 70
   64
  3
----        --------        ----
 72
   65
 73
    2
 40
12
 49
6
 49
-6
  0
LTYPE
  2
long_dashed_dotted
 70
   64
  3
------------- --- --------------
 72
   65
 73
    4
 40
15.25
 49
12
 49
-1.5
 49
0.25
 49
-1.5
  0
LTYPE
  2
long_dashed_double-dotted
 70
   64
  3
----------- --- --- ------------
 72
   65
 73
    6
 40
17
 49
12
 49
-1.5
 49
0.25
 49
-1.5
 49
0.25
 49
-1.5
  0
LTYPE
  2
long_dashed_triplicate-dotted
 70
   64
  3
--------- --- --- --- ----------
 72
   65
 73
    8
 40
18.75
 49
12
 49
-1.5
 49
0.25
 49
-1.5
 49
0.25
 49
-1.5
 49
0.25
 49
-1.5
  0
LTYPE
  2
dotted
 70
   64
  3
   -       -       -       -    
 72
   65
 73
    2
 40
1.75
 49
0.25
 49
-1.5
  0
LTYPE
  2
chain
 70
   64
  3
-------------- -- --------------
 72
   65
 73
    4
 40
18.5
 49
12
 49
-1.5
 49
3.5
 49
-1.5
  0
LTYPE
  2
chain_double_dash
 70
   64
  3
------------ -- -- -------------
 72
   65
 73
    6
 40
23.5
 49
12
 49
-1.5
 49
3.5
 49
-1.5
 49
3.5
 49
-1.5
  0
LTYPE
  2
dashed_dotted
 70
   64
  3
-----------     -     ----------
 72
   65
 73
    4
 40
9.25
 49
6
 49
-1.5
 49
0.25
 49
-1.5
  0
LTYPE
  2
double-dashed_dotted
 70
   64
  3
------   -----------   -   -----
 72
   65
 73
    6
 40
16.75
 49
6
 49
-1.5
 49
6
 49
-1.5
 49
0.25
 49
-1.5
  0
LTYPE
  2
dashed_double-dotted
 70
   64
  3
---------    -    -    ---------
 72
   65
 73
    6
 40
11
 49
6
 49
-1.5
 49
0.25
 49
-1.5
 49
0.25
 49
-1.5
  0
LTYPE
  2
double-dashed_double-dotted
 70
   64
  3
-----   ---------   -   -   ----
 72
   65
 73
    8
 40
18.5
 49
6
 49
-1.5
 49
6
 49
-1.5
 49
0.25
 49
-1.5
 49
0.25
 49
-1.5
  0
LTYPE
  2
dashed_triplicate-dotted
 70
   64
  3
-------    -    -    -    ------
 72
   65
 73
    8
 40
12.75
 49
6
 49
-1.5
 49
0.25
 49
-1.5
 49
0.25
 49
-1.5
 49
0.25
 49
-1.5
  0
LTYPE
  2
double-dashed_triplicate-dotted
 70
   64
  3
-----  ---------  -  -  -  -----
 72
   65
 73
   10
 40
20.25
 49
6
 49
-1.5
 49
6
 49
-1.5
 49
0.25
 49
-1.5
 49
0.25
 49
-1.5
 49
0.25
 49
-1.5
  0
LTYPE
  2
undefined
 70
   64
  3
--------------------------------
 72
   65
 73
    0
 40
0
  0
ENDTAB
  0
TABLE
  2
STYLE
  5
3
100
AcDbSymbolTable
 70
     1
  0
STYLE
  5
10
100
AcDbSymbolTableRecord
100
AcDbTextStyleTableRecord
  2
STANDARD
 70
     0
 40
0.0
 41
1.0
 50
0.0
 71
     0
 42
0.2
  3
txt
  4
bigfont.shx
  0
STYLE
  5
26
100
AcDbSymbolTableRecord
100
AcDbTextStyleTableRecord
  2
TATEGAKI
 70
    68
 40
0.0
 41
1.0
 50
0.0
 71
     0
 42
1.0
  3
txt
  4
bigfont.shx
  0
ENDTAB
  0
TABLE
  2
LAYER
 70
    2
  0
LAYER
  2
_0-0_0
 70
   64
 62
    7
  6
CONTINUOUS
  0
LAYER
  2
ADD_LINE
 70
   64
 62
    7
  6
CONTINUOUS
  0
ENDTAB
  0
ENDSEC
  0
SECTION
  2
BLOCKS
  0
ENDSEC
  0
SECTION
  2
ENTITIES
  0
ARC
  8
_0-0_0
  6
CONTINUOUS
 62
    7
 10
-253.27218650000009
 20
765.34997599999997
 40
0.2
 50
269.99999700000001
 51
20.376440000000013
  0
LINE
  8
_0-0_0
  6
CONTINUOUS
 62
    7
 10
-253.08471650000001
 20
765.41961700000002
 11
-254.3847045
 21
768.91961700000002
  0
ARC
  8
_0-0_0
  6
CONTINUOUS
 62
    7
 10
-254.5722045
 20
768.84997599999997
 40
0.2
 50
20.376439999999999
 51
159.62355600000001
  0
LINE
  8
_0-0_0
  6
CONTINUOUS
 62
    7
 10
-256.05969249999998
 20
765.41961700000002
 11
-254.75967450000007
 21
768.91961700000002
  0
ARC
  8
_0-0_0
  6
CONTINUOUS
 62
    7
 10
-255.87219249999998
 20
765.34997599999997
 40
0.2
 50
159.62355600000001
 51
269.99999700000001
  0
LINE
  8
_0-0_0
  6
CONTINUOUS
 62
    7
 10
-255.87219249999998
 20
765.14999399999999
 11
-253.27218650000009
 21
765.14999399999999
  0
LINE
  8
_0-0_0
  6
CONTINUOUS
 62
    7
 10
-418.50500550000015
 20
813.75271599999996
 11
-418.50500550000015
 21
813.75170900000001
  0
LINE
  8
_0-0_0
  6
CONTINUOUS
 62
    7
 10
1664.4277345
 20
802.14999399999999
 11
1664.4277345
 21
789.14999399999999
  0
LINE
  8
_0-0_0
  6
CONTINUOUS
 62
    7
 10
-308.5722045
 20
802.14999399999999
 11
-308.5722045
 21
789.14999399999999
  0
LINE
  8
_0-0_0
  6
CONTINUOUS
 62
    7
 10
-308.5722045
 20
802.14999399999999
 11
1664.4277345
 21
802.14999399999999
  0
LINE
  8
_0-0_0
  6
CONTINUOUS
 62
    7
 10
-308.5722045
 20
802.14999399999999
 11
-308.5722045
 21
820.75
  0
LINE
  8
_0-0_0
  6
CONTINUOUS
 62
    7
 10
-308.5722045
 20
823.25
 11
-308.5722045
 21
820.75
  0
LINE
  8
_0-0_0
  6
CONTINUOUS
 62
    7
 10
-308.5722045
 20
823.75
 11
-308.5722045
 21
823.25
  0
LINE
  8
_0-0_0
  6
CONTINUOUS
 62
    7
 10
-308.5722045
 20
775.75
 11
-308.5722045
 21
775.25
  0
LINE
  8
_0-0_0
  6
CONTINUOUS
 62
    7
 10
-308.5722045
 20
780.75
 11
-308.5722045
 21
775.75
  0
LINE
  8
_0-0_0
  6
CONTINUOUS
 62
    7
 10
-308.5722045
 20
781.25
 11
-308.5722045
 21
780.75
  0
LINE
  8
_0-0_0
  6
CONTINUOUS
 62
    7
 10
-308.5722045
 20
781.75
 11
-308.5722045
 21
781.25
  0
LINE
  8
_0-0_0
  6
CONTINUOUS
 62
    7
 10
-308.5722045
 20
784.94998199999998
 11
-308.5722045
 21
781.75
  0
LINE
  8
_0-0_0
  6
CONTINUOUS
 62
    7
 10
-308.5722045
 20
784.94998199999998
 11
-308.5722045
 21
789.14999399999999
  0
LINE
  8
_0-0_0
  6
CONTINUOUS
 62
    7
 10
-308.5722045
 20
789.14999399999999
 11
1664.4277345
 21
789.14999399999999
  0
LINE
  8
_0-0_0
  6
CONTINUOUS
 62
    7
 10
1664.4277345
 20
784.94998199999998
 11
1664.4277345
 21
789.14999399999999
  0
LINE
  8
_0-0_0
  6
CONTINUOUS
 62
    7
 10
1664.4277345
 20
781.75
 11
1664.4277345
 21
784.94998199999998
  0
LINE
  8
_0-0_0
  6
CONTINUOUS
 62
    7
 10
1664.4277345
 20
781.75
 11
1664.4277345
 21
781.25
  0
LINE
  8
_0-0_0
  6
CONTINUOUS
 62
    7
 10
1664.4277345
 20
781.25
 11
1664.4277345
 21
780.75
  0
LINE
  8
_0-0_0
  6
CONTINUOUS
 62
    7
 10
1664.4277345
 20
780.75
 11
1664.4277345
 21
775.75
  0
LINE
  8
_0-0_0
  6
CONTINUOUS
 62
    7
 10
1664.4277345
 20
775.75
 11
1664.4277345
 21
775.25
  0
LINE
  8
_0-0_0
  6
CONTINUOUS
 62
    7
 10
1664.4277345
 20
823.75
 11
1664.4277345
 21
823.25
  0
LINE
  8
_0-0_0
  6
CONTINUOUS
 62
    7
 10
1664.4277345
 20
820.75
 11
1664.4277345
 21
823.25
  0
LINE
  8
_0-0_0
  6
CONTINUOUS
 62
    7
 10
1664.4277345
 20
802.14999399999999
 11
1664.4277345
 21
820.75
  0
CIRCLE
  8
_0-0_0
  6
CONTINUOUS
 62
    7
 10
1627.9277345
 20
811.25
 40
6
  0
CIRCLE
  8
_0-0_0
  6
CONTINUOUS
 62
    7
 10
1527.9278565
 20
811.25
 40
6
  0
CIRCLE
  8
_0-0_0
  6
CONTINUOUS
 62
    7
 10
1427.9278565
 20
811.25
 40
6
  0
CIRCLE
  8
_0-0_0
  6
CONTINUOUS
 62
    7
 10
1327.9278565
 20
811.25
 40
6
  0
CIRCLE
  8
_0-0_0
  6
CONTINUOUS
 62
    7
 10
1227.9278565
 20
811.25
 40
6
  0
CIRCLE
  8
_0-0_0
  6
CONTINUOUS
 62
    7
 10
1127.9278565
 20
811.25
 40
6
  0
CIRCLE
  8
_0-0_0
  6
CONTINUOUS
 62
    7
 10
1027.9278565
 20
811.25
 40
6
  0
CIRCLE
  8
_0-0_0
  6
CONTINUOUS
 62
    7
 10
927.92785649999996
 20
811.25
 40
6
  0
CIRCLE
  8
_0-0_0
  6
CONTINUOUS
 62
    7
 10
827.92785649999996
 20
811.25
 40
6
  0
CIRCLE
  8
_0-0_0
  6
CONTINUOUS
 62
    7
 10
727.92785649999996
 20
811.25
 40
6
  0
CIRCLE
  8
_0-0_0
  6
CONTINUOUS
 62
    7
 10
627.92785649999996
 20
811.25
 40
6
  0
CIRCLE
  8
_0-0_0
  6
CONTINUOUS
 62
    7
 10
527.92785649999996
 20
811.25
 40
6
  0
CIRCLE
  8
_0-0_0
  6
CONTINUOUS
 62
    7
 10
427.92782549999998
 20
811.25
 40
6
  0
CIRCLE
  8
_0-0_0
  6
CONTINUOUS
 62
    7
 10
327.92782549999993
 20
811.25
 40
6
  0
CIRCLE
  8
_0-0_0
  6
CONTINUOUS
 62
    7
 10
227.92782549999993
 20
811.25
 40
6
  0
CIRCLE
  8
_0-0_0
  6
CONTINUOUS
 62
    7
 10
127.92782549999993
 20
811.25
 40
6
  0
CIRCLE
  8
_0-0_0
  6
CONTINUOUS
 62
    7
 10
27.927825499999926
 20
811.25
 40
6
  0
CIRCLE
  8
_0-0_0
  6
CONTINUOUS
 62
    7
 10
-72.072174500000074
 20
811.25
 40
6
  0
CIRCLE
  8
_0-0_0
  6
CONTINUOUS
 62
    7
 10
-172.07217450000007
 20
811.25
 40
6
  0
CIRCLE
  8
_0-0_0
  6
CONTINUOUS
 62
    7
 10
-272.0722045
 20
811.25
 40
6
  0
LINE
  8
_0-0_0
  6
CONTINUOUS
 62
    7
 10
-308.5722045
 20
820.75
 11
1664.4277345
 21
820.75
  0
LINE
  8
_0-0_0
  6
CONTINUOUS
 62
    7
 10
-308.5722045
 20
823.75
 11
1664.4277345
 21
823.75
  0
LINE
  8
_0-0_0
  6
CONTINUOUS
 62
    7
 10
-308.5722045
 20
823.25
 11
-311.0722045
 21
823.25
  0
LINE
  8
_0-0_0
  6
CONTINUOUS
 62
    7
 10
-311.0722045
 20
823.25
 11
-311.0722045
 21
822.75
  0
LINE
  8
_0-0_0
  6
CONTINUOUS
 62
    7
 10
-311.0722045
 20
822.75
 11
-311.0722045
 21
782.25
  0
LINE
  8
_0-0_0
  6
CONTINUOUS
 62
    7
 10
-308.5722045
 20
781.75
 11
-311.0722045
 21
781.75
  0
LINE
  8
_0-0_0
  6
CONTINUOUS
 62
    7
 10
-311.0722045
 20
782.25
 11
-311.0722045
 21
781.75
  0
LINE
  8
_0-0_0
  6
CONTINUOUS
 62
    7
 10
-311.0722045
 20
781.75
 11
-311.0722045
 21
780.75
  0
LINE
  8
_0-0_0
  6
CONTINUOUS
 62
    7
 10
-311.0722045
 20
780.75
 11
-311.0722045
 21
776.25
  0
LINE
  8
_0-0_0
  6
CONTINUOUS
 62
    7
 10
-308.5722045
 20
775.75
 11
-311.0722045
 21
775.75
  0
LINE
  8
_0-0_0
  6
CONTINUOUS
 62
    7
 10
-311.0722045
 20
776.25
 11
-311.0722045
 21
775.75
  0
LINE
  8
_0-0_0
  6
CONTINUOUS
 62
    7
 10
-308.5722045
 20
775.25
 11
1664.4277345
 21
775.25
  0
LINE
  8
_0-0_0
  6
CONTINUOUS
 62
    7
 10
-308.5722045
 20
781.25
 11
1664.4277345
 21
781.25
  0
LINE
  8
_0-0_0
  6
CONTINUOUS
 62
    7
 10
-308.5722045
 20
784.94998199999998
 11
1664.4277345
 21
784.94998199999998
  0
LINE
  8
_0-0_0
  6
CONTINUOUS
 62
    7
 10
1664.4277345
 20
823.25
 11
1666.9277345
 21
823.25
  0
LINE
  8
_0-0_0
  6
CONTINUOUS
 62
    7
 10
1666.9277345
 20
823.25
 11
1666.9277345
 21
822.75
  0
LINE
  8
_0-0_0
  6
CONTINUOUS
 62
    7
 10
1666.9277345
 20
822.75
 11
1666.9277345
 21
782.25
  0
LINE
  8
_0-0_0
  6
CONTINUOUS
 62
    7
 10
1664.4277345
 20
781.75
 11
1666.9277345
 21
781.75
  0
LINE
  8
_0-0_0
  6
CONTINUOUS
 62
    7
 10
1666.9277345
 20
782.25
 11
1666.9277345
 21
781.75
  0
LINE
  8
_0-0_0
  6
CONTINUOUS
 62
    7
 10
1666.9277345
 20
781.75
 11
1666.9277345
 21
780.75
  0
LINE
  8
_0-0_0
  6
CONTINUOUS
 62
    7
 10
1666.9277345
 20
780.75
 11
1666.9277345
 21
776.25
  0
LINE
  8
_0-0_0
  6
CONTINUOUS
 62
    7
 10
1664.4277345
 20
775.75
 11
1666.9277345
 21
775.75
  0
LINE
  8
_0-0_0
  6
CONTINUOUS
 62
    7
 10
1666.9277345
 20
776.25
 11
1666.9277345
 21
775.75
  0
ARC
  8
_0-0_0
  6
CONTINUOUS
 62
    7
 10
-251.0722045
 20
776.25
 40
0.5
 50
269.99999700000001
 51
0
  0
LINE
  8
_0-0_0
  6
CONTINUOUS
 62
    7
 10
-251.0722045
 20
775.75
 11
-258.0722045
 21
775.75
  0
ARC
  8
_0-0_0
  6
CONTINUOUS
 62
    7
 10
-258.0722045
 20
776.25
 40
0.5
 50
179.99999099999999
 51
269.99999700000001
  0
LINE
  8
_0-0_0
  6
CONTINUOUS
 62
    7
 10
-258.5722045
 20
780.25
 11
-258.5722045
 21
776.25
  0
ARC
  8
_0-0_0
  6
CONTINUOUS
 62
    7
 10
-258.0722045
 20
780.25
 40
0.5
 50
90.000003000000007
 51
179.99999099999999
  0
ARC
  8
_0-0_0
  6
CONTINUOUS
 62
    7
 10
-251.0722045
 20
780.25
 40
0.5
 50
0
 51
90.000003000000007
  0
LINE
  8
_0-0_0
  6
CONTINUOUS
 62
    7
 10
-258.0722045
 20
780.75
 11
-251.0722045
 21
780.75
  0
LINE
  8
_0-0_0
  6
CONTINUOUS
 62
    7
 10
1664.4277345
 20
823.75
 11
1664.4277345
 21
823.44998199999998
  0
LINE
  8
_0-0_0
  6
CONTINUOUS
 62
    7
 10
1664.4277345
 20
823.44998199999998
 11
1664.4277345
 21
823.25
  0
CIRCLE
  8
_0-0_0
  6
CONTINUOUS
 62
    7
 10
1627.9277345
 20
811.25
 40
5.5
  0
CIRCLE
  8
_0-0_0
  6
CONTINUOUS
 62
    7
 10
1527.9278565
 20
811.25
 40
5.5
  0
CIRCLE
  8
_0-0_0
  6
CONTINUOUS
 62
    7
 10
1427.9278565
 20
811.25
 40
5.5
  0
CIRCLE
  8
_0-0_0
  6
CONTINUOUS
 62
    7
 10
1327.9278565
 20
811.25
 40
5.5
  0
CIRCLE
  8
_0-0_0
  6
CONTINUOUS
 62
    7
 10
1227.9278565
 20
811.25
 40
5.5
  0
CIRCLE
  8
_0-0_0
  6
CONTINUOUS
 62
    7
 10
1127.9278565
 20
811.25
 40
5.5
  0
CIRCLE
  8
_0-0_0
  6
CONTINUOUS
 62
    7
 10
1027.9278565
 20
811.25
 40
5.5
  0
CIRCLE
  8
_0-0_0
  6
CONTINUOUS
 62
    7
 10
927.92785649999996
 20
811.25
 40
5.5
  0
CIRCLE
  8
_0-0_0
  6
CONTINUOUS
 62
    7
 10
827.92785649999996
 20
811.25
 40
5.5
  0
CIRCLE
  8
_0-0_0
  6
CONTINUOUS
 62
    7
 10
727.92785649999996
 20
811.25
 40
5.5
  0
CIRCLE
  8
_0-0_0
  6
CONTINUOUS
 62
    7
 10
627.92785649999996
 20
811.25
 40
5.5
  0
CIRCLE
  8
_0-0_0
  6
CONTINUOUS
 62
    7
 10
527.92785649999996
 20
811.25
 40
5.5
  0
CIRCLE
  8
_0-0_0
  6
CONTINUOUS
 62
    7
 10
427.92782549999998
 20
811.25
 40
5.5
  0
CIRCLE
  8
_0-0_0
  6
CONTINUOUS
 62
    7
 10
327.92782549999993
 20
811.25
 40
5.5
  0
CIRCLE
  8
_0-0_0
  6
CONTINUOUS
 62
    7
 10
227.92782549999993
 20
811.25
 40
5.5
  0
CIRCLE
  8
_0-0_0
  6
CONTINUOUS
 62
    7
 10
127.92782549999993
 20
811.25
 40
5.5
  0
CIRCLE
  8
_0-0_0
  6
CONTINUOUS
 62
    7
 10
27.927825499999926
 20
811.25
 40
5.5
  0
CIRCLE
  8
_0-0_0
  6
CONTINUOUS
 62
    7
 10
-72.072174500000074
 20
811.25
 40
5.5
  0
CIRCLE
  8
_0-0_0
  6
CONTINUOUS
 62
    7
 10
-172.07217450000007
 20
811.25
 40
5.5
  0
CIRCLE
  8
_0-0_0
  6
CONTINUOUS
 62
    7
 10
-272.0722045
 20
811.25
 40
5.5
  0
LINE
  8
_0-0_0
  6
CONTINUOUS
 62
    7
 10
-250.5722045
 20
776.25
 11
-250.5722045
 21
780.25
  0
CIRCLE
  8
_0-0_0
  6
CONTINUOUS
 62
    7
 10
1627.9277345
 20
811.25
 40
3.5
  0
CIRCLE
  8
_0-0_0
  6
CONTINUOUS
 62
    7
 10
1527.9278565
 20
811.25
 40
3.5
  0
CIRCLE
  8
_0-0_0
  6
CONTINUOUS
 62
    7
 10
1427.9278565
 20
811.25
 40
3.5
  0
CIRCLE
  8
_0-0_0
  6
CONTINUOUS
 62
    7
 10
1327.9278565
 20
811.25
 40
3.5
  0
CIRCLE
  8
_0-0_0
  6
CONTINUOUS
 62
    7
 10
1227.9278565
 20
811.25
 40
3.5
  0
CIRCLE
  8
_0-0_0
  6
CONTINUOUS
 62
    7
 10
1127.9278565
 20
811.25
 40
3.5
  0
CIRCLE
  8
_0-0_0
  6
CONTINUOUS
 62
    7
 10
1027.9278565
 20
811.25
 40
3.5
  0
CIRCLE
  8
_0-0_0
  6
CONTINUOUS
 62
    7
 10
927.92785649999996
 20
811.25
 40
3.5
  0
CIRCLE
  8
_0-0_0
  6
CONTINUOUS
 62
    7
 10
827.92785649999996
 20
811.25
 40
3.5
  0
CIRCLE
  8
_0-0_0
  6
CONTINUOUS
 62
    7
 10
727.92785649999996
 20
811.25
 40
3.5
  0
CIRCLE
  8
_0-0_0
  6
CONTINUOUS
 62
    7
 10
627.92785649999996
 20
811.25
 40
3.5
  0
CIRCLE
  8
_0-0_0
  6
CONTINUOUS
 62
    7
 10
527.92785649999996
 20
811.25
 40
3.5
  0
CIRCLE
  8
_0-0_0
  6
CONTINUOUS
 62
    7
 10
427.92782549999998
 20
811.25
 40
3.5
  0
CIRCLE
  8
_0-0_0
  6
CONTINUOUS
 62
    7
 10
327.92782549999993
 20
811.25
 40
3.5
  0
CIRCLE
  8
_0-0_0
  6
CONTINUOUS
 62
    7
 10
227.92782549999993
 20
811.25
 40
3.5
  0
CIRCLE
  8
_0-0_0
  6
CONTINUOUS
 62
    7
 10
127.92782549999993
 20
811.25
 40
3.5
  0
CIRCLE
  8
_0-0_0
  6
CONTINUOUS
 62
    7
 10
27.927825499999926
 20
811.25
 40
3.5
  0
CIRCLE
  8
_0-0_0
  6
CONTINUOUS
 62
    7
 10
-72.072174500000074
 20
811.25
 40
3.5
  0
CIRCLE
  8
_0-0_0
  6
CONTINUOUS
 62
    7
 10
-172.07217450000007
 20
811.25
 40
3.5
  0
CIRCLE
  8
_0-0_0
  6
CONTINUOUS
 62
    7
 10
-272.0722045
 20
811.25
 40
3.5
  0
ARC
  8
_0-0_0
  6
CONTINUOUS
 62
    7
 10
-253.27218650000009
 20
779.94998199999998
 40
0.2
 50
339.62356199999999
 51
90.000002999999978
  0
LINE
  8
_0-0_0
  6
CONTINUOUS
 62
    7
 10
-253.08471650000001
 20
779.88034100000004
 11
-254.3847045
 21
776.38034100000004
  0
ARC
  8
_0-0_0
  6
CONTINUOUS
 62
    7
 10
-254.5722045
 20
776.44998199999998
 40
0.2
 50
200.37643
 51
339.62356199999999
  0
LINE
  8
_0-0_0
  6
CONTINUOUS
 62
    7
 10
-256.05969249999998
 20
779.88034100000004
 11
-254.75967450000007
 21
776.38034100000004
  0
ARC
  8
_0-0_0
  6
CONTINUOUS
 62
    7
 10
-255.87219249999998
 20
779.94998199999998
 40
0.2
 50
90.000003000000007
 51
200.37643
  0
LINE
  8
_0-0_0
  6
CONTINUOUS
 62
    7
 10
-255.87219249999998
 20
780.14999399999999
 11
-253.27218650000009
 21
780.14999399999999
  0
ARC
  8
_0-0_0
  6
CONTINUOUS
 62
    7
 10
1584.1278075
 20
779.94998199999998
 40
0.2
 50
90.000003000000007
 51
200.37643
  0
LINE
  8
_0-0_0
  6
CONTINUOUS
 62
    7
 10
1584.1278075
 20
780.14999399999999
 11
1586.7279054999999
 21
780.14999399999999
  0
ARC
  8
_0-0_0
  6
CONTINUOUS
 62
    7
 10
1581.9278565
 20
780.25
 40
0.5
 50
90.000003000000007
 51
179.99999099999999
  0
LINE
  8
_0-0_0
  6
CONTINUOUS
 62
    7
 10
1581.4278565
 20
780.25
 11
1581.4278565
 21
776.25
  0
ARC
  8
_0-0_0
  6
CONTINUOUS
 62
    7
 10
1581.9278565
 20
776.25
 40
0.5
 50
179.99999099999999
 51
269.99999700000001
  0
LINE
  8
_0-0_0
  6
CONTINUOUS
 62
    7
 10
1588.9278565
 20
775.75
 11
1581.9278565
 21
775.75
  0
ARC
  8
_0-0_0
  6
CONTINUOUS
 62
    7
 10
1588.9278565
 20
776.25
 40
0.5
 50
269.99999700000001
 51
0
  0
LINE
  8
_0-0_0
  6
CONTINUOUS
 62
    7
 10
1589.4278565
 20
776.25
 11
1589.4278565
 21
780.25
  0
ARC
  8
_0-0_0
  6
CONTINUOUS
 62
    7
 10
1588.9278565
 20
780.25
 40
0.5
 50
0
 51
90.000003000000007
  0
LINE
  8
_0-0_0
  6
CONTINUOUS
 62
    7
 10
1581.9278565
 20
780.75
 11
1588.9278565
 21
780.75
  0
LINE
  8
_0-0_0
  6
CONTINUOUS
 62
    7
 10
1583.9404294999999
 20
779.88034100000004
 11
1585.2403565
 21
776.38034100000004
  0
ARC
  8
_0-0_0
  6
CONTINUOUS
 62
    7
 10
1585.4278565
 20
776.44998199999998
 40
0.2
 50
200.37643
 51
339.62356199999999
  0
LINE
  8
_0-0_0
  6
CONTINUOUS
 62
    7
 10
1586.9152835
 20
779.88034100000004
 11
1585.6153565
 21
776.38034100000004
  0
ARC
  8
_0-0_0
  6
CONTINUOUS
 62
    7
 10
1586.7279054999999
 20
779.94998199999998
 40
0.2
 50
339.62356199999999
 51
90.000002999999978
  0
LINE
  8
_0-0_0
  6
CONTINUOUS
 62
    7
 10
-302.0722045
 20
773.25
 11
-297.0722045
 21
773.25
  0
LINE
  8
_0-0_0
  6
CONTINUOUS
 62
    7
 10
-297.0722045
 20
773.25
 11
-295.27218650000009
 21
773.25
  0
LINE
  8
_0-0_0
  6
CONTINUOUS
 62
    7
 10
-295.27218650000009
 20
773.25
 11
-294.5722045
 21
773.25
  0
ARC
  8
_0-0_0
  6
CONTINUOUS
 62
    7
 10
-295.27218650000009
 20
772.75
 40
0.5
 50
0
 51
90.000003000000007
  0
ARC
  8
_0-0_0
  6
CONTINUOUS
 62
    7
 10
-302.0722045
 20
772.75
 40
0.5
 50
90.000003000000007
 51
179.99999099999999
  0
ARC
  8
_0-0_0
  6
CONTINUOUS
 62
    7
 10
-198.57218950000015
 20
772.75
 40
0.5
 50
0
 51
90.000003000000007
  0
LINE
  8
_0-0_0
  6
CONTINUOUS
 62
    7
 10
-294.5722045
 20
773.25
 11
-294.5722045
 21
771.75
  0
LINE
  8
_0-0_0
  6
CONTINUOUS
 62
    7
 10
-294.5722045
 20
773.75
 11
-294.5722045
 21
773.25
  0
LINE
  8
_0-0_0
  6
CONTINUOUS
 62
    7
 10
-294.5722045
 20
774.25
 11
-294.5722045
 21
773.75
  0
LINE
  8
_0-0_0
  6
CONTINUOUS
 62
    7
 10
-294.5722045
 20
775.25
 11
-294.5722045
 21
774.25
  0
LINE
  8
_0-0_0
  6
CONTINUOUS
 62
    7
 10
-290.5722045
 20
773.25
 11
-289.87219249999998
 21
773.25
  0
LINE
  8
_0-0_0
  6
CONTINUOUS
 62
    7
 10
-294.77218650000009
 20
772.75
 11
-294.77218650000009
 21
771.75
  0
LINE
  8
_0-0_0
  6
CONTINUOUS
 62
    7
 10
-291.5722045
 20
746.25
 11
-291.5722045
 21
747.84997599999997
  0
LINE
  8
_0-0_0
  6
CONTINUOUS
 62
    7
 10
-291.5722045
 20
746.25
 11
-297.0722045
 21
746.25
  0
LINE
  8
_0-0_0
  6
CONTINUOUS
 62
    7
 10
-275.5722045
 20
752.94998199999998
 11
-233.57218950000015
 21
752.94998199999998
  0
LINE
  8
_0-0_0
  6
CONTINUOUS
 62
    7
 10
-275.5722045
 20
772.54998799999998
 11
-233.57218950000015
 21
772.54998799999998
  0
LINE
  8
_0-0_0
  6
CONTINUOUS
 62
    7
 10
-212.07218950000015
 20
746.25
 11
-221.57218950000015
 21
746.25
  0
LINE
  8
_0-0_0
  6
CONTINUOUS
 62
    7
 10
-221.57218950000015
 20
746.25
 11
-221.57218950000015
 21
747.84997599999997
  0
ARC
  8
_0-0_0
  6
CONTINUOUS
 62
    7
 10
-221.87219249999998
 20
747.84997599999997
 40
0.2999999999999999
 50
0
 51
90.000003000000007
  0
LINE
  8
_0-0_0
  6
CONTINUOUS
 62
    7
 10
-222.57218950000015
 20
748.14999399999999
 11
-221.87219249999998
 21
748.14999399999999
  0
LINE
  8
_0-0_0
  6
CONTINUOUS
 62
    7
 10
-223.07218950000015
 20
748.54998799999998
 11
-222.57218950000015
 21
748.54998799999998
  0
LINE
  8
_0-0_0
  6
CONTINUOUS
 62
    7
 10
-236.57218950000015
 20
748.54998799999998
 11
-223.07218950000015
 21
748.54998799999998
  0
ARC
  8
_0-0_0
  6
CONTINUOUS
 62
    7
 10
-239.07218950000015
 20
748.54998799999998
 40
2.5
 50
0
 51
90.000003000000007
  0
LINE
  8
_0-0_0
  6
CONTINUOUS
 62
    7
 10
-270.0722045
 20
751.04998799999998
 11
-239.07218950000015
 21
751.04998799999998
  0
ARC
  8
_0-0_0
  6
CONTINUOUS
 62
    7
 10
-270.0722045
 20
748.54998799999998
 40
2.5
 50
90.000003000000007
 51
179.99999099999999
  0
LINE
  8
_0-0_0
  6
CONTINUOUS
 62
    7
 10
-290.0722045
 20
748.54998799999998
 11
-272.5722045
 21
748.54998799999998
  0
LINE
  8
_0-0_0
  6
CONTINUOUS
 62
    7
 10
-290.5722045
 20
748.54998799999998
 11
-290.0722045
 21
748.54998799999998
  0
LINE
  8
_0-0_0
  6
CONTINUOUS
 62
    7
 10
-291.27218650000009
 20
748.14999399999999
 11
-290.5722045
 21
748.14999399999999
  0
ARC
  8
_0-0_0
  6
CONTINUOUS
 62
    7
 10
-291.27218650000009
 20
747.84997599999997
 40
0.2999999999999999
 50
90.000003000000007
 51
179.99999099999999
  0
LINE
  8
_0-0_0
  6
CONTINUOUS
 62
    7
 10
-302.5722045
 20
770.97485400000005
 11
-302.5722045
 21
772.75
  0
LINE
  8
_0-0_0
  6
CONTINUOUS
 62
    7
 10
-297.5722045
 20
773.75
 11
-297.5722045
 21
773.25
  0
LINE
  8
_0-0_0
  6
CONTINUOUS
 62
    7
 10
-297.5722045
 20
769.80355800000007
 11
-297.5722045
 21
769.90853900000002
  0
LINE
  8
_0-0_0
  6
CONTINUOUS
 62
    7
 10
-297.5722045
 20
773.75
 11
-297.5722045
 21
775.24996899999996
  0
LINE
  8
_0-0_0
  6
CONTINUOUS
 62
    7
 10
-198.07218950000015
 20
775.24996899999996
 11
-198.07218950000015
 21
773.75
  0
LINE
  8
_0-0_0
  6
CONTINUOUS
 62
    7
 10
-198.07218950000015
 20
773.75
 11
-198.07218950000015
 21
772.75
  0
LINE
  8
_0-0_0
  6
CONTINUOUS
 62
    7
 10
-198.07218950000015
 20
771.94998199999998
 11
-198.07218950000015
 21
772.75
  0
LINE
  8
_0-0_0
  6
CONTINUOUS
 62
    7
 10
-198.57218950000015
 20
773.25
 11
-198.07218950000015
 21
773.25
  0
LINE
  8
_0-0_0
  6
CONTINUOUS
 62
    7
 10
-211.07218950000015
 20
773.25
 11
-198.57218950000015
 21
773.25
  0
LINE
  8
_0-0_0
  6
CONTINUOUS
 62
    7
 10
-198.07218950000015
 20
775.25
 11
-198.07218950000015
 21
774.25
  0
LINE
  8
_0-0_0
  6
CONTINUOUS
 62
    7
 10
-198.07218950000015
 20
773.75
 11
-198.07218950000015
 21
773.25
  0
LINE
  8
_0-0_0
  6
CONTINUOUS
 62
    7
 10
-198.07218950000015
 20
774.25
 11
-198.07218950000015
 21
773.75
  0
ARC
  8
_0-0_0
  6
CONTINUOUS
 62
    7
 10
-292.5722045
 20
771.75
 40
2
 50
179.99999099999999
 51
0
  0
LINE
  8
_0-0_0
  6
CONTINUOUS
 62
    7
 10
-211.57218950000015
 20
773.25
 11
-211.07218950000015
 21
773.25
  0
LINE
  8
_0-0_0
  6
CONTINUOUS
 62
    7
 10
-211.57218950000015
 20
772.75
 11
-211.57218950000015
 21
773.25
  0
LINE
  8
_0-0_0
  6
CONTINUOUS
 62
    7
 10
-211.57218950000015
 20
771.75
 11
-211.57218950000015
 21
771.94998199999998
  0
ARC
  8
_0-0_0
  6
CONTINUOUS
 62
    7
 10
-213.57218950000015
 20
771.75
 40
2
 50
179.99999099999999
 51
0
  0
LINE
  8
_0-0_0
  6
CONTINUOUS
 62
    7
 10
-215.57218950000015
 20
773.25
 11
-215.57218950000015
 21
771.75
  0
LINE
  8
_0-0_0
  6
CONTINUOUS
 62
    7
 10
-216.27218650000009
 20
773.25
 11
-215.57218950000015
 21
773.25
  0
LINE
  8
_0-0_0
  6
CONTINUOUS
 62
    7
 10
-290.5722045
 20
771.75
 11
-290.5722045
 21
773.25
  0
LINE
  8
_0-0_0
  6
CONTINUOUS
 62
    7
 10
-294.5722045
 20
774.25
 11
-198.07218950000015
 21
774.25
  0
ARC
  8
_0-0_0
  6
CONTINUOUS
 62
    7
 10
-289.87219249999998
 20
772.75
 40
0.5
 50
90.000003000000007
 51
179.99999099999999
  0
ARC
  8
_0-0_0
  6
CONTINUOUS
 62
    7
 10
-292.5722045
 20
771.75
 40
2.2000000000000002
 50
179.99999099999999
 51
0
  0
LINE
  8
_0-0_0
  6
CONTINUOUS
 62
    7
 10
-290.5722045
 20
748.14999399999999
 11
-290.0722045
 21
748.14999399999999
  0
LINE
  8
_0-0_0
  6
CONTINUOUS
 62
    7
 10
-290.0722045
 20
748.54998799999998
 11
-290.0722045
 21
748.14999399999999
  0
LINE
  8
_0-0_0
  6
CONTINUOUS
 62
    7
 10
-272.5722045
 20
748.54998799999998
 11
-236.57218950000015
 21
748.54998799999998
  0
LINE
  8
_0-0_0
  6
CONTINUOUS
 62
    7
 10
-223.07218950000015
 20
748.14999399999999
 11
-222.57218950000015
 21
748.14999399999999
  0
LINE
  8
_0-0_0
  6
CONTINUOUS
 62
    7
 10
-223.07218950000015
 20
748.54998799999998
 11
-223.07218950000015
 21
748.14999399999999
  0
LINE
  8
_0-0_0
  6
CONTINUOUS
 62
    7
 10
-212.07218950000015
 20
745.75
 11
-221.07218950000015
 21
745.75
  0
ARC
  8
_0-0_0
  6
CONTINUOUS
 62
    7
 10
-221.07218950000015
 20
746.25
 40
0.5
 50
179.99999099999999
 51
269.99999700000001
  0
LINE
  8
_0-0_0
  6
CONTINUOUS
 62
    7
 10
-212.07218950000015
 20
746.25
 11
-211.57218950000015
 21
746.25
  0
LINE
  8
_0-0_0
  6
CONTINUOUS
 62
    7
 10
-211.57218950000015
 20
746.25
 11
-211.57218950000015
 21
746.44998199999998
  0
LINE
  8
_0-0_0
  6
CONTINUOUS
 62
    7
 10
-207.07218950000015
 20
746.64999399999999
 11
-211.37219249999998
 21
746.64999399999999
  0
LINE
  8
_0-0_0
  6
CONTINUOUS
 62
    7
 10
-206.57218950000015
 20
747.14999399999999
 11
-206.57218950000015
 21
748.92511000000002
  0
ARC
  8
_0-0_0
  6
CONTINUOUS
 62
    7
 10
-209.62014750000003
 20
748.86898799999994
 40
3.0490550000000001
 50
1.0548960000000001
 51
14.838094000000002
  0
LINE
  8
_0-0_0
  6
CONTINUOUS
 62
    7
 10
-207.07218950000015
 20
749.84997599999997
 11
-211.43972750000012
 21
749.84997599999997
  0
LINE
  8
_0-0_0
  6
CONTINUOUS
 62
    7
 10
-211.57218950000015
 20
749.99142499999994
 11
-211.57218950000015
 21
750.33367900000007
  0
ARC
  8
_0-0_0
  6
CONTINUOUS
 62
    7
 10
-213.57218950000015
 20
771.75
 40
2.2000000000000002
 50
179.99999099999999
 51
303.74900400000001
  0
LINE
  8
_0-0_0
  6
CONTINUOUS
 62
    7
 10
-215.77218650000009
 20
772.75
 11
-215.77218650000009
 21
771.75
  0
LINE
  8
_0-0_0
  6
CONTINUOUS
 62
    7
 10
-216.27218650000009
 20
773.25
 11
-289.87219249999998
 21
773.25
  0
LINE
  8
_0-0_0
  6
CONTINUOUS
 62
    7
 10
-290.37219249999998
 20
771.75
 11
-290.37219249999998
 21
772.75
  0
LINE
  8
_0-0_0
  6
CONTINUOUS
 62
    7
 10
-289.87219249999998
 20
771.54998799999998
 11
-289.87219249999998
 21
771.75
  0
ARC
  8
_0-0_0
  6
CONTINUOUS
 62
    7
 10
-288.87219249999998
 20
771.54998799999998
 40
1
 50
90.000003000000007
 51
179.99999099999999
  0
LINE
  8
_0-0_0
  6
CONTINUOUS
 62
    7
 10
-288.87219249999998
 20
772.54998799999998
 11
-275.5722045
 21
772.54998799999998
  0
LINE
  8
_0-0_0
  6
CONTINUOUS
 62
    7
 10
-233.57218950000015
 20
772.54998799999998
 11
-219.57218950000015
 21
772.54998799999998
  0
ARC
  8
_0-0_0
  6
CONTINUOUS
 62
    7
 10
-219.57218950000015
 20
769.54998799999998
 40
3
 50
0
 51
90.000003000000007
  0
LINE
  8
_0-0_0
  6
CONTINUOUS
 62
    7
 10
-216.57218950000015
 20
755.94998199999998
 11
-216.57218950000015
 21
769.54998799999998
  0
ARC
  8
_0-0_0
  6
CONTINUOUS
 62
    7
 10
-219.57218950000015
 20
755.94998199999998
 40
3
 50
269.99999700000001
 51
0
  0
LINE
  8
_0-0_0
  6
CONTINUOUS
 62
    7
 10
-219.57218950000015
 20
752.94998199999998
 11
-233.57218950000015
 21
752.94998199999998
  0
LINE
  8
_0-0_0
  6
CONTINUOUS
 62
    7
 10
-275.5722045
 20
752.94998199999998
 11
-289.5722045
 21
752.94998199999998
  0
ARC
  8
_0-0_0
  6
CONTINUOUS
 62
    7
 10
-289.5722045
 20
755.94998199999998
 40
3
 50
179.99999099999999
 51
269.99999700000001
  0
LINE
  8
_0-0_0
  6
CONTINUOUS
 62
    7
 10
-292.5722045
 20
768.18768299999999
 11
-292.5722045
 21
755.94998199999998
  0
ARC
  8
_0-0_0
  6
CONTINUOUS
 62
    7
 10
-291.5722045
 20
768.18768299999999
 40
1
 50
105.68034800000001
 51
179.99999100000002
  0
ARC
  8
_0-0_0
  6
CONTINUOUS
 62
    7
 10
-299.52423150000004
 20
771.03097500000001
 40
3.0490550000000001
 50
181.05489
 51
194.838089
  0
LINE
  8
_0-0_0
  6
CONTINUOUS
 62
    7
 10
-297.70465150000018
 20
770.04998799999998
 11
-302.0722045
 21
770.04998799999998
  0
LINE
  8
_0-0_0
  6
CONTINUOUS
 62
    7
 10
-297.5722045
 20
749.99142499999994
 11
-297.5722045
 21
750.096405
  0
LINE
  8
_0-0_0
  6
CONTINUOUS
 62
    7
 10
-297.70465150000018
 20
749.84997599999997
 11
-302.0722045
 21
749.84997599999997
  0
ARC
  8
_0-0_0
  6
CONTINUOUS
 62
    7
 10
-299.52304049999998
 20
748.86834700000009
 40
3.050319
 50
165.15540799999999
 51
178.932897
  0
LINE
  8
_0-0_0
  6
CONTINUOUS
 62
    7
 10
-302.5722045
 20
747.14999399999999
 11
-302.5722045
 21
748.92511000000002
  0
LINE
  8
_0-0_0
  6
CONTINUOUS
 62
    7
 10
-297.77218650000009
 20
746.64999399999999
 11
-302.0722045
 21
746.64999399999999
  0
LINE
  8
_0-0_0
  6
CONTINUOUS
 62
    7
 10
-297.5722045
 20
746.25
 11
-297.5722045
 21
746.44998199999998
  0
LINE
  8
_0-0_0
  6
CONTINUOUS
 62
    7
 10
-297.5722045
 20
746.25
 11
-297.0722045
 21
746.25
  0
LINE
  8
_0-0_0
  6
CONTINUOUS
 62
    7
 10
-292.0722045
 20
745.75
 11
-297.0722045
 21
745.75
  0
ARC
  8
_0-0_0
  6
CONTINUOUS
 62
    7
 10
-292.0722045
 20
746.25
 40
0.5
 50
269.99999700000001
 51
0
  0
LINE
  8
_0-0_0
  6
CONTINUOUS
 62
    7
 10
-302.25393650000001
 20
770.04998799999998
 11
-302.2742925
 21
770.05099500000006
  0
LINE
  8
_0-0_0
  6
CONTINUOUS
 62
    7
 10
-302.2742925
 20
770.05099500000006
 11
-302.29467750000003
 21
770.05413799999997
  0
LINE
  8
_0-0_0
  6
CONTINUOUS
 62
    7
 10
-302.29467750000003
 20
770.05413799999997
 11
-302.32150249999995
 21
770.06173699999999
  0
LINE
  8
_0-0_0
  6
CONTINUOUS
 62
    7
 10
-302.32150249999995
 20
770.06173699999999
 11
-302.34716849999995
 21
770.07312000000002
  0
LINE
  8
_0-0_0
  6
CONTINUOUS
 62
    7
 10
-302.34716849999995
 20
770.07312000000002
 11
-302.3709715
 21
770.08798200000001
  0
LINE
  8
_0-0_0
  6
CONTINUOUS
 62
    7
 10
-302.3709715
 20
770.08798200000001
 11
-302.38769550000006
 21
770.10150099999998
  0
LINE
  8
_0-0_0
  6
CONTINUOUS
 62
    7
 10
-302.38769550000006
 20
770.10150099999998
 11
-302.40319850000014
 21
770.11672999999996
  0
LINE
  8
_0-0_0
  6
CONTINUOUS
 62
    7
 10
-302.40319850000014
 20
770.11672999999996
 11
-302.43011449999995
 21
770.15136699999994
  0
LINE
  8
_0-0_0
  6
CONTINUOUS
 62
    7
 10
-302.43011449999995
 20
770.15136699999994
 11
-302.45117249999998
 21
770.18969700000002
  0
LINE
  8
_0-0_0
  6
CONTINUOUS
 62
    7
 10
-302.45117249999998
 20
770.18969700000002
 11
-302.46313450000002
 21
770.21963499999993
  0
LINE
  8
_0-0_0
  6
CONTINUOUS
 62
    7
 10
-302.46313450000002
 20
770.21963499999993
 11
-302.47216849999995
 21
770.25
  0
LINE
  8
_0-0_0
  6
CONTINUOUS
 62
    7
 10
-302.56097450000016
 20
770.75
 11
-309.5722045
 21
770.75
  0
LINE
  8
_0-0_0
  6
CONTINUOUS
 62
    7
 10
-309.5722045
 20
770.75
 11
-314.24761949999993
 21
770.75
  0
LINE
  8
_0-0_0
  6
CONTINUOUS
 62
    7
 10
-309.5722045
 20
770.75
 11
-309.5722045
 21
768.75
  0
LINE
  8
_0-0_0
  6
CONTINUOUS
 62
    7
 10
-297.5722045
 20
768.75
 11
-297.5722045
 21
769.80355800000007
  0
ARC
  8
_0-0_0
  6
CONTINUOUS
 62
    7
 10
-198.57218950000015
 20
771.94998199999998
 40
0.5
 50
269.99999700000001
 51
0
  0
ARC
  8
_0-0_0
  6
CONTINUOUS
 62
    7
 10
-211.07218950000015
 20
772.75
 40
0.5
 50
90.000003000000007
 51
179.99999099999999
  0
LINE
  8
_0-0_0
  6
CONTINUOUS
 62
    7
 10
-211.57218950000015
 20
771.94998199999998
 11
-211.57218950000015
 21
772.75
  0
LINE
  8
_0-0_0
  6
CONTINUOUS
 62
    7
 10
-291.37219249999998
 20
748.13284299999998
 11
-291.37219249999998
 21
746.14999399999999
  0
LINE
  8
_0-0_0
  6
CONTINUOUS
 62
    7
 10
-291.37219249999998
 20
746.14999399999999
 11
-290.37219249999998
 21
746.14999399999999
  0
LINE
  8
_0-0_0
  6
CONTINUOUS
 62
    7
 10
-290.0722045
 20
748.14999399999999
 11
-223.07218950000015
 21
748.14999399999999
  0
LINE
  8
_0-0_0
  6
CONTINUOUS
 62
    7
 10
-290.37219249999998
 20
746.14999399999999
 11
-222.77218650000009
 21
746.14999399999999
  0
LINE
  8
_0-0_0
  6
CONTINUOUS
 62
    7
 10
-222.77218650000009
 20
746.14999399999999
 11
-221.77218650000009
 21
746.14999399999999
  0
LINE
  8
_0-0_0
  6
CONTINUOUS
 62
    7
 10
-221.77218650000009
 20
748.13284299999998
 11
-221.77218650000009
 21
746.14999399999999
  0
LINE
  8
_0-0_0
  6
CONTINUOUS
 62
    7
 10
-211.57218950000015
 20
746.25
 11
-212.07218950000015
 21
745.75
  0
ARC
  8
_0-0_0
  6
CONTINUOUS
 62
    7
 10
-211.37219249999998
 20
746.44998199999998
 40
0.2
 50
90.000003000000007
 51
179.99999099999999
  0
ARC
  8
_0-0_0
  6
CONTINUOUS
 62
    7
 10
-207.07218950000015
 20
747.14999399999999
 40
0.5
 50
269.99999700000001
 51
0
  0
LINE
  8
_0-0_0
  6
CONTINUOUS
 62
    7
 10
-206.89044250000006
 20
749.84997599999997
 11
-206.87008650000007
 21
749.84896900000001
  0
LINE
  8
_0-0_0
  6
CONTINUOUS
 62
    7
 10
-206.87008650000007
 20
749.84896900000001
 11
-206.84968550000008
 21
749.84582499999999
  0
LINE
  8
_0-0_0
  6
CONTINUOUS
 62
    7
 10
-206.84968550000008
 20
749.84582499999999
 11
-206.82286049999993
 21
749.83822600000008
  0
LINE
  8
_0-0_0
  6
CONTINUOUS
 62
    7
 10
-206.82286049999993
 20
749.83822600000008
 11
-206.79722650000008
 21
749.82687399999998
  0
LINE
  8
_0-0_0
  6
CONTINUOUS
 62
    7
 10
-206.79722650000008
 20
749.82687399999998
 11
-206.77342249999992
 21
749.81198100000006
  0
LINE
  8
_0-0_0
  6
CONTINUOUS
 62
    7
 10
-206.77342249999992
 20
749.81198100000006
 11
-206.75666850000016
 21
749.79846199999997
  0
LINE
  8
_0-0_0
  6
CONTINUOUS
 62
    7
 10
-206.75666850000016
 20
749.79846199999997
 11
-206.74116550000008
 21
749.78326399999992
  0
LINE
  8
_0-0_0
  6
CONTINUOUS
 62
    7
 10
-206.74116550000008
 20
749.78326399999992
 11
-206.71426450000013
 21
749.74859600000002
  0
LINE
  8
_0-0_0
  6
CONTINUOUS
 62
    7
 10
-206.71426450000013
 20
749.74859600000002
 11
-206.69322250000005
 21
749.71026600000005
  0
LINE
  8
_0-0_0
  6
CONTINUOUS
 62
    7
 10
-206.69322250000005
 20
749.71026600000005
 11
-206.68122850000009
 21
749.68035899999995
  0
LINE
  8
_0-0_0
  6
CONTINUOUS
 62
    7
 10
-206.68122850000009
 20
749.68035899999995
 11
-206.67218049999997
 21
749.64999399999999
  0
LINE
  8
_0-0_0
  6
CONTINUOUS
 62
    7
 10
-206.89044250000006
 20
749.84997599999997
 11
-207.07218950000015
 21
749.84997599999997
  0
LINE
  8
_0-0_0
  6
CONTINUOUS
 62
    7
 10
-211.57218950000015
 20
768.29998799999998
 11
-211.57218950000015
 21
770.79998799999998
  0
LINE
  8
_0-0_0
  6
CONTINUOUS
 62
    7
 10
-211.57218950000015
 20
768.29998799999998
 11
-211.57218950000015
 21
751.79998799999998
  0
LINE
  8
_0-0_0
  6
CONTINUOUS
 62
    7
 10
-211.57218950000015
 20
750.33367900000007
 11
-211.57218950000015
 21
751.79998799999998
  0
ARC
  8
_0-0_0
  6
CONTINUOUS
 62
    7
 10
-212.07218950000015
 20
769.50500499999998
 40
0.5
 50
0
 51
123.74898500000002
  0
ARC
  8
_0-0_0
  6
CONTINUOUS
 62
    7
 10
-211.40190150000012
 20
750.02328499999999
 40
0.1734229999999999
 50
181.12417600000003
 51
270.64883800000007
  0
LINE
  8
_0-0_0
  6
CONTINUOUS
 62
    7
 10
-211.57623349999994
 20
750.04998799999998
 11
-211.57614149999995
 21
750.01986699999998
  0
ARC
  8
_0-0_0
  6
CONTINUOUS
 62
    7
 10
-216.27218650000009
 20
772.75
 40
0.5
 50
0
 51
90.000003000000007
  0
ARC
  8
_0-0_0
  6
CONTINUOUS
 62
    7
 10
-292.5722045
 20
771.75
 40
2.7000000000000002
 50
285.68033600000007
 51
0.0000000000000381
  0
ARC
  8
_0-0_0
  6
CONTINUOUS
 62
    7
 10
-275.5722045
 20
755.94998199999998
 40
3
 50
269.99999700000001
 51
0
  0
LINE
  8
_0-0_0
  6
CONTINUOUS
 62
    7
 10
-272.5722045
 20
755.94998199999998
 11
-272.5722045
 21
769.54998799999998
  0
ARC
  8
_0-0_0
  6
CONTINUOUS
 62
    7
 10
-275.5722045
 20
769.54998799999998
 40
3
 50
0
 51
90.000003000000007
  0
ARC
  8
_0-0_0
  6
CONTINUOUS
 62
    7
 10
-280.0722045
 20
765.25
 40
4.5
 50
269.99999700000001
 51
90.000002999999992
  0
LINE
  8
_0-0_0
  6
CONTINUOUS
 62
    7
 10
-280.0722045
 20
760.75
 11
-285.0722045
 21
760.75
  0
ARC
  8
_0-0_0
  6
CONTINUOUS
 62
    7
 10
-285.0722045
 20
765.25
 40
4.5
 50
90.000003000000007
 51
269.99999700000006
  0
LINE
  8
_0-0_0
  6
CONTINUOUS
 62
    7
 10
-285.0722045
 20
769.75
 11
-280.0722045
 21
769.75
  0
ARC
  8
_0-0_0
  6
CONTINUOUS
 62
    7
 10
-233.57218950000015
 20
755.94998199999998
 40
3
 50
179.99999099999999
 51
269.99999700000001
  0
LINE
  8
_0-0_0
  6
CONTINUOUS
 62
    7
 10
-236.57218950000015
 20
769.54998799999998
 11
-236.57218950000015
 21
755.94998199999998
  0
ARC
  8
_0-0_0
  6
CONTINUOUS
 62
    7
 10
-233.57218950000015
 20
769.54998799999998
 40
3
 50
90.000003000000007
 51
179.99999099999999
  0
ARC
  8
_0-0_0
  6
CONTINUOUS
 62
    7
 10
-224.07218950000015
 20
765.25
 40
4.5
 50
269.99999700000001
 51
90.000002999999992
  0
LINE
  8
_0-0_0
  6
CONTINUOUS
 62
    7
 10
-224.07218950000015
 20
760.75
 11
-229.07218950000015
 21
760.75
  0
ARC
  8
_0-0_0
  6
CONTINUOUS
 62
    7
 10
-229.07218950000015
 20
765.25
 40
4.5
 50
90.000003000000007
 51
269.99999700000006
  0
LINE
  8
_0-0_0
  6
CONTINUOUS
 62
    7
 10
-229.07218950000015
 20
769.75
 11
-224.07218950000015
 21
769.75
  0
LINE
  8
_0-0_0
  6
CONTINUOUS
 62
    7
 10
-302.0722045
 20
770.04998799999998
 11
-302.25393650000001
 21
770.04998799999998
  0
LINE
  8
_0-0_0
  6
CONTINUOUS
 62
    7
 10
-297.5722045
 20
768.75
 11
-297.5722045
 21
751.14999399999999
  0
LINE
  8
_0-0_0
  6
CONTINUOUS
 62
    7
 10
-297.5722045
 20
750.096405
 11
-297.5722045
 21
751.14999399999999
  0
ARC
  8
_0-0_0
  6
CONTINUOUS
 62
    7
 10
-297.74249250000003
 20
750.02328499999999
 40
0.1734209999999999
 50
269.35085600000002
 51
358.87625300000002
  0
LINE
  8
_0-0_0
  6
CONTINUOUS
 62
    7
 10
-297.5681454999999
 20
750.04998799999998
 11
-297.56823750000012
 21
750.01986699999998
  0
LINE
  8
_0-0_0
  6
CONTINUOUS
 62
    7
 10
-297.5681454999999
 20
769.84997599999997
 11
-297.56823750000012
 21
769.88012700000002
  0
ARC
  8
_0-0_0
  6
CONTINUOUS
 62
    7
 10
-297.74249250000003
 20
769.87670900000001
 40
0.1734219999999999
 50
1.1236539999999999
 51
90.649110000000007
  0
LINE
  8
_0-0_0
  6
CONTINUOUS
 62
    7
 10
-302.0722045
 20
749.84997599999997
 11
-302.25393650000001
 21
749.84997599999997
  0
LINE
  8
_0-0_0
  6
CONTINUOUS
 62
    7
 10
-302.25393650000001
 20
749.84997599999997
 11
-302.2742925
 21
749.84896900000001
  0
LINE
  8
_0-0_0
  6
CONTINUOUS
 62
    7
 10
-302.2742925
 20
749.84896900000001
 11
-302.29467750000003
 21
749.84582499999999
  0
LINE
  8
_0-0_0
  6
CONTINUOUS
 62
    7
 10
-302.29467750000003
 20
749.84582499999999
 11
-302.32150249999995
 21
749.83822600000008
  0
LINE
  8
_0-0_0
  6
CONTINUOUS
 62
    7
 10
-302.32150249999995
 20
749.83822600000008
 11
-302.34716849999995
 21
749.82687399999998
  0
LINE
  8
_0-0_0
  6
CONTINUOUS
 62
    7
 10
-302.34716849999995
 20
749.82687399999998
 11
-302.3709715
 21
749.81198100000006
  0
LINE
  8
_0-0_0
  6
CONTINUOUS
 62
    7
 10
-302.3709715
 20
749.81198100000006
 11
-302.38769550000006
 21
749.79846199999997
  0
LINE
  8
_0-0_0
  6
CONTINUOUS
 62
    7
 10
-302.38769550000006
 20
749.79846199999997
 11
-302.40319850000014
 21
749.78326399999992
  0
LINE
  8
_0-0_0
  6
CONTINUOUS
 62
    7
 10
-302.40319850000014
 20
749.78326399999992
 11
-302.43011449999995
 21
749.74859600000002
  0
LINE
  8
_0-0_0
  6
CONTINUOUS
 62
    7
 10
-302.43011449999995
 20
749.74859600000002
 11
-302.45117249999998
 21
749.71026600000005
  0
LINE
  8
_0-0_0
  6
CONTINUOUS
 62
    7
 10
-302.45117249999998
 20
749.71026600000005
 11
-302.46313450000002
 21
749.68035899999995
  0
LINE
  8
_0-0_0
  6
CONTINUOUS
 62
    7
 10
-302.46313450000002
 20
749.68035899999995
 11
-302.47216849999995
 21
749.64999399999999
  0
ARC
  8
_0-0_0
  6
CONTINUOUS
 62
    7
 10
-302.0722045
 20
747.14999399999999
 40
0.5
 50
179.99999099999999
 51
269.99999700000001
  0
ARC
  8
_0-0_0
  6
CONTINUOUS
 62
    7
 10
-297.77218650000009
 20
746.44998199999998
 40
0.2
 50
0
 51
90.000003000000007
  0
LINE
  8
_0-0_0
  6
CONTINUOUS
 62
    7
 10
-297.5722045
 20
746.25
 11
-297.0722045
 21
745.75
  0
ARC
  8
_0-0_0
  6
CONTINUOUS
 62
    7
 10
-314.24761949999993
 20
768.75
 40
2
 50
90.000003000000007
 51
108.434997
  0
LINE
  8
_0-0_0
  6
CONTINUOUS
 62
    7
 10
-309.5722045
 20
768.25
 11
-309.5722045
 21
768.75
  0
LINE
  8
_0-0_0
  6
CONTINUOUS
 62
    7
 10
-309.5722045
 20
765.25
 11
-309.5722045
 21
764.75
  0
LINE
  8
_0-0_0
  6
CONTINUOUS
 62
    7
 10
-309.5722045
 20
765.25
 11
-309.5722045
 21
768.25
  0
ARC
  8
_0-0_0
  6
CONTINUOUS
 62
    7
 10
-303.57217450000007
 20
765.44998199999998
 40
0.500016
 50
0.001164
 51
179.99560600000004
  0
LINE
  8
_0-0_0
  6
CONTINUOUS
 62
    7
 10
-304.0722045
 20
765.44998199999998
 11
-304.0722045
 21
753.44998199999998
  0
ARC
  8
_0-0_0
  6
CONTINUOUS
 62
    7
 10
-303.57217450000007
 20
753.45001200000002
 40
0.500016
 50
180.00117
 51
359.995611
  0
LINE
  8
_0-0_0
  6
CONTINUOUS
 62
    7
 10
-303.0722045
 20
765.44998199999998
 11
-303.0722045
 21
753.44998199999998
  0
ARC
  8
_0-0_0
  6
CONTINUOUS
 62
    7
 10
-305.07217450000007
 20
765.44998199999998
 40
0.500016
 50
0.001164
 51
179.99560600000004
  0
LINE
  8
_0-0_0
  6
CONTINUOUS
 62
    7
 10
-305.5722045
 20
765.44998199999998
 11
-305.5722045
 21
753.44998199999998
  0
ARC
  8
_0-0_0
  6
CONTINUOUS
 62
    7
 10
-305.07217450000007
 20
753.45001200000002
 40
0.500016
 50
180.00117
 51
359.995611
  0
LINE
  8
_0-0_0
  6
CONTINUOUS
 62
    7
 10
-304.5722045
 20
765.44998199999998
 11
-304.5722045
 21
753.44998199999998
  0
ARC
  8
_0-0_0
  6
CONTINUOUS
 62
    7
 10
-306.57217450000007
 20
765.44998199999998
 40
0.500016
 50
0.001164
 51
179.99560600000004
  0
LINE
  8
_0-0_0
  6
CONTINUOUS
 62
    7
 10
-307.0722045
 20
765.44998199999998
 11
-307.0722045
 21
753.44998199999998
  0
ARC
  8
_0-0_0
  6
CONTINUOUS
 62
    7
 10
-306.57217450000007
 20
753.45001200000002
 40
0.500016
 50
180.00117
 51
359.995611
  0
LINE
  8
_0-0_0
  6
CONTINUOUS
 62
    7
 10
-306.0722045
 20
765.44998199999998
 11
-306.0722045
 21
753.44998199999998
  0
ARC
  8
_0-0_0
  6
CONTINUOUS
 62
    7
 10
-308.07217450000007
 20
765.44998199999998
 40
0.500016
 50
0.001164
 51
179.99560600000004
  0
LINE
  8
_0-0_0
  6
CONTINUOUS
 62
    7
 10
-308.5722045
 20
765.44998199999998
 11
-308.5722045
 21
753.44998199999998
  0
ARC
  8
_0-0_0
  6
CONTINUOUS
 62
    7
 10
-308.07217450000007
 20
753.45001200000002
 40
0.500016
 50
180.00117
 51
359.995611
  0
LINE
  8
_0-0_0
  6
CONTINUOUS
 62
    7
 10
-307.5722045
 20
765.44998199999998
 11
-307.5722045
 21
753.44998199999998
  0
LINE
  8
_0-0_0
  6
CONTINUOUS
 62
    7
 10
-211.57218950000015
 20
771.44998199999998
 11
-211.07218950000015
 21
771.44998199999998
  0
LINE
  8
_0-0_0
  6
CONTINUOUS
 62
    7
 10
-211.07218950000015
 20
771.44998199999998
 11
-198.57218950000015
 21
771.44998199999998
  0
ARC
  8
_0-0_0
  6
CONTINUOUS
 62
    7
 10
-211.07218950000015
 20
771.94998199999998
 40
0.5
 50
179.99999099999999
 51
269.99999700000001
  0
LINE
  8
_0-0_0
  6
CONTINUOUS
 62
    7
 10
-211.57218950000015
 20
771.08395399999995
 11
-211.57218950000015
 21
771.44998199999998
  0
LINE
  8
_0-0_0
  6
CONTINUOUS
 62
    7
 10
-211.57218950000015
 20
770.83346600000004
 11
-211.57218950000015
 21
770.79998799999998
  0
LINE
  8
_0-0_0
  6
CONTINUOUS
 62
    7
 10
-211.57218950000015
 20
771.08395399999995
 11
-211.57218950000015
 21
770.83346600000004
  0
CIRCLE
  8
_0-0_0
  6
CONTINUOUS
 62
    7
 10
-292.5722045
 20
771.75
 40
1.4750000000000001
  0
CIRCLE
  8
_0-0_0
  6
CONTINUOUS
 62
    7
 10
-213.57218950000015
 20
771.75
 40
1.4750000000000001
  0
LINE
  8
_0-0_0
  6
CONTINUOUS
 62
    7
 10
-211.57218950000015
 20
746.09997599999997
 11
-211.57218950000015
 21
746.25
  0
LINE
  8
_0-0_0
  6
CONTINUOUS
 62
    7
 10
-206.07218950000015
 20
746.09997599999997
 11
-211.57218950000015
 21
746.09997599999997
  0
LINE
  8
_0-0_0
  6
CONTINUOUS
 62
    7
 10
-206.07218950000015
 20
748.64999399999999
 11
-206.57218950000015
 21
748.64999399999999
  0
LINE
  8
_0-0_0
  6
CONTINUOUS
 62
    7
 10
-211.07218950000015
 20
771.29998799999998
 11
-211.57218950000015
 21
770.79998799999998
  0
LINE
  8
_0-0_0
  6
CONTINUOUS
 62
    7
 10
-211.07218950000015
 20
771.29998799999998
 11
-206.07218950000015
 21
771.29998799999998
  0
LINE
  8
_0-0_0
  6
CONTINUOUS
 62
    7
 10
-302.56097450000016
 20
749.14999399999999
 11
-314.24761949999993
 21
749.14999399999999
  0
LINE
  8
_0-0_0
  6
CONTINUOUS
 62
    7
 10
-315.3222045
 20
770.49996899999996
 11
-314.88009650000004
 21
770.64733899999999
  0
LINE
  8
_0-0_0
  6
CONTINUOUS
 62
    7
 10
-319.04653950000011
 20
765.25
 11
-319.73989849999998
 21
765.25
  0
LINE
  8
_0-0_0
  6
CONTINUOUS
 62
    7
 10
-319.04653950000011
 20
765.25
 11
-314.72198449999996
 21
765.25
  0
LINE
  8
_0-0_0
  6
CONTINUOUS
 62
    7
 10
-314.24761949999993
 20
765.25
 11
-314.72198449999996
 21
765.25
  0
LINE
  8
_0-0_0
  6
CONTINUOUS
 62
    7
 10
-309.5722045
 20
765.25
 11
-314.24761949999993
 21
765.25
  0
LINE
  8
_0-0_0
  6
CONTINUOUS
 62
    7
 10
-211.57218950000015
 20
745.95355199999995
 11
-211.57218950000015
 21
746.09997599999997
  0
LINE
  8
_0-0_0
  6
CONTINUOUS
 62
    7
 10
-211.57218950000015
 20
745.89642300000003
 11
-211.57218950000015
 21
745.95355199999995
  0
LINE
  8
_0-0_0
  6
CONTINUOUS
 62
    7
 10
-211.57218950000015
 20
745.75
 11
-211.57218950000015
 21
745.89642300000003
  0
ARC
  8
_0-0_0
  6
CONTINUOUS
 62
    7
 10
-206.07218950000015
 20
746.59997599999997
 40
0.5
 50
269.99999700000001
 51
0
  0
LINE
  8
_0-0_0
  6
CONTINUOUS
 62
    7
 10
-205.57218950000015
 20
748.15570100000002
 11
-205.57218950000015
 21
746.59997599999997
  0
ARC
  8
_0-0_0
  6
CONTINUOUS
 62
    7
 10
-206.05909750000001
 20
748.15234400000008
 40
0.4869939999999999
 50
0.394923
 51
23.93947
  0
ARC
  8
_0-0_0
  6
CONTINUOUS
 62
    7
 10
-206.07218950000015
 20
748.14999399999999
 40
0.5
 50
23.578231000000002
 51
90.000002999999992
  0
LINE
  8
_0-0_0
  6
CONTINUOUS
 62
    7
 10
-205.57218950000015
 20
768.29998799999998
 11
-205.57218950000015
 21
770.79998799999998
  0
ARC
  8
_0-0_0
  6
CONTINUOUS
 62
    7
 10
-206.07218950000015
 20
770.79998799999998
 40
0.5
 50
0
 51
90.000003000000007
  0
LINE
  8
_0-0_0
  6
CONTINUOUS
 62
    7
 10
-206.07218950000015
 20
755
 11
-208.27218650000009
 21
755
  0
LINE
  8
_0-0_0
  6
CONTINUOUS
 62
    7
 10
-205.57218950000015
 20
768.29998799999998
 11
-205.57218950000015
 21
755.5
  0
LINE
  8
_0-0_0
  6
CONTINUOUS
 62
    7
 10
-208.57218950000015
 20
754.69998199999998
 11
-208.57218950000015
 21
752.12167399999998
  0
LINE
  8
_0-0_0
  6
CONTINUOUS
 62
    7
 10
-278.60064749999992
 20
761.14999399999999
 11
-286.54373149999992
 21
761.14999399999999
  0
ARC
  8
_0-0_0
  6
CONTINUOUS
 62
    7
 10
-286.54373149999992
 20
761.64999399999999
 40
0.5
 50
210.00000299999999
 51
269.99999700000001
  0
LINE
  8
_0-0_0
  6
CONTINUOUS
 62
    7
 10
-286.97674550000011
 20
761.39999399999999
 11
-289.05520650000017
 21
765
  0
ARC
  8
_0-0_0
  6
CONTINUOUS
 62
    7
 10
-288.62219249999998
 20
765.25
 40
0.5
 50
149.99999700000001
 51
210.00000299999996
  0
LINE
  8
_0-0_0
  6
CONTINUOUS
 62
    7
 10
-289.05520650000017
 20
765.5
 11
-286.97674550000011
 21
769.09997599999997
  0
ARC
  8
_0-0_0
  6
CONTINUOUS
 62
    7
 10
-286.54373149999992
 20
768.84997599999997
 40
0.5
 50
90.000003000000007
 51
149.99999700000001
  0
LINE
  8
_0-0_0
  6
CONTINUOUS
 62
    7
 10
-286.54373149999992
 20
769.34997599999997
 11
-278.60064749999992
 21
769.34997599999997
  0
ARC
  8
_0-0_0
  6
CONTINUOUS
 62
    7
 10
-278.60064749999992
 20
768.84997599999997
 40
0.5
 50
30.000001000000001
 51
90.000003000000007
  0
LINE
  8
_0-0_0
  6
CONTINUOUS
 62
    7
 10
-278.16763349999997
 20
769.09997599999997
 11
-276.08917250000013
 21
765.5
  0
ARC
  8
_0-0_0
  6
CONTINUOUS
 62
    7
 10
-276.52218650000009
 20
765.25
 40
0.5
 50
329.99998900000003
 51
30.000000999999983
  0
LINE
  8
_0-0_0
  6
CONTINUOUS
 62
    7
 10
-276.08917250000013
 20
765
 11
-278.16763349999997
 21
761.39999399999999
  0
ARC
  8
_0-0_0
  6
CONTINUOUS
 62
    7
 10
-278.60064749999992
 20
761.64999399999999
 40
0.5
 50
269.99999700000001
 51
329.99998900000003
  0
ARC
  8
_0-0_0
  6
CONTINUOUS
 62
    7
 10
-230.60145550000016
 20
761.75
 40
0.5
 50
210.00000299999999
 51
269.99999700000001
  0
LINE
  8
_0-0_0
  6
CONTINUOUS
 62
    7
 10
-231.03446950000011
 20
761.5
 11
-233.05519150000009
 21
765
  0
ARC
  8
_0-0_0
  6
CONTINUOUS
 62
    7
 10
-232.62219249999998
 20
765.25
 40
0.5
 50
149.99999700000001
 51
210.00000299999996
  0
LINE
  8
_0-0_0
  6
CONTINUOUS
 62
    7
 10
-233.05519150000009
 20
765.5
 11
-231.03446950000011
 21
769
  0
ARC
  8
_0-0_0
  6
CONTINUOUS
 62
    7
 10
-230.60145550000016
 20
768.75
 40
0.5
 50
90.000003000000007
 51
149.99999700000001
  0
LINE
  8
_0-0_0
  6
CONTINUOUS
 62
    7
 10
-230.60145550000016
 20
769.25
 11
-222.54290749999996
 21
769.25
  0
ARC
  8
_0-0_0
  6
CONTINUOUS
 62
    7
 10
-222.54290749999996
 20
768.75
 40
0.5
 50
30.000001000000001
 51
90.000003000000007
  0
LINE
  8
_0-0_0
  6
CONTINUOUS
 62
    7
 10
-222.1098935
 20
769
 11
-220.08917250000013
 21
765.5
  0
ARC
  8
_0-0_0
  6
CONTINUOUS
 62
    7
 10
-220.52218650000009
 20
765.25
 40
0.5
 50
329.99998900000003
 51
30.000000999999983
  0
LINE
  8
_0-0_0
  6
CONTINUOUS
 62
    7
 10
-220.08917250000013
 20
765
 11
-222.1098935
 21
761.5
  0
ARC
  8
_0-0_0
  6
CONTINUOUS
 62
    7
 10
-222.54290749999996
 20
761.75
 40
0.5
 50
269.99999700000001
 51
329.99998900000003
  0
LINE
  8
_0-0_0
  6
CONTINUOUS
 62
    7
 10
-222.54290749999996
 20
761.25
 11
-230.60145550000016
 21
761.25
  0
LINE
  8
_0-0_0
  6
CONTINUOUS
 62
    7
 10
-314.88009650000004
 20
749.25262500000008
 11
-314.76062049999996
 21
749.21701000000007
  0
LINE
  8
_0-0_0
  6
CONTINUOUS
 62
    7
 10
-314.76062049999996
 20
749.21701000000007
 11
-314.63903849999997
 21
749.18911700000001
  0
LINE
  8
_0-0_0
  6
CONTINUOUS
 62
    7
 10
-314.63903849999997
 20
749.18911700000001
 11
-314.51593049999997
 21
749.16906700000004
  0
LINE
  8
_0-0_0
  6
CONTINUOUS
 62
    7
 10
-314.51593049999997
 20
749.16906700000004
 11
-314.39169349999997
 21
749.15695200000005
  0
LINE
  8
_0-0_0
  6
CONTINUOUS
 62
    7
 10
-314.39169349999997
 20
749.15695200000005
 11
-314.26684550000004
 21
749.15283199999999
  0
LINE
  8
_0-0_0
  6
CONTINUOUS
 62
    7
 10
-314.26684550000004
 20
749.15283199999999
 11
-314.24761949999993
 21
749.15289299999995
  0
ARC
  8
_0-0_0
  6
CONTINUOUS
 62
    7
 10
-314.24761949999993
 20
751.14999399999999
 40
2
 50
251.56498899999997
 51
269.99999700000001
  0
LINE
  8
_0-0_0
  6
CONTINUOUS
 62
    7
 10
-320.5722045
 20
766.00003100000004
 11
-320.5722045
 21
764.87899800000002
  0
LINE
  8
_0-0_0
  6
CONTINUOUS
 62
    7
 10
-292.37219249999998
 20
770.64999399999999
 11
-292.77218650000009
 21
770.64999399999999
  0
LINE
  8
_0-0_0
  6
CONTINUOUS
 62
    7
 10
-292.37219249999998
 20
770.64999399999999
 11
-292.37219249999998
 21
771.29998799999998
  0
ARC
  8
_0-0_0
  6
CONTINUOUS
 62
    7
 10
-292.12219249999998
 20
771.29998799999998
 40
0.25
 50
90.000003000000007
 51
179.99999099999999
  0
LINE
  8
_0-0_0
  6
CONTINUOUS
 62
    7
 10
-292.12219249999998
 20
771.54998799999998
 11
-291.47216849999995
 21
771.54998799999998
  0
LINE
  8
_0-0_0
  6
CONTINUOUS
 62
    7
 10
-291.47216849999995
 20
771.54998799999998
 11
-291.47216849999995
 21
771.94998199999998
  0
LINE
  8
_0-0_0
  6
CONTINUOUS
 62
    7
 10
-292.12219249999998
 20
771.94998199999998
 11
-291.47216849999995
 21
771.94998199999998
  0
ARC
  8
_0-0_0
  6
CONTINUOUS
 62
    7
 10
-292.12219249999998
 20
772.19998199999998
 40
0.25
 50
179.99999099999999
 51
269.99999700000001
  0
LINE
  8
_0-0_0
  6
CONTINUOUS
 62
    7
 10
-292.37219249999998
 20
772.84997599999997
 11
-292.37219249999998
 21
772.19998199999998
  0
LINE
  8
_0-0_0
  6
CONTINUOUS
 62
    7
 10
-292.37219249999998
 20
772.84997599999997
 11
-292.77218650000009
 21
772.84997599999997
  0
LINE
  8
_0-0_0
  6
CONTINUOUS
 62
    7
 10
-292.77218650000009
 20
772.84997599999997
 11
-292.77218650000009
 21
772.19998199999998
  0
ARC
  8
_0-0_0
  6
CONTINUOUS
 62
    7
 10
-293.02218650000009
 20
772.19998199999998
 40
0.25
 50
269.99999700000001
 51
0
  0
LINE
  8
_0-0_0
  6
CONTINUOUS
 62
    7
 10
-293.02218650000009
 20
771.94998199999998
 11
-293.67218049999997
 21
771.94998199999998
  0
LINE
  8
_0-0_0
  6
CONTINUOUS
 62
    7
 10
-293.67218049999997
 20
771.54998799999998
 11
-293.67218049999997
 21
771.94998199999998
  0
LINE
  8
_0-0_0
  6
CONTINUOUS
 62
    7
 10
-293.02218650000009
 20
771.54998799999998
 11
-293.67218049999997
 21
771.54998799999998
  0
ARC
  8
_0-0_0
  6
CONTINUOUS
 62
    7
 10
-293.02218650000009
 20
771.29998799999998
 40
0.25
 50
0
 51
90.000003000000007
  0
LINE
  8
_0-0_0
  6
CONTINUOUS
 62
    7
 10
-292.77218650000009
 20
770.64999399999999
 11
-292.77218650000009
 21
771.29998799999998
  0
LINE
  8
_0-0_0
  6
CONTINUOUS
 62
    7
 10
-213.37219249999998
 20
770.64999399999999
 11
-213.77218650000009
 21
770.64999399999999
  0
LINE
  8
_0-0_0
  6
CONTINUOUS
 62
    7
 10
-213.37219249999998
 20
770.64999399999999
 11
-213.37219249999998
 21
771.29998799999998
  0
ARC
  8
_0-0_0
  6
CONTINUOUS
 62
    7
 10
-213.12219249999998
 20
771.29998799999998
 40
0.25
 50
90.000003000000007
 51
179.99999099999999
  0
LINE
  8
_0-0_0
  6
CONTINUOUS
 62
    7
 10
-213.12219249999998
 20
771.54998799999998
 11
-212.47218350000003
 21
771.54998799999998
  0
LINE
  8
_0-0_0
  6
CONTINUOUS
 62
    7
 10
-212.47218350000003
 20
771.54998799999998
 11
-212.47218350000003
 21
771.94998199999998
  0
LINE
  8
_0-0_0
  6
CONTINUOUS
 62
    7
 10
-213.12219249999998
 20
771.94998199999998
 11
-212.47218350000003
 21
771.94998199999998
  0
ARC
  8
_0-0_0
  6
CONTINUOUS
 62
    7
 10
-213.12219249999998
 20
772.19998199999998
 40
0.25
 50
179.99999099999999
 51
269.99999700000001
  0
LINE
  8
_0-0_0
  6
CONTINUOUS
 62
    7
 10
-213.37219249999998
 20
772.84997599999997
 11
-213.37219249999998
 21
772.19998199999998
  0
LINE
  8
_0-0_0
  6
CONTINUOUS
 62
    7
 10
-213.37219249999998
 20
772.84997599999997
 11
-213.77218650000009
 21
772.84997599999997
  0
LINE
  8
_0-0_0
  6
CONTINUOUS
 62
    7
 10
-213.77218650000009
 20
772.84997599999997
 11
-213.77218650000009
 21
772.19998199999998
  0
ARC
  8
_0-0_0
  6
CONTINUOUS
 62
    7
 10
-214.02218650000009
 20
772.19998199999998
 40
0.25
 50
269.99999700000001
 51
0
  0
LINE
  8
_0-0_0
  6
CONTINUOUS
 62
    7
 10
-214.02218650000009
 20
771.94998199999998
 11
-214.67218049999997
 21
771.94998199999998
  0
LINE
  8
_0-0_0
  6
CONTINUOUS
 62
    7
 10
-214.67218049999997
 20
771.54998799999998
 11
-214.67218049999997
 21
771.94998199999998
  0
LINE
  8
_0-0_0
  6
CONTINUOUS
 62
    7
 10
-214.02218650000009
 20
771.54998799999998
 11
-214.67218049999997
 21
771.54998799999998
  0
ARC
  8
_0-0_0
  6
CONTINUOUS
 62
    7
 10
-214.02218650000009
 20
771.29998799999998
 40
0.25
 50
0
 51
90.000003000000007
  0
LINE
  8
_0-0_0
  6
CONTINUOUS
 62
    7
 10
-213.77218650000009
 20
770.64999399999999
 11
-213.77218650000009
 21
771.29998799999998
  0
LINE
  8
_0-0_0
  6
CONTINUOUS
 62
    7
 10
-206.07218950000015
 20
745.75
 11
-211.57218950000015
 21
745.75
  0
LINE
  8
_0-0_0
  6
CONTINUOUS
 62
    7
 10
-205.57218950000015
 20
752
 11
-205.57218950000015
 21
755.5
  0
LINE
  8
_0-0_0
  6
CONTINUOUS
 62
    7
 10
-205.57218950000015
 20
752
 11
-205.57218950000015
 21
751.64999399999999
  0
LINE
  8
_0-0_0
  6
CONTINUOUS
 62
    7
 10
-205.57218950000015
 20
748.15570100000002
 11
-205.57218950000015
 21
751.64999399999999
  0
LINE
  8
_0-0_0
  6
CONTINUOUS
 62
    7
 10
-205.57218950000015
 20
746.307098
 11
-205.57218950000015
 21
746.59997599999997
  0
LINE
  8
_0-0_0
  6
CONTINUOUS
 62
    7
 10
-205.57218950000015
 20
746.307098
 11
-205.57218950000015
 21
746.25
  0
LINE
  8
_0-0_0
  6
CONTINUOUS
 62
    7
 10
-208.57218950000015
 20
750.57128899999998
 11
-208.57218950000015
 21
752.12167399999998
  0
LINE
  8
_0-0_0
  6
CONTINUOUS
 62
    7
 10
-208.57218950000015
 20
749.85012800000004
 11
-208.57218950000015
 21
750.57128899999998
  0
ARC
  8
_0-0_0
  6
CONTINUOUS
 62
    7
 10
-206.07218950000015
 20
755.5
 40
0.5
 50
269.99999700000001
 51
0
  0
ARC
  8
_0-0_0
  6
CONTINUOUS
 62
    7
 10
-208.27218650000009
 20
754.69998199999998
 40
0.2999999999999999
 50
90.000003000000007
 51
179.99999099999999
  0
LINE
  8
_0-0_0
  6
CONTINUOUS
 62
    7
 10
-319.20465150000018
 20
750.69415299999991
 11
-314.88009650000004
 21
749.25262500000008
  0
LINE
  8
_0-0_0
  6
CONTINUOUS
 62
    7
 10
-320.5722045
 20
752.59149200000002
 11
-320.5722045
 21
755.94229100000007
  0
LINE
  8
_0-0_0
  6
CONTINUOUS
 62
    7
 10
-320.5722045
 20
763.957672
 11
-320.5722045
 21
764.87899800000002
  0
ARC
  8
_0-0_0
  6
CONTINUOUS
 62
    7
 10
-318.5722045
 20
752.59149200000002
 40
2
 50
179.99999099999999
 51
251.56498899999997
  0
LINE
  8
_0-0_0
  6
CONTINUOUS
 62
    7
 10
-335.5722045
 20
769.47543300000007
 11
-335.5722045
 21
769.32870500000001
  0
LINE
  8
_0-0_0
  6
CONTINUOUS
 62
    7
 10
-335.5722045
 20
769.66595499999994
 11
-335.5722045
 21
769.47543300000007
  0
LINE
  8
_0-0_0
  6
CONTINUOUS
 62
    7
 10
-335.5722045
 20
769.84097300000008
 11
-335.5722045
 21
769.66595499999994
  0
LINE
  8
_0-0_0
  6
CONTINUOUS
 62
    7
 10
-335.5722045
 20
769.99856599999998
 11
-335.5722045
 21
769.84097300000008
  0
LINE
  8
_0-0_0
  6
CONTINUOUS
 62
    7
 10
-335.5722045
 20
770.13699300000007
 11
-335.5722045
 21
769.99856599999998
  0
LINE
  8
_0-0_0
  6
CONTINUOUS
 62
    7
 10
-335.5722045
 20
770.25476099999992
 11
-335.5722045
 21
770.13699300000007
  0
LINE
  8
_0-0_0
  6
CONTINUOUS
 62
    7
 10
-335.5722045
 20
770.35052500000006
 11
-335.5722045
 21
770.25476099999992
  0
LINE
  8
_0-0_0
  6
CONTINUOUS
 62
    7
 10
-335.5722045
 20
770.42330900000002
 11
-335.5722045
 21
770.35052500000006
  0
LINE
  8
_0-0_0
  6
CONTINUOUS
 62
    7
 10
-335.5722045
 20
770.47228999999993
 11
-335.5722045
 21
770.42330900000002
  0
LINE
  8
_0-0_0
  6
CONTINUOUS
 62
    7
 10
-335.5722045
 20
770.5
 11
-335.5722045
 21
770.47228999999993
  0
LINE
  8
_0-0_0
  6
CONTINUOUS
 62
    7
 10
-335.5722045
 20
770.5
 11
-335.5722045
 21
770.49688700000002
  0
LINE
  8
_0-0_0
  6
CONTINUOUS
 62
    7
 10
-335.5722045
 20
766.00305200000003
 11
-335.5722045
 21
766
  0
LINE
  8
_0-0_0
  6
CONTINUOUS
 62
    7
 10
-335.5722045
 20
766.02767900000003
 11
-335.5722045
 21
766.00305200000003
  0
LINE
  8
_0-0_0
  6
CONTINUOUS
 62
    7
 10
-335.5722045
 20
766.07665999999995
 11
-335.5722045
 21
766
  0
LINE
  8
_0-0_0
  6
CONTINUOUS
 62
    7
 10
-335.5722045
 20
766.14941399999998
 11
-335.5722045
 21
766.07665999999995
  0
LINE
  8
_0-0_0
  6
CONTINUOUS
 62
    7
 10
-335.5722045
 20
766.24520899999993
 11
-335.5722045
 21
766.14941399999998
  0
LINE
  8
_0-0_0
  6
CONTINUOUS
 62
    7
 10
-335.5722045
 20
766.27542100000005
 11
-335.5722045
 21
766.24520899999993
  0
LINE
  8
_0-0_0
  6
CONTINUOUS
 62
    7
 10
-335.5722045
 20
766.362976
 11
-335.5722045
 21
766.27542100000005
  0
LINE
  8
_0-0_0
  6
CONTINUOUS
 62
    7
 10
-335.5722045
 20
766.50140399999998
 11
-335.5722045
 21
766.362976
  0
LINE
  8
_0-0_0
  6
CONTINUOUS
 62
    7
 10
-335.5722045
 20
766.658997
 11
-335.5722045
 21
766.50140399999998
  0
LINE
  8
_0-0_0
  6
CONTINUOUS
 62
    7
 10
-335.5722045
 20
766.83401500000002
 11
-335.5722045
 21
766.658997
  0
LINE
  8
_0-0_0
  6
CONTINUOUS
 62
    7
 10
-335.5722045
 20
767.02453600000001
 11
-335.5722045
 21
766.83401500000002
  0
LINE
  8
_0-0_0
  6
CONTINUOUS
 62
    7
 10
-335.5722045
 20
767.22851600000001
 11
-335.5722045
 21
767.02453600000001
  0
LINE
  8
_0-0_0
  6
CONTINUOUS
 62
    7
 10
-335.5722045
 20
767.44366500000001
 11
-335.5722045
 21
767.22851600000001
  0
LINE
  8
_0-0_0
  6
CONTINUOUS
 62
    7
 10
-335.5722045
 20
767.66763300000002
 11
-335.5722045
 21
767.44366500000001
  0
LINE
  8
_0-0_0
  6
CONTINUOUS
 62
    7
 10
-335.5722045
 20
767.89801
 11
-335.5722045
 21
767.66763300000002
  0
LINE
  8
_0-0_0
  6
CONTINUOUS
 62
    7
 10
-335.5722045
 20
768.13223300000004
 11
-335.5722045
 21
767.89801
  0
LINE
  8
_0-0_0
  6
CONTINUOUS
 62
    7
 10
-335.5722045
 20
768.36773700000003
 11
-335.5722045
 21
768.13223300000004
  0
LINE
  8
_0-0_0
  6
CONTINUOUS
 62
    7
 10
-335.5722045
 20
768.60195900000008
 11
-335.5722045
 21
768.36773700000003
  0
LINE
  8
_0-0_0
  6
CONTINUOUS
 62
    7
 10
-335.5722045
 20
768.83233599999994
 11
-335.5722045
 21
768.60195900000008
  0
LINE
  8
_0-0_0
  6
CONTINUOUS
 62
    7
 10
-335.5722045
 20
769.05630500000007
 11
-335.5722045
 21
768.83233599999994
  0
LINE
  8
_0-0_0
  6
CONTINUOUS
 62
    7
 10
-335.5722045
 20
769.27145399999995
 11
-335.5722045
 21
769.05630500000007
  0
LINE
  8
_0-0_0
  6
CONTINUOUS
 62
    7
 10
-335.5722045
 20
769.32870500000001
 11
-335.5722045
 21
769.27145399999995
  0
LINE
  8
_0-0_0
  6
CONTINUOUS
 62
    7
 10
-320.27218650000009
 20
762.16198699999995
 11
-320.33099349999998
 21
762.40881300000001
  0
LINE
  8
_0-0_0
  6
CONTINUOUS
 62
    7
 10
-320.33099349999998
 20
762.40881300000001
 11
-320.38073750000012
 21
762.601135
  0
LINE
  8
_0-0_0
  6
CONTINUOUS
 62
    7
 10
-320.38073750000012
 20
762.601135
 11
-320.45190450000018
 21
762.86694299999999
  0
LINE
  8
_0-0_0
  6
CONTINUOUS
 62
    7
 10
-320.45190450000018
 20
762.86694299999999
 11
-320.48486350000007
 21
762.993652
  0
LINE
  8
_0-0_0
  6
CONTINUOUS
 62
    7
 10
-320.48486350000007
 20
762.993652
 11
-320.51010150000002
 21
763.09707600000002
  0
LINE
  8
_0-0_0
  6
CONTINUOUS
 62
    7
 10
-320.51010150000002
 20
763.09707600000002
 11
-320.53213550000009
 21
763.19702099999995
  0
LINE
  8
_0-0_0
  6
CONTINUOUS
 62
    7
 10
-320.53213550000009
 20
763.19702099999995
 11
-320.55352749999997
 21
763.31472800000006
  0
LINE
  8
_0-0_0
  6
CONTINUOUS
 62
    7
 10
-320.55352749999997
 20
763.31472800000006
 11
-320.56207250000011
 21
763.37686200000007
  0
LINE
  8
_0-0_0
  6
CONTINUOUS
 62
    7
 10
-320.56207250000011
 20
763.37686200000007
 11
-320.56817649999994
 21
763.43746899999996
  0
LINE
  8
_0-0_0
  6
CONTINUOUS
 62
    7
 10
-320.56817649999994
 20
763.43746899999996
 11
-320.5711675
 21
763.48669399999994
  0
LINE
  8
_0-0_0
  6
CONTINUOUS
 62
    7
 10
-320.5711675
 20
763.48669399999994
 11
-320.5722045
 21
763.53491200000008
  0
LINE
  8
_0-0_0
  6
CONTINUOUS
 62
    7
 10
-320.27218650000009
 20
757.737976
 11
-320.18872050000004
 21
758.11663799999997
  0
LINE
  8
_0-0_0
  6
CONTINUOUS
 62
    7
 10
-320.18872050000004
 20
758.11663799999997
 11
-320.14862050000011
 21
758.30816700000003
  0
LINE
  8
_0-0_0
  6
CONTINUOUS
 62
    7
 10
-320.14862050000011
 20
758.30816700000003
 11
-320.09255950000011
 21
758.598206
  0
LINE
  8
_0-0_0
  6
CONTINUOUS
 62
    7
 10
-320.09255950000011
 20
758.598206
 11
-320.0549625000001
 21
758.81778000000008
  0
LINE
  8
_0-0_0
  6
CONTINUOUS
 62
    7
 10
-320.0549625000001
 20
758.81778000000008
 11
-320.02230850000001
 21
759.03903200000002
  0
LINE
  8
_0-0_0
  6
CONTINUOUS
 62
    7
 10
-320.02230850000001
 20
759.03903200000002
 11
-319.99514750000003
 21
759.26583900000003
  0
LINE
  8
_0-0_0
  6
CONTINUOUS
 62
    7
 10
-319.99514750000003
 20
759.26583900000003
 11
-319.97509750000017
 21
759.49322499999994
  0
LINE
  8
_0-0_0
  6
CONTINUOUS
 62
    7
 10
-319.97509750000017
 20
759.49322499999994
 11
-319.96792649999998
 21
759.60696400000006
  0
LINE
  8
_0-0_0
  6
CONTINUOUS
 62
    7
 10
-319.96792649999998
 20
759.60696400000006
 11
-319.96276850000004
 21
759.720642
  0
LINE
  8
_0-0_0
  6
CONTINUOUS
 62
    7
 10
-319.96276850000004
 20
759.720642
 11
-319.9590455
 21
759.87207000000001
  0
LINE
  8
_0-0_0
  6
CONTINUOUS
 62
    7
 10
-319.9590455
 20
759.87207000000001
 11
-319.95898450000004
 21
760.02331500000003
  0
LINE
  8
_0-0_0
  6
CONTINUOUS
 62
    7
 10
-319.95898450000004
 20
760.02331500000003
 11
-319.96258549999993
 21
760.17437700000005
  0
LINE
  8
_0-0_0
  6
CONTINUOUS
 62
    7
 10
-319.96258549999993
 20
760.17437700000005
 11
-319.97207649999996
 21
760.36291499999993
  0
LINE
  8
_0-0_0
  6
CONTINUOUS
 62
    7
 10
-319.97207649999996
 20
760.36291499999993
 11
-319.98693850000018
 21
760.55117799999994
  0
LINE
  8
_0-0_0
  6
CONTINUOUS
 62
    7
 10
-319.98693850000018
 20
760.55117799999994
 11
-320.00686650000011
 21
760.739105
  0
LINE
  8
_0-0_0
  6
CONTINUOUS
 62
    7
 10
-320.00686650000011
 20
760.739105
 11
-320.02325450000012
 21
760.86798099999999
  0
LINE
  8
_0-0_0
  6
CONTINUOUS
 62
    7
 10
-320.02325450000012
 20
760.86798099999999
 11
-320.04168750000008
 21
760.99664299999995
  0
LINE
  8
_0-0_0
  6
CONTINUOUS
 62
    7
 10
-320.04168750000008
 20
760.99664299999995
 11
-320.06582649999996
 21
761.14855999999997
  0
LINE
  8
_0-0_0
  6
CONTINUOUS
 62
    7
 10
-320.06582649999996
 20
761.14855999999997
 11
-320.09222450000016
 21
761.29992700000003
  0
LINE
  8
_0-0_0
  6
CONTINUOUS
 62
    7
 10
-320.09222450000016
 20
761.29992700000003
 11
-320.14837650000004
 21
761.59054600000002
  0
LINE
  8
_0-0_0
  6
CONTINUOUS
 62
    7
 10
-320.14837650000004
 20
761.59054600000002
 11
-320.18853750000017
 21
761.78250100000002
  0
LINE
  8
_0-0_0
  6
CONTINUOUS
 62
    7
 10
-320.18853750000017
 20
761.78250100000002
 11
-320.27218650000009
 21
762.16198699999995
  0
LINE
  8
_0-0_0
  6
CONTINUOUS
 62
    7
 10
-320.27218650000009
 20
757.737976
 11
-320.33099349999998
 21
757.49111900000003
  0
LINE
  8
_0-0_0
  6
CONTINUOUS
 62
    7
 10
-320.33099349999998
 20
757.49111900000003
 11
-320.38073750000012
 21
757.29879800000003
  0
LINE
  8
_0-0_0
  6
CONTINUOUS
 62
    7
 10
-320.38073750000012
 20
757.29879800000003
 11
-320.45187350000015
 21
757.033051
  0
LINE
  8
_0-0_0
  6
CONTINUOUS
 62
    7
 10
-320.45187350000015
 20
757.033051
 11
-320.48483250000004
 21
756.906342
  0
LINE
  8
_0-0_0
  6
CONTINUOUS
 62
    7
 10
-320.48483250000004
 20
756.906342
 11
-320.51010150000002
 21
756.80291699999998
  0
LINE
  8
_0-0_0
  6
CONTINUOUS
 62
    7
 10
-320.51010150000002
 20
756.80291699999998
 11
-320.53213550000009
 21
756.70294200000001
  0
LINE
  8
_0-0_0
  6
CONTINUOUS
 62
    7
 10
-320.53213550000009
 20
756.70294200000001
 11
-320.55352749999997
 21
756.58523600000001
  0
LINE
  8
_0-0_0
  6
CONTINUOUS
 62
    7
 10
-320.55352749999997
 20
756.58523600000001
 11
-320.56207250000011
 21
756.52310199999999
  0
LINE
  8
_0-0_0
  6
CONTINUOUS
 62
    7
 10
-320.56207250000011
 20
756.52310199999999
 11
-320.56817649999994
 21
756.46249399999999
  0
LINE
  8
_0-0_0
  6
CONTINUOUS
 62
    7
 10
-320.56817649999994
 20
756.46249399999999
 11
-320.5711675
 21
756.41326900000001
  0
LINE
  8
_0-0_0
  6
CONTINUOUS
 62
    7
 10
-320.5711675
 20
756.41326900000001
 11
-320.5722045
 21
756.36505099999999
  0
ARC
  8
_0-0_0
  6
CONTINUOUS
 62
    7
 10
-206.07218950000015
 20
746.25
 40
0.5
 50
269.99999700000001
 51
0
  0
LINE
  8
_0-0_0
  6
CONTINUOUS
 62
    7
 10
-206.11651649999999
 20
750.57128899999998
 11
-206.11651649999999
 21
753.89999399999999
  0
LINE
  8
_0-0_0
  6
CONTINUOUS
 62
    7
 10
-206.11651649999999
 20
749.39999399999999
 11
-206.11651649999999
 21
750.57128899999998
  0
CIRCLE
  8
_0-0_0
  6
CONTINUOUS
 62
    7
 10
-282.5722045
 20
765.25
 40
2.5
  0
CIRCLE
  8
_0-0_0
  6
CONTINUOUS
 62
    7
 10
-226.57218950000015
 20
765.25
 40
2.5
  0
LINE
  8
_0-0_0
  6
CONTINUOUS
 62
    7
 10
-320.5722045
 20
756.05767800000001
 11
-330.28002950000018
 21
756.05767800000001
  0
LINE
  8
_0-0_0
  6
CONTINUOUS
 62
    7
 10
-330.28002950000018
 20
753.44998199999998
 11
-330.33450349999998
 21
753.51992799999994
  0
LINE
  8
_0-0_0
  6
CONTINUOUS
 62
    7
 10
-330.33450349999998
 20
753.51992799999994
 11
-330.38558950000015
 21
753.58874500000002
  0
LINE
  8
_0-0_0
  6
CONTINUOUS
 62
    7
 10
-330.38558950000015
 20
753.58874500000002
 11
-330.43322750000016
 21
753.65625
  0
LINE
  8
_0-0_0
  6
CONTINUOUS
 62
    7
 10
-330.43322750000016
 20
753.65625
 11
-330.47772250000003
 21
753.72280899999998
  0
LINE
  8
_0-0_0
  6
CONTINUOUS
 62
    7
 10
-330.47772250000003
 20
753.72280899999998
 11
-330.53247050000004
 21
753.81033300000001
  0
LINE
  8
_0-0_0
  6
CONTINUOUS
 62
    7
 10
-330.53247050000004
 20
753.81033300000001
 11
-330.58197050000012
 21
753.89645399999995
  0
LINE
  8
_0-0_0
  6
CONTINUOUS
 62
    7
 10
-330.58197050000012
 20
753.89645399999995
 11
-330.62643449999996
 21
753.98126200000002
  0
LINE
  8
_0-0_0
  6
CONTINUOUS
 62
    7
 10
-330.62643449999996
 20
753.98126200000002
 11
-330.67340150000018
 21
754.08160399999997
  0
LINE
  8
_0-0_0
  6
CONTINUOUS
 62
    7
 10
-330.67340150000018
 20
754.08160399999997
 11
-330.71362350000004
 21
754.18051100000002
  0
LINE
  8
_0-0_0
  6
CONTINUOUS
 62
    7
 10
-330.71362350000004
 20
754.18051100000002
 11
-330.74725350000017
 21
754.27825899999993
  0
LINE
  8
_0-0_0
  6
CONTINUOUS
 62
    7
 10
-330.74725350000017
 20
754.27825899999993
 11
-330.77456649999999
 21
754.375092
  0
LINE
  8
_0-0_0
  6
CONTINUOUS
 62
    7
 10
-330.77456649999999
 20
754.375092
 11
-330.7955935
 21
754.47113000000002
  0
LINE
  8
_0-0_0
  6
CONTINUOUS
 62
    7
 10
-330.7955935
 20
754.47113000000002
 11
-330.81152350000002
 21
754.57498199999998
  0
LINE
  8
_0-0_0
  6
CONTINUOUS
 62
    7
 10
-330.81152350000002
 20
754.57498199999998
 11
-330.82028250000008
 21
754.678406
  0
LINE
  8
_0-0_0
  6
CONTINUOUS
 62
    7
 10
-330.82028250000008
 20
754.678406
 11
-330.82193050000001
 21
754.78164700000002
  0
LINE
  8
_0-0_0
  6
CONTINUOUS
 62
    7
 10
-330.82193050000001
 20
754.78164700000002
 11
-330.81646750000004
 21
754.88494900000001
  0
LINE
  8
_0-0_0
  6
CONTINUOUS
 62
    7
 10
-330.81646750000004
 20
754.88494900000001
 11
-330.80386350000003
 21
754.98852499999998
  0
LINE
  8
_0-0_0
  6
CONTINUOUS
 62
    7
 10
-330.80386350000003
 20
754.98852499999998
 11
-330.78402750000009
 21
755.09268199999997
  0
LINE
  8
_0-0_0
  6
CONTINUOUS
 62
    7
 10
-330.78402750000009
 20
755.09268199999997
 11
-330.75689749999992
 21
755.197632
  0
LINE
  8
_0-0_0
  6
CONTINUOUS
 62
    7
 10
-330.75689749999992
 20
755.197632
 11
-330.72222950000014
 21
755.30367999999999
  0
LINE
  8
_0-0_0
  6
CONTINUOUS
 62
    7
 10
-330.72222950000014
 20
755.30367999999999
 11
-330.67990150000014
 21
755.41104100000007
  0
LINE
  8
_0-0_0
  6
CONTINUOUS
 62
    7
 10
-330.67990150000014
 20
755.41104100000007
 11
-330.6295775000001
 21
755.52005000000008
  0
LINE
  8
_0-0_0
  6
CONTINUOUS
 62
    7
 10
-330.6295775000001
 20
755.52005000000008
 11
-330.57531749999998
 21
755.623199
  0
LINE
  8
_0-0_0
  6
CONTINUOUS
 62
    7
 10
-330.57531749999998
 20
755.623199
 11
-330.51361050000014
 21
755.72824100000003
  0
LINE
  8
_0-0_0
  6
CONTINUOUS
 62
    7
 10
-330.51361050000014
 20
755.72824100000003
 11
-330.44409150000001
 21
755.83547999999996
  0
LINE
  8
_0-0_0
  6
CONTINUOUS
 62
    7
 10
-330.44409150000001
 20
755.83547999999996
 11
-330.36639450000007
 21
755.94519000000003
  0
LINE
  8
_0-0_0
  6
CONTINUOUS
 62
    7
 10
-330.36639450000007
 20
755.94519000000003
 11
-330.28002950000018
 21
756.05767800000001
  0
LINE
  8
_0-0_0
  6
CONTINUOUS
 62
    7
 10
-320.5722045
 20
753.44998199999998
 11
-330.28002950000018
 21
753.44998199999998
  0
LINE
  8
_0-0_0
  6
CONTINUOUS
 62
    7
 10
-320.5722045
 20
755.94229100000007
 11
-320.5722045
 21
756.05767800000001
  0
LINE
  8
_0-0_0
  6
CONTINUOUS
 62
    7
 10
-330.3222045
 20
753.44998199999998
 11
-330.28002950000018
 21
753.44998199999998
  0
LINE
  8
_0-0_0
  6
CONTINUOUS
 62
    7
 10
-320.5722045
 20
763.84228499999995
 11
-330.28002950000018
 21
763.84228499999995
  0
LINE
  8
_0-0_0
  6
CONTINUOUS
 62
    7
 10
-320.5722045
 20
763.957672
 11
-320.5722045
 21
763.84228499999995
  0
LINE
  8
_0-0_0
  6
CONTINUOUS
 62
    7
 10
-330.28002950000018
 20
763.84228499999995
 11
-330.33450349999998
 21
763.91223100000002
  0
LINE
  8
_0-0_0
  6
CONTINUOUS
 62
    7
 10
-330.33450349999998
 20
763.91223100000002
 11
-330.38558950000015
 21
763.98104899999998
  0
LINE
  8
_0-0_0
  6
CONTINUOUS
 62
    7
 10
-330.38558950000015
 20
763.98104899999998
 11
-330.43322750000016
 21
764.04855300000008
  0
LINE
  8
_0-0_0
  6
CONTINUOUS
 62
    7
 10
-330.43322750000016
 20
764.04855300000008
 11
-330.47772250000003
 21
764.11511199999995
  0
LINE
  8
_0-0_0
  6
CONTINUOUS
 62
    7
 10
-330.47772250000003
 20
764.11511199999995
 11
-330.53247050000004
 21
764.20263699999998
  0
LINE
  8
_0-0_0
  6
CONTINUOUS
 62
    7
 10
-330.53247050000004
 20
764.20263699999998
 11
-330.58197050000012
 21
764.28875700000003
  0
LINE
  8
_0-0_0
  6
CONTINUOUS
 62
    7
 10
-330.58197050000012
 20
764.28875700000003
 11
-330.62643449999996
 21
764.37359600000002
  0
LINE
  8
_0-0_0
  6
CONTINUOUS
 62
    7
 10
-330.62643449999996
 20
764.37359600000002
 11
-330.67340150000018
 21
764.47390700000005
  0
LINE
  8
_0-0_0
  6
CONTINUOUS
 62
    7
 10
-330.67340150000018
 20
764.47390700000005
 11
-330.71362350000004
 21
764.57281499999999
  0
LINE
  8
_0-0_0
  6
CONTINUOUS
 62
    7
 10
-330.71362350000004
 20
764.57281499999999
 11
-330.74725350000017
 21
764.67059300000005
  0
LINE
  8
_0-0_0
  6
CONTINUOUS
 62
    7
 10
-330.74725350000017
 20
764.67059300000005
 11
-330.77456649999999
 21
764.76739500000008
  0
LINE
  8
_0-0_0
  6
CONTINUOUS
 62
    7
 10
-330.77456649999999
 20
764.76739500000008
 11
-330.7955935
 21
764.86343399999998
  0
LINE
  8
_0-0_0
  6
CONTINUOUS
 62
    7
 10
-330.7955935
 20
764.86343399999998
 11
-330.81152350000002
 21
764.96728499999995
  0
LINE
  8
_0-0_0
  6
CONTINUOUS
 62
    7
 10
-330.81152350000002
 20
764.96728499999995
 11
-330.82028250000008
 21
765.07070900000008
  0
LINE
  8
_0-0_0
  6
CONTINUOUS
 62
    7
 10
-330.82028250000008
 20
765.07070900000008
 11
-330.82193050000001
 21
765.17394999999999
  0
LINE
  8
_0-0_0
  6
CONTINUOUS
 62
    7
 10
-330.82193050000001
 20
765.17394999999999
 11
-330.81646750000004
 21
765.27725199999998
  0
LINE
  8
_0-0_0
  6
CONTINUOUS
 62
    7
 10
-330.81646750000004
 20
765.27725199999998
 11
-330.80386350000003
 21
765.38082899999995
  0
LINE
  8
_0-0_0
  6
CONTINUOUS
 62
    7
 10
-330.80386350000003
 20
765.38082899999995
 11
-330.78402750000009
 21
765.48498500000005
  0
LINE
  8
_0-0_0
  6
CONTINUOUS
 62
    7
 10
-330.78402750000009
 20
765.48498500000005
 11
-330.75689749999992
 21
765.58993499999997
  0
LINE
  8
_0-0_0
  6
CONTINUOUS
 62
    7
 10
-330.75689749999992
 20
765.58993499999997
 11
-330.72222950000014
 21
765.69598399999995
  0
LINE
  8
_0-0_0
  6
CONTINUOUS
 62
    7
 10
-330.72222950000014
 20
765.69598399999995
 11
-330.67990150000014
 21
765.80334500000004
  0
LINE
  8
_0-0_0
  6
CONTINUOUS
 62
    7
 10
-330.67990150000014
 20
765.80334500000004
 11
-330.6295775000001
 21
765.91235400000005
  0
LINE
  8
_0-0_0
  6
CONTINUOUS
 62
    7
 10
-330.6295775000001
 20
765.91235400000005
 11
-330.58389250000005
 21
766
  0
LINE
  8
_0-0_0
  6
CONTINUOUS
 62
    7
 10
-335.5722045
 20
769.47543300000007
 11
-335.8222045
 21
769.5
  0
LINE
  8
_0-0_0
  6
CONTINUOUS
 62
    7
 10
-335.5722045
 20
769.27145399999995
 11
-335.8222045
 21
769.5
  0
LINE
  8
_0-0_0
  6
CONTINUOUS
 62
    7
 10
-335.5722045
 20
769.66595499999994
 11
-335.8222045
 21
769.71945200000005
  0
LINE
  8
_0-0_0
  6
CONTINUOUS
 62
    7
 10
-335.5722045
 20
769.47543300000007
 11
-335.8222045
 21
769.71945200000005
  0
LINE
  8
_0-0_0
  6
CONTINUOUS
 62
    7
 10
-335.5722045
 20
769.84097300000008
 11
-335.8222045
 21
769.922821
  0
LINE
  8
_0-0_0
  6
CONTINUOUS
 62
    7
 10
-335.5722045
 20
769.66595499999994
 11
-335.8222045
 21
769.922821
  0
LINE
  8
_0-0_0
  6
CONTINUOUS
 62
    7
 10
-335.5722045
 20
769.99856599999998
 11
-335.8222045
 21
770.10784899999999
  0
LINE
  8
_0-0_0
  6
CONTINUOUS
 62
    7
 10
-335.5722045
 20
769.84097300000008
 11
-335.8222045
 21
770.10784899999999
  0
LINE
  8
_0-0_0
  6
CONTINUOUS
 62
    7
 10
-335.5722045
 20
770.13699300000007
 11
-335.8222045
 21
770.27252199999998
  0
LINE
  8
_0-0_0
  6
CONTINUOUS
 62
    7
 10
-335.5722045
 20
769.99856599999998
 11
-335.8222045
 21
770.27252199999998
  0
LINE
  8
_0-0_0
  6
CONTINUOUS
 62
    7
 10
-335.5722045
 20
770.25476099999992
 11
-335.8222045
 21
770.41503899999998
  0
LINE
  8
_0-0_0
  6
CONTINUOUS
 62
    7
 10
-335.5722045
 20
770.13699300000007
 11
-335.8222045
 21
770.41503899999998
  0
LINE
  8
_0-0_0
  6
CONTINUOUS
 62
    7
 10
-335.5722045
 20
770.35052500000006
 11
-335.8222045
 21
770.53384400000004
  0
LINE
  8
_0-0_0
  6
CONTINUOUS
 62
    7
 10
-335.5722045
 20
770.25476099999992
 11
-335.8222045
 21
770.53384400000004
  0
LINE
  8
_0-0_0
  6
CONTINUOUS
 62
    7
 10
-335.5722045
 20
770.42330900000002
 11
-335.8222045
 21
770.62762500000008
  0
LINE
  8
_0-0_0
  6
CONTINUOUS
 62
    7
 10
-335.5722045
 20
770.35052500000006
 11
-335.8222045
 21
770.62762500000008
  0
LINE
  8
_0-0_0
  6
CONTINUOUS
 62
    7
 10
-335.5722045
 20
770.47228999999993
 11
-335.8222045
 21
770.69534299999998
  0
LINE
  8
_0-0_0
  6
CONTINUOUS
 62
    7
 10
-335.5722045
 20
770.42330900000002
 11
-335.8222045
 21
770.69534299999998
  0
LINE
  8
_0-0_0
  6
CONTINUOUS
 62
    7
 10
-335.5722045
 20
770.49688700000002
 11
-335.8222045
 21
770.73629800000003
  0
LINE
  8
_0-0_0
  6
CONTINUOUS
 62
    7
 10
-335.5722045
 20
770.47228999999993
 11
-335.8222045
 21
770.73629800000003
  0
LINE
  8
_0-0_0
  6
CONTINUOUS
 62
    7
 10
-335.5722045
 20
770.49688700000002
 11
-335.8222045
 21
770.75
  0
LINE
  8
_0-0_0
  6
CONTINUOUS
 62
    7
 10
-335.5722045
 20
766.00305200000003
 11
-335.8222045
 21
765.75
  0
LINE
  8
_0-0_0
  6
CONTINUOUS
 62
    7
 10
-335.5722045
 20
766.02767900000003
 11
-335.8222045
 21
765.76367200000004
  0
LINE
  8
_0-0_0
  6
CONTINUOUS
 62
    7
 10
-335.5722045
 20
766.00305200000003
 11
-335.8222045
 21
765.76367200000004
  0
LINE
  8
_0-0_0
  6
CONTINUOUS
 62
    7
 10
-335.5722045
 20
766.07665999999995
 11
-335.8222045
 21
765.80462599999998
  0
LINE
  8
_0-0_0
  6
CONTINUOUS
 62
    7
 10
-335.5722045
 20
766.02767900000003
 11
-335.8222045
 21
765.80462599999998
  0
LINE
  8
_0-0_0
  6
CONTINUOUS
 62
    7
 10
-335.5722045
 20
766.14941399999998
 11
-335.8222045
 21
765.872345
  0
LINE
  8
_0-0_0
  6
CONTINUOUS
 62
    7
 10
-335.5722045
 20
766.07665999999995
 11
-335.8222045
 21
765.872345
  0
LINE
  8
_0-0_0
  6
CONTINUOUS
 62
    7
 10
-335.5722045
 20
766.24520899999993
 11
-335.8222045
 21
765.96612499999992
  0
LINE
  8
_0-0_0
  6
CONTINUOUS
 62
    7
 10
-335.5722045
 20
766.14941399999998
 11
-335.8222045
 21
765.96612499999992
  0
LINE
  8
_0-0_0
  6
CONTINUOUS
 62
    7
 10
-335.5722045
 20
766.24520899999993
 11
-335.70214850000002
 21
766.16137700000002
  0
LINE
  8
_0-0_0
  6
CONTINUOUS
 62
    7
 10
-335.5722045
 20
766.362976
 11
-335.8222045
 21
766.08492999999999
  0
LINE
  8
_0-0_0
  6
CONTINUOUS
 62
    7
 10
-335.70214850000002
 20
766.16137700000002
 11
-335.8222045
 21
766.08492999999999
  0
LINE
  8
_0-0_0
  6
CONTINUOUS
 62
    7
 10
-335.5722045
 20
766.50140399999998
 11
-335.8222045
 21
766.22744799999998
  0
LINE
  8
_0-0_0
  6
CONTINUOUS
 62
    7
 10
-335.5722045
 20
766.362976
 11
-335.8222045
 21
766.22744799999998
  0
LINE
  8
_0-0_0
  6
CONTINUOUS
 62
    7
 10
-335.5722045
 20
766.658997
 11
-335.8222045
 21
766.39211999999998
  0
LINE
  8
_0-0_0
  6
CONTINUOUS
 62
    7
 10
-335.5722045
 20
766.50140399999998
 11
-335.8222045
 21
766.39211999999998
  0
LINE
  8
_0-0_0
  6
CONTINUOUS
 62
    7
 10
-335.5722045
 20
766.83401500000002
 11
-335.8222045
 21
766.57714800000008
  0
LINE
  8
_0-0_0
  6
CONTINUOUS
 62
    7
 10
-335.5722045
 20
766.658997
 11
-335.8222045
 21
766.57714800000008
  0
LINE
  8
_0-0_0
  6
CONTINUOUS
 62
    7
 10
-335.5722045
 20
767.02453600000001
 11
-335.8222045
 21
766.78051800000003
  0
LINE
  8
_0-0_0
  6
CONTINUOUS
 62
    7
 10
-335.5722045
 20
766.83401500000002
 11
-335.8222045
 21
766.78051800000003
  0
LINE
  8
_0-0_0
  6
CONTINUOUS
 62
    7
 10
-335.5722045
 20
767.22851600000001
 11
-335.8222045
 21
767
  0
LINE
  8
_0-0_0
  6
CONTINUOUS
 62
    7
 10
-335.5722045
 20
767.02453600000001
 11
-335.8222045
 21
767
  0
LINE
  8
_0-0_0
  6
CONTINUOUS
 62
    7
 10
-335.5722045
 20
767.44366500000001
 11
-335.8222045
 21
767.23315400000001
  0
LINE
  8
_0-0_0
  6
CONTINUOUS
 62
    7
 10
-335.5722045
 20
767.22851600000001
 11
-335.8222045
 21
767.23315400000001
  0
LINE
  8
_0-0_0
  6
CONTINUOUS
 62
    7
 10
-335.5722045
 20
767.66763300000002
 11
-335.8222045
 21
767.47744799999998
  0
LINE
  8
_0-0_0
  6
CONTINUOUS
 62
    7
 10
-335.5722045
 20
767.44366500000001
 11
-335.8222045
 21
767.47744799999998
  0
LINE
  8
_0-0_0
  6
CONTINUOUS
 62
    7
 10
-335.5722045
 20
767.89801
 11
-335.8222045
 21
767.73019399999998
  0
LINE
  8
_0-0_0
  6
CONTINUOUS
 62
    7
 10
-335.5722045
 20
767.66763300000002
 11
-335.8222045
 21
767.73019399999998
  0
LINE
  8
_0-0_0
  6
CONTINUOUS
 62
    7
 10
-335.5722045
 20
768.13223300000004
 11
-335.8222045
 21
767.98864700000001
  0
LINE
  8
_0-0_0
  6
CONTINUOUS
 62
    7
 10
-335.5722045
 20
767.89801
 11
-335.8222045
 21
767.98864700000001
  0
LINE
  8
_0-0_0
  6
CONTINUOUS
 62
    7
 10
-335.5722045
 20
768.36773700000003
 11
-335.8222045
 21
768.25
  0
LINE
  8
_0-0_0
  6
CONTINUOUS
 62
    7
 10
-335.5722045
 20
768.13223300000004
 11
-335.8222045
 21
768.25
  0
LINE
  8
_0-0_0
  6
CONTINUOUS
 62
    7
 10
-335.5722045
 20
768.60195900000008
 11
-335.8222045
 21
768.51129200000003
  0
LINE
  8
_0-0_0
  6
CONTINUOUS
 62
    7
 10
-335.5722045
 20
768.36773700000003
 11
-335.8222045
 21
768.51129200000003
  0
LINE
  8
_0-0_0
  6
CONTINUOUS
 62
    7
 10
-335.5722045
 20
768.83233599999994
 11
-335.8222045
 21
768.76977499999998
  0
LINE
  8
_0-0_0
  6
CONTINUOUS
 62
    7
 10
-335.5722045
 20
768.60195900000008
 11
-335.8222045
 21
768.76977499999998
  0
LINE
  8
_0-0_0
  6
CONTINUOUS
 62
    7
 10
-335.5722045
 20
769.05630500000007
 11
-335.8222045
 21
769.02252199999998
  0
LINE
  8
_0-0_0
  6
CONTINUOUS
 62
    7
 10
-335.5722045
 20
768.83233599999994
 11
-335.8222045
 21
769.02252199999998
  0
LINE
  8
_0-0_0
  6
CONTINUOUS
 62
    7
 10
-335.5722045
 20
769.27145399999995
 11
-335.8222045
 21
769.26681499999995
  0
LINE
  8
_0-0_0
  6
CONTINUOUS
 62
    7
 10
-335.5722045
 20
769.05630500000007
 11
-335.8222045
 21
769.26681499999995
  0
LINE
  8
_0-0_0
  6
CONTINUOUS
 62
    7
 10
-320.5722045
 20
761.512024
 11
-320.5722045
 21
762.55767800000001
  0
LINE
  8
_0-0_0
  6
CONTINUOUS
 62
    7
 10
-320.5722045
 20
763.84228499999995
 11
-320.5722045
 21
762.55767800000001
  0
LINE
  8
_0-0_0
  6
CONTINUOUS
 62
    7
 10
-320.5722045
 20
761.512024
 11
-320.5722045
 21
758.38793899999996
  0
LINE
  8
_0-0_0
  6
CONTINUOUS
 62
    7
 10
-320.5722045
 20
757.34228499999995
 11
-320.5722045
 21
756.05767800000001
  0
LINE
  8
_0-0_0
  6
CONTINUOUS
 62
    7
 10
-320.5722045
 20
757.34228499999995
 11
-320.5722045
 21
758.38793899999996
  0
LINE
  8
_0-0_0
  6
CONTINUOUS
 62
    7
 10
-205.97218350000003
 20
750.69113199999993
 11
-205.97218350000003
 21
753.64999399999999
  0
LINE
  8
_0-0_0
  6
CONTINUOUS
 62
    7
 10
-205.97218350000003
 20
749.64999399999999
 11
-205.97218350000003
 21
750.69113199999993
  0
LINE
  8
_0-0_0
  6
CONTINUOUS
 62
    7
 10
-320.5722045
 20
757.34228499999995
 11
-330.28002950000018
 21
757.34228499999995
  0
ARC
  8
_0-0_0
  6
CONTINUOUS
 62
    7
 10
-325.39828549999993
 20
756.69909699999994
 40
4.9238749999999998
 50
172.49424200000001
 51
181.535968
  0
ARC
  8
_0-0_0
  6
CONTINUOUS
 62
    7
 10
-325.36029050000002
 20
756.70404099999996
 40
4.9620009999999999
 50
181.58130700000004
 51
187.48478900000003
  0
LINE
  8
_0-0_0
  6
CONTINUOUS
 62
    7
 10
-331.5722045
 20
757.21844499999997
 11
-331.5722045
 21
754.69998199999998
  0
LINE
  8
_0-0_0
  6
CONTINUOUS
 62
    7
 10
-331.5722045
 20
765.19998199999998
 11
-331.5722045
 21
757.21844499999997
  0
LINE
  8
_0-0_0
  6
CONTINUOUS
 62
    7
 10
-330.28002950000018
 20
762.55767800000001
 11
-330.37435950000008
 21
762.31106599999998
  0
LINE
  8
_0-0_0
  6
CONTINUOUS
 62
    7
 10
-330.37435950000008
 20
762.31106599999998
 11
-330.45831350000003
 21
762.07110599999999
  0
LINE
  8
_0-0_0
  6
CONTINUOUS
 62
    7
 10
-330.45831350000003
 20
762.07110599999999
 11
-330.53247050000004
 21
761.83697499999994
  0
LINE
  8
_0-0_0
  6
CONTINUOUS
 62
    7
 10
-330.53247050000004
 20
761.83697499999994
 11
-330.59735150000006
 21
761.60794099999998
  0
LINE
  8
_0-0_0
  6
CONTINUOUS
 62
    7
 10
-330.59735150000006
 20
761.60794099999998
 11
-330.65338150000002
 21
761.38327000000004
  0
LINE
  8
_0-0_0
  6
CONTINUOUS
 62
    7
 10
-330.65338150000002
 20
761.38327000000004
 11
-330.70092750000003
 21
761.16229199999998
  0
LINE
  8
_0-0_0
  6
CONTINUOUS
 62
    7
 10
-330.70092750000003
 20
761.16229199999998
 11
-330.74035649999996
 21
760.94436599999995
  0
LINE
  8
_0-0_0
  6
CONTINUOUS
 62
    7
 10
-330.74035649999996
 20
760.94436599999995
 11
-330.77185050000003
 21
760.72891200000004
  0
LINE
  8
_0-0_0
  6
CONTINUOUS
 62
    7
 10
-330.77185050000003
 20
760.72891200000004
 11
-330.7955935
 21
760.51538099999993
  0
LINE
  8
_0-0_0
  6
CONTINUOUS
 62
    7
 10
-330.7955935
 20
760.51538099999993
 11
-330.81152350000002
 21
760.30767800000001
  0
LINE
  8
_0-0_0
  6
CONTINUOUS
 62
    7
 10
-330.81152350000002
 20
760.30767800000001
 11
-330.82028250000008
 21
760.10082999999997
  0
LINE
  8
_0-0_0
  6
CONTINUOUS
 62
    7
 10
-330.82028250000008
 20
760.10082999999997
 11
-330.82193050000001
 21
759.89434800000004
  0
LINE
  8
_0-0_0
  6
CONTINUOUS
 62
    7
 10
-330.82193050000001
 20
759.89434800000004
 11
-330.81646750000004
 21
759.68777499999999
  0
LINE
  8
_0-0_0
  6
CONTINUOUS
 62
    7
 10
-330.81646750000004
 20
759.68777499999999
 11
-330.80386350000003
 21
759.480591
  0
LINE
  8
_0-0_0
  6
CONTINUOUS
 62
    7
 10
-330.80386350000003
 20
759.480591
 11
-330.78402750000009
 21
759.27227799999991
  0
LINE
  8
_0-0_0
  6
CONTINUOUS
 62
    7
 10
-330.78402750000009
 20
759.27227799999991
 11
-330.75689749999992
 21
759.06237800000008
  0
LINE
  8
_0-0_0
  6
CONTINUOUS
 62
    7
 10
-330.75689749999992
 20
759.06237800000008
 11
-330.72222950000014
 21
758.85031099999992
  0
LINE
  8
_0-0_0
  6
CONTINUOUS
 62
    7
 10
-330.72222950000014
 20
758.85031099999992
 11
-330.67990150000014
 21
758.63555900000006
  0
LINE
  8
_0-0_0
  6
CONTINUOUS
 62
    7
 10
-330.67990150000014
 20
758.63555900000006
 11
-330.6295775000001
 21
758.41754200000003
  0
LINE
  8
_0-0_0
  6
CONTINUOUS
 62
    7
 10
-330.6295775000001
 20
758.41754200000003
 11
-330.57531749999998
 21
758.21124299999997
  0
LINE
  8
_0-0_0
  6
CONTINUOUS
 62
    7
 10
-330.57531749999998
 20
758.21124299999997
 11
-330.51361050000014
 21
758.00116000000003
  0
LINE
  8
_0-0_0
  6
CONTINUOUS
 62
    7
 10
-330.51361050000014
 20
758.00116000000003
 11
-330.44409150000001
 21
757.78668199999993
  0
LINE
  8
_0-0_0
  6
CONTINUOUS
 62
    7
 10
-330.44409150000001
 20
757.78668199999993
 11
-330.36639450000007
 21
757.56726099999992
  0
LINE
  8
_0-0_0
  6
CONTINUOUS
 62
    7
 10
-330.36639450000007
 20
757.56726099999992
 11
-330.28002950000018
 21
757.34228499999995
  0
ARC
  8
_0-0_0
  6
CONTINUOUS
 62
    7
 10
-325.40844749999997
 20
763.19998199999998
 40
4.9136889999999998
 50
172.48898299999999
 51
187.51101699999998
  0
LINE
  8
_0-0_0
  6
CONTINUOUS
 62
    7
 10
-320.5722045
 20
762.55767800000001
 11
-330.28002950000018
 21
762.55767800000001
  0
LINE
  8
_0-0_0
  6
CONTINUOUS
 62
    7
 10
-345.3222045
 20
769.47543300000007
 11
-345.0722045
 21
769.5
  0
LINE
  8
_0-0_0
  6
CONTINUOUS
 62
    7
 10
-345.0722045
 20
769.5
 11
-335.8222045
 21
769.5
  0
LINE
  8
_0-0_0
  6
CONTINUOUS
 62
    7
 10
-345.3222045
 20
769.27145399999995
 11
-345.0722045
 21
769.5
  0
LINE
  8
_0-0_0
  6
CONTINUOUS
 62
    7
 10
-345.3222045
 20
769.27145399999995
 11
-335.5722045
 21
769.27145399999995
  0
LINE
  8
_0-0_0
  6
CONTINUOUS
 62
    7
 10
-345.3222045
 20
769.66595499999994
 11
-345.0722045
 21
769.71945200000005
  0
LINE
  8
_0-0_0
  6
CONTINUOUS
 62
    7
 10
-345.0722045
 20
769.71945200000005
 11
-335.8222045
 21
769.71945200000005
  0
LINE
  8
_0-0_0
  6
CONTINUOUS
 62
    7
 10
-345.3222045
 20
769.47543300000007
 11
-345.0722045
 21
769.71945200000005
  0
LINE
  8
_0-0_0
  6
CONTINUOUS
 62
    7
 10
-345.3222045
 20
769.84097300000008
 11
-345.0722045
 21
769.922821
  0
LINE
  8
_0-0_0
  6
CONTINUOUS
 62
    7
 10
-345.0722045
 20
769.922821
 11
-335.8222045
 21
769.922821
  0
LINE
  8
_0-0_0
  6
CONTINUOUS
 62
    7
 10
-345.3222045
 20
769.66595499999994
 11
-345.0722045
 21
769.922821
  0
LINE
  8
_0-0_0
  6
CONTINUOUS
 62
    7
 10
-345.3222045
 20
769.99856599999998
 11
-345.0722045
 21
770.10784899999999
  0
LINE
  8
_0-0_0
  6
CONTINUOUS
 62
    7
 10
-345.0722045
 20
770.10784899999999
 11
-335.8222045
 21
770.10784899999999
  0
LINE
  8
_0-0_0
  6
CONTINUOUS
 62
    7
 10
-345.3222045
 20
769.84097300000008
 11
-345.0722045
 21
770.10784899999999
  0
LINE
  8
_0-0_0
  6
CONTINUOUS
 62
    7
 10
-345.3222045
 20
770.13699300000007
 11
-345.0722045
 21
770.27252199999998
  0
LINE
  8
_0-0_0
  6
CONTINUOUS
 62
    7
 10
-345.0722045
 20
770.27252199999998
 11
-335.8222045
 21
770.27252199999998
  0
LINE
  8
_0-0_0
  6
CONTINUOUS
 62
    7
 10
-345.3222045
 20
769.99856599999998
 11
-345.0722045
 21
770.27252199999998
  0
LINE
  8
_0-0_0
  6
CONTINUOUS
 62
    7
 10
-345.3222045
 20
770.25476099999992
 11
-345.0722045
 21
770.41503899999998
  0
LINE
  8
_0-0_0
  6
CONTINUOUS
 62
    7
 10
-345.0722045
 20
770.41503899999998
 11
-335.8222045
 21
770.41503899999998
  0
LINE
  8
_0-0_0
  6
CONTINUOUS
 62
    7
 10
-345.3222045
 20
770.13699300000007
 11
-345.0722045
 21
770.41503899999998
  0
LINE
  8
_0-0_0
  6
CONTINUOUS
 62
    7
 10
-345.3222045
 20
770.35052500000006
 11
-345.0722045
 21
770.53384400000004
  0
LINE
  8
_0-0_0
  6
CONTINUOUS
 62
    7
 10
-345.0722045
 20
770.53384400000004
 11
-335.8222045
 21
770.53384400000004
  0
LINE
  8
_0-0_0
  6
CONTINUOUS
 62
    7
 10
-345.3222045
 20
770.25476099999992
 11
-345.0722045
 21
770.53384400000004
  0
LINE
  8
_0-0_0
  6
CONTINUOUS
 62
    7
 10
-345.3222045
 20
770.42330900000002
 11
-345.0722045
 21
770.62762500000008
  0
LINE
  8
_0-0_0
  6
CONTINUOUS
 62
    7
 10
-345.0722045
 20
770.62762500000008
 11
-335.8222045
 21
770.62762500000008
  0
LINE
  8
_0-0_0
  6
CONTINUOUS
 62
    7
 10
-345.3222045
 20
770.35052500000006
 11
-345.0722045
 21
770.62762500000008
  0
LINE
  8
_0-0_0
  6
CONTINUOUS
 62
    7
 10
-345.3222045
 20
770.47228999999993
 11
-345.0722045
 21
770.69534299999998
  0
LINE
  8
_0-0_0
  6
CONTINUOUS
 62
    7
 10
-345.0722045
 20
770.69534299999998
 11
-335.8222045
 21
770.69534299999998
  0
LINE
  8
_0-0_0
  6
CONTINUOUS
 62
    7
 10
-345.3222045
 20
770.42330900000002
 11
-345.0722045
 21
770.69534299999998
  0
LINE
  8
_0-0_0
  6
CONTINUOUS
 62
    7
 10
-345.3222045
 20
770.49688700000002
 11
-345.0722045
 21
770.73629800000003
  0
LINE
  8
_0-0_0
  6
CONTINUOUS
 62
    7
 10
-345.0722045
 20
770.73629800000003
 11
-335.8222045
 21
770.73629800000003
  0
LINE
  8
_0-0_0
  6
CONTINUOUS
 62
    7
 10
-345.3222045
 20
770.47228999999993
 11
-345.0722045
 21
770.73629800000003
  0
LINE
  8
_0-0_0
  6
CONTINUOUS
 62
    7
 10
-345.0722045
 20
770.75
 11
-335.8222045
 21
770.75
  0
LINE
  8
_0-0_0
  6
CONTINUOUS
 62
    7
 10
-345.3222045
 20
770.49688700000002
 11
-345.0722045
 21
770.75
  0
LINE
  8
_0-0_0
  6
CONTINUOUS
 62
    7
 10
-345.3222045
 20
766.00305200000003
 11
-345.0722045
 21
765.75
  0
LINE
  8
_0-0_0
  6
CONTINUOUS
 62
    7
 10
-345.0722045
 20
765.75
 11
-335.8222045
 21
765.75
  0
LINE
  8
_0-0_0
  6
CONTINUOUS
 62
    7
 10
-345.3222045
 20
766.02767900000003
 11
-345.0722045
 21
765.76367200000004
  0
LINE
  8
_0-0_0
  6
CONTINUOUS
 62
    7
 10
-345.0722045
 20
765.76367200000004
 11
-335.8222045
 21
765.76367200000004
  0
LINE
  8
_0-0_0
  6
CONTINUOUS
 62
    7
 10
-345.3222045
 20
766.00305200000003
 11
-345.0722045
 21
765.76367200000004
  0
LINE
  8
_0-0_0
  6
CONTINUOUS
 62
    7
 10
-345.3222045
 20
766.07665999999995
 11
-345.0722045
 21
765.80462599999998
  0
LINE
  8
_0-0_0
  6
CONTINUOUS
 62
    7
 10
-345.0722045
 20
765.80462599999998
 11
-335.8222045
 21
765.80462599999998
  0
LINE
  8
_0-0_0
  6
CONTINUOUS
 62
    7
 10
-345.3222045
 20
766.02767900000003
 11
-345.0722045
 21
765.80462599999998
  0
LINE
  8
_0-0_0
  6
CONTINUOUS
 62
    7
 10
-345.3222045
 20
766.14941399999998
 11
-345.0722045
 21
765.872345
  0
LINE
  8
_0-0_0
  6
CONTINUOUS
 62
    7
 10
-345.0722045
 20
765.872345
 11
-335.8222045
 21
765.872345
  0
LINE
  8
_0-0_0
  6
CONTINUOUS
 62
    7
 10
-345.3222045
 20
766.07665999999995
 11
-345.0722045
 21
765.872345
  0
LINE
  8
_0-0_0
  6
CONTINUOUS
 62
    7
 10
-345.3222045
 20
766.24520899999993
 11
-345.0722045
 21
765.96612499999992
  0
LINE
  8
_0-0_0
  6
CONTINUOUS
 62
    7
 10
-345.0722045
 20
765.96612499999992
 11
-335.8222045
 21
765.96612499999992
  0
LINE
  8
_0-0_0
  6
CONTINUOUS
 62
    7
 10
-345.3222045
 20
766.14941399999998
 11
-345.0722045
 21
765.96612499999992
  0
LINE
  8
_0-0_0
  6
CONTINUOUS
 62
    7
 10
-345.0722045
 20
766.08492999999999
 11
-335.8222045
 21
766.08492999999999
  0
LINE
  8
_0-0_0
  6
CONTINUOUS
 62
    7
 10
-345.19223050000005
 20
766.16137700000002
 11
-345.0722045
 21
766.08492999999999
  0
LINE
  8
_0-0_0
  6
CONTINUOUS
 62
    7
 10
-345.3222045
 20
766.24520899999993
 11
-345.19223050000005
 21
766.16137700000002
  0
LINE
  8
_0-0_0
  6
CONTINUOUS
 62
    7
 10
-345.3222045
 20
766.362976
 11
-345.0722045
 21
766.08492999999999
  0
LINE
  8
_0-0_0
  6
CONTINUOUS
 62
    7
 10
-345.3222045
 20
766.50140399999998
 11
-345.0722045
 21
766.22744799999998
  0
LINE
  8
_0-0_0
  6
CONTINUOUS
 62
    7
 10
-345.0722045
 20
766.22744799999998
 11
-335.8222045
 21
766.22744799999998
  0
LINE
  8
_0-0_0
  6
CONTINUOUS
 62
    7
 10
-345.3222045
 20
766.362976
 11
-345.0722045
 21
766.22744799999998
  0
LINE
  8
_0-0_0
  6
CONTINUOUS
 62
    7
 10
-345.3222045
 20
766.658997
 11
-345.0722045
 21
766.39211999999998
  0
LINE
  8
_0-0_0
  6
CONTINUOUS
 62
    7
 10
-345.0722045
 20
766.39211999999998
 11
-335.8222045
 21
766.39211999999998
  0
LINE
  8
_0-0_0
  6
CONTINUOUS
 62
    7
 10
-345.3222045
 20
766.50140399999998
 11
-345.0722045
 21
766.39211999999998
  0
LINE
  8
_0-0_0
  6
CONTINUOUS
 62
    7
 10
-345.3222045
 20
766.83401500000002
 11
-345.0722045
 21
766.57714800000008
  0
LINE
  8
_0-0_0
  6
CONTINUOUS
 62
    7
 10
-345.0722045
 20
766.57714800000008
 11
-335.8222045
 21
766.57714800000008
  0
LINE
  8
_0-0_0
  6
CONTINUOUS
 62
    7
 10
-345.3222045
 20
766.658997
 11
-345.0722045
 21
766.57714800000008
  0
LINE
  8
_0-0_0
  6
CONTINUOUS
 62
    7
 10
-345.3222045
 20
767.02453600000001
 11
-345.0722045
 21
766.78051800000003
  0
LINE
  8
_0-0_0
  6
CONTINUOUS
 62
    7
 10
-345.0722045
 20
766.78051800000003
 11
-335.8222045
 21
766.78051800000003
  0
LINE
  8
_0-0_0
  6
CONTINUOUS
 62
    7
 10
-345.3222045
 20
766.83401500000002
 11
-345.0722045
 21
766.78051800000003
  0
LINE
  8
_0-0_0
  6
CONTINUOUS
 62
    7
 10
-345.3222045
 20
767.22851600000001
 11
-345.0722045
 21
767
  0
LINE
  8
_0-0_0
  6
CONTINUOUS
 62
    7
 10
-345.0722045
 20
767
 11
-335.8222045
 21
767
  0
LINE
  8
_0-0_0
  6
CONTINUOUS
 62
    7
 10
-345.3222045
 20
767.22851600000001
 11
-335.5722045
 21
767.22851600000001
  0
LINE
  8
_0-0_0
  6
CONTINUOUS
 62
    7
 10
-345.3222045
 20
767.02453600000001
 11
-345.0722045
 21
767
  0
LINE
  8
_0-0_0
  6
CONTINUOUS
 62
    7
 10
-345.3222045
 20
767.44366500000001
 11
-345.0722045
 21
767.23315400000001
  0
LINE
  8
_0-0_0
  6
CONTINUOUS
 62
    7
 10
-345.0722045
 20
767.23315400000001
 11
-335.8222045
 21
767.23315400000001
  0
LINE
  8
_0-0_0
  6
CONTINUOUS
 62
    7
 10
-345.3222045
 20
767.44366500000001
 11
-335.5722045
 21
767.44366500000001
  0
LINE
  8
_0-0_0
  6
CONTINUOUS
 62
    7
 10
-345.3222045
 20
767.22851600000001
 11
-345.0722045
 21
767.23315400000001
  0
LINE
  8
_0-0_0
  6
CONTINUOUS
 62
    7
 10
-345.3222045
 20
767.66763300000002
 11
-345.0722045
 21
767.47744799999998
  0
LINE
  8
_0-0_0
  6
CONTINUOUS
 62
    7
 10
-345.0722045
 20
767.47744799999998
 11
-335.8222045
 21
767.47744799999998
  0
LINE
  8
_0-0_0
  6
CONTINUOUS
 62
    7
 10
-345.3222045
 20
767.66763300000002
 11
-335.5722045
 21
767.66763300000002
  0
LINE
  8
_0-0_0
  6
CONTINUOUS
 62
    7
 10
-345.3222045
 20
767.44366500000001
 11
-345.0722045
 21
767.47744799999998
  0
LINE
  8
_0-0_0
  6
CONTINUOUS
 62
    7
 10
-345.3222045
 20
767.89801
 11
-345.0722045
 21
767.73019399999998
  0
LINE
  8
_0-0_0
  6
CONTINUOUS
 62
    7
 10
-345.0722045
 20
767.73019399999998
 11
-335.8222045
 21
767.73019399999998
  0
LINE
  8
_0-0_0
  6
CONTINUOUS
 62
    7
 10
-345.3222045
 20
767.89801
 11
-335.5722045
 21
767.89801
  0
LINE
  8
_0-0_0
  6
CONTINUOUS
 62
    7
 10
-345.3222045
 20
767.66763300000002
 11
-345.0722045
 21
767.73019399999998
  0
LINE
  8
_0-0_0
  6
CONTINUOUS
 62
    7
 10
-345.3222045
 20
768.13223300000004
 11
-345.0722045
 21
767.98864700000001
  0
LINE
  8
_0-0_0
  6
CONTINUOUS
 62
    7
 10
-345.0722045
 20
767.98864700000001
 11
-335.8222045
 21
767.98864700000001
  0
LINE
  8
_0-0_0
  6
CONTINUOUS
 62
    7
 10
-345.3222045
 20
768.13223300000004
 11
-335.5722045
 21
768.13223300000004
  0
LINE
  8
_0-0_0
  6
CONTINUOUS
 62
    7
 10
-345.3222045
 20
767.89801
 11
-345.0722045
 21
767.98864700000001
  0
LINE
  8
_0-0_0
  6
CONTINUOUS
 62
    7
 10
-345.3222045
 20
768.36773700000003
 11
-345.0722045
 21
768.25
  0
LINE
  8
_0-0_0
  6
CONTINUOUS
 62
    7
 10
-345.0722045
 20
768.25
 11
-335.8222045
 21
768.25
  0
LINE
  8
_0-0_0
  6
CONTINUOUS
 62
    7
 10
-345.3222045
 20
768.36773700000003
 11
-335.5722045
 21
768.36773700000003
  0
LINE
  8
_0-0_0
  6
CONTINUOUS
 62
    7
 10
-345.3222045
 20
768.13223300000004
 11
-345.0722045
 21
768.25
  0
LINE
  8
_0-0_0
  6
CONTINUOUS
 62
    7
 10
-345.3222045
 20
768.60195900000008
 11
-345.0722045
 21
768.51129200000003
  0
LINE
  8
_0-0_0
  6
CONTINUOUS
 62
    7
 10
-345.0722045
 20
768.51129200000003
 11
-335.8222045
 21
768.51129200000003
  0
LINE
  8
_0-0_0
  6
CONTINUOUS
 62
    7
 10
-345.3222045
 20
768.60195900000008
 11
-335.5722045
 21
768.60195900000008
  0
LINE
  8
_0-0_0
  6
CONTINUOUS
 62
    7
 10
-345.3222045
 20
768.36773700000003
 11
-345.0722045
 21
768.51129200000003
  0
LINE
  8
_0-0_0
  6
CONTINUOUS
 62
    7
 10
-345.3222045
 20
768.83233599999994
 11
-345.0722045
 21
768.76977499999998
  0
LINE
  8
_0-0_0
  6
CONTINUOUS
 62
    7
 10
-345.0722045
 20
768.76977499999998
 11
-335.8222045
 21
768.76977499999998
  0
LINE
  8
_0-0_0
  6
CONTINUOUS
 62
    7
 10
-345.3222045
 20
768.83233599999994
 11
-335.5722045
 21
768.83233599999994
  0
LINE
  8
_0-0_0
  6
CONTINUOUS
 62
    7
 10
-345.3222045
 20
768.60195900000008
 11
-345.0722045
 21
768.76977499999998
  0
LINE
  8
_0-0_0
  6
CONTINUOUS
 62
    7
 10
-345.3222045
 20
769.05630500000007
 11
-345.0722045
 21
769.02252199999998
  0
LINE
  8
_0-0_0
  6
CONTINUOUS
 62
    7
 10
-345.0722045
 20
769.02252199999998
 11
-335.8222045
 21
769.02252199999998
  0
LINE
  8
_0-0_0
  6
CONTINUOUS
 62
    7
 10
-345.3222045
 20
769.05630500000007
 11
-335.5722045
 21
769.05630500000007
  0
LINE
  8
_0-0_0
  6
CONTINUOUS
 62
    7
 10
-345.3222045
 20
768.83233599999994
 11
-345.0722045
 21
769.02252199999998
  0
LINE
  8
_0-0_0
  6
CONTINUOUS
 62
    7
 10
-345.3222045
 20
769.27145399999995
 11
-345.0722045
 21
769.26681499999995
  0
LINE
  8
_0-0_0
  6
CONTINUOUS
 62
    7
 10
-345.0722045
 20
769.26681499999995
 11
-335.8222045
 21
769.26681499999995
  0
LINE
  8
_0-0_0
  6
CONTINUOUS
 62
    7
 10
-345.3222045
 20
769.05630500000007
 11
-345.0722045
 21
769.26681499999995
  0
LINE
  8
_0-0_0
  6
CONTINUOUS
 62
    7
 10
-345.5722045
 20
770.25
 11
-345.5722045
 21
766.49481200000002
  0
LINE
  8
_0-0_0
  6
CONTINUOUS
 62
    7
 10
-345.5722045
 20
766.49481200000002
 11
-345.5722045
 21
766.25
  0
LINE
  8
_0-0_0
  6
CONTINUOUS
 62
    7
 10
-331.9721985000001
 20
764.94998199999998
 11
-331.9721985000001
 21
762.44998199999998
  0
LINE
  8
_0-0_0
  6
CONTINUOUS
 62
    7
 10
-331.9721985000001
 20
762.44998199999998
 11
-331.9721985000001
 21
754.94998199999998
  0
LINE
  8
_0-0_0
  6
CONTINUOUS
 62
    7
 10
-332.77218650000009
 20
764.48809800000004
 11
-332.77218650000009
 21
762.21905500000003
  0
LINE
  8
_0-0_0
  6
CONTINUOUS
 62
    7
 10
-332.77218650000009
 20
762.21905500000003
 11
-332.77218650000009
 21
755.41186500000003
  0
LINE
  8
_0-0_0
  6
CONTINUOUS
 62
    7
 10
-390.77218650000009
 20
763.94998199999998
 11
-390.77218650000009
 21
763.94863899999996
  0
LINE
  8
_0-0_0
  6
CONTINUOUS
 62
    7
 10
-390.77218650000009
 20
763.94863899999996
 11
-390.77218650000009
 21
755.94998199999998
  0
LINE
  8
_0-0_0
  6
CONTINUOUS
 62
    7
 10
-335.5722045
 20
749.40307600000006
 11
-335.5722045
 21
749.39999399999999
  0
LINE
  8
_0-0_0
  6
CONTINUOUS
 62
    7
 10
-335.5722045
 20
749.42770399999995
 11
-335.5722045
 21
749.40307600000006
  0
LINE
  8
_0-0_0
  6
CONTINUOUS
 62
    7
 10
-335.5722045
 20
749.47665400000005
 11
-335.5722045
 21
749.39999399999999
  0
LINE
  8
_0-0_0
  6
CONTINUOUS
 62
    7
 10
-335.5722045
 20
749.54943800000001
 11
-335.5722045
 21
749.47665400000005
  0
LINE
  8
_0-0_0
  6
CONTINUOUS
 62
    7
 10
-335.5722045
 20
749.64520300000004
 11
-335.5722045
 21
749.54943800000001
  0
LINE
  8
_0-0_0
  6
CONTINUOUS
 62
    7
 10
-335.5722045
 20
749.67541499999993
 11
-335.5722045
 21
749.64520300000004
  0
LINE
  8
_0-0_0
  6
CONTINUOUS
 62
    7
 10
-335.5722045
 20
749.76297
 11
-335.5722045
 21
749.67541499999993
  0
LINE
  8
_0-0_0
  6
CONTINUOUS
 62
    7
 10
-335.5722045
 20
749.90139799999997
 11
-335.5722045
 21
749.76297
  0
LINE
  8
_0-0_0
  6
CONTINUOUS
 62
    7
 10
-335.5722045
 20
750.05898999999999
 11
-335.5722045
 21
749.90139799999997
  0
LINE
  8
_0-0_0
  6
CONTINUOUS
 62
    7
 10
-335.5722045
 20
750.23400900000001
 11
-335.5722045
 21
750.05898999999999
  0
LINE
  8
_0-0_0
  6
CONTINUOUS
 62
    7
 10
-335.5722045
 20
750.42453
 11
-335.5722045
 21
750.23400900000001
  0
LINE
  8
_0-0_0
  6
CONTINUOUS
 62
    7
 10
-335.5722045
 20
750.62851000000001
 11
-335.5722045
 21
750.42453
  0
LINE
  8
_0-0_0
  6
CONTINUOUS
 62
    7
 10
-335.5722045
 20
750.843658
 11
-335.5722045
 21
750.62851000000001
  0
LINE
  8
_0-0_0
  6
CONTINUOUS
 62
    7
 10
-335.5722045
 20
751.06762700000002
 11
-335.5722045
 21
750.843658
  0
LINE
  8
_0-0_0
  6
CONTINUOUS
 62
    7
 10
-335.5722045
 20
751.29800399999999
 11
-335.5722045
 21
751.06762700000002
  0
LINE
  8
_0-0_0
  6
CONTINUOUS
 62
    7
 10
-335.5722045
 20
751.53222699999992
 11
-335.5722045
 21
751.29800399999999
  0
LINE
  8
_0-0_0
  6
CONTINUOUS
 62
    7
 10
-335.5722045
 20
751.76773100000003
 11
-335.5722045
 21
751.53222699999992
  0
LINE
  8
_0-0_0
  6
CONTINUOUS
 62
    7
 10
-335.5722045
 20
752.00195299999996
 11
-335.5722045
 21
751.76773100000003
  0
LINE
  8
_0-0_0
  6
CONTINUOUS
 62
    7
 10
-335.5722045
 20
752.23233000000005
 11
-335.5722045
 21
752.00195299999996
  0
LINE
  8
_0-0_0
  6
CONTINUOUS
 62
    7
 10
-335.5722045
 20
752.45629899999994
 11
-335.5722045
 21
752.23233000000005
  0
LINE
  8
_0-0_0
  6
CONTINUOUS
 62
    7
 10
-335.5722045
 20
752.67144800000005
 11
-335.5722045
 21
752.45629899999994
  0
LINE
  8
_0-0_0
  6
CONTINUOUS
 62
    7
 10
-335.5722045
 20
752.72869900000001
 11
-335.5722045
 21
752.67144800000005
  0
LINE
  8
_0-0_0
  6
CONTINUOUS
 62
    7
 10
-335.5722045
 20
749.40307600000006
 11
-335.8222045
 21
749.14999399999999
  0
LINE
  8
_0-0_0
  6
CONTINUOUS
 62
    7
 10
-335.5722045
 20
749.42770399999995
 11
-335.8222045
 21
749.16369600000007
  0
LINE
  8
_0-0_0
  6
CONTINUOUS
 62
    7
 10
-335.5722045
 20
749.40307600000006
 11
-335.8222045
 21
749.16369600000007
  0
LINE
  8
_0-0_0
  6
CONTINUOUS
 62
    7
 10
-335.5722045
 20
749.47665400000005
 11
-335.8222045
 21
749.20461999999998
  0
LINE
  8
_0-0_0
  6
CONTINUOUS
 62
    7
 10
-335.5722045
 20
749.42770399999995
 11
-335.8222045
 21
749.20461999999998
  0
LINE
  8
_0-0_0
  6
CONTINUOUS
 62
    7
 10
-335.5722045
 20
749.54943800000001
 11
-335.8222045
 21
749.27233899999999
  0
LINE
  8
_0-0_0
  6
CONTINUOUS
 62
    7
 10
-335.5722045
 20
749.47665400000005
 11
-335.8222045
 21
749.27233899999999
  0
LINE
  8
_0-0_0
  6
CONTINUOUS
 62
    7
 10
-335.5722045
 20
749.64520300000004
 11
-335.8222045
 21
749.36611900000003
  0
LINE
  8
_0-0_0
  6
CONTINUOUS
 62
    7
 10
-335.5722045
 20
749.54943800000001
 11
-335.8222045
 21
749.36611900000003
  0
LINE
  8
_0-0_0
  6
CONTINUOUS
 62
    7
 10
-335.5722045
 20
749.64520300000004
 11
-335.70214850000002
 21
749.56137100000001
  0
LINE
  8
_0-0_0
  6
CONTINUOUS
 62
    7
 10
-335.5722045
 20
749.76297
 11
-335.8222045
 21
749.48492399999998
  0
LINE
  8
_0-0_0
  6
CONTINUOUS
 62
    7
 10
-335.70214850000002
 20
749.56137100000001
 11
-335.8222045
 21
749.48492399999998
  0
LINE
  8
_0-0_0
  6
CONTINUOUS
 62
    7
 10
-335.5722045
 20
749.90139799999997
 11
-335.8222045
 21
749.62744099999998
  0
LINE
  8
_0-0_0
  6
CONTINUOUS
 62
    7
 10
-335.5722045
 20
749.76297
 11
-335.8222045
 21
749.62744099999998
  0
LINE
  8
_0-0_0
  6
CONTINUOUS
 62
    7
 10
-335.5722045
 20
750.05898999999999
 11
-335.8222045
 21
749.79211400000008
  0
LINE
  8
_0-0_0
  6
CONTINUOUS
 62
    7
 10
-335.5722045
 20
749.90139799999997
 11
-335.8222045
 21
749.79211400000008
  0
LINE
  8
_0-0_0
  6
CONTINUOUS
 62
    7
 10
-335.5722045
 20
750.23400900000001
 11
-335.8222045
 21
749.97717299999999
  0
LINE
  8
_0-0_0
  6
CONTINUOUS
 62
    7
 10
-335.5722045
 20
750.05898999999999
 11
-335.8222045
 21
749.97717299999999
  0
LINE
  8
_0-0_0
  6
CONTINUOUS
 62
    7
 10
-335.5722045
 20
750.42453
 11
-335.8222045
 21
750.18051100000002
  0
LINE
  8
_0-0_0
  6
CONTINUOUS
 62
    7
 10
-335.5722045
 20
750.23400900000001
 11
-335.8222045
 21
750.18051100000002
  0
LINE
  8
_0-0_0
  6
CONTINUOUS
 62
    7
 10
-335.5722045
 20
750.62851000000001
 11
-335.8222045
 21
750.39999399999999
  0
LINE
  8
_0-0_0
  6
CONTINUOUS
 62
    7
 10
-335.5722045
 20
750.42453
 11
-335.8222045
 21
750.39999399999999
  0
LINE
  8
_0-0_0
  6
CONTINUOUS
 62
    7
 10
-335.5722045
 20
750.843658
 11
-335.8222045
 21
750.63314800000001
  0
LINE
  8
_0-0_0
  6
CONTINUOUS
 62
    7
 10
-335.5722045
 20
750.62851000000001
 11
-335.8222045
 21
750.63314800000001
  0
LINE
  8
_0-0_0
  6
CONTINUOUS
 62
    7
 10
-335.5722045
 20
751.06762700000002
 11
-335.8222045
 21
750.87744099999998
  0
LINE
  8
_0-0_0
  6
CONTINUOUS
 62
    7
 10
-335.5722045
 20
750.843658
 11
-335.8222045
 21
750.87744099999998
  0
LINE
  8
_0-0_0
  6
CONTINUOUS
 62
    7
 10
-335.5722045
 20
751.29800399999999
 11
-335.8222045
 21
751.13018799999998
  0
LINE
  8
_0-0_0
  6
CONTINUOUS
 62
    7
 10
-335.5722045
 20
751.06762700000002
 11
-335.8222045
 21
751.13018799999998
  0
LINE
  8
_0-0_0
  6
CONTINUOUS
 62
    7
 10
-335.5722045
 20
751.53222699999992
 11
-335.8222045
 21
751.38867200000004
  0
LINE
  8
_0-0_0
  6
CONTINUOUS
 62
    7
 10
-335.5722045
 20
751.29800399999999
 11
-335.8222045
 21
751.38867200000004
  0
LINE
  8
_0-0_0
  6
CONTINUOUS
 62
    7
 10
-335.5722045
 20
751.76773100000003
 11
-335.8222045
 21
751.64999399999999
  0
LINE
  8
_0-0_0
  6
CONTINUOUS
 62
    7
 10
-335.5722045
 20
751.53222699999992
 11
-335.8222045
 21
751.64999399999999
  0
LINE
  8
_0-0_0
  6
CONTINUOUS
 62
    7
 10
-335.5722045
 20
752.00195299999996
 11
-335.8222045
 21
751.91131599999994
  0
LINE
  8
_0-0_0
  6
CONTINUOUS
 62
    7
 10
-335.5722045
 20
751.76773100000003
 11
-335.8222045
 21
751.91131599999994
  0
LINE
  8
_0-0_0
  6
CONTINUOUS
 62
    7
 10
-335.5722045
 20
752.23233000000005
 11
-335.8222045
 21
752.16976899999997
  0
LINE
  8
_0-0_0
  6
CONTINUOUS
 62
    7
 10
-335.5722045
 20
752.00195299999996
 11
-335.8222045
 21
752.16976899999997
  0
LINE
  8
_0-0_0
  6
CONTINUOUS
 62
    7
 10
-335.5722045
 20
752.45629899999994
 11
-335.8222045
 21
752.42251599999997
  0
LINE
  8
_0-0_0
  6
CONTINUOUS
 62
    7
 10
-335.5722045
 20
752.23233000000005
 11
-335.8222045
 21
752.42251599999997
  0
LINE
  8
_0-0_0
  6
CONTINUOUS
 62
    7
 10
-335.5722045
 20
752.67144800000005
 11
-335.8222045
 21
752.66680900000006
  0
LINE
  8
_0-0_0
  6
CONTINUOUS
 62
    7
 10
-335.5722045
 20
752.45629899999994
 11
-335.8222045
 21
752.66680900000006
  0
LINE
  8
_0-0_0
  6
CONTINUOUS
 62
    7
 10
-335.5722045
 20
752.87542699999995
 11
-335.5722045
 21
752.72869900000001
  0
LINE
  8
_0-0_0
  6
CONTINUOUS
 62
    7
 10
-335.5722045
 20
752.87542699999995
 11
-335.8222045
 21
752.89999399999999
  0
LINE
  8
_0-0_0
  6
CONTINUOUS
 62
    7
 10
-335.5722045
 20
752.67144800000005
 11
-335.8222045
 21
752.89999399999999
  0
LINE
  8
_0-0_0
  6
CONTINUOUS
 62
    7
 10
-335.5722045
 20
753.06594799999993
 11
-335.5722045
 21
752.87542699999995
  0
LINE
  8
_0-0_0
  6
CONTINUOUS
 62
    7
 10
-335.5722045
 20
753.24096699999996
 11
-335.5722045
 21
753.06594799999993
  0
LINE
  8
_0-0_0
  6
CONTINUOUS
 62
    7
 10
-335.5722045
 20
753.39855999999997
 11
-335.5722045
 21
753.24096699999996
  0
LINE
  8
_0-0_0
  6
CONTINUOUS
 62
    7
 10
-335.5722045
 20
753.53698699999995
 11
-335.5722045
 21
753.39855999999997
  0
LINE
  8
_0-0_0
  6
CONTINUOUS
 62
    7
 10
-335.5722045
 20
753.65475500000002
 11
-335.5722045
 21
753.53698699999995
  0
LINE
  8
_0-0_0
  6
CONTINUOUS
 62
    7
 10
-335.5722045
 20
753.75054899999998
 11
-335.5722045
 21
753.65475500000002
  0
LINE
  8
_0-0_0
  6
CONTINUOUS
 62
    7
 10
-335.5722045
 20
753.82330300000001
 11
-335.5722045
 21
753.75054899999998
  0
LINE
  8
_0-0_0
  6
CONTINUOUS
 62
    7
 10
-335.5722045
 20
753.87228400000004
 11
-335.5722045
 21
753.82330300000001
  0
LINE
  8
_0-0_0
  6
CONTINUOUS
 62
    7
 10
-335.5722045
 20
753.89999399999999
 11
-335.5722045
 21
753.87228400000004
  0
LINE
  8
_0-0_0
  6
CONTINUOUS
 62
    7
 10
-335.5722045
 20
753.89999399999999
 11
-335.5722045
 21
753.89691199999993
  0
LINE
  8
_0-0_0
  6
CONTINUOUS
 62
    7
 10
-345.3222045
 20
749.40307600000006
 11
-345.0722045
 21
749.14999399999999
  0
LINE
  8
_0-0_0
  6
CONTINUOUS
 62
    7
 10
-345.0722045
 20
749.14999399999999
 11
-335.8222045
 21
749.14999399999999
  0
LINE
  8
_0-0_0
  6
CONTINUOUS
 62
    7
 10
-345.3222045
 20
749.42770399999995
 11
-345.0722045
 21
749.16369600000007
  0
LINE
  8
_0-0_0
  6
CONTINUOUS
 62
    7
 10
-345.0722045
 20
749.16369600000007
 11
-335.8222045
 21
749.16369600000007
  0
LINE
  8
_0-0_0
  6
CONTINUOUS
 62
    7
 10
-345.3222045
 20
749.40307600000006
 11
-345.0722045
 21
749.16369600000007
  0
LINE
  8
_0-0_0
  6
CONTINUOUS
 62
    7
 10
-345.3222045
 20
749.47665400000005
 11
-345.0722045
 21
749.20461999999998
  0
LINE
  8
_0-0_0
  6
CONTINUOUS
 62
    7
 10
-345.0722045
 20
749.20461999999998
 11
-335.8222045
 21
749.20461999999998
  0
LINE
  8
_0-0_0
  6
CONTINUOUS
 62
    7
 10
-345.3222045
 20
749.42770399999995
 11
-345.0722045
 21
749.20461999999998
  0
LINE
  8
_0-0_0
  6
CONTINUOUS
 62
    7
 10
-345.3222045
 20
749.54943800000001
 11
-345.0722045
 21
749.27233899999999
  0
LINE
  8
_0-0_0
  6
CONTINUOUS
 62
    7
 10
-345.0722045
 20
749.27233899999999
 11
-335.8222045
 21
749.27233899999999
  0
LINE
  8
_0-0_0
  6
CONTINUOUS
 62
    7
 10
-345.3222045
 20
749.47665400000005
 11
-345.0722045
 21
749.27233899999999
  0
LINE
  8
_0-0_0
  6
CONTINUOUS
 62
    7
 10
-345.3222045
 20
749.64520300000004
 11
-345.0722045
 21
749.36611900000003
  0
LINE
  8
_0-0_0
  6
CONTINUOUS
 62
    7
 10
-345.0722045
 20
749.36611900000003
 11
-335.8222045
 21
749.36611900000003
  0
LINE
  8
_0-0_0
  6
CONTINUOUS
 62
    7
 10
-345.3222045
 20
749.54943800000001
 11
-345.0722045
 21
749.36611900000003
  0
LINE
  8
_0-0_0
  6
CONTINUOUS
 62
    7
 10
-345.0722045
 20
749.48492399999998
 11
-335.8222045
 21
749.48492399999998
  0
LINE
  8
_0-0_0
  6
CONTINUOUS
 62
    7
 10
-345.19223050000005
 20
749.56137100000001
 11
-345.0722045
 21
749.48492399999998
  0
LINE
  8
_0-0_0
  6
CONTINUOUS
 62
    7
 10
-345.3222045
 20
749.64520300000004
 11
-345.19223050000005
 21
749.56137100000001
  0
LINE
  8
_0-0_0
  6
CONTINUOUS
 62
    7
 10
-345.3222045
 20
749.76297
 11
-345.0722045
 21
749.48492399999998
  0
LINE
  8
_0-0_0
  6
CONTINUOUS
 62
    7
 10
-345.3222045
 20
749.90139799999997
 11
-345.0722045
 21
749.62744099999998
  0
LINE
  8
_0-0_0
  6
CONTINUOUS
 62
    7
 10
-345.0722045
 20
749.62744099999998
 11
-335.8222045
 21
749.62744099999998
  0
LINE
  8
_0-0_0
  6
CONTINUOUS
 62
    7
 10
-345.3222045
 20
749.76297
 11
-345.0722045
 21
749.62744099999998
  0
LINE
  8
_0-0_0
  6
CONTINUOUS
 62
    7
 10
-345.3222045
 20
750.05898999999999
 11
-345.0722045
 21
749.79211400000008
  0
LINE
  8
_0-0_0
  6
CONTINUOUS
 62
    7
 10
-345.0722045
 20
749.79211400000008
 11
-335.8222045
 21
749.79211400000008
  0
LINE
  8
_0-0_0
  6
CONTINUOUS
 62
    7
 10
-345.3222045
 20
749.90139799999997
 11
-345.0722045
 21
749.79211400000008
  0
LINE
  8
_0-0_0
  6
CONTINUOUS
 62
    7
 10
-345.3222045
 20
750.23400900000001
 11
-345.0722045
 21
749.97717299999999
  0
LINE
  8
_0-0_0
  6
CONTINUOUS
 62
    7
 10
-345.0722045
 20
749.97717299999999
 11
-335.8222045
 21
749.97717299999999
  0
LINE
  8
_0-0_0
  6
CONTINUOUS
 62
    7
 10
-345.3222045
 20
750.05898999999999
 11
-345.0722045
 21
749.97717299999999
  0
LINE
  8
_0-0_0
  6
CONTINUOUS
 62
    7
 10
-345.3222045
 20
750.42453
 11
-345.0722045
 21
750.18051100000002
  0
LINE
  8
_0-0_0
  6
CONTINUOUS
 62
    7
 10
-345.0722045
 20
750.18051100000002
 11
-335.8222045
 21
750.18051100000002
  0
LINE
  8
_0-0_0
  6
CONTINUOUS
 62
    7
 10
-345.3222045
 20
750.23400900000001
 11
-345.0722045
 21
750.18051100000002
  0
LINE
  8
_0-0_0
  6
CONTINUOUS
 62
    7
 10
-345.3222045
 20
750.62851000000001
 11
-345.0722045
 21
750.39999399999999
  0
LINE
  8
_0-0_0
  6
CONTINUOUS
 62
    7
 10
-345.0722045
 20
750.39999399999999
 11
-335.8222045
 21
750.39999399999999
  0
LINE
  8
_0-0_0
  6
CONTINUOUS
 62
    7
 10
-345.3222045
 20
750.62851000000001
 11
-335.5722045
 21
750.62851000000001
  0
LINE
  8
_0-0_0
  6
CONTINUOUS
 62
    7
 10
-345.3222045
 20
750.42453
 11
-345.0722045
 21
750.39999399999999
  0
LINE
  8
_0-0_0
  6
CONTINUOUS
 62
    7
 10
-345.3222045
 20
750.843658
 11
-345.0722045
 21
750.63314800000001
  0
LINE
  8
_0-0_0
  6
CONTINUOUS
 62
    7
 10
-345.0722045
 20
750.63314800000001
 11
-335.8222045
 21
750.63314800000001
  0
LINE
  8
_0-0_0
  6
CONTINUOUS
 62
    7
 10
-345.3222045
 20
750.843658
 11
-335.5722045
 21
750.843658
  0
LINE
  8
_0-0_0
  6
CONTINUOUS
 62
    7
 10
-345.3222045
 20
750.62851000000001
 11
-345.0722045
 21
750.63314800000001
  0
LINE
  8
_0-0_0
  6
CONTINUOUS
 62
    7
 10
-345.3222045
 20
751.06762700000002
 11
-345.0722045
 21
750.87744099999998
  0
LINE
  8
_0-0_0
  6
CONTINUOUS
 62
    7
 10
-345.0722045
 20
750.87744099999998
 11
-335.8222045
 21
750.87744099999998
  0
LINE
  8
_0-0_0
  6
CONTINUOUS
 62
    7
 10
-345.3222045
 20
751.06762700000002
 11
-335.5722045
 21
751.06762700000002
  0
LINE
  8
_0-0_0
  6
CONTINUOUS
 62
    7
 10
-345.3222045
 20
750.843658
 11
-345.0722045
 21
750.87744099999998
  0
LINE
  8
_0-0_0
  6
CONTINUOUS
 62
    7
 10
-345.3222045
 20
751.29800399999999
 11
-345.0722045
 21
751.13018799999998
  0
LINE
  8
_0-0_0
  6
CONTINUOUS
 62
    7
 10
-345.0722045
 20
751.13018799999998
 11
-335.8222045
 21
751.13018799999998
  0
LINE
  8
_0-0_0
  6
CONTINUOUS
 62
    7
 10
-345.3222045
 20
751.29800399999999
 11
-335.5722045
 21
751.29800399999999
  0
LINE
  8
_0-0_0
  6
CONTINUOUS
 62
    7
 10
-345.3222045
 20
751.06762700000002
 11
-345.0722045
 21
751.13018799999998
  0
LINE
  8
_0-0_0
  6
CONTINUOUS
 62
    7
 10
-345.3222045
 20
751.53222699999992
 11
-345.0722045
 21
751.38867200000004
  0
LINE
  8
_0-0_0
  6
CONTINUOUS
 62
    7
 10
-345.0722045
 20
751.38867200000004
 11
-335.8222045
 21
751.38867200000004
  0
LINE
  8
_0-0_0
  6
CONTINUOUS
 62
    7
 10
-345.3222045
 20
751.53222699999992
 11
-335.5722045
 21
751.53222699999992
  0
LINE
  8
_0-0_0
  6
CONTINUOUS
 62
    7
 10
-345.3222045
 20
751.29800399999999
 11
-345.0722045
 21
751.38867200000004
  0
LINE
  8
_0-0_0
  6
CONTINUOUS
 62
    7
 10
-345.3222045
 20
751.76773100000003
 11
-345.0722045
 21
751.64999399999999
  0
LINE
  8
_0-0_0
  6
CONTINUOUS
 62
    7
 10
-345.0722045
 20
751.64999399999999
 11
-335.8222045
 21
751.64999399999999
  0
LINE
  8
_0-0_0
  6
CONTINUOUS
 62
    7
 10
-345.3222045
 20
751.76773100000003
 11
-335.5722045
 21
751.76773100000003
  0
LINE
  8
_0-0_0
  6
CONTINUOUS
 62
    7
 10
-345.3222045
 20
751.53222699999992
 11
-345.0722045
 21
751.64999399999999
  0
LINE
  8
_0-0_0
  6
CONTINUOUS
 62
    7
 10
-345.3222045
 20
752.00195299999996
 11
-345.0722045
 21
751.91131599999994
  0
LINE
  8
_0-0_0
  6
CONTINUOUS
 62
    7
 10
-345.0722045
 20
751.91131599999994
 11
-335.8222045
 21
751.91131599999994
  0
LINE
  8
_0-0_0
  6
CONTINUOUS
 62
    7
 10
-345.3222045
 20
752.00195299999996
 11
-335.5722045
 21
752.00195299999996
  0
LINE
  8
_0-0_0
  6
CONTINUOUS
 62
    7
 10
-345.3222045
 20
751.76773100000003
 11
-345.0722045
 21
751.91131599999994
  0
LINE
  8
_0-0_0
  6
CONTINUOUS
 62
    7
 10
-345.3222045
 20
752.23233000000005
 11
-345.0722045
 21
752.16976899999997
  0
LINE
  8
_0-0_0
  6
CONTINUOUS
 62
    7
 10
-345.0722045
 20
752.16976899999997
 11
-335.8222045
 21
752.16976899999997
  0
LINE
  8
_0-0_0
  6
CONTINUOUS
 62
    7
 10
-345.3222045
 20
752.23233000000005
 11
-335.5722045
 21
752.23233000000005
  0
LINE
  8
_0-0_0
  6
CONTINUOUS
 62
    7
 10
-345.3222045
 20
752.00195299999996
 11
-345.0722045
 21
752.16976899999997
  0
LINE
  8
_0-0_0
  6
CONTINUOUS
 62
    7
 10
-345.3222045
 20
752.45629899999994
 11
-345.0722045
 21
752.42251599999997
  0
LINE
  8
_0-0_0
  6
CONTINUOUS
 62
    7
 10
-345.0722045
 20
752.42251599999997
 11
-335.8222045
 21
752.42251599999997
  0
LINE
  8
_0-0_0
  6
CONTINUOUS
 62
    7
 10
-345.3222045
 20
752.45629899999994
 11
-335.5722045
 21
752.45629899999994
  0
LINE
  8
_0-0_0
  6
CONTINUOUS
 62
    7
 10
-345.3222045
 20
752.23233000000005
 11
-345.0722045
 21
752.42251599999997
  0
LINE
  8
_0-0_0
  6
CONTINUOUS
 62
    7
 10
-345.3222045
 20
752.67144800000005
 11
-345.0722045
 21
752.66680900000006
  0
LINE
  8
_0-0_0
  6
CONTINUOUS
 62
    7
 10
-345.0722045
 20
752.66680900000006
 11
-335.8222045
 21
752.66680900000006
  0
LINE
  8
_0-0_0
  6
CONTINUOUS
 62
    7
 10
-345.3222045
 20
752.67144800000005
 11
-335.5722045
 21
752.67144800000005
  0
LINE
  8
_0-0_0
  6
CONTINUOUS
 62
    7
 10
-345.3222045
 20
752.45629899999994
 11
-345.0722045
 21
752.66680900000006
  0
LINE
  8
_0-0_0
  6
CONTINUOUS
 62
    7
 10
-345.3222045
 20
752.87542699999995
 11
-345.0722045
 21
752.89999399999999
  0
LINE
  8
_0-0_0
  6
CONTINUOUS
 62
    7
 10
-345.0722045
 20
752.89999399999999
 11
-335.8222045
 21
752.89999399999999
  0
LINE
  8
_0-0_0
  6
CONTINUOUS
 62
    7
 10
-345.3222045
 20
752.67144800000005
 11
-345.0722045
 21
752.89999399999999
  0
LINE
  8
_0-0_0
  6
CONTINUOUS
 62
    7
 10
-335.5722045
 20
753.06594799999993
 11
-335.8222045
 21
753.11944599999993
  0
LINE
  8
_0-0_0
  6
CONTINUOUS
 62
    7
 10
-335.5722045
 20
752.87542699999995
 11
-335.8222045
 21
753.11944599999993
  0
LINE
  8
_0-0_0
  6
CONTINUOUS
 62
    7
 10
-335.5722045
 20
753.24096699999996
 11
-335.8222045
 21
753.32281499999999
  0
LINE
  8
_0-0_0
  6
CONTINUOUS
 62
    7
 10
-335.5722045
 20
753.06594799999993
 11
-335.8222045
 21
753.32281499999999
  0
LINE
  8
_0-0_0
  6
CONTINUOUS
 62
    7
 10
-335.5722045
 20
753.39855999999997
 11
-335.8222045
 21
753.50784299999998
  0
LINE
  8
_0-0_0
  6
CONTINUOUS
 62
    7
 10
-335.5722045
 20
753.24096699999996
 11
-335.8222045
 21
753.50784299999998
  0
LINE
  8
_0-0_0
  6
CONTINUOUS
 62
    7
 10
-335.5722045
 20
753.53698699999995
 11
-335.8222045
 21
753.67251599999997
  0
LINE
  8
_0-0_0
  6
CONTINUOUS
 62
    7
 10
-335.5722045
 20
753.39855999999997
 11
-335.8222045
 21
753.67251599999997
  0
LINE
  8
_0-0_0
  6
CONTINUOUS
 62
    7
 10
-335.5722045
 20
753.65475500000002
 11
-335.8222045
 21
753.81506300000001
  0
LINE
  8
_0-0_0
  6
CONTINUOUS
 62
    7
 10
-335.5722045
 20
753.53698699999995
 11
-335.8222045
 21
753.81506300000001
  0
LINE
  8
_0-0_0
  6
CONTINUOUS
 62
    7
 10
-335.5722045
 20
753.75054899999998
 11
-335.8222045
 21
753.93383799999992
  0
LINE
  8
_0-0_0
  6
CONTINUOUS
 62
    7
 10
-335.5722045
 20
753.65475500000002
 11
-335.8222045
 21
753.93383799999992
  0
LINE
  8
_0-0_0
  6
CONTINUOUS
 62
    7
 10
-335.5722045
 20
753.82330300000001
 11
-335.8222045
 21
754.02761800000007
  0
LINE
  8
_0-0_0
  6
CONTINUOUS
 62
    7
 10
-335.5722045
 20
753.75054899999998
 11
-335.8222045
 21
754.02761800000007
  0
LINE
  8
_0-0_0
  6
CONTINUOUS
 62
    7
 10
-335.5722045
 20
753.87228400000004
 11
-335.8222045
 21
754.09533699999997
  0
LINE
  8
_0-0_0
  6
CONTINUOUS
 62
    7
 10
-335.5722045
 20
753.82330300000001
 11
-335.8222045
 21
754.09533699999997
  0
LINE
  8
_0-0_0
  6
CONTINUOUS
 62
    7
 10
-335.5722045
 20
753.89691199999993
 11
-335.8222045
 21
754.13629200000003
  0
LINE
  8
_0-0_0
  6
CONTINUOUS
 62
    7
 10
-335.5722045
 20
753.87228400000004
 11
-335.8222045
 21
754.13629200000003
  0
LINE
  8
_0-0_0
  6
CONTINUOUS
 62
    7
 10
-335.5722045
 20
753.89691199999993
 11
-335.8222045
 21
754.14999399999999
  0
LINE
  8
_0-0_0
  6
CONTINUOUS
 62
    7
 10
-345.5722045
 20
749.89483599999994
 11
-345.5722045
 21
749.64999399999999
  0
LINE
  8
_0-0_0
  6
CONTINUOUS
 62
    7
 10
-345.3222045
 20
752.87542699999995
 11
-345.0722045
 21
753.11944599999993
  0
LINE
  8
_0-0_0
  6
CONTINUOUS
 62
    7
 10
-345.3222045
 20
753.06594799999993
 11
-345.0722045
 21
753.11944599999993
  0
LINE
  8
_0-0_0
  6
CONTINUOUS
 62
    7
 10
-345.3222045
 20
753.06594799999993
 11
-345.0722045
 21
753.32281499999999
  0
LINE
  8
_0-0_0
  6
CONTINUOUS
 62
    7
 10
-345.3222045
 20
753.24096699999996
 11
-345.0722045
 21
753.32281499999999
  0
LINE
  8
_0-0_0
  6
CONTINUOUS
 62
    7
 10
-345.3222045
 20
753.24096699999996
 11
-345.0722045
 21
753.50784299999998
  0
LINE
  8
_0-0_0
  6
CONTINUOUS
 62
    7
 10
-345.3222045
 20
753.39855999999997
 11
-345.0722045
 21
753.50784299999998
  0
LINE
  8
_0-0_0
  6
CONTINUOUS
 62
    7
 10
-345.3222045
 20
753.39855999999997
 11
-345.0722045
 21
753.67251599999997
  0
LINE
  8
_0-0_0
  6
CONTINUOUS
 62
    7
 10
-345.3222045
 20
753.53698699999995
 11
-345.0722045
 21
753.67251599999997
  0
LINE
  8
_0-0_0
  6
CONTINUOUS
 62
    7
 10
-345.3222045
 20
753.53698699999995
 11
-345.0722045
 21
753.81506300000001
  0
LINE
  8
_0-0_0
  6
CONTINUOUS
 62
    7
 10
-345.3222045
 20
753.65475500000002
 11
-345.0722045
 21
753.81506300000001
  0
LINE
  8
_0-0_0
  6
CONTINUOUS
 62
    7
 10
-345.3222045
 20
753.65475500000002
 11
-345.0722045
 21
753.93383799999992
  0
LINE
  8
_0-0_0
  6
CONTINUOUS
 62
    7
 10
-345.3222045
 20
753.75054899999998
 11
-345.0722045
 21
753.93383799999992
  0
LINE
  8
_0-0_0
  6
CONTINUOUS
 62
    7
 10
-345.3222045
 20
753.75054899999998
 11
-345.0722045
 21
754.02761800000007
  0
LINE
  8
_0-0_0
  6
CONTINUOUS
 62
    7
 10
-345.3222045
 20
753.82330300000001
 11
-345.0722045
 21
754.02761800000007
  0
LINE
  8
_0-0_0
  6
CONTINUOUS
 62
    7
 10
-345.3222045
 20
753.82330300000001
 11
-345.0722045
 21
754.09533699999997
  0
LINE
  8
_0-0_0
  6
CONTINUOUS
 62
    7
 10
-345.3222045
 20
753.87228400000004
 11
-345.0722045
 21
754.09533699999997
  0
LINE
  8
_0-0_0
  6
CONTINUOUS
 62
    7
 10
-345.3222045
 20
753.87228400000004
 11
-345.0722045
 21
754.13629200000003
  0
LINE
  8
_0-0_0
  6
CONTINUOUS
 62
    7
 10
-345.3222045
 20
753.89691199999993
 11
-345.0722045
 21
754.13629200000003
  0
LINE
  8
_0-0_0
  6
CONTINUOUS
 62
    7
 10
-345.3222045
 20
753.89691199999993
 11
-345.0722045
 21
754.14999399999999
  0
LINE
  8
_0-0_0
  6
CONTINUOUS
 62
    7
 10
-345.5722045
 20
753.64999399999999
 11
-345.5722045
 21
749.89483599999994
  0
LINE
  8
_0-0_0
  6
CONTINUOUS
 62
    7
 10
-345.0722045
 20
753.11944599999993
 11
-335.8222045
 21
753.11944599999993
  0
LINE
  8
_0-0_0
  6
CONTINUOUS
 62
    7
 10
-345.0722045
 20
753.32281499999999
 11
-335.8222045
 21
753.32281499999999
  0
LINE
  8
_0-0_0
  6
CONTINUOUS
 62
    7
 10
-345.0722045
 20
753.50784299999998
 11
-335.8222045
 21
753.50784299999998
  0
LINE
  8
_0-0_0
  6
CONTINUOUS
 62
    7
 10
-345.0722045
 20
753.67251599999997
 11
-335.8222045
 21
753.67251599999997
  0
LINE
  8
_0-0_0
  6
CONTINUOUS
 62
    7
 10
-345.0722045
 20
753.81506300000001
 11
-335.8222045
 21
753.81506300000001
  0
LINE
  8
_0-0_0
  6
CONTINUOUS
 62
    7
 10
-345.0722045
 20
753.93383799999992
 11
-335.8222045
 21
753.93383799999992
  0
LINE
  8
_0-0_0
  6
CONTINUOUS
 62
    7
 10
-345.0722045
 20
754.02761800000007
 11
-335.8222045
 21
754.02761800000007
  0
LINE
  8
_0-0_0
  6
CONTINUOUS
 62
    7
 10
-345.0722045
 20
754.09533699999997
 11
-335.8222045
 21
754.09533699999997
  0
LINE
  8
_0-0_0
  6
CONTINUOUS
 62
    7
 10
-345.0722045
 20
754.13629200000003
 11
-335.8222045
 21
754.13629200000003
  0
LINE
  8
_0-0_0
  6
CONTINUOUS
 62
    7
 10
-345.0722045
 20
754.14999399999999
 11
-335.8222045
 21
754.14999399999999
  0
LINE
  8
_0-0_0
  6
CONTINUOUS
 62
    7
 10
-309.5722045
 20
770.5
 11
-335.5722045
 21
770.5
  0
LINE
  8
_0-0_0
  6
CONTINUOUS
 62
    7
 10
-309.5722045
 20
766
 11
-335.5722045
 21
766
  0
LINE
  8
_0-0_0
  6
CONTINUOUS
 62
    7
 10
-208.57218950000015
 20
753.89999399999999
 11
-206.11651649999999
 21
753.89999399999999
  0
LINE
  8
_0-0_0
  6
CONTINUOUS
 62
    7
 10
-206.6175995000001
 20
749.39999399999999
 11
-206.11651649999999
 21
749.39999399999999
  0
LINE
  8
_0-0_0
  6
CONTINUOUS
 62
    7
 10
-335.5722045
 20
770.5
 11
-335.8222045
 21
770.75
  0
LINE
  8
_0-0_0
  6
CONTINUOUS
 62
    7
 10
-335.5722045
 20
766
 11
-335.8222045
 21
765.75
  0
LINE
  8
_0-0_0
  6
CONTINUOUS
 62
    7
 10
-205.97218350000003
 20
753.64999399999999
 11
-206.11651649999999
 21
753.89999399999999
  0
LINE
  8
_0-0_0
  6
CONTINUOUS
 62
    7
 10
-205.97218350000003
 20
749.64999399999999
 11
-206.11651649999999
 21
749.39999399999999
  0
LINE
  8
_0-0_0
  6
CONTINUOUS
 62
    7
 10
-331.5722045
 20
754.69998199999998
 11
-330.3222045
 21
753.44998199999998
  0
LINE
  8
_0-0_0
  6
CONTINUOUS
 62
    7
 10
-331.5722045
 20
765.19998199999998
 11
-330.77218650000009
 21
765.99996899999996
  0
LINE
  8
_0-0_0
  6
CONTINUOUS
 62
    7
 10
-345.5722045
 20
770.25
 11
-345.07232650000014
 21
770.74981700000001
  0
LINE
  8
_0-0_0
  6
CONTINUOUS
 62
    7
 10
-345.5722045
 20
766.25
 11
-345.07232650000014
 21
765.75015299999995
  0
LINE
  8
_0-0_0
  6
CONTINUOUS
 62
    7
 10
-331.5722045
 20
764.94998199999998
 11
-331.9721985000001
 21
764.94998199999998
  0
LINE
  8
_0-0_0
  6
CONTINUOUS
 62
    7
 10
-331.5722045
 20
754.94998199999998
 11
-331.9721985000001
 21
754.94998199999998
  0
LINE
  8
_0-0_0
  6
CONTINUOUS
 62
    7
 10
-332.77218650000009
 20
764.48809800000004
 11
-331.9721985000001
 21
764.94998199999998
  0
LINE
  8
_0-0_0
  6
CONTINUOUS
 62
    7
 10
-332.77218650000009
 20
755.41186500000003
 11
-331.9721985000001
 21
754.94998199999998
  0
LINE
  8
_0-0_0
  6
CONTINUOUS
 62
    7
 10
-332.77218650000009
 20
763.94998199999998
 11
-390.77218650000009
 21
763.94998199999998
  0
LINE
  8
_0-0_0
  6
CONTINUOUS
 62
    7
 10
-332.77218650000009
 20
755.94998199999998
 11
-390.77218650000009
 21
755.94998199999998
  0
LINE
  8
_0-0_0
  6
CONTINUOUS
 62
    7
 10
-315.3222045
 20
749.39999399999999
 11
-335.5722045
 21
749.39999399999999
  0
LINE
  8
_0-0_0
  6
CONTINUOUS
 62
    7
 10
-335.5722045
 20
749.39999399999999
 11
-335.8222045
 21
749.14999399999999
  0
LINE
  8
_0-0_0
  6
CONTINUOUS
 62
    7
 10
-330.77218650000009
 20
753.89999399999999
 11
-335.5722045
 21
753.89999399999999
  0
LINE
  8
_0-0_0
  6
CONTINUOUS
 62
    7
 10
-335.5722045
 20
753.89999399999999
 11
-335.8222045
 21
754.14999399999999
  0
LINE
  8
_0-0_0
  6
CONTINUOUS
 62
    7
 10
-345.5722045
 20
749.64999399999999
 11
-345.07232650000014
 21
749.15014599999995
  0
LINE
  8
_0-0_0
  6
CONTINUOUS
 62
    7
 10
-345.5722045
 20
753.64999399999999
 11
-345.07232650000014
 21
754.14984099999992
  0
LINE
  8
_0-0_0
  6
CONTINUOUS
 62
    7
 10
-419.08319150000011
 20
802.14999399999999
 11
-419.08319150000011
 21
789.14999399999999
  0
LINE
  8
_0-0_0
  6
CONTINUOUS
 62
    7
 10
-418.88317849999999
 20
802.14999399999999
 11
-419.08319150000011
 21
802.14999399999999
  0
LINE
  8
_0-0_0
  6
CONTINUOUS
 62
    7
 10
-418.88317849999999
 20
789.14999399999999
 11
-419.08319150000011
 21
789.14999399999999
  0
LINE
  8
_0-0_0
  6
CONTINUOUS
 62
    7
 10
-418.88317849999999
 20
802.14999399999999
 11
-418.88317849999999
 21
820.75
  0
LINE
  8
_0-0_0
  6
CONTINUOUS
 62
    7
 10
-418.78320350000013
 20
820.75
 11
-418.88317849999999
 21
820.75
  0
LINE
  8
_0-0_0
  6
CONTINUOUS
 62
    7
 10
-418.78320350000013
 20
823.25
 11
-418.78320350000013
 21
820.75
  0
ARC
  8
_0-0_0
  6
CONTINUOUS
 62
    7
 10
-419.28320350000013
 20
823.25
 40
0.5
 50
0
 51
90.000003000000007
  0
LINE
  8
_0-0_0
  6
CONTINUOUS
 62
    7
 10
-419.28320350000013
 20
823.75
 11
-422.28320350000013
 21
823.75
  0
ARC
  8
_0-0_0
  6
CONTINUOUS
 62
    7
 10
-422.28320350000013
 20
823.25
 40
0.5
 50
90.000003000000007
 51
179.99999099999999
  0
ARC
  8
_0-0_0
  6
CONTINUOUS
 62
    7
 10
-426.78320350000013
 20
775.75
 40
0.5
 50
179.99999099999999
 51
269.99999700000001
  0
LINE
  8
_0-0_0
  6
CONTINUOUS
 62
    7
 10
-424.28320350000013
 20
775.25
 11
-426.78320350000013
 21
775.25
  0
ARC
  8
_0-0_0
  6
CONTINUOUS
 62
    7
 10
-424.28320350000013
 20
775.75
 40
0.5
 50
269.99999700000001
 51
0
  0
LINE
  8
_0-0_0
  6
CONTINUOUS
 62
    7
 10
-423.78320350000013
 20
780.75
 11
-423.78320350000013
 21
775.75
  0
ARC
  8
_0-0_0
  6
CONTINUOUS
 62
    7
 10
-423.28320350000013
 20
780.75
 40
0.5
 50
90.000003000000007
 51
179.99999099999999
  0
LINE
  8
_0-0_0
  6
CONTINUOUS
 62
    7
 10
-419.28320350000013
 20
781.25
 11
-423.28320350000013
 21
781.25
  0
ARC
  8
_0-0_0
  6
CONTINUOUS
 62
    7
 10
-419.28320350000013
 20
781.75
 40
0.5
 50
269.99999700000001
 51
0
  0
LINE
  8
_0-0_0
  6
CONTINUOUS
 62
    7
 10
-418.78320350000013
 20
784.94998199999998
 11
-418.78320350000013
 21
781.75
  0
LINE
  8
_0-0_0
  6
CONTINUOUS
 62
    7
 10
-418.88317849999999
 20
784.94998199999998
 11
-418.78320350000013
 21
784.94998199999998
  0
LINE
  8
_0-0_0
  6
CONTINUOUS
 62
    7
 10
-418.88317849999999
 20
784.94998199999998
 11
-418.88317849999999
 21
789.14999399999999
  0
LINE
  8
_0-0_0
  6
CONTINUOUS
 62
    7
 10
-419.78320350000013
 20
823.25
 11
-437.58319150000011
 21
823.25
  0
ARC
  8
_0-0_0
  6
CONTINUOUS
 62
    7
 10
-419.78320350000013
 20
822.75
 40
0.5
 50
0
 51
90.000003000000007
  0
LINE
  8
_0-0_0
  6
CONTINUOUS
 62
    7
 10
-419.28320350000013
 20
822.75
 11
-419.28320350000013
 21
782.25
  0
ARC
  8
_0-0_0
  6
CONTINUOUS
 62
    7
 10
-419.78320350000013
 20
782.25
 40
0.5
 50
269.99999700000001
 51
0
  0
LINE
  8
_0-0_0
  6
CONTINUOUS
 62
    7
 10
-423.28320350000013
 20
781.75
 11
-419.78320350000013
 21
781.75
  0
ARC
  8
_0-0_0
  6
CONTINUOUS
 62
    7
 10
-423.28320350000013
 20
780.75
 40
1
 50
90.000003000000007
 51
179.99999099999999
  0
LINE
  8
_0-0_0
  6
CONTINUOUS
 62
    7
 10
-424.28320350000013
 20
780.75
 11
-424.28320350000013
 21
776.25
  0
ARC
  8
_0-0_0
  6
CONTINUOUS
 62
    7
 10
-424.78320350000013
 20
776.25
 40
0.5
 50
269.99999700000001
 51
0
  0
LINE
  8
_0-0_0
  6
CONTINUOUS
 62
    7
 10
-441.78320350000013
 20
775.75
 11
-424.78320350000013
 21
775.75
  0
LINE
  8
_0-0_0
  6
CONTINUOUS
 62
    7
 10
-423.28320350000013
 20
823.44998199999998
 11
-423.28320350000013
 21
823.25
  0
ARC
  8
_0-0_0
  6
CONTINUOUS
 62
    7
 10
-423.58319150000011
 20
823.44998199999998
 40
0.2999999999999999
 50
0
 51
90.000003000000007
  0
LINE
  8
_0-0_0
  6
CONTINUOUS
 62
    7
 10
-423.58319150000011
 20
823.75
 11
-438.28320350000013
 21
823.75
  0
ARC
  8
_0-0_0
  6
CONTINUOUS
 62
    7
 10
-438.28320350000013
 20
823.44998199999998
 40
0.2999999999999999
 50
90.000003000000007
 51
179.99999099999999
  0
LINE
  8
_0-0_0
  6
CONTINUOUS
 62
    7
 10
-438.58319150000011
 20
823.44998199999998
 11
-438.58319150000011
 21
820.25
  0
LINE
  8
_0-0_0
  6
CONTINUOUS
 62
    7
 10
-438.58319150000011
 20
820.25
 11
-444.28320350000013
 21
820.25
  0
LINE
  8
_0-0_0
  6
CONTINUOUS
 62
    7
 10
-444.28320350000013
 20
820.25
 11
-445.08319150000011
 21
819.44998199999998
  0
ARC
  8
_0-0_0
  6
CONTINUOUS
 62
    7
 10
-437.58319150000011
 20
822.75
 40
0.5
 50
90.000003000000007
 51
179.99999099999999
  0
LINE
  8
_0-0_0
  6
CONTINUOUS
 62
    7
 10
-438.08319150000011
 20
822.75
 11
-438.08319150000011
 21
819.94998199999998
  0
ARC
  8
_0-0_0
  6
CONTINUOUS
 62
    7
 10
-438.58319150000011
 20
819.94998199999998
 40
0.5
 50
269.99999700000001
 51
0
  0
LINE
  8
_0-0_0
  6
CONTINUOUS
 62
    7
 10
-438.58319150000011
 20
819.44998199999998
 11
-446.78320350000013
 21
819.44998199999998
  0
ARC
  8
_0-0_0
  6
CONTINUOUS
 62
    7
 10
-446.78320350000013
 20
818.94998199999998
 40
0.5
 50
90.000003000000007
 51
179.99999099999999
  0
LINE
  8
_0-0_0
  6
CONTINUOUS
 62
    7
 10
-447.28320350000013
 20
782.25
 11
-447.28320350000013
 21
818.94998199999998
  0
ARC
  8
_0-0_0
  6
CONTINUOUS
 62
    7
 10
-446.78320350000013
 20
782.25
 40
0.5
 50
179.99999099999999
 51
269.99999700000001
  0
LINE
  8
_0-0_0
  6
CONTINUOUS
 62
    7
 10
-446.78320350000013
 20
781.75
 11
-443.28320350000013
 21
781.75
  0
ARC
  8
_0-0_0
  6
CONTINUOUS
 62
    7
 10
-443.28320350000013
 20
780.75
 40
1
 50
0
 51
90.000003000000007
  0
LINE
  8
_0-0_0
  6
CONTINUOUS
 62
    7
 10
-442.28320350000013
 20
776.25
 11
-442.28320350000013
 21
780.75
  0
ARC
  8
_0-0_0
  6
CONTINUOUS
 62
    7
 10
-441.78320350000013
 20
776.25
 40
0.5
 50
179.99999099999999
 51
269.99999700000001
  0
CIRCLE
  8
_0-0_0
  6
CONTINUOUS
 62
    7
 10
-433.28320350000013
 20
784.75
 40
2.0670000000000002
  0
LINE
  8
_0-0_0
  6
CONTINUOUS
 62
    7
 10
-445.28320350000013
 20
819.75
 11
-445.28320350000013
 21
819.44998199999998
  0
LINE
  8
_0-0_0
  6
CONTINUOUS
 62
    7
 10
-445.28320350000013
 20
819.75
 11
-447.28320350000013
 21
819.75
  0
ARC
  8
_0-0_0
  6
CONTINUOUS
 62
    7
 10
-447.28320350000013
 20
819.25
 40
0.5
 50
90.000003000000007
 51
179.99999099999999
  0
LINE
  8
_0-0_0
  6
CONTINUOUS
 62
    7
 10
-447.78320350000013
 20
819.25
 11
-447.78320350000013
 21
781.75
  0
ARC
  8
_0-0_0
  6
CONTINUOUS
 62
    7
 10
-447.28320350000013
 20
781.75
 40
0.5
 50
179.99999099999999
 51
269.99999700000001
  0
LINE
  8
_0-0_0
  6
CONTINUOUS
 62
    7
 10
-443.28320350000013
 20
781.25
 11
-447.28320350000013
 21
781.25
  0
ARC
  8
_0-0_0
  6
CONTINUOUS
 62
    7
 10
-443.28320350000013
 20
780.75
 40
0.5
 50
0
 51
90.000003000000007
  0
LINE
  8
_0-0_0
  6
CONTINUOUS
 62
    7
 10
-442.78320350000013
 20
775.75
 11
-442.78320350000013
 21
780.75
  0
ARC
  8
_0-0_0
  6
CONTINUOUS
 62
    7
 10
-442.28320350000013
 20
775.75
 40
0.5
 50
179.99999099999999
 51
269.99999700000001
  0
LINE
  8
_0-0_0
  6
CONTINUOUS
 62
    7
 10
-442.28320350000013
 20
775.25
 11
-439.78320350000013
 21
775.25
  0
ARC
  8
_0-0_0
  6
CONTINUOUS
 62
    7
 10
-439.78320350000013
 20
775.75
 40
0.5
 50
269.99999700000001
 51
0
  0
LINE
  8
_0-0_0
  6
CONTINUOUS
 62
    7
 10
-423.78320350000013
 20
775.75
 11
-423.68319750000001
 21
775.75
  0
LINE
  8
_0-0_0
  6
CONTINUOUS
 62
    7
 10
-423.68319750000001
 20
775.75
 11
-423.68319750000001
 21
776.25
  0
LINE
  8
_0-0_0
  6
CONTINUOUS
 62
    7
 10
-423.68319750000001
 20
780.25
 11
-423.68319750000001
 21
776.25
  0
LINE
  8
_0-0_0
  6
CONTINUOUS
 62
    7
 10
-423.78320350000013
 20
780.75
 11
-423.68319750000001
 21
780.75
  0
LINE
  8
_0-0_0
  6
CONTINUOUS
 62
    7
 10
-423.68319750000001
 20
780.25
 11
-423.68319750000001
 21
780.75
  0
LINE
  8
_0-0_0
  6
CONTINUOUS
 62
    7
 10
-423.58319150000011
 20
776.25
 11
-423.58319150000011
 21
776.38034100000004
  0
LINE
  8
_0-0_0
  6
CONTINUOUS
 62
    7
 10
-423.58319150000011
 20
779.88034100000004
 11
-423.58319150000011
 21
776.38034100000004
  0
LINE
  8
_0-0_0
  6
CONTINUOUS
 62
    7
 10
-423.68319750000001
 20
780.14999399999999
 11
-423.58319150000011
 21
780.14999399999999
  0
LINE
  8
_0-0_0
  6
CONTINUOUS
 62
    7
 10
-423.58319150000011
 20
779.88034100000004
 11
-423.58319150000011
 21
780.14999399999999
  0
LINE
  8
_0-0_0
  6
CONTINUOUS
 62
    7
 10
-423.68319750000001
 20
776.25
 11
-423.58319150000011
 21
776.25
  0
LINE
  8
_0-0_0
  6
CONTINUOUS
 62
    7
 10
-423.68319750000001
 20
776.25
 11
-423.58319150000011
 21
776.25
  0
LINE
  8
_0-0_0
  6
CONTINUOUS
 62
    7
 10
-442.08319150000011
 20
773.25
 11
-437.88317849999999
 21
773.25
  0
LINE
  8
_0-0_0
  6
CONTINUOUS
 62
    7
 10
-426.28320350000013
 20
773.25
 11
-428.68319750000001
 21
773.25
  0
LINE
  8
_0-0_0
  6
CONTINUOUS
 62
    7
 10
-426.28320350000013
 20
773.25
 11
-425.08319150000011
 21
773.25
  0
ARC
  8
_0-0_0
  6
CONTINUOUS
 62
    7
 10
-425.08319150000011
 20
772.75
 40
0.5
 50
0
 51
90.000003000000007
  0
ARC
  8
_0-0_0
  6
CONTINUOUS
 62
    7
 10
-426.28320350000013
 20
772.75
 40
0.5
 50
90.000003000000007
 51
179.99999099999999
  0
ARC
  8
_0-0_0
  6
CONTINUOUS
 62
    7
 10
-428.68319750000001
 20
773.75
 40
0.5
 50
179.99999099999999
 51
269.99999700000001
  0
ARC
  8
_0-0_0
  6
CONTINUOUS
 62
    7
 10
-437.88317849999999
 20
773.75
 40
0.5
 50
269.99999700000001
 51
0
  0
ARC
  8
_0-0_0
  6
CONTINUOUS
 62
    7
 10
-442.08319150000011
 20
772.75
 40
0.5
 50
90.000003000000007
 51
179.99999099999999
  0
LINE
  8
_0-0_0
  6
CONTINUOUS
 62
    7
 10
-441.08319150000011
 20
773.75
 11
-441.08319150000011
 21
773.25
  0
ARC
  8
_0-0_0
  6
CONTINUOUS
 62
    7
 10
-440.58319150000011
 20
773.75
 40
0.5
 50
90.000003000000007
 51
179.99999099999999
  0
LINE
  8
_0-0_0
  6
CONTINUOUS
 62
    7
 10
-439.08319150000011
 20
774.25
 11
-440.58319150000011
 21
774.25
  0
ARC
  8
_0-0_0
  6
CONTINUOUS
 62
    7
 10
-439.08319150000011
 20
775.25
 40
1
 50
269.99999700000001
 51
0
  0
LINE
  8
_0-0_0
  6
CONTINUOUS
 62
    7
 10
-438.08319150000011
 20
775.75
 11
-438.08319150000011
 21
775.25
  0
LINE
  8
_0-0_0
  6
CONTINUOUS
 62
    7
 10
-437.58319150000011
 20
775.75
 11
-437.58319150000011
 21
774.75
  0
ARC
  8
_0-0_0
  6
CONTINUOUS
 62
    7
 10
-439.08319150000011
 20
774.75
 40
1.5
 50
269.99999700000001
 51
0
  0
ARC
  8
_0-0_0
  6
CONTINUOUS
 62
    7
 10
-427.48318450000011
 20
774.75
 40
1.5
 50
179.99999099999999
 51
269.99999700000001
  0
LINE
  8
_0-0_0
  6
CONTINUOUS
 62
    7
 10
-425.48318450000011
 20
773.75
 11
-425.48318450000011
 21
773.25
  0
ARC
  8
_0-0_0
  6
CONTINUOUS
 62
    7
 10
-425.98318450000011
 20
773.75
 40
0.5
 50
0
 51
90.000003000000007
  0
LINE
  8
_0-0_0
  6
CONTINUOUS
 62
    7
 10
-427.48318450000011
 20
774.25
 11
-425.98318450000011
 21
774.25
  0
ARC
  8
_0-0_0
  6
CONTINUOUS
 62
    7
 10
-427.48318450000011
 20
775.25
 40
1
 50
179.99999099999999
 51
269.99999700000001
  0
LINE
  8
_0-0_0
  6
CONTINUOUS
 62
    7
 10
-428.48318450000011
 20
775.75
 11
-428.48318450000011
 21
775.25
  0
LINE
  8
_0-0_0
  6
CONTINUOUS
 62
    7
 10
-428.98318450000011
 20
775.75
 11
-428.98318450000011
 21
774.75
  0
LINE
  8
_0-0_0
  6
CONTINUOUS
 62
    7
 10
-424.58319150000011
 20
746.25
 11
-424.58319150000011
 21
747.14999399999999
  0
LINE
  8
_0-0_0
  6
CONTINUOUS
 62
    7
 10
-424.58319150000011
 20
747.14999399999999
 11
-424.58319150000011
 21
749.64999399999999
  0
LINE
  8
_0-0_0
  6
CONTINUOUS
 62
    7
 10
-424.58319150000011
 20
749.64999399999999
 11
-424.58319150000011
 21
770.25
  0
LINE
  8
_0-0_0
  6
CONTINUOUS
 62
    7
 10
-424.58319150000011
 20
770.25
 11
-424.58319150000011
 21
772.75
  0
LINE
  8
_0-0_0
  6
CONTINUOUS
 62
    7
 10
-426.78320350000013
 20
772.75
 11
-426.78320350000013
 21
771.50497399999995
  0
LINE
  8
_0-0_0
  6
CONTINUOUS
 62
    7
 10
-429.18319750000001
 20
773.75
 11
-429.18319750000001
 21
775.54998799999998
  0
ARC
  8
_0-0_0
  6
CONTINUOUS
 62
    7
 10
-429.68319750000001
 20
775.54998799999998
 40
0.5
 50
0
 51
23.579369
  0
LINE
  8
_0-0_0
  6
CONTINUOUS
 62
    7
 10
-437.38317849999999
 20
773.75
 11
-437.38317849999999
 21
775.54998799999998
  0
ARC
  8
_0-0_0
  6
CONTINUOUS
 62
    7
 10
-436.88317849999999
 20
775.54998799999998
 40
0.5
 50
156.420635
 51
179.99999099999999
  0
LINE
  8
_0-0_0
  6
CONTINUOUS
 62
    7
 10
-442.58319150000011
 20
746.25
 11
-442.58319150000011
 21
756.44998199999998
  0
LINE
  8
_0-0_0
  6
CONTINUOUS
 62
    7
 10
-442.58319150000011
 20
756.44998199999998
 11
-442.58319150000011
 21
757.44998199999998
  0
LINE
  8
_0-0_0
  6
CONTINUOUS
 62
    7
 10
-442.58319150000011
 20
757.44998199999998
 11
-442.58319150000011
 21
762.44998199999998
  0
LINE
  8
_0-0_0
  6
CONTINUOUS
 62
    7
 10
-442.58319150000011
 20
762.44998199999998
 11
-442.58319150000011
 21
763.44998199999998
  0
LINE
  8
_0-0_0
  6
CONTINUOUS
 62
    7
 10
-442.58319150000011
 20
772.75
 11
-442.58319150000011
 21
763.44998199999998
  0
LINE
  8
_0-0_0
  6
CONTINUOUS
 62
    7
 10
-423.78320350000013
 20
771.75
 11
-424.58319150000011
 21
771.75
  0
LINE
  8
_0-0_0
  6
CONTINUOUS
 62
    7
 10
-423.78320350000013
 20
772.54998799999998
 11
-424.58319150000011
 21
772.54998799999998
  0
LINE
  8
_0-0_0
  6
CONTINUOUS
 62
    7
 10
-423.78320350000013
 20
771.54998799999998
 11
-423.78320350000013
 21
772.54998799999998
  0
LINE
  8
_0-0_0
  6
CONTINUOUS
 62
    7
 10
-423.78320350000013
 20
752.94998199999998
 11
-424.58319150000011
 21
752.94998199999998
  0
LINE
  8
_0-0_0
  6
CONTINUOUS
 62
    7
 10
-423.78320350000013
 20
752.94998199999998
 11
-423.78320350000013
 21
755.94998199999998
  0
LINE
  8
_0-0_0
  6
CONTINUOUS
 62
    7
 10
-423.78320350000013
 20
768.18768299999999
 11
-423.78320350000013
 21
755.94998199999998
  0
LINE
  8
_0-0_0
  6
CONTINUOUS
 62
    7
 10
-423.78320350000013
 20
768.18768299999999
 11
-423.78320350000013
 21
769.15045199999997
  0
LINE
  8
_0-0_0
  6
CONTINUOUS
 62
    7
 10
-424.58319150000011
 20
769.15045199999997
 11
-424.58319150000011
 21
771.75
  0
ARC
  8
_0-0_0
  6
CONTINUOUS
 62
    7
 10
-430.19812049999996
 20
768.43203700000004
 40
5.7120379999999997
 50
18.558475999999999
 51
26.433648000000002
  0
ARC
  8
_0-0_0
  6
CONTINUOUS
 62
    7
 10
-424.78320350000013
 20
770.25
 40
0.2
 50
269.99999700000001
 51
0
  0
ARC
  8
_0-0_0
  6
CONTINUOUS
 62
    7
 10
-424.78320350000013
 20
749.64999399999999
 40
0.2
 50
0
 51
90.000003000000007
  0
ARC
  8
_0-0_0
  6
CONTINUOUS
 62
    7
 10
-430.19799850000004
 20
751.46801800000003
 40
5.711964
 50
333.565022
 51
341.44031000000001
  0
ARC
  8
_0-0_0
  6
CONTINUOUS
 62
    7
 10
-425.08319150000011
 20
747.14999399999999
 40
0.5
 50
269.99999700000001
 51
0
  0
LINE
  8
_0-0_0
  6
CONTINUOUS
 62
    7
 10
-425.08319150000011
 20
746.25
 11
-424.58319150000011
 21
746.25
  0
LINE
  8
_0-0_0
  6
CONTINUOUS
 62
    7
 10
-424.58319150000011
 20
746.25
 11
-425.08319150000011
 21
745.75
  0
ARC
  8
_0-0_0
  6
CONTINUOUS
 62
    7
 10
-426.78320350000013
 20
768.75
 40
2.2999999999999998
 50
34.417387999999995
 51
79.713437000000013
  0
LINE
  8
_0-0_0
  6
CONTINUOUS
 62
    7
 10
-424.84451350000018
 20
770.04998799999998
 11
-424.88583349999999
 21
770.04998799999998
  0
LINE
  8
_0-0_0
  6
CONTINUOUS
 62
    7
 10
-424.84451350000018
 20
770.04998799999998
 11
-424.83496149999996
 21
770.05102499999998
  0
LINE
  8
_0-0_0
  6
CONTINUOUS
 62
    7
 10
-424.83496149999996
 20
770.05102499999998
 11
-424.8254394999999
 21
770.05419899999993
  0
LINE
  8
_0-0_0
  6
CONTINUOUS
 62
    7
 10
-424.8254394999999
 20
770.05419899999993
 11
-424.81619249999994
 21
770.05960099999993
  0
LINE
  8
_0-0_0
  6
CONTINUOUS
 62
    7
 10
-424.81619249999994
 20
770.05960099999993
 11
-424.80740349999996
 21
770.06710799999996
  0
LINE
  8
_0-0_0
  6
CONTINUOUS
 62
    7
 10
-424.80740349999996
 20
770.06710799999996
 11
-424.79199250000011
 21
770.08776899999998
  0
LINE
  8
_0-0_0
  6
CONTINUOUS
 62
    7
 10
-424.79199250000011
 20
770.08776899999998
 11
-424.78021250000006
 21
770.11502100000007
  0
LINE
  8
_0-0_0
  6
CONTINUOUS
 62
    7
 10
-424.78021250000006
 20
770.11502100000007
 11
-424.77304049999998
 21
770.147156
  0
LINE
  8
_0-0_0
  6
CONTINUOUS
 62
    7
 10
-424.77304049999998
 20
770.147156
 11
-424.77114849999998
 21
770.18221999999992
  0
LINE
  8
_0-0_0
  6
CONTINUOUS
 62
    7
 10
-424.77114849999998
 20
770.18221999999992
 11
-424.77499450000005
 21
770.21838400000001
  0
LINE
  8
_0-0_0
  6
CONTINUOUS
 62
    7
 10
-424.77499450000005
 20
770.21838400000001
 11
-424.78320350000013
 21
770.25
  0
ARC
  8
_0-0_0
  6
CONTINUOUS
 62
    7
 10
-426.28320350000013
 20
771.50497399999995
 40
0.5
 50
179.99999099999999
 51
259.71343899999994
  0
LINE
  8
_0-0_0
  6
CONTINUOUS
 62
    7
 10
-441.78320350000013
 20
768.75
 11
-441.78320350000013
 21
755.14999399999999
  0
LINE
  8
_0-0_0
  6
CONTINUOUS
 62
    7
 10
-441.78320350000013
 20
754.64999399999999
 11
-441.78320350000013
 21
755.14999399999999
  0
LINE
  8
_0-0_0
  6
CONTINUOUS
 62
    7
 10
-441.78320350000013
 20
751.64999399999999
 11
-441.78320350000013
 21
754.64999399999999
  0
LINE
  8
_0-0_0
  6
CONTINUOUS
 62
    7
 10
-441.78320350000013
 20
751.14999399999999
 11
-441.78320350000013
 21
751.64999399999999
  0
ARC
  8
_0-0_0
  6
CONTINUOUS
 62
    7
 10
-439.78320350000013
 20
768.75
 40
2
 50
93.840255999999997
 51
179.99999099999999
  0
LINE
  8
_0-0_0
  6
CONTINUOUS
 62
    7
 10
-439.78320350000013
 20
770.75
 11
-430.78320350000013
 21
770.75
  0
LINE
  8
_0-0_0
  6
CONTINUOUS
 62
    7
 10
-426.78320350000013
 20
770.75
 11
-427.28320350000013
 21
770.75
  0
LINE
  8
_0-0_0
  6
CONTINUOUS
 62
    7
 10
-427.28320350000013
 20
770.75
 11
-430.28320350000013
 21
770.75
  0
LINE
  8
_0-0_0
  6
CONTINUOUS
 62
    7
 10
-430.78320350000013
 20
770.75
 11
-430.28320350000013
 21
770.75
  0
ARC
  8
_0-0_0
  6
CONTINUOUS
 62
    7
 10
-426.78320350000013
 20
768.75
 40
2
 50
0
 51
90.000003000000007
  0
LINE
  8
_0-0_0
  6
CONTINUOUS
 62
    7
 10
-442.78320350000013
 20
771.75
 11
-442.58319150000011
 21
771.75
  0
LINE
  8
_0-0_0
  6
CONTINUOUS
 62
    7
 10
-442.78320350000013
 20
772.54998799999998
 11
-442.58319150000011
 21
772.54998799999998
  0
LINE
  8
_0-0_0
  6
CONTINUOUS
 62
    7
 10
-442.78320350000013
 20
772.54998799999998
 11
-442.78320350000013
 21
771.75012199999992
  0
LINE
  8
_0-0_0
  6
CONTINUOUS
 62
    7
 10
-442.78320350000013
 20
752.94998199999998
 11
-442.58319150000011
 21
752.94998199999998
  0
LINE
  8
_0-0_0
  6
CONTINUOUS
 62
    7
 10
-442.78320350000013
 20
755.94998199999998
 11
-442.78320350000013
 21
752.94998199999998
  0
LINE
  8
_0-0_0
  6
CONTINUOUS
 62
    7
 10
-442.78320350000013
 20
768.18768299999999
 11
-442.78320350000013
 21
755.94998199999998
  0
LINE
  8
_0-0_0
  6
CONTINUOUS
 62
    7
 10
-442.78320350000013
 20
769.15045199999997
 11
-442.78320350000013
 21
768.18768299999999
  0
ARC
  8
_0-0_0
  6
CONTINUOUS
 62
    7
 10
-442.08319150000011
 20
762.44998199999998
 40
0.5
 50
90.000003000000007
 51
179.99999099999999
  0
ARC
  8
_0-0_0
  6
CONTINUOUS
 62
    7
 10
-442.08319150000011
 20
757.44998199999998
 40
0.5
 50
179.99999099999999
 51
269.99999700000001
  0
LINE
  8
_0-0_0
  6
CONTINUOUS
 62
    7
 10
-442.58319150000011
 20
746.25
 11
-442.08319150000011
 21
746.25
  0
LINE
  8
_0-0_0
  6
CONTINUOUS
 62
    7
 10
-442.58319150000011
 20
746.25
 11
-442.08319150000011
 21
745.75
  0
LINE
  8
_0-0_0
  6
CONTINUOUS
 62
    7
 10
-424.58319150000011
 20
752.95001200000002
 11
-424.58319150000011
 21
751.79998799999998
  0
ARC
  8
_0-0_0
  6
CONTINUOUS
 62
    7
 10
-426.98318450000011
 20
751.79998799999998
 40
2.3999999999999999
 50
359.58604600000001
 51
0.0000099999999787
  0
LINE
  8
_0-0_0
  6
CONTINUOUS
 62
    7
 10
-423.78320350000013
 20
769.15045199999997
 11
-423.78320350000013
 21
771.75
  0
LINE
  8
_0-0_0
  6
CONTINUOUS
 62
    7
 10
-424.78320350000013
 20
770.04998799999998
 11
-424.84451350000018
 21
770.04998799999998
  0
LINE
  8
_0-0_0
  6
CONTINUOUS
 62
    7
 10
-424.88583349999999
 20
770.04998799999998
 11
-424.88803150000012
 21
770.04998799999998
  0
LINE
  8
_0-0_0
  6
CONTINUOUS
 62
    7
 10
-425.08319150000011
 20
746.25
 11
-442.08319150000011
 21
746.25
  0
LINE
  8
_0-0_0
  6
CONTINUOUS
 62
    7
 10
-425.01971449999996
 20
750.04998799999998
 11
-424.98278849999997
 21
749.97976700000004
  0
LINE
  8
_0-0_0
  6
CONTINUOUS
 62
    7
 10
-424.98278849999997
 20
749.97976700000004
 11
-424.96319549999998
 21
749.94528200000002
  0
LINE
  8
_0-0_0
  6
CONTINUOUS
 62
    7
 10
-424.96319549999998
 20
749.94528200000002
 11
-424.93710349999992
 21
749.90344200000004
  0
LINE
  8
_0-0_0
  6
CONTINUOUS
 62
    7
 10
-424.93710349999992
 20
749.90344200000004
 11
-424.92379750000009
 21
749.88439900000003
  0
LINE
  8
_0-0_0
  6
CONTINUOUS
 62
    7
 10
-424.92379750000009
 20
749.88439900000003
 11
-424.90542649999998
 21
749.86200000000008
  0
LINE
  8
_0-0_0
  6
CONTINUOUS
 62
    7
 10
-424.90542649999998
 20
749.86200000000008
 11
-424.89263950000009
 21
749.85137899999995
  0
LINE
  8
_0-0_0
  6
CONTINUOUS
 62
    7
 10
-424.89263950000009
 20
749.85137899999995
 11
-424.88803150000012
 21
749.84997599999997
  0
LINE
  8
_0-0_0
  6
CONTINUOUS
 62
    7
 10
-424.88583349999999
 20
749.84997599999997
 11
-424.88803150000012
 21
749.84997599999997
  0
LINE
  8
_0-0_0
  6
CONTINUOUS
 62
    7
 10
-425.01971449999996
 20
769.84997599999997
 11
-424.98278849999997
 21
769.92022700000007
  0
LINE
  8
_0-0_0
  6
CONTINUOUS
 62
    7
 10
-424.98278849999997
 20
769.92022700000007
 11
-424.96319549999998
 21
769.95468099999994
  0
LINE
  8
_0-0_0
  6
CONTINUOUS
 62
    7
 10
-424.96319549999998
 20
769.95468099999994
 11
-424.93710349999992
 21
769.99652100000003
  0
LINE
  8
_0-0_0
  6
CONTINUOUS
 62
    7
 10
-424.93710349999992
 20
769.99652100000003
 11
-424.92379750000009
 21
770.01556400000004
  0
LINE
  8
_0-0_0
  6
CONTINUOUS
 62
    7
 10
-424.92379750000009
 20
770.01556400000004
 11
-424.90542649999998
 21
770.03796399999999
  0
LINE
  8
_0-0_0
  6
CONTINUOUS
 62
    7
 10
-424.90542649999998
 20
770.03796399999999
 11
-424.89263950000009
 21
770.04858400000001
  0
LINE
  8
_0-0_0
  6
CONTINUOUS
 62
    7
 10
-424.89263950000009
 20
770.04858400000001
 11
-424.88803150000012
 21
770.04998799999998
  0
LINE
  8
_0-0_0
  6
CONTINUOUS
 62
    7
 10
-424.88583349999999
 20
749.84997599999997
 11
-424.84451350000018
 21
749.84997599999997
  0
LINE
  8
_0-0_0
  6
CONTINUOUS
 62
    7
 10
-424.78320350000013
 20
749.84997599999997
 11
-424.84451350000018
 21
749.84997599999997
  0
LINE
  8
_0-0_0
  6
CONTINUOUS
 62
    7
 10
-424.84451350000018
 20
749.84997599999997
 11
-424.83493050000016
 21
749.84893799999998
  0
LINE
  8
_0-0_0
  6
CONTINUOUS
 62
    7
 10
-424.83493050000016
 20
749.84893799999998
 11
-424.8254394999999
 21
749.84576399999992
  0
LINE
  8
_0-0_0
  6
CONTINUOUS
 62
    7
 10
-424.8254394999999
 20
749.84576399999992
 11
-424.81619249999994
 21
749.84036300000002
  0
LINE
  8
_0-0_0
  6
CONTINUOUS
 62
    7
 10
-424.81619249999994
 20
749.84036300000002
 11
-424.80740349999996
 21
749.832855
  0
LINE
  8
_0-0_0
  6
CONTINUOUS
 62
    7
 10
-424.80740349999996
 20
749.832855
 11
-424.79199250000011
 21
749.81222500000001
  0
LINE
  8
_0-0_0
  6
CONTINUOUS
 62
    7
 10
-424.79199250000011
 20
749.81222500000001
 11
-424.78021250000006
 21
749.784943
  0
LINE
  8
_0-0_0
  6
CONTINUOUS
 62
    7
 10
-424.78021250000006
 20
749.784943
 11
-424.77304049999998
 21
749.75280799999996
  0
LINE
  8
_0-0_0
  6
CONTINUOUS
 62
    7
 10
-424.77304049999998
 20
749.75280799999996
 11
-424.77114849999998
 21
749.71774299999993
  0
LINE
  8
_0-0_0
  6
CONTINUOUS
 62
    7
 10
-424.77114849999998
 20
749.71774299999993
 11
-424.77499450000005
 21
749.68157999999994
  0
LINE
  8
_0-0_0
  6
CONTINUOUS
 62
    7
 10
-424.77499450000005
 20
749.68157999999994
 11
-424.78320350000013
 21
749.64999399999999
  0
ARC
  8
_0-0_0
  6
CONTINUOUS
 62
    7
 10
-426.78320350000013
 20
751.14999399999999
 40
2.2999999999999998
 50
280.28656300000006
 51
325.58260500000006
  0
LINE
  8
_0-0_0
  6
CONTINUOUS
 62
    7
 10
-425.08319150000011
 20
746.64999399999999
 11
-426.28320350000013
 21
746.64999399999999
  0
LINE
  8
_0-0_0
  6
CONTINUOUS
 62
    7
 10
-425.08319150000011
 20
745.75
 11
-442.08319150000011
 21
745.75
  0
LINE
  8
_0-0_0
  6
CONTINUOUS
 62
    7
 10
-441.78320350000013
 20
762.94998199999998
 11
-442.08319150000011
 21
762.94998199999998
  0
ARC
  8
_0-0_0
  6
CONTINUOUS
 62
    7
 10
-441.28320350000013
 20
755.14999399999999
 40
0.5
 50
179.99999099999999
 51
269.99999700000001
  0
CIRCLE
  8
_0-0_0
  6
CONTINUOUS
 62
    7
 10
-439.28320350000013
 20
751.64999399999999
 40
2.5
  0
LINE
  8
_0-0_0
  6
CONTINUOUS
 62
    7
 10
-436.28320350000013
 20
749.14999399999999
 11
-439.28320350000013
 21
749.14999399999999
  0
LINE
  8
_0-0_0
  6
CONTINUOUS
 62
    7
 10
-435.78320350000013
 20
749.14999399999999
 11
-436.28320350000013
 21
749.14999399999999
  0
ARC
  8
_0-0_0
  6
CONTINUOUS
 62
    7
 10
-439.78320350000013
 20
751.14999399999999
 40
2
 50
179.99999099999999
 51
269.99999700000001
  0
LINE
  8
_0-0_0
  6
CONTINUOUS
 62
    7
 10
-439.28320350000013
 20
749.14999399999999
 11
-439.78320350000013
 21
749.14999399999999
  0
LINE
  8
_0-0_0
  6
CONTINUOUS
 62
    7
 10
-439.78320350000013
 20
770.64733899999999
 11
-439.79907249999997
 21
770.67459099999996
  0
LINE
  8
_0-0_0
  6
CONTINUOUS
 62
    7
 10
-439.79907249999997
 20
770.67459099999996
 11
-439.81491150000011
 21
770.69757099999993
  0
LINE
  8
_0-0_0
  6
CONTINUOUS
 62
    7
 10
-439.81491150000011
 20
770.69757099999993
 11
-439.82888850000018
 21
770.71432499999992
  0
LINE
  8
_0-0_0
  6
CONTINUOUS
 62
    7
 10
-439.82888850000018
 20
770.71432499999992
 11
-439.84280450000006
 21
770.72766100000001
  0
LINE
  8
_0-0_0
  6
CONTINUOUS
 62
    7
 10
-439.84280450000006
 20
770.72766100000001
 11
-439.85501150000005
 21
770.73660300000006
  0
LINE
  8
_0-0_0
  6
CONTINUOUS
 62
    7
 10
-439.85501150000005
 20
770.73660300000006
 11
-439.86712650000004
 21
770.74279799999999
  0
LINE
  8
_0-0_0
  6
CONTINUOUS
 62
    7
 10
-439.86712650000004
 20
770.74279799999999
 11
-439.87799050000012
 21
770.74609400000008
  0
LINE
  8
_0-0_0
  6
CONTINUOUS
 62
    7
 10
-439.87799050000012
 20
770.74609400000008
 11
-439.8887635000001
 21
770.74713100000008
  0
LINE
  8
_0-0_0
  6
CONTINUOUS
 62
    7
 10
-439.8887635000001
 20
770.74713100000008
 11
-439.89120449999996
 21
770.74707000000001
  0
LINE
  8
_0-0_0
  6
CONTINUOUS
 62
    7
 10
-424.78320350000013
 20
768.25
 11
-424.78320350000013
 21
768.75
  0
CIRCLE
  8
_0-0_0
  6
CONTINUOUS
 62
    7
 10
-427.28320350000013
 20
768.25
 40
2.5
  0
LINE
  8
_0-0_0
  6
CONTINUOUS
 62
    7
 10
-424.78320350000013
 20
765.25
 11
-424.78320350000013
 21
764.75
  0
LINE
  8
_0-0_0
  6
CONTINUOUS
 62
    7
 10
-424.78320350000013
 20
765.25
 11
-424.78320350000013
 21
768.25
  0
ARC
  8
_0-0_0
  6
CONTINUOUS
 62
    7
 10
-430.78320350000013
 20
770.25
 40
0.5
 50
0
 51
90.000003000000007
  0
LINE
  8
_0-0_0
  6
CONTINUOUS
 62
    7
 10
-424.78320350000013
 20
751.14999399999999
 11
-424.78320350000013
 21
764.75
  0
LINE
  8
_0-0_0
  6
CONTINUOUS
 62
    7
 10
-442.78320350000013
 20
771.75
 11
-442.78320350000013
 21
769.15045199999997
  0
LINE
  8
_0-0_0
  6
CONTINUOUS
 62
    7
 10
-442.08319150000011
 20
756.94998199999998
 11
-441.78320350000013
 21
756.94998199999998
  0
LINE
  8
_0-0_0
  6
CONTINUOUS
 62
    7
 10
-424.58319150000011
 20
772.55004899999994
 11
-424.58319150000011
 21
772.75
  0
ARC
  8
_0-0_0
  6
CONTINUOUS
 62
    7
 10
-426.78320350000013
 20
751.14999399999999
 40
2
 50
273.84026500000004
 51
0.000010000000014
  0
LINE
  8
_0-0_0
  6
CONTINUOUS
 62
    7
 10
-426.78320350000013
 20
749.14999399999999
 11
-435.78320350000013
 21
749.14999399999999
  0
ARC
  8
_0-0_0
  6
CONTINUOUS
 62
    7
 10
-426.28320350000013
 20
748.39498900000001
 40
0.5
 50
100.28656100000001
 51
179.99999099999999
  0
LINE
  8
_0-0_0
  6
CONTINUOUS
 62
    7
 10
-426.78320350000013
 20
747.14999399999999
 11
-426.78320350000013
 21
748.39498900000001
  0
ARC
  8
_0-0_0
  6
CONTINUOUS
 62
    7
 10
-426.28320350000013
 20
747.14999399999999
 40
0.5
 50
179.99999099999999
 51
269.99999700000001
  0
LINE
  8
_0-0_0
  6
CONTINUOUS
 62
    7
 10
-441.20620750000012
 20
754.64999399999999
 11
-441.28320350000013
 21
754.64999399999999
  0
LINE
  8
_0-0_0
  6
CONTINUOUS
 62
    7
 10
-439.28320350000013
 20
754.64999399999999
 11
-439.76467950000006
 21
754.64999399999999
  0
LINE
  8
_0-0_0
  6
CONTINUOUS
 62
    7
 10
-439.76467950000006
 20
754.64999399999999
 11
-441.20620750000012
 21
754.64999399999999
  0
LINE
  8
_0-0_0
  6
CONTINUOUS
 62
    7
 10
-436.28320350000013
 20
749.64999399999999
 11
-436.28320350000013
 21
749.72695900000008
  0
LINE
  8
_0-0_0
  6
CONTINUOUS
 62
    7
 10
-436.28320350000013
 20
751.16848800000002
 11
-436.28320350000013
 21
749.72695900000008
  0
LINE
  8
_0-0_0
  6
CONTINUOUS
 62
    7
 10
-436.28320350000013
 20
751.16848800000002
 11
-436.28320350000013
 21
751.64999399999999
  0
ARC
  8
_0-0_0
  6
CONTINUOUS
 62
    7
 10
-439.28320350000013
 20
751.64999399999999
 40
3
 50
0
 51
89.999995999999996
  0
ARC
  8
_0-0_0
  6
CONTINUOUS
 62
    7
 10
-435.78320350000013
 20
749.64999399999999
 40
0.5
 50
179.99999099999999
 51
269.99999700000001
  0
LINE
  8
_0-0_0
  6
CONTINUOUS
 62
    7
 10
-430.28320350000013
 20
770.17300399999999
 11
-430.28320350000013
 21
770.25
  0
LINE
  8
_0-0_0
  6
CONTINUOUS
 62
    7
 10
-430.28320350000013
 20
768.73147599999993
 11
-430.28320350000013
 21
770.17300399999999
  0
LINE
  8
_0-0_0
  6
CONTINUOUS
 62
    7
 10
-430.28320350000013
 20
768.25
 11
-430.28320350000013
 21
768.73147599999993
  0
ARC
  8
_0-0_0
  6
CONTINUOUS
 62
    7
 10
-427.28320350000013
 20
768.25
 40
3
 50
179.99999099999999
 51
269.99999700000001
  0
LINE
  8
_0-0_0
  6
CONTINUOUS
 62
    7
 10
-426.80169650000016
 20
765.25
 11
-427.28320350000013
 21
765.25
  0
LINE
  8
_0-0_0
  6
CONTINUOUS
 62
    7
 10
-426.80169650000016
 20
765.25
 11
-425.3601685000001
 21
765.25
  0
LINE
  8
_0-0_0
  6
CONTINUOUS
 62
    7
 10
-425.28320350000013
 20
765.25
 11
-425.3601685000001
 21
765.25
  0
ARC
  8
_0-0_0
  6
CONTINUOUS
 62
    7
 10
-425.28320350000013
 20
764.75
 40
0.5
 50
0
 51
90.000003000000007
  0
LINE
  8
_0-0_0
  6
CONTINUOUS
 62
    7
 10
-426.78320350000013
 20
749.25262500000008
 11
-426.76730350000003
 21
749.22537199999999
  0
LINE
  8
_0-0_0
  6
CONTINUOUS
 62
    7
 10
-426.76730350000003
 20
749.22537199999999
 11
-426.75146450000011
 21
749.20239300000003
  0
LINE
  8
_0-0_0
  6
CONTINUOUS
 62
    7
 10
-426.75146450000011
 20
749.20239300000003
 11
-426.73748750000004
 21
749.18563799999993
  0
LINE
  8
_0-0_0
  6
CONTINUOUS
 62
    7
 10
-426.73748750000004
 20
749.18563799999993
 11
-426.72357150000016
 21
749.17230199999995
  0
LINE
  8
_0-0_0
  6
CONTINUOUS
 62
    7
 10
-426.72357150000016
 20
749.17230199999995
 11
-426.71136449999995
 21
749.16339100000005
  0
LINE
  8
_0-0_0
  6
CONTINUOUS
 62
    7
 10
-426.71136449999995
 20
749.16339100000005
 11
-426.69924949999995
 21
749.15716599999996
  0
LINE
  8
_0-0_0
  6
CONTINUOUS
 62
    7
 10
-426.69924949999995
 20
749.15716599999996
 11
-426.68838550000009
 21
749.15390000000002
  0
LINE
  8
_0-0_0
  6
CONTINUOUS
 62
    7
 10
-426.68838550000009
 20
749.15390000000002
 11
-426.67761250000012
 21
749.15283199999999
  0
LINE
  8
_0-0_0
  6
CONTINUOUS
 62
    7
 10
-426.67761250000012
 20
749.15283199999999
 11
-426.67517150000003
 21
749.15289299999995
  0
ARC
  8
_0-0_0
  6
CONTINUOUS
 62
    7
 10
-436.51330550000011
 20
758.77673299999992
 40
3.063399
 50
199.82113599999997
 51
205.28948099999999
  0
ARC
  8
_0-0_0
  6
CONTINUOUS
 62
    7
 10
-436.51361050000014
 20
761.12335200000007
 40
3.0630549999999999
 50
154.710137
 51
160.17869999999999
  0
ARC
  8
_0-0_0
  6
CONTINUOUS
 62
    7
 10
-433.28320350000013
 20
759.94998199999998
 40
6.5
 50
160.10415599999999
 51
199.895612
  0
ARC
  8
_0-0_0
  6
CONTINUOUS
 62
    7
 10
-430.0530705000001
 20
761.12322999999992
 40
3.0633949999999999
 50
19.82113
 51
25.289566000000001
  0
ARC
  8
_0-0_0
  6
CONTINUOUS
 62
    7
 10
-430.05276550000008
 20
758.776611
 40
3.0630519999999999
 50
334.71006
 51
340.17869200000001
  0
LINE
  8
_0-0_0
  6
CONTINUOUS
 62
    7
 10
-432.54150449999997
 20
753.44998199999998
 11
-428.02487150000002
 21
756.05767800000001
  0
LINE
  8
_0-0_0
  6
CONTINUOUS
 62
    7
 10
-434.02487150000002
 20
753.44998199999998
 11
-432.54150449999997
 21
753.44998199999998
  0
LINE
  8
_0-0_0
  6
CONTINUOUS
 62
    7
 10
-438.54150449999997
 20
756.05767800000001
 11
-434.02487150000002
 21
753.44998199999998
  0
LINE
  8
_0-0_0
  6
CONTINUOUS
 62
    7
 10
-439.28320350000013
 20
762.55767800000001
 11
-439.28320350000013
 21
757.34228499999995
  0
LINE
  8
_0-0_0
  6
CONTINUOUS
 62
    7
 10
-438.54150449999997
 20
756.05767800000001
 11
-439.28320350000013
 21
757.34228499999995
  0
LINE
  8
_0-0_0
  6
CONTINUOUS
 62
    7
 10
-434.02487150000002
 20
766.44998199999998
 11
-438.54150449999997
 21
763.84228499999995
  0
LINE
  8
_0-0_0
  6
CONTINUOUS
 62
    7
 10
-438.83563249999997
 20
763.332855
 11
-439.28320350000013
 21
762.55767800000001
  0
LINE
  8
_0-0_0
  6
CONTINUOUS
 62
    7
 10
-438.83563249999997
 20
763.332855
 11
-438.54150449999997
 21
763.84228499999995
  0
LINE
  8
_0-0_0
  6
CONTINUOUS
 62
    7
 10
-432.54150449999997
 20
766.44998199999998
 11
-434.02487150000002
 21
766.44998199999998
  0
LINE
  8
_0-0_0
  6
CONTINUOUS
 62
    7
 10
-428.02487150000002
 20
763.84228499999995
 11
-432.54150449999997
 21
766.44998199999998
  0
ARC
  8
_0-0_0
  6
CONTINUOUS
 62
    7
 10
-433.28320350000013
 20
759.94998199999998
 40
6.5
 50
340.10416099999998
 51
19.895609999999952
  0
LINE
  8
_0-0_0
  6
CONTINUOUS
 62
    7
 10
-427.73074350000002
 20
756.56710799999996
 11
-427.28320350000013
 21
757.34228499999995
  0
LINE
  8
_0-0_0
  6
CONTINUOUS
 62
    7
 10
-427.73074350000002
 20
756.56710799999996
 11
-428.02487150000002
 21
756.05767800000001
  0
CIRCLE
  8
_0-0_0
  6
CONTINUOUS
 62
    7
 10
-433.28320350000013
 20
759.94998199999998
 40
5.25
  0
LINE
  8
_0-0_0
  6
CONTINUOUS
 62
    7
 10
-427.28320350000013
 20
762.55767800000001
 11
-427.28320350000013
 21
757.34228499999995
  0
LINE
  8
_0-0_0
  6
CONTINUOUS
 62
    7
 10
-428.02487150000002
 20
763.84228499999995
 11
-427.28320350000013
 21
762.55767800000001
  0
LINE
  8
_0-0_0
  6
CONTINUOUS
 62
    7
 10
-425.39617950000002
 20
769.47543300000007
 11
-425.11813350000011
 21
769.5
  0
LINE
  8
_0-0_0
  6
CONTINUOUS
 62
    7
 10
-425.27841149999995
 20
769.27145399999995
 11
-425.11813350000011
 21
769.5
  0
LINE
  8
_0-0_0
  6
CONTINUOUS
 62
    7
 10
-425.53460749999999
 20
769.66595499999994
 11
-425.26065050000011
 21
769.71945200000005
  0
LINE
  8
_0-0_0
  6
CONTINUOUS
 62
    7
 10
-425.39617950000002
 20
769.47543300000007
 11
-425.26065050000011
 21
769.71945200000005
  0
LINE
  8
_0-0_0
  6
CONTINUOUS
 62
    7
 10
-425.69219950000002
 20
769.84097300000008
 11
-425.4253235000001
 21
769.922821
  0
LINE
  8
_0-0_0
  6
CONTINUOUS
 62
    7
 10
-425.53460749999999
 20
769.66595499999994
 11
-425.4253235000001
 21
769.922821
  0
LINE
  8
_0-0_0
  6
CONTINUOUS
 62
    7
 10
-425.86721850000004
 20
769.99856599999998
 11
-425.61035149999998
 21
770.10784899999999
  0
LINE
  8
_0-0_0
  6
CONTINUOUS
 62
    7
 10
-425.69219950000002
 20
769.84097300000008
 11
-425.61035149999998
 21
770.10784899999999
  0
LINE
  8
_0-0_0
  6
CONTINUOUS
 62
    7
 10
-426.05773950000003
 20
770.13699300000007
 11
-425.81372050000004
 21
770.27252199999998
  0
LINE
  8
_0-0_0
  6
CONTINUOUS
 62
    7
 10
-425.86721850000004
 20
769.99856599999998
 11
-425.81372050000004
 21
770.27252199999998
  0
LINE
  8
_0-0_0
  6
CONTINUOUS
 62
    7
 10
-426.26171849999992
 20
770.25476099999992
 11
-426.03320350000013
 21
770.41503899999998
  0
LINE
  8
_0-0_0
  6
CONTINUOUS
 62
    7
 10
-426.05773950000003
 20
770.13699300000007
 11
-426.03320350000013
 21
770.41503899999998
  0
LINE
  8
_0-0_0
  6
CONTINUOUS
 62
    7
 10
-426.47686750000003
 20
770.35052500000006
 11
-426.26635750000014
 21
770.53384400000004
  0
LINE
  8
_0-0_0
  6
CONTINUOUS
 62
    7
 10
-426.26171849999992
 20
770.25476099999992
 11
-426.26635750000014
 21
770.53384400000004
  0
LINE
  8
_0-0_0
  6
CONTINUOUS
 62
    7
 10
-426.70083650000015
 20
770.42330900000002
 11
-426.51065050000011
 21
770.62762500000008
  0
LINE
  8
_0-0_0
  6
CONTINUOUS
 62
    7
 10
-426.47686750000003
 20
770.35052500000006
 11
-426.51065050000011
 21
770.62762500000008
  0
LINE
  8
_0-0_0
  6
CONTINUOUS
 62
    7
 10
-426.93121350000001
 20
770.47228999999993
 11
-426.76339750000011
 21
770.69534299999998
  0
LINE
  8
_0-0_0
  6
CONTINUOUS
 62
    7
 10
-426.70083650000015
 20
770.42330900000002
 11
-426.76339750000011
 21
770.69534299999998
  0
LINE
  8
_0-0_0
  6
CONTINUOUS
 62
    7
 10
-427.16543550000006
 20
770.49688700000002
 11
-427.02185050000003
 21
770.73629800000003
  0
LINE
  8
_0-0_0
  6
CONTINUOUS
 62
    7
 10
-426.93121350000001
 20
770.47228999999993
 11
-427.02185050000003
 21
770.73629800000003
  0
LINE
  8
_0-0_0
  6
CONTINUOUS
 62
    7
 10
-427.40094050000016
 20
770.49688700000002
 11
-427.28320350000013
 21
770.75
  0
LINE
  8
_0-0_0
  6
CONTINUOUS
 62
    7
 10
-427.16543550000006
 20
770.49688700000002
 11
-427.28320350000013
 21
770.75
  0
LINE
  8
_0-0_0
  6
CONTINUOUS
 62
    7
 10
-427.63516249999998
 20
770.47228999999993
 11
-427.54449449999993
 21
770.73629800000003
  0
LINE
  8
_0-0_0
  6
CONTINUOUS
 62
    7
 10
-427.40094050000016
 20
770.49688700000002
 11
-427.54449449999993
 21
770.73629800000003
  0
LINE
  8
_0-0_0
  6
CONTINUOUS
 62
    7
 10
-427.86553950000007
 20
770.42330900000002
 11
-427.80297850000011
 21
770.69534299999998
  0
LINE
  8
_0-0_0
  6
CONTINUOUS
 62
    7
 10
-427.63516249999998
 20
770.47228999999993
 11
-427.80297850000011
 21
770.69534299999998
  0
LINE
  8
_0-0_0
  6
CONTINUOUS
 62
    7
 10
-428.08950849999997
 20
770.35052500000006
 11
-428.05572550000011
 21
770.62762500000008
  0
LINE
  8
_0-0_0
  6
CONTINUOUS
 62
    7
 10
-427.86553950000007
 20
770.42330900000002
 11
-428.05572550000011
 21
770.62762500000008
  0
LINE
  8
_0-0_0
  6
CONTINUOUS
 62
    7
 10
-428.30465750000008
 20
770.25476099999992
 11
-428.30001850000008
 21
770.53384400000004
  0
LINE
  8
_0-0_0
  6
CONTINUOUS
 62
    7
 10
-428.08950849999997
 20
770.35052500000006
 11
-428.30001850000008
 21
770.53384400000004
  0
LINE
  8
_0-0_0
  6
CONTINUOUS
 62
    7
 10
-428.42419450000011
 20
770.33859299999995
 11
-428.53320350000013
 21
770.41503899999998
  0
LINE
  8
_0-0_0
  6
CONTINUOUS
 62
    7
 10
-428.30465750000008
 20
770.25476099999992
 11
-428.42419450000011
 21
770.33859299999995
  0
LINE
  8
_0-0_0
  6
CONTINUOUS
 62
    7
 10
-428.50863649999997
 20
770.13699300000007
 11
-428.53320350000013
 21
770.41503899999998
  0
LINE
  8
_0-0_0
  6
CONTINUOUS
 62
    7
 10
-428.69915750000018
 20
769.99856599999998
 11
-428.75265549999995
 21
770.27252199999998
  0
LINE
  8
_0-0_0
  6
CONTINUOUS
 62
    7
 10
-428.50863649999997
 20
770.13699300000007
 11
-428.75265549999995
 21
770.27252199999998
  0
LINE
  8
_0-0_0
  6
CONTINUOUS
 62
    7
 10
-428.87417649999998
 20
769.84097300000008
 11
-428.95602450000001
 21
770.10784899999999
  0
LINE
  8
_0-0_0
  6
CONTINUOUS
 62
    7
 10
-428.69915750000018
 20
769.99856599999998
 11
-428.95602450000001
 21
770.10784899999999
  0
LINE
  8
_0-0_0
  6
CONTINUOUS
 62
    7
 10
-429.0317685
 20
769.66595499999994
 11
-429.14105250000011
 21
769.922821
  0
LINE
  8
_0-0_0
  6
CONTINUOUS
 62
    7
 10
-428.87417649999998
 20
769.84097300000008
 11
-429.14105250000011
 21
769.922821
  0
LINE
  8
_0-0_0
  6
CONTINUOUS
 62
    7
 10
-429.17019649999997
 20
769.47543300000007
 11
-429.30572550000011
 21
769.71945200000005
  0
LINE
  8
_0-0_0
  6
CONTINUOUS
 62
    7
 10
-429.0317685
 20
769.66595499999994
 11
-429.30572550000011
 21
769.71945200000005
  0
LINE
  8
_0-0_0
  6
CONTINUOUS
 62
    7
 10
-429.28796349999993
 20
769.27145399999995
 11
-429.44824250000011
 21
769.5
  0
LINE
  8
_0-0_0
  6
CONTINUOUS
 62
    7
 10
-429.17019649999997
 20
769.47543300000007
 11
-429.44824250000011
 21
769.5
  0
LINE
  8
_0-0_0
  6
CONTINUOUS
 62
    7
 10
-429.38372849999996
 20
769.05630500000007
 11
-429.56704750000017
 21
769.26681499999995
  0
LINE
  8
_0-0_0
  6
CONTINUOUS
 62
    7
 10
-429.28796349999993
 20
769.27145399999995
 11
-429.56704750000017
 21
769.26681499999995
  0
LINE
  8
_0-0_0
  6
CONTINUOUS
 62
    7
 10
-429.45651249999992
 20
768.83233599999994
 11
-429.6608275000001
 21
769.02252199999998
  0
LINE
  8
_0-0_0
  6
CONTINUOUS
 62
    7
 10
-429.38372849999996
 20
769.05630500000007
 11
-429.6608275000001
 21
769.02252199999998
  0
LINE
  8
_0-0_0
  6
CONTINUOUS
 62
    7
 10
-429.50549350000006
 20
768.60195900000008
 11
-429.72854649999999
 21
768.76977499999998
  0
LINE
  8
_0-0_0
  6
CONTINUOUS
 62
    7
 10
-429.45651249999992
 20
768.83233599999994
 11
-429.72854649999999
 21
768.76977499999998
  0
LINE
  8
_0-0_0
  6
CONTINUOUS
 62
    7
 10
-429.50549350000006
 20
768.60195900000008
 11
-429.76950050000005
 21
768.51129200000003
  0
LINE
  8
_0-0_0
  6
CONTINUOUS
 62
    7
 10
-429.53009049999991
 20
768.36773700000003
 11
-429.76950050000005
 21
768.51129200000003
  0
LINE
  8
_0-0_0
  6
CONTINUOUS
 62
    7
 10
-429.53009049999991
 20
768.13223300000004
 11
-429.78320350000013
 21
768.25
  0
LINE
  8
_0-0_0
  6
CONTINUOUS
 62
    7
 10
-429.53009049999991
 20
768.36773700000003
 11
-429.78320350000013
 21
768.25
  0
LINE
  8
_0-0_0
  6
CONTINUOUS
 62
    7
 10
-429.50549350000006
 20
767.89801
 11
-429.76950050000005
 21
767.98864700000001
  0
LINE
  8
_0-0_0
  6
CONTINUOUS
 62
    7
 10
-429.53009049999991
 20
768.13223300000004
 11
-429.76950050000005
 21
767.98864700000001
  0
LINE
  8
_0-0_0
  6
CONTINUOUS
 62
    7
 10
-429.45651249999992
 20
767.66763300000002
 11
-429.72854649999999
 21
767.73019399999998
  0
LINE
  8
_0-0_0
  6
CONTINUOUS
 62
    7
 10
-429.50549350000006
 20
767.89801
 11
-429.72854649999999
 21
767.73019399999998
  0
LINE
  8
_0-0_0
  6
CONTINUOUS
 62
    7
 10
-429.38372849999996
 20
767.44366500000001
 11
-429.6608275000001
 21
767.47744799999998
  0
LINE
  8
_0-0_0
  6
CONTINUOUS
 62
    7
 10
-429.45651249999992
 20
767.66763300000002
 11
-429.6608275000001
 21
767.47744799999998
  0
LINE
  8
_0-0_0
  6
CONTINUOUS
 62
    7
 10
-429.28796349999993
 20
767.22851600000001
 11
-429.56704750000017
 21
767.23315400000001
  0
LINE
  8
_0-0_0
  6
CONTINUOUS
 62
    7
 10
-429.38372849999996
 20
767.44366500000001
 11
-429.56704750000017
 21
767.23315400000001
  0
LINE
  8
_0-0_0
  6
CONTINUOUS
 62
    7
 10
-429.17019649999997
 20
767.02453600000001
 11
-429.44824250000011
 21
767
  0
LINE
  8
_0-0_0
  6
CONTINUOUS
 62
    7
 10
-429.28796349999993
 20
767.22851600000001
 11
-429.44824250000011
 21
767
  0
LINE
  8
_0-0_0
  6
CONTINUOUS
 62
    7
 10
-429.0317685
 20
766.83401500000002
 11
-429.30572550000011
 21
766.78051800000003
  0
LINE
  8
_0-0_0
  6
CONTINUOUS
 62
    7
 10
-429.17019649999997
 20
767.02453600000001
 11
-429.30572550000011
 21
766.78051800000003
  0
LINE
  8
_0-0_0
  6
CONTINUOUS
 62
    7
 10
-428.87417649999998
 20
766.658997
 11
-429.14105250000011
 21
766.57714800000008
  0
LINE
  8
_0-0_0
  6
CONTINUOUS
 62
    7
 10
-429.0317685
 20
766.83401500000002
 11
-429.14105250000011
 21
766.57714800000008
  0
LINE
  8
_0-0_0
  6
CONTINUOUS
 62
    7
 10
-428.69915750000018
 20
766.50140399999998
 11
-428.95602450000001
 21
766.39211999999998
  0
LINE
  8
_0-0_0
  6
CONTINUOUS
 62
    7
 10
-428.87417649999998
 20
766.658997
 11
-428.95602450000001
 21
766.39211999999998
  0
LINE
  8
_0-0_0
  6
CONTINUOUS
 62
    7
 10
-428.50863649999997
 20
766.362976
 11
-428.75265549999995
 21
766.22744799999998
  0
LINE
  8
_0-0_0
  6
CONTINUOUS
 62
    7
 10
-428.69915750000018
 20
766.50140399999998
 11
-428.75265549999995
 21
766.22744799999998
  0
LINE
  8
_0-0_0
  6
CONTINUOUS
 62
    7
 10
-428.30465750000008
 20
766.24520899999993
 11
-428.53320350000013
 21
766.08492999999999
  0
LINE
  8
_0-0_0
  6
CONTINUOUS
 62
    7
 10
-428.50863649999997
 20
766.362976
 11
-428.53320350000013
 21
766.08492999999999
  0
LINE
  8
_0-0_0
  6
CONTINUOUS
 62
    7
 10
-428.08950849999997
 20
766.14941399999998
 11
-428.30001850000008
 21
765.96612499999992
  0
LINE
  8
_0-0_0
  6
CONTINUOUS
 62
    7
 10
-428.30465750000008
 20
766.24520899999993
 11
-428.30001850000008
 21
765.96612499999992
  0
LINE
  8
_0-0_0
  6
CONTINUOUS
 62
    7
 10
-427.86553950000007
 20
766.07665999999995
 11
-428.05572550000011
 21
765.872345
  0
LINE
  8
_0-0_0
  6
CONTINUOUS
 62
    7
 10
-428.08950849999997
 20
766.14941399999998
 11
-428.05572550000011
 21
765.872345
  0
LINE
  8
_0-0_0
  6
CONTINUOUS
 62
    7
 10
-427.63516249999998
 20
766.02767900000003
 11
-427.80297850000011
 21
765.80462599999998
  0
LINE
  8
_0-0_0
  6
CONTINUOUS
 62
    7
 10
-427.86553950000007
 20
766.07665999999995
 11
-427.80297850000011
 21
765.80462599999998
  0
LINE
  8
_0-0_0
  6
CONTINUOUS
 62
    7
 10
-427.40094050000016
 20
766.00305200000003
 11
-427.54449449999993
 21
765.76367200000004
  0
LINE
  8
_0-0_0
  6
CONTINUOUS
 62
    7
 10
-427.63516249999998
 20
766.02767900000003
 11
-427.54449449999993
 21
765.76367200000004
  0
LINE
  8
_0-0_0
  6
CONTINUOUS
 62
    7
 10
-427.16543550000006
 20
766.00305200000003
 11
-427.28320350000013
 21
765.75
  0
LINE
  8
_0-0_0
  6
CONTINUOUS
 62
    7
 10
-427.40094050000016
 20
766.00305200000003
 11
-427.28320350000013
 21
765.75
  0
LINE
  8
_0-0_0
  6
CONTINUOUS
 62
    7
 10
-426.93121350000001
 20
766.02767900000003
 11
-427.02185050000003
 21
765.76367200000004
  0
LINE
  8
_0-0_0
  6
CONTINUOUS
 62
    7
 10
-427.16543550000006
 20
766.00305200000003
 11
-427.02185050000003
 21
765.76367200000004
  0
LINE
  8
_0-0_0
  6
CONTINUOUS
 62
    7
 10
-426.70083650000015
 20
766.07665999999995
 11
-426.76339750000011
 21
765.80462599999998
  0
LINE
  8
_0-0_0
  6
CONTINUOUS
 62
    7
 10
-426.93121350000001
 20
766.02767900000003
 11
-426.76339750000011
 21
765.80462599999998
  0
LINE
  8
_0-0_0
  6
CONTINUOUS
 62
    7
 10
-426.47686750000003
 20
766.14941399999998
 11
-426.51065050000011
 21
765.872345
  0
LINE
  8
_0-0_0
  6
CONTINUOUS
 62
    7
 10
-426.70083650000015
 20
766.07665999999995
 11
-426.51065050000011
 21
765.872345
  0
LINE
  8
_0-0_0
  6
CONTINUOUS
 62
    7
 10
-426.26171849999992
 20
766.24520899999993
 11
-426.26635750000014
 21
765.96612499999992
  0
LINE
  8
_0-0_0
  6
CONTINUOUS
 62
    7
 10
-426.47686750000003
 20
766.14941399999998
 11
-426.26635750000014
 21
765.96612499999992
  0
LINE
  8
_0-0_0
  6
CONTINUOUS
 62
    7
 10
-426.14218150000011
 20
766.16137700000002
 11
-426.03320350000013
 21
766.08492999999999
  0
LINE
  8
_0-0_0
  6
CONTINUOUS
 62
    7
 10
-426.26171849999992
 20
766.24520899999993
 11
-426.14218150000011
 21
766.16137700000002
  0
LINE
  8
_0-0_0
  6
CONTINUOUS
 62
    7
 10
-426.05773950000003
 20
766.362976
 11
-426.03320350000013
 21
766.08492999999999
  0
LINE
  8
_0-0_0
  6
CONTINUOUS
 62
    7
 10
-425.86721850000004
 20
766.50140399999998
 11
-425.81372050000004
 21
766.22744799999998
  0
LINE
  8
_0-0_0
  6
CONTINUOUS
 62
    7
 10
-426.05773950000003
 20
766.362976
 11
-425.81372050000004
 21
766.22744799999998
  0
LINE
  8
_0-0_0
  6
CONTINUOUS
 62
    7
 10
-425.69219950000002
 20
766.658997
 11
-425.61035149999998
 21
766.39211999999998
  0
LINE
  8
_0-0_0
  6
CONTINUOUS
 62
    7
 10
-425.86721850000004
 20
766.50140399999998
 11
-425.61035149999998
 21
766.39211999999998
  0
LINE
  8
_0-0_0
  6
CONTINUOUS
 62
    7
 10
-425.53460749999999
 20
766.83401500000002
 11
-425.4253235000001
 21
766.57714800000008
  0
LINE
  8
_0-0_0
  6
CONTINUOUS
 62
    7
 10
-425.69219950000002
 20
766.658997
 11
-425.4253235000001
 21
766.57714800000008
  0
LINE
  8
_0-0_0
  6
CONTINUOUS
 62
    7
 10
-425.39617950000002
 20
767.02453600000001
 11
-425.26065050000011
 21
766.78051800000003
  0
LINE
  8
_0-0_0
  6
CONTINUOUS
 62
    7
 10
-425.53460749999999
 20
766.83401500000002
 11
-425.26065050000011
 21
766.78051800000003
  0
LINE
  8
_0-0_0
  6
CONTINUOUS
 62
    7
 10
-425.27841149999995
 20
767.22851600000001
 11
-425.11813350000011
 21
767
  0
LINE
  8
_0-0_0
  6
CONTINUOUS
 62
    7
 10
-425.39617950000002
 20
767.02453600000001
 11
-425.11813350000011
 21
767
  0
LINE
  8
_0-0_0
  6
CONTINUOUS
 62
    7
 10
-425.18261750000011
 20
767.44366500000001
 11
-424.99932850000005
 21
767.23315400000001
  0
LINE
  8
_0-0_0
  6
CONTINUOUS
 62
    7
 10
-425.27841149999995
 20
767.22851600000001
 11
-424.99932850000005
 21
767.23315400000001
  0
LINE
  8
_0-0_0
  6
CONTINUOUS
 62
    7
 10
-425.10986350000007
 20
767.66763300000002
 11
-424.90554850000012
 21
767.47744799999998
  0
LINE
  8
_0-0_0
  6
CONTINUOUS
 62
    7
 10
-425.18261750000011
 20
767.44366500000001
 11
-424.90554850000012
 21
767.47744799999998
  0
LINE
  8
_0-0_0
  6
CONTINUOUS
 62
    7
 10
-425.06088249999993
 20
767.89801
 11
-424.8378295
 21
767.73019399999998
  0
LINE
  8
_0-0_0
  6
CONTINUOUS
 62
    7
 10
-425.10986350000007
 20
767.66763300000002
 11
-424.8378295
 21
767.73019399999998
  0
LINE
  8
_0-0_0
  6
CONTINUOUS
 62
    7
 10
-425.03628550000008
 20
768.13223300000004
 11
-424.79687550000017
 21
767.98864700000001
  0
LINE
  8
_0-0_0
  6
CONTINUOUS
 62
    7
 10
-425.06088249999993
 20
767.89801
 11
-424.79687550000017
 21
767.98864700000001
  0
LINE
  8
_0-0_0
  6
CONTINUOUS
 62
    7
 10
-425.03628550000008
 20
768.36773700000003
 11
-424.78320350000013
 21
768.25
  0
LINE
  8
_0-0_0
  6
CONTINUOUS
 62
    7
 10
-425.03628550000008
 20
768.13223300000004
 11
-424.78320350000013
 21
768.25
  0
LINE
  8
_0-0_0
  6
CONTINUOUS
 62
    7
 10
-425.06088249999993
 20
768.60195900000008
 11
-424.79687550000017
 21
768.51129200000003
  0
LINE
  8
_0-0_0
  6
CONTINUOUS
 62
    7
 10
-425.03628550000008
 20
768.36773700000003
 11
-424.79687550000017
 21
768.51129200000003
  0
LINE
  8
_0-0_0
  6
CONTINUOUS
 62
    7
 10
-425.10986350000007
 20
768.83233599999994
 11
-424.8378295
 21
768.76977499999998
  0
LINE
  8
_0-0_0
  6
CONTINUOUS
 62
    7
 10
-425.06088249999993
 20
768.60195900000008
 11
-424.8378295
 21
768.76977499999998
  0
LINE
  8
_0-0_0
  6
CONTINUOUS
 62
    7
 10
-425.18261750000011
 20
769.05630500000007
 11
-424.90554850000012
 21
769.02252199999998
  0
LINE
  8
_0-0_0
  6
CONTINUOUS
 62
    7
 10
-425.10986350000007
 20
768.83233599999994
 11
-424.90554850000012
 21
769.02252199999998
  0
LINE
  8
_0-0_0
  6
CONTINUOUS
 62
    7
 10
-425.27841149999995
 20
769.27145399999995
 11
-424.99932850000005
 21
769.26681499999995
  0
LINE
  8
_0-0_0
  6
CONTINUOUS
 62
    7
 10
-425.18261750000011
 20
769.05630500000007
 11
-424.99932850000005
 21
769.26681499999995
  0
CIRCLE
  8
_0-0_0
  6
CONTINUOUS
 62
    7
 10
-427.28320350000013
 20
768.25
 40
2
  0
CIRCLE
  8
_0-0_0
  6
CONTINUOUS
 62
    7
 10
-433.28320350000013
 20
759.94998199999998
 40
5
  0
LINE
  8
_0-0_0
  6
CONTINUOUS
 62
    7
 10
-426.70108049999999
 20
767.25
 11
-427.8652955
 21
767.25
  0
LINE
  8
_0-0_0
  6
CONTINUOUS
 62
    7
 10
-427.8652955
 20
767.25
 11
-428.43319750000001
 21
768.25
  0
LINE
  8
_0-0_0
  6
CONTINUOUS
 62
    7
 10
-428.43319750000001
 20
768.25
 11
-427.8652955
 21
769.25
  0
LINE
  8
_0-0_0
  6
CONTINUOUS
 62
    7
 10
-427.8652955
 20
769.25
 11
-426.70108049999999
 21
769.25
  0
LINE
  8
_0-0_0
  6
CONTINUOUS
 62
    7
 10
-426.70108049999999
 20
769.25
 11
-426.13317849999999
 21
768.25
  0
LINE
  8
_0-0_0
  6
CONTINUOUS
 62
    7
 10
-426.13317849999999
 20
768.25
 11
-426.70108049999999
 21
767.25
  0
CIRCLE
  8
_0-0_0
  6
CONTINUOUS
 62
    7
 10
-433.28320350000013
 20
759.94998199999998
 40
4.5381200000000002
  0
CIRCLE
  8
_0-0_0
  6
CONTINUOUS
 62
    7
 10
-433.28320350000013
 20
759.94998199999998
 40
4
  0
LINE
  8
_0-0_0
  6
CONTINUOUS
 62
    7
 10
-441.17019649999997
 20
750.42453
 11
-441.44824250000011
 21
750.39999399999999
  0
LINE
  8
_0-0_0
  6
CONTINUOUS
 62
    7
 10
-441.28796349999993
 20
750.62851000000001
 11
-441.44824250000011
 21
750.39999399999999
  0
LINE
  8
_0-0_0
  6
CONTINUOUS
 62
    7
 10
-441.0317685
 20
750.23400900000001
 11
-441.30572550000011
 21
750.18051100000002
  0
LINE
  8
_0-0_0
  6
CONTINUOUS
 62
    7
 10
-441.17019649999997
 20
750.42453
 11
-441.30572550000011
 21
750.18051100000002
  0
LINE
  8
_0-0_0
  6
CONTINUOUS
 62
    7
 10
-440.87417649999998
 20
750.05898999999999
 11
-441.14105250000011
 21
749.97717299999999
  0
LINE
  8
_0-0_0
  6
CONTINUOUS
 62
    7
 10
-441.0317685
 20
750.23400900000001
 11
-441.14105250000011
 21
749.97717299999999
  0
LINE
  8
_0-0_0
  6
CONTINUOUS
 62
    7
 10
-440.69915750000018
 20
749.90139799999997
 11
-440.95602450000001
 21
749.79211400000008
  0
LINE
  8
_0-0_0
  6
CONTINUOUS
 62
    7
 10
-440.87417649999998
 20
750.05898999999999
 11
-440.95602450000001
 21
749.79211400000008
  0
LINE
  8
_0-0_0
  6
CONTINUOUS
 62
    7
 10
-440.50863649999997
 20
749.76297
 11
-440.75265549999995
 21
749.62744099999998
  0
LINE
  8
_0-0_0
  6
CONTINUOUS
 62
    7
 10
-440.69915750000018
 20
749.90139799999997
 11
-440.75265549999995
 21
749.62744099999998
  0
LINE
  8
_0-0_0
  6
CONTINUOUS
 62
    7
 10
-440.30465750000008
 20
749.64520300000004
 11
-440.53320350000013
 21
749.48492399999998
  0
LINE
  8
_0-0_0
  6
CONTINUOUS
 62
    7
 10
-440.50863649999997
 20
749.76297
 11
-440.53320350000013
 21
749.48492399999998
  0
LINE
  8
_0-0_0
  6
CONTINUOUS
 62
    7
 10
-440.08950849999997
 20
749.54943800000001
 11
-440.30001850000008
 21
749.36611900000003
  0
LINE
  8
_0-0_0
  6
CONTINUOUS
 62
    7
 10
-440.30465750000008
 20
749.64520300000004
 11
-440.30001850000008
 21
749.36611900000003
  0
LINE
  8
_0-0_0
  6
CONTINUOUS
 62
    7
 10
-439.86553950000007
 20
749.47665400000005
 11
-440.05572550000011
 21
749.27233899999999
  0
LINE
  8
_0-0_0
  6
CONTINUOUS
 62
    7
 10
-440.08950849999997
 20
749.54943800000001
 11
-440.05572550000011
 21
749.27233899999999
  0
LINE
  8
_0-0_0
  6
CONTINUOUS
 62
    7
 10
-439.63516249999998
 20
749.42770399999995
 11
-439.80297850000011
 21
749.20461999999998
  0
LINE
  8
_0-0_0
  6
CONTINUOUS
 62
    7
 10
-439.86553950000007
 20
749.47665400000005
 11
-439.80297850000011
 21
749.20461999999998
  0
LINE
  8
_0-0_0
  6
CONTINUOUS
 62
    7
 10
-439.40094050000016
 20
749.40307600000006
 11
-439.54449449999993
 21
749.16369600000007
  0
LINE
  8
_0-0_0
  6
CONTINUOUS
 62
    7
 10
-439.63516249999998
 20
749.42770399999995
 11
-439.54449449999993
 21
749.16369600000007
  0
LINE
  8
_0-0_0
  6
CONTINUOUS
 62
    7
 10
-439.16543550000006
 20
749.40307600000006
 11
-439.28320350000013
 21
749.14999399999999
  0
LINE
  8
_0-0_0
  6
CONTINUOUS
 62
    7
 10
-439.40094050000016
 20
749.40307600000006
 11
-439.28320350000013
 21
749.14999399999999
  0
LINE
  8
_0-0_0
  6
CONTINUOUS
 62
    7
 10
-438.93121350000001
 20
749.42770399999995
 11
-439.02188150000006
 21
749.16369600000007
  0
LINE
  8
_0-0_0
  6
CONTINUOUS
 62
    7
 10
-439.16543550000006
 20
749.40307600000006
 11
-439.02188150000006
 21
749.16369600000007
  0
LINE
  8
_0-0_0
  6
CONTINUOUS
 62
    7
 10
-438.70083650000015
 20
749.47665400000005
 11
-438.76339750000011
 21
749.20461999999998
  0
LINE
  8
_0-0_0
  6
CONTINUOUS
 62
    7
 10
-438.93121350000001
 20
749.42770399999995
 11
-438.76339750000011
 21
749.20461999999998
  0
LINE
  8
_0-0_0
  6
CONTINUOUS
 62
    7
 10
-438.47686750000003
 20
749.54943800000001
 11
-438.51065050000011
 21
749.27233899999999
  0
LINE
  8
_0-0_0
  6
CONTINUOUS
 62
    7
 10
-438.70083650000015
 20
749.47665400000005
 11
-438.51065050000011
 21
749.27233899999999
  0
LINE
  8
_0-0_0
  6
CONTINUOUS
 62
    7
 10
-438.26171849999992
 20
749.64520300000004
 11
-438.26635750000014
 21
749.36611900000003
  0
LINE
  8
_0-0_0
  6
CONTINUOUS
 62
    7
 10
-438.47686750000003
 20
749.54943800000001
 11
-438.26635750000014
 21
749.36611900000003
  0
LINE
  8
_0-0_0
  6
CONTINUOUS
 62
    7
 10
-438.14218150000011
 20
749.56137100000001
 11
-438.03320350000013
 21
749.48492399999998
  0
LINE
  8
_0-0_0
  6
CONTINUOUS
 62
    7
 10
-438.26171849999992
 20
749.64520300000004
 11
-438.14218150000011
 21
749.56137100000001
  0
LINE
  8
_0-0_0
  6
CONTINUOUS
 62
    7
 10
-438.05773950000003
 20
749.76297
 11
-438.03320350000013
 21
749.48492399999998
  0
LINE
  8
_0-0_0
  6
CONTINUOUS
 62
    7
 10
-437.86721850000004
 20
749.90139799999997
 11
-437.81372050000004
 21
749.62744099999998
  0
LINE
  8
_0-0_0
  6
CONTINUOUS
 62
    7
 10
-438.05773950000003
 20
749.76297
 11
-437.81372050000004
 21
749.62744099999998
  0
LINE
  8
_0-0_0
  6
CONTINUOUS
 62
    7
 10
-437.69219950000002
 20
750.05898999999999
 11
-437.61035149999998
 21
749.79211400000008
  0
LINE
  8
_0-0_0
  6
CONTINUOUS
 62
    7
 10
-437.86721850000004
 20
749.90139799999997
 11
-437.61035149999998
 21
749.79211400000008
  0
LINE
  8
_0-0_0
  6
CONTINUOUS
 62
    7
 10
-437.53460749999999
 20
750.23400900000001
 11
-437.4253235000001
 21
749.97717299999999
  0
LINE
  8
_0-0_0
  6
CONTINUOUS
 62
    7
 10
-437.69219950000002
 20
750.05898999999999
 11
-437.4253235000001
 21
749.97717299999999
  0
LINE
  8
_0-0_0
  6
CONTINUOUS
 62
    7
 10
-437.39617950000002
 20
750.42453
 11
-437.26065050000011
 21
750.18051100000002
  0
LINE
  8
_0-0_0
  6
CONTINUOUS
 62
    7
 10
-437.53460749999999
 20
750.23400900000001
 11
-437.26065050000011
 21
750.18051100000002
  0
LINE
  8
_0-0_0
  6
CONTINUOUS
 62
    7
 10
-437.27841149999995
 20
750.62851000000001
 11
-437.11813350000011
 21
750.39999399999999
  0
LINE
  8
_0-0_0
  6
CONTINUOUS
 62
    7
 10
-437.39617950000002
 20
750.42453
 11
-437.11813350000011
 21
750.39999399999999
  0
LINE
  8
_0-0_0
  6
CONTINUOUS
 62
    7
 10
-437.18261750000011
 20
750.843658
 11
-436.99932850000005
 21
750.63314800000001
  0
LINE
  8
_0-0_0
  6
CONTINUOUS
 62
    7
 10
-437.27841149999995
 20
750.62851000000001
 11
-436.99932850000005
 21
750.63314800000001
  0
LINE
  8
_0-0_0
  6
CONTINUOUS
 62
    7
 10
-437.10986350000007
 20
751.06762700000002
 11
-436.90554850000012
 21
750.87744099999998
  0
LINE
  8
_0-0_0
  6
CONTINUOUS
 62
    7
 10
-437.18261750000011
 20
750.843658
 11
-436.90554850000012
 21
750.87744099999998
  0
LINE
  8
_0-0_0
  6
CONTINUOUS
 62
    7
 10
-437.06088249999993
 20
751.29800399999999
 11
-436.8378295
 21
751.13018799999998
  0
LINE
  8
_0-0_0
  6
CONTINUOUS
 62
    7
 10
-437.10986350000007
 20
751.06762700000002
 11
-436.8378295
 21
751.13018799999998
  0
LINE
  8
_0-0_0
  6
CONTINUOUS
 62
    7
 10
-437.03628550000008
 20
751.53222699999992
 11
-436.79687550000017
 21
751.38867200000004
  0
LINE
  8
_0-0_0
  6
CONTINUOUS
 62
    7
 10
-437.06088249999993
 20
751.29800399999999
 11
-436.79687550000017
 21
751.38867200000004
  0
LINE
  8
_0-0_0
  6
CONTINUOUS
 62
    7
 10
-437.03628550000008
 20
751.76773100000003
 11
-436.78320350000013
 21
751.64999399999999
  0
LINE
  8
_0-0_0
  6
CONTINUOUS
 62
    7
 10
-437.03628550000008
 20
751.53222699999992
 11
-436.78320350000013
 21
751.64999399999999
  0
LINE
  8
_0-0_0
  6
CONTINUOUS
 62
    7
 10
-437.06088249999993
 20
752.00195299999996
 11
-436.79687550000017
 21
751.91131599999994
  0
LINE
  8
_0-0_0
  6
CONTINUOUS
 62
    7
 10
-437.03628550000008
 20
751.76773100000003
 11
-436.79687550000017
 21
751.91131599999994
  0
LINE
  8
_0-0_0
  6
CONTINUOUS
 62
    7
 10
-437.10986350000007
 20
752.23233000000005
 11
-436.8378295
 21
752.16976899999997
  0
LINE
  8
_0-0_0
  6
CONTINUOUS
 62
    7
 10
-437.06088249999993
 20
752.00195299999996
 11
-436.8378295
 21
752.16976899999997
  0
LINE
  8
_0-0_0
  6
CONTINUOUS
 62
    7
 10
-437.18261750000011
 20
752.45629899999994
 11
-436.90554850000012
 21
752.42251599999997
  0
LINE
  8
_0-0_0
  6
CONTINUOUS
 62
    7
 10
-437.10986350000007
 20
752.23233000000005
 11
-436.90554850000012
 21
752.42251599999997
  0
LINE
  8
_0-0_0
  6
CONTINUOUS
 62
    7
 10
-437.27841149999995
 20
752.67144800000005
 11
-436.99932850000005
 21
752.66680900000006
  0
LINE
  8
_0-0_0
  6
CONTINUOUS
 62
    7
 10
-437.18261750000011
 20
752.45629899999994
 11
-436.99932850000005
 21
752.66680900000006
  0
LINE
  8
_0-0_0
  6
CONTINUOUS
 62
    7
 10
-437.39617950000002
 20
752.87542699999995
 11
-437.11813350000011
 21
752.89999399999999
  0
LINE
  8
_0-0_0
  6
CONTINUOUS
 62
    7
 10
-437.27841149999995
 20
752.67144800000005
 11
-437.11813350000011
 21
752.89999399999999
  0
LINE
  8
_0-0_0
  6
CONTINUOUS
 62
    7
 10
-440.69915750000018
 20
753.39855999999997
 11
-440.75265549999995
 21
753.67251599999997
  0
LINE
  8
_0-0_0
  6
CONTINUOUS
 62
    7
 10
-440.69915750000018
 20
753.39855999999997
 11
-440.95602450000001
 21
753.50784299999998
  0
LINE
  8
_0-0_0
  6
CONTINUOUS
 62
    7
 10
-440.87417649999998
 20
753.24096699999996
 11
-440.95602450000001
 21
753.50784299999998
  0
LINE
  8
_0-0_0
  6
CONTINUOUS
 62
    7
 10
-440.87417649999998
 20
753.24096699999996
 11
-441.14105250000011
 21
753.32281499999999
  0
LINE
  8
_0-0_0
  6
CONTINUOUS
 62
    7
 10
-441.0317685
 20
753.06594799999993
 11
-441.14105250000011
 21
753.32281499999999
  0
LINE
  8
_0-0_0
  6
CONTINUOUS
 62
    7
 10
-441.0317685
 20
753.06594799999993
 11
-441.30572550000011
 21
753.11944599999993
  0
LINE
  8
_0-0_0
  6
CONTINUOUS
 62
    7
 10
-441.17019649999997
 20
752.87542699999995
 11
-441.30572550000011
 21
753.11944599999993
  0
LINE
  8
_0-0_0
  6
CONTINUOUS
 62
    7
 10
-441.17019649999997
 20
752.87542699999995
 11
-441.44824250000011
 21
752.89999399999999
  0
LINE
  8
_0-0_0
  6
CONTINUOUS
 62
    7
 10
-441.28796349999993
 20
752.67144800000005
 11
-441.44824250000011
 21
752.89999399999999
  0
LINE
  8
_0-0_0
  6
CONTINUOUS
 62
    7
 10
-441.28796349999993
 20
752.67144800000005
 11
-441.56704750000017
 21
752.66680900000006
  0
LINE
  8
_0-0_0
  6
CONTINUOUS
 62
    7
 10
-441.38375850000011
 20
752.45629899999994
 11
-441.56704750000017
 21
752.66680900000006
  0
LINE
  8
_0-0_0
  6
CONTINUOUS
 62
    7
 10
-441.38375850000011
 20
752.45629899999994
 11
-441.6608275000001
 21
752.42251599999997
  0
LINE
  8
_0-0_0
  6
CONTINUOUS
 62
    7
 10
-441.45651249999992
 20
752.23233000000005
 11
-441.6608275000001
 21
752.42251599999997
  0
LINE
  8
_0-0_0
  6
CONTINUOUS
 62
    7
 10
-441.45651249999992
 20
752.23233000000005
 11
-441.72854649999999
 21
752.16976899999997
  0
LINE
  8
_0-0_0
  6
CONTINUOUS
 62
    7
 10
-441.50549350000006
 20
752.00195299999996
 11
-441.72854649999999
 21
752.16976899999997
  0
LINE
  8
_0-0_0
  6
CONTINUOUS
 62
    7
 10
-441.50549350000006
 20
752.00195299999996
 11
-441.76950050000005
 21
751.91131599999994
  0
LINE
  8
_0-0_0
  6
CONTINUOUS
 62
    7
 10
-441.53009049999991
 20
751.76773100000003
 11
-441.76950050000005
 21
751.91131599999994
  0
LINE
  8
_0-0_0
  6
CONTINUOUS
 62
    7
 10
-441.53009049999991
 20
751.76773100000003
 11
-441.78320350000013
 21
751.64999399999999
  0
LINE
  8
_0-0_0
  6
CONTINUOUS
 62
    7
 10
-441.53009049999991
 20
751.53222699999992
 11
-441.78320350000013
 21
751.64999399999999
  0
LINE
  8
_0-0_0
  6
CONTINUOUS
 62
    7
 10
-441.53009049999991
 20
751.53222699999992
 11
-441.76950050000005
 21
751.38867200000004
  0
LINE
  8
_0-0_0
  6
CONTINUOUS
 62
    7
 10
-441.50549350000006
 20
751.29800399999999
 11
-441.76950050000005
 21
751.38867200000004
  0
LINE
  8
_0-0_0
  6
CONTINUOUS
 62
    7
 10
-441.50549350000006
 20
751.29800399999999
 11
-441.72854649999999
 21
751.13018799999998
  0
LINE
  8
_0-0_0
  6
CONTINUOUS
 62
    7
 10
-441.45651249999992
 20
751.06762700000002
 11
-441.72854649999999
 21
751.13018799999998
  0
LINE
  8
_0-0_0
  6
CONTINUOUS
 62
    7
 10
-441.45651249999992
 20
751.06762700000002
 11
-441.6608275000001
 21
750.87744099999998
  0
LINE
  8
_0-0_0
  6
CONTINUOUS
 62
    7
 10
-441.38375850000011
 20
750.843658
 11
-441.6608275000001
 21
750.87744099999998
  0
LINE
  8
_0-0_0
  6
CONTINUOUS
 62
    7
 10
-441.38375850000011
 20
750.843658
 11
-441.56704750000017
 21
750.63314800000001
  0
LINE
  8
_0-0_0
  6
CONTINUOUS
 62
    7
 10
-441.28796349999993
 20
750.62851000000001
 11
-441.56704750000017
 21
750.63314800000001
  0
CIRCLE
  8
_0-0_0
  6
CONTINUOUS
 62
    7
 10
-439.28320350000013
 20
751.64999399999999
 40
2
  0
LINE
  8
_0-0_0
  6
CONTINUOUS
 62
    7
 10
-440.42419450000011
 20
753.73858599999994
 11
-440.53320350000013
 21
753.81506300000001
  0
LINE
  8
_0-0_0
  6
CONTINUOUS
 62
    7
 10
-440.50863649999997
 20
753.53698699999995
 11
-440.53320350000013
 21
753.81506300000001
  0
LINE
  8
_0-0_0
  6
CONTINUOUS
 62
    7
 10
-440.50863649999997
 20
753.53698699999995
 11
-440.75265549999995
 21
753.67251599999997
  0
LINE
  8
_0-0_0
  6
CONTINUOUS
 62
    7
 10
-437.39617950000002
 20
752.87542699999995
 11
-437.26065050000011
 21
753.11944599999993
  0
LINE
  8
_0-0_0
  6
CONTINUOUS
 62
    7
 10
-437.53460749999999
 20
753.06594799999993
 11
-437.26065050000011
 21
753.11944599999993
  0
LINE
  8
_0-0_0
  6
CONTINUOUS
 62
    7
 10
-437.53460749999999
 20
753.06594799999993
 11
-437.4253235000001
 21
753.32281499999999
  0
LINE
  8
_0-0_0
  6
CONTINUOUS
 62
    7
 10
-437.69219950000002
 20
753.24096699999996
 11
-437.4253235000001
 21
753.32281499999999
  0
LINE
  8
_0-0_0
  6
CONTINUOUS
 62
    7
 10
-437.69219950000002
 20
753.24096699999996
 11
-437.61035149999998
 21
753.50784299999998
  0
LINE
  8
_0-0_0
  6
CONTINUOUS
 62
    7
 10
-437.86721850000004
 20
753.39855999999997
 11
-437.61035149999998
 21
753.50784299999998
  0
LINE
  8
_0-0_0
  6
CONTINUOUS
 62
    7
 10
-437.86721850000004
 20
753.39855999999997
 11
-437.81372050000004
 21
753.67251599999997
  0
LINE
  8
_0-0_0
  6
CONTINUOUS
 62
    7
 10
-438.05773950000003
 20
753.53698699999995
 11
-437.81372050000004
 21
753.67251599999997
  0
LINE
  8
_0-0_0
  6
CONTINUOUS
 62
    7
 10
-438.05773950000003
 20
753.53698699999995
 11
-438.03320350000013
 21
753.81506300000001
  0
LINE
  8
_0-0_0
  6
CONTINUOUS
 62
    7
 10
-438.26171849999992
 20
753.65475500000002
 11
-438.03320350000013
 21
753.81506300000001
  0
LINE
  8
_0-0_0
  6
CONTINUOUS
 62
    7
 10
-438.26171849999992
 20
753.65475500000002
 11
-438.26635750000014
 21
753.93383799999992
  0
LINE
  8
_0-0_0
  6
CONTINUOUS
 62
    7
 10
-438.47686750000003
 20
753.75054899999998
 11
-438.26635750000014
 21
753.93383799999992
  0
LINE
  8
_0-0_0
  6
CONTINUOUS
 62
    7
 10
-438.47686750000003
 20
753.75054899999998
 11
-438.51065050000011
 21
754.02761800000007
  0
LINE
  8
_0-0_0
  6
CONTINUOUS
 62
    7
 10
-438.70083650000015
 20
753.82330300000001
 11
-438.51065050000011
 21
754.02761800000007
  0
LINE
  8
_0-0_0
  6
CONTINUOUS
 62
    7
 10
-438.70083650000015
 20
753.82330300000001
 11
-438.76339750000011
 21
754.09533699999997
  0
LINE
  8
_0-0_0
  6
CONTINUOUS
 62
    7
 10
-438.93121350000001
 20
753.87228400000004
 11
-438.76339750000011
 21
754.09533699999997
  0
LINE
  8
_0-0_0
  6
CONTINUOUS
 62
    7
 10
-438.93121350000001
 20
753.87228400000004
 11
-439.02188150000006
 21
754.13629200000003
  0
LINE
  8
_0-0_0
  6
CONTINUOUS
 62
    7
 10
-439.16543550000006
 20
753.89691199999993
 11
-439.02188150000006
 21
754.13629200000003
  0
LINE
  8
_0-0_0
  6
CONTINUOUS
 62
    7
 10
-439.16543550000006
 20
753.89691199999993
 11
-439.28320350000013
 21
754.14999399999999
  0
LINE
  8
_0-0_0
  6
CONTINUOUS
 62
    7
 10
-439.40094050000016
 20
753.89691199999993
 11
-439.28320350000013
 21
754.14999399999999
  0
LINE
  8
_0-0_0
  6
CONTINUOUS
 62
    7
 10
-439.40094050000016
 20
753.89691199999993
 11
-439.54449449999993
 21
754.13629200000003
  0
LINE
  8
_0-0_0
  6
CONTINUOUS
 62
    7
 10
-439.63516249999998
 20
753.87228400000004
 11
-439.54449449999993
 21
754.13629200000003
  0
LINE
  8
_0-0_0
  6
CONTINUOUS
 62
    7
 10
-439.63516249999998
 20
753.87228400000004
 11
-439.80297850000011
 21
754.09533699999997
  0
LINE
  8
_0-0_0
  6
CONTINUOUS
 62
    7
 10
-439.86553950000007
 20
753.82330300000001
 11
-439.80297850000011
 21
754.09533699999997
  0
LINE
  8
_0-0_0
  6
CONTINUOUS
 62
    7
 10
-439.86553950000007
 20
753.82330300000001
 11
-440.05572550000011
 21
754.02761800000007
  0
LINE
  8
_0-0_0
  6
CONTINUOUS
 62
    7
 10
-440.08950849999997
 20
753.75054899999998
 11
-440.05572550000011
 21
754.02761800000007
  0
LINE
  8
_0-0_0
  6
CONTINUOUS
 62
    7
 10
-440.08950849999997
 20
753.75054899999998
 11
-440.30001850000008
 21
753.93383799999992
  0
LINE
  8
_0-0_0
  6
CONTINUOUS
 62
    7
 10
-440.30465750000008
 20
753.65475500000002
 11
-440.30001850000008
 21
753.93383799999992
  0
LINE
  8
_0-0_0
  6
CONTINUOUS
 62
    7
 10
-440.30465750000008
 20
753.65475500000002
 11
-440.42419450000011
 21
753.73858599999994
  0
LINE
  8
_0-0_0
  6
CONTINUOUS
 62
    7
 10
-438.70108049999999
 20
750.64999399999999
 11
-439.8652955
 21
750.64999399999999
  0
LINE
  8
_0-0_0
  6
CONTINUOUS
 62
    7
 10
-439.8652955
 20
750.64999399999999
 11
-440.43319750000001
 21
751.64999399999999
  0
LINE
  8
_0-0_0
  6
CONTINUOUS
 62
    7
 10
-440.43319750000001
 20
751.64999399999999
 11
-439.8652955
 21
752.64999399999999
  0
LINE
  8
_0-0_0
  6
CONTINUOUS
 62
    7
 10
-439.8652955
 20
752.64999399999999
 11
-438.70108049999999
 21
752.64999399999999
  0
LINE
  8
_0-0_0
  6
CONTINUOUS
 62
    7
 10
-438.70108049999999
 20
752.64999399999999
 11
-438.13317849999999
 21
751.64999399999999
  0
LINE
  8
_0-0_0
  6
CONTINUOUS
 62
    7
 10
-438.13317849999999
 20
751.64999399999999
 11
-438.70108049999999
 21
750.64999399999999
  0
LINE
  8
_0-0_0
  6
CONTINUOUS
 62
    7
 10
-424.58319150000011
 20
769.05029300000001
 11
-424.58319150000011
 21
769.05627400000003
  0
LINE
  8
_0-0_0
  6
CONTINUOUS
 62
    7
 10
-424.58319150000011
 20
770.25
 11
-424.5835575000001
 21
770.23788500000001
  0
LINE
  8
_0-0_0
  6
CONTINUOUS
 62
    7
 10
-424.5835575000001
 20
749.66210899999999
 11
-424.58319150000011
 21
749.64999399999999
  0
ARC
  8
_0-0_0
  6
CONTINUOUS
 62
    7
 10
-439.78320350000013
 20
768.75
 40
2
 50
90.000003000000007
 51
93.840255999999997
  0
ARC
  8
_0-0_0
  6
CONTINUOUS
 62
    7
 10
-426.78320350000013
 20
751.14999399999999
 40
2
 50
269.99999700000001
 51
273.84026499999999
  0
ENDSEC
  0
EOF
