  0
SECTION
  2
HEADER
  9
$ACADVER
  1
AC1009
  9
$INSBASE
 10
0
 20
0
 30
0
  9
$EXTMIN
 10
0
 20
0
  9
$EXTMAX
 10
1682
 20
1188
  9
$LIMMIN
 10
0
 20
0
  9
$LIMMAX
 10
1682
 20
1188
  9
$LTSCALE
 40
2
  0
ENDSEC
  0
SECTION
  2
TABLES
  0
TABLE
  2
LTYPE
 70
     9
  0
LTYPE
  2
CONTINUOUS
 70
    64
  3
実線
 72
    65
 73
     0
 40
0.0
  0
LTYPE
  2
DASHED1
 70
    64
  3
--  --  --  --  --  --  --  --  
 72
    65
 73
     2
 40
2.5
 49
1.25
 49
-1.25
  0
LTYPE
  2
DASHED2
 70
    64
  3
----    ----    ----    ----    
 72
    65
 73
     2
 40
5.0
 49
2.5
 49
-2.5
  0
LTYPE
  2
DASHED3
 70
    64
  3
------  ------  ------  ------  
 72
    65
 73
     2
 40
5.0
 49
3.75
 49
-1.25
  0
LTYPE
  2
CENTER1
 70
    64
  3
----- - ----- - ----- - ----- - 
 72
    65
 73
     4
 40
10.0
 49
6.25
 49
-1.25
 49
1.25
 49
-1.25
  0
LTYPE
  2
CENTER2
 70
    64
  3
----------  --  ----------  --  
 72
    65
 73
     4
 40
20.0
 49
12.5
 49
-2.5
 49
2.5
 49
-2.5
  0
LTYPE
  2
PHANTOM1
 70
    64
  3
--- - - --- - - --- - - --- - - 
 72
    65
 73
     6
 40
10.0
 49
3.25
 49
-1.25
 49
1.25
 49
-1.25
 49
1.25
 49
-1.25
  0
LTYPE
  2
PHANTOM2
 70
    64
  3
--------  -  -  --------  -  -  
 72
    65
 73
     6
 40
20.0
 49
10.0
 49
-2.5
 49
1.25
 49
-2.5
 49
1.25
 49
-2.5
  0
LTYPE
  2
DOT
 70
    64
  3
-   -   -   -   -   -   -   -   
 72
    65
 73
     2
 40
2.5
 49
0.625
 49
-1.875
  0
LTYPE
  2
DUMMY
 70
    64
  3
ダミー
 72
    65
 73
     0
 40
0.0
  0
LTYPE
  2
RAND1
 70
    64
  3
ランダム線1
 72
    65
 73
     4
 40
10.0
 49
1.0
 49
-2.0
 49
3.0
 49
-4.0
  0
LTYPE
  2
RAND2
 70
    64
  3
ランダム線2
 72
    65
 73
     4
 40
14.0
 49
2.0
 49
-3.0
 49
4.0
 49
-5.0
  0
LTYPE
  2
RAND3
 70
    64
  3
ランダム線3
 72
    65
 73
     4
 40
18.0
 49
3.0
 49
-4.0
 49
5.0
 49
-6.0
  0
LTYPE
  2
RAND4
 70
    64
  3
ランダム線4
 72
    65
 73
     4
 40
22.0
 49
4.0
 49
-5.0
 49
6.0
 49
-7.0
  0
LTYPE
  2
RAND5
 70
    64
  3
ランダム線5
 72
    65
 73
     4
 40
26.0
 49
5.0
 49
-6.0
 49
7.0
 49
-8.0
  0
LTYPE
  2
LONG1
 70
    64
  3
----------  --  ----------  --  
 72
    65
 73
     4
 40
40.0
 49
32.5
 49
-2.5
 49
2.5
 49
-2.5
  0
LTYPE
  2
LONG2
 70
    64
  3
--------  -  -  --------  -  -  
 72
    65
 73
     6
 40
40.0
 49
30.0
 49
-2.5
 49
1.25
 49
-2.5
 49
1.25
 49
-2.5
  0
LTYPE
  2
LONG3
 70
    64
  3
+++++++++++++++..+++++++++++++++
 72
    65
 73
     2
 40
40.0
 49
37.5
 49
-2.5
  0
LTYPE
  2
LONG4
 70
    64
  3
+++++++++++++++..+++++++++++++++
 72
    65
 73
     2
 40
80.0
 49
75.0
 49
-5.0
  0
LTYPE
  2
LONG5
 70
    64
  3
----------  --  ----------  --  
 72
    65
 73
     4
 40
60.0
 49
37.5
 49
-7.5
 49
7.5
 49
-7.5
  0
LTYPE
  2
dashed
 70
   64
  3
-------   -------------   ------
 72
   65
 73
    2
 40
7.5
 49
6
 49
-1.5
  0
LTYPE
  2
dashed_spaced
 70
   64
  3
----        --------        ----
 72
   65
 73
    2
 40
12
 49
6
 49
-6
  0
LTYPE
  2
long_dashed_dotted
 70
   64
  3
------------- --- --------------
 72
   65
 73
    4
 40
15.25
 49
12
 49
-1.5
 49
0.25
 49
-1.5
  0
LTYPE
  2
long_dashed_double-dotted
 70
   64
  3
----------- --- --- ------------
 72
   65
 73
    6
 40
17
 49
12
 49
-1.5
 49
0.25
 49
-1.5
 49
0.25
 49
-1.5
  0
LTYPE
  2
long_dashed_triplicate-dotted
 70
   64
  3
--------- --- --- --- ----------
 72
   65
 73
    8
 40
18.75
 49
12
 49
-1.5
 49
0.25
 49
-1.5
 49
0.25
 49
-1.5
 49
0.25
 49
-1.5
  0
LTYPE
  2
dotted
 70
   64
  3
   -       -       -       -    
 72
   65
 73
    2
 40
1.75
 49
0.25
 49
-1.5
  0
LTYPE
  2
chain
 70
   64
  3
-------------- -- --------------
 72
   65
 73
    4
 40
18.5
 49
12
 49
-1.5
 49
3.5
 49
-1.5
  0
LTYPE
  2
chain_double_dash
 70
   64
  3
------------ -- -- -------------
 72
   65
 73
    6
 40
23.5
 49
12
 49
-1.5
 49
3.5
 49
-1.5
 49
3.5
 49
-1.5
  0
LTYPE
  2
dashed_dotted
 70
   64
  3
-----------     -     ----------
 72
   65
 73
    4
 40
9.25
 49
6
 49
-1.5
 49
0.25
 49
-1.5
  0
LTYPE
  2
double-dashed_dotted
 70
   64
  3
------   -----------   -   -----
 72
   65
 73
    6
 40
16.75
 49
6
 49
-1.5
 49
6
 49
-1.5
 49
0.25
 49
-1.5
  0
LTYPE
  2
dashed_double-dotted
 70
   64
  3
---------    -    -    ---------
 72
   65
 73
    6
 40
11
 49
6
 49
-1.5
 49
0.25
 49
-1.5
 49
0.25
 49
-1.5
  0
LTYPE
  2
double-dashed_double-dotted
 70
   64
  3
-----   ---------   -   -   ----
 72
   65
 73
    8
 40
18.5
 49
6
 49
-1.5
 49
6
 49
-1.5
 49
0.25
 49
-1.5
 49
0.25
 49
-1.5
  0
LTYPE
  2
dashed_triplicate-dotted
 70
   64
  3
-------    -    -    -    ------
 72
   65
 73
    8
 40
12.75
 49
6
 49
-1.5
 49
0.25
 49
-1.5
 49
0.25
 49
-1.5
 49
0.25
 49
-1.5
  0
LTYPE
  2
double-dashed_triplicate-dotted
 70
   64
  3
-----  ---------  -  -  -  -----
 72
   65
 73
   10
 40
20.25
 49
6
 49
-1.5
 49
6
 49
-1.5
 49
0.25
 49
-1.5
 49
0.25
 49
-1.5
 49
0.25
 49
-1.5
  0
LTYPE
  2
undefined
 70
   64
  3
--------------------------------
 72
   65
 73
    0
 40
0
  0
ENDTAB
  0
TABLE
  2
STYLE
  5
3
100
AcDbSymbolTable
 70
     1
  0
STYLE
  5
10
100
AcDbSymbolTableRecord
100
AcDbTextStyleTableRecord
  2
STANDARD
 70
     0
 40
0.0
 41
1.0
 50
0.0
 71
     0
 42
0.2
  3
txt
  4
bigfont.shx
  0
STYLE
  5
26
100
AcDbSymbolTableRecord
100
AcDbTextStyleTableRecord
  2
TATEGAKI
 70
    68
 40
0.0
 41
1.0
 50
0.0
 71
     0
 42
1.0
  3
txt
  4
bigfont.shx
  0
ENDTAB
  0
TABLE
  2
LAYER
 70
    2
  0
LAYER
  2
_0-0_0
 70
   64
 62
    7
  6
CONTINUOUS
  0
LAYER
  2
ADD_LINE
 70
   64
 62
    7
  6
CONTINUOUS
  0
ENDTAB
  0
ENDSEC
  0
SECTION
  2
BLOCKS
  0
ENDSEC
  0
SECTION
  2
ENTITIES
  0
ARC
  8
_0-0_0
  6
CONTINUOUS
 62
    7
 10
-178.27221650000001
 20
765.34997599999997
 40
0.2
 50
269.99999700000001
 51
20.376440000000013
  0
LINE
  8
_0-0_0
  6
CONTINUOUS
 62
    7
 10
-178.08473249999997
 20
765.41961700000002
 11
-179.38473550000003
 21
768.91961700000002
  0
ARC
  8
_0-0_0
  6
CONTINUOUS
 62
    7
 10
-179.57221950000007
 20
768.84997599999997
 40
0.2
 50
20.376439999999999
 51
159.62355600000001
  0
LINE
  8
_0-0_0
  6
CONTINUOUS
 62
    7
 10
-181.05970750000006
 20
765.41961700000002
 11
-179.7597045
 21
768.91961700000002
  0
ARC
  8
_0-0_0
  6
CONTINUOUS
 62
    7
 10
-180.87222350000002
 20
765.34997599999997
 40
0.2
 50
159.62355600000001
 51
269.99999700000001
  0
LINE
  8
_0-0_0
  6
CONTINUOUS
 62
    7
 10
-180.87222350000002
 20
765.14999399999999
 11
-178.27221650000001
 21
765.14999399999999
  0
LINE
  8
_0-0_0
  6
CONTINUOUS
 62
    7
 10
-343.50503550000008
 20
813.75271599999996
 11
-343.50503550000008
 21
813.75170900000001
  0
LINE
  8
_0-0_0
  6
CONTINUOUS
 62
    7
 10
1639.4277345
 20
802.14999399999999
 11
1639.4277345
 21
789.14999399999999
  0
LINE
  8
_0-0_0
  6
CONTINUOUS
 62
    7
 10
-233.57223550000003
 20
802.14999399999999
 11
-233.57223550000003
 21
789.14999399999999
  0
LINE
  8
_0-0_0
  6
CONTINUOUS
 62
    7
 10
-233.57223550000003
 20
802.14999399999999
 11
1639.4277345
 21
802.14999399999999
  0
LINE
  8
_0-0_0
  6
CONTINUOUS
 62
    7
 10
-233.57223550000003
 20
802.14999399999999
 11
-233.57223550000003
 21
820.75
  0
LINE
  8
_0-0_0
  6
CONTINUOUS
 62
    7
 10
-233.57223550000003
 20
823.25
 11
-233.57223550000003
 21
820.75
  0
LINE
  8
_0-0_0
  6
CONTINUOUS
 62
    7
 10
-233.57223550000003
 20
823.75
 11
-233.57223550000003
 21
823.25
  0
LINE
  8
_0-0_0
  6
CONTINUOUS
 62
    7
 10
-233.57223550000003
 20
775.75
 11
-233.57223550000003
 21
775.25
  0
LINE
  8
_0-0_0
  6
CONTINUOUS
 62
    7
 10
-233.57223550000003
 20
780.75
 11
-233.57223550000003
 21
775.75
  0
LINE
  8
_0-0_0
  6
CONTINUOUS
 62
    7
 10
-233.57223550000003
 20
781.25
 11
-233.57223550000003
 21
780.75
  0
LINE
  8
_0-0_0
  6
CONTINUOUS
 62
    7
 10
-233.57223550000003
 20
781.75
 11
-233.57223550000003
 21
781.25
  0
LINE
  8
_0-0_0
  6
CONTINUOUS
 62
    7
 10
-233.57223550000003
 20
784.94998199999998
 11
-233.57223550000003
 21
781.75
  0
LINE
  8
_0-0_0
  6
CONTINUOUS
 62
    7
 10
-233.57223550000003
 20
784.94998199999998
 11
-233.57223550000003
 21
789.14999399999999
  0
LINE
  8
_0-0_0
  6
CONTINUOUS
 62
    7
 10
-233.57223550000003
 20
789.14999399999999
 11
1639.4277345
 21
789.14999399999999
  0
LINE
  8
_0-0_0
  6
CONTINUOUS
 62
    7
 10
1639.4277345
 20
784.94998199999998
 11
1639.4277345
 21
789.14999399999999
  0
LINE
  8
_0-0_0
  6
CONTINUOUS
 62
    7
 10
1639.4277345
 20
781.75
 11
1639.4277345
 21
784.94998199999998
  0
LINE
  8
_0-0_0
  6
CONTINUOUS
 62
    7
 10
1639.4277345
 20
781.75
 11
1639.4277345
 21
781.25
  0
LINE
  8
_0-0_0
  6
CONTINUOUS
 62
    7
 10
1639.4277345
 20
781.25
 11
1639.4277345
 21
780.75
  0
LINE
  8
_0-0_0
  6
CONTINUOUS
 62
    7
 10
1639.4277345
 20
780.75
 11
1639.4277345
 21
775.75
  0
LINE
  8
_0-0_0
  6
CONTINUOUS
 62
    7
 10
1639.4277345
 20
775.75
 11
1639.4277345
 21
775.25
  0
LINE
  8
_0-0_0
  6
CONTINUOUS
 62
    7
 10
1639.4277345
 20
823.75
 11
1639.4277345
 21
823.25
  0
LINE
  8
_0-0_0
  6
CONTINUOUS
 62
    7
 10
1639.4277345
 20
820.75
 11
1639.4277345
 21
823.25
  0
LINE
  8
_0-0_0
  6
CONTINUOUS
 62
    7
 10
1639.4277345
 20
802.14999399999999
 11
1639.4277345
 21
820.75
  0
CIRCLE
  8
_0-0_0
  6
CONTINUOUS
 62
    7
 10
1602.9277345
 20
811.25
 40
6
  0
CIRCLE
  8
_0-0_0
  6
CONTINUOUS
 62
    7
 10
1502.9277345
 20
811.25
 40
6
  0
CIRCLE
  8
_0-0_0
  6
CONTINUOUS
 62
    7
 10
1402.9277345
 20
811.25
 40
6
  0
CIRCLE
  8
_0-0_0
  6
CONTINUOUS
 62
    7
 10
1302.9277345
 20
811.25
 40
6
  0
CIRCLE
  8
_0-0_0
  6
CONTINUOUS
 62
    7
 10
1202.9277345
 20
811.25
 40
6
  0
CIRCLE
  8
_0-0_0
  6
CONTINUOUS
 62
    7
 10
1102.9277345
 20
811.25
 40
6
  0
CIRCLE
  8
_0-0_0
  6
CONTINUOUS
 62
    7
 10
1002.9277344999999
 20
811.25
 40
6
  0
CIRCLE
  8
_0-0_0
  6
CONTINUOUS
 62
    7
 10
902.92773449999993
 20
811.25
 40
6
  0
CIRCLE
  8
_0-0_0
  6
CONTINUOUS
 62
    7
 10
802.92773449999993
 20
811.25
 40
6
  0
CIRCLE
  8
_0-0_0
  6
CONTINUOUS
 62
    7
 10
702.92773449999993
 20
811.25
 40
6
  0
CIRCLE
  8
_0-0_0
  6
CONTINUOUS
 62
    7
 10
602.92773449999993
 20
811.25
 40
6
  0
CIRCLE
  8
_0-0_0
  6
CONTINUOUS
 62
    7
 10
502.92779549999995
 20
811.25
 40
6
  0
CIRCLE
  8
_0-0_0
  6
CONTINUOUS
 62
    7
 10
402.92779549999995
 20
811.25
 40
6
  0
CIRCLE
  8
_0-0_0
  6
CONTINUOUS
 62
    7
 10
302.9277955
 20
811.25
 40
6
  0
CIRCLE
  8
_0-0_0
  6
CONTINUOUS
 62
    7
 10
202.9277955
 20
811.25
 40
6
  0
CIRCLE
  8
_0-0_0
  6
CONTINUOUS
 62
    7
 10
102.9277955
 20
811.25
 40
6
  0
CIRCLE
  8
_0-0_0
  6
CONTINUOUS
 62
    7
 10
2.927795500000002
 20
811.25
 40
6
  0
CIRCLE
  8
_0-0_0
  6
CONTINUOUS
 62
    7
 10
-97.072204499999998
 20
811.25
 40
6
  0
CIRCLE
  8
_0-0_0
  6
CONTINUOUS
 62
    7
 10
-197.07221950000007
 20
811.25
 40
6
  0
LINE
  8
_0-0_0
  6
CONTINUOUS
 62
    7
 10
-233.57223550000003
 20
820.75
 11
1639.4277345
 21
820.75
  0
LINE
  8
_0-0_0
  6
CONTINUOUS
 62
    7
 10
-233.57223550000003
 20
823.75
 11
1639.4277345
 21
823.75
  0
LINE
  8
_0-0_0
  6
CONTINUOUS
 62
    7
 10
-233.57223550000003
 20
823.25
 11
-236.07223550000003
 21
823.25
  0
LINE
  8
_0-0_0
  6
CONTINUOUS
 62
    7
 10
-236.07223550000003
 20
823.25
 11
-236.07223550000003
 21
822.75
  0
LINE
  8
_0-0_0
  6
CONTINUOUS
 62
    7
 10
-236.07223550000003
 20
822.75
 11
-236.07223550000003
 21
782.25
  0
LINE
  8
_0-0_0
  6
CONTINUOUS
 62
    7
 10
-233.57223550000003
 20
781.75
 11
-236.07223550000003
 21
781.75
  0
LINE
  8
_0-0_0
  6
CONTINUOUS
 62
    7
 10
-236.07223550000003
 20
782.25
 11
-236.07223550000003
 21
781.75
  0
LINE
  8
_0-0_0
  6
CONTINUOUS
 62
    7
 10
-236.07223550000003
 20
781.75
 11
-236.07223550000003
 21
780.75
  0
LINE
  8
_0-0_0
  6
CONTINUOUS
 62
    7
 10
-236.07223550000003
 20
780.75
 11
-236.07223550000003
 21
776.25
  0
LINE
  8
_0-0_0
  6
CONTINUOUS
 62
    7
 10
-233.57223550000003
 20
775.75
 11
-236.07223550000003
 21
775.75
  0
LINE
  8
_0-0_0
  6
CONTINUOUS
 62
    7
 10
-236.07223550000003
 20
776.25
 11
-236.07223550000003
 21
775.75
  0
LINE
  8
_0-0_0
  6
CONTINUOUS
 62
    7
 10
-233.57223550000003
 20
775.25
 11
1639.4277345
 21
775.25
  0
LINE
  8
_0-0_0
  6
CONTINUOUS
 62
    7
 10
-233.57223550000003
 20
781.25
 11
1639.4277345
 21
781.25
  0
LINE
  8
_0-0_0
  6
CONTINUOUS
 62
    7
 10
-233.57223550000003
 20
784.94998199999998
 11
1639.4277345
 21
784.94998199999998
  0
LINE
  8
_0-0_0
  6
CONTINUOUS
 62
    7
 10
1639.4277345
 20
823.25
 11
1641.9277345
 21
823.25
  0
LINE
  8
_0-0_0
  6
CONTINUOUS
 62
    7
 10
1641.9277345
 20
823.25
 11
1641.9277345
 21
822.75
  0
LINE
  8
_0-0_0
  6
CONTINUOUS
 62
    7
 10
1641.9277345
 20
822.75
 11
1641.9277345
 21
782.25
  0
LINE
  8
_0-0_0
  6
CONTINUOUS
 62
    7
 10
1639.4277345
 20
781.75
 11
1641.9277345
 21
781.75
  0
LINE
  8
_0-0_0
  6
CONTINUOUS
 62
    7
 10
1641.9277345
 20
782.25
 11
1641.9277345
 21
781.75
  0
LINE
  8
_0-0_0
  6
CONTINUOUS
 62
    7
 10
1641.9277345
 20
781.75
 11
1641.9277345
 21
780.75
  0
LINE
  8
_0-0_0
  6
CONTINUOUS
 62
    7
 10
1641.9277345
 20
780.75
 11
1641.9277345
 21
776.25
  0
LINE
  8
_0-0_0
  6
CONTINUOUS
 62
    7
 10
1639.4277345
 20
775.75
 11
1641.9277345
 21
775.75
  0
LINE
  8
_0-0_0
  6
CONTINUOUS
 62
    7
 10
1641.9277345
 20
776.25
 11
1641.9277345
 21
775.75
  0
ARC
  8
_0-0_0
  6
CONTINUOUS
 62
    7
 10
-176.07221950000007
 20
776.25
 40
0.5
 50
269.99999700000001
 51
0
  0
LINE
  8
_0-0_0
  6
CONTINUOUS
 62
    7
 10
-176.07221950000007
 20
775.75
 11
-183.07221950000007
 21
775.75
  0
ARC
  8
_0-0_0
  6
CONTINUOUS
 62
    7
 10
-183.07221950000007
 20
776.25
 40
0.5
 50
179.99999099999999
 51
269.99999700000001
  0
LINE
  8
_0-0_0
  6
CONTINUOUS
 62
    7
 10
-183.57221950000007
 20
780.25
 11
-183.57221950000007
 21
776.25
  0
ARC
  8
_0-0_0
  6
CONTINUOUS
 62
    7
 10
-183.07221950000007
 20
780.25
 40
0.5
 50
90.000003000000007
 51
179.99999099999999
  0
ARC
  8
_0-0_0
  6
CONTINUOUS
 62
    7
 10
-176.07221950000007
 20
780.25
 40
0.5
 50
0
 51
90.000003000000007
  0
LINE
  8
_0-0_0
  6
CONTINUOUS
 62
    7
 10
-183.07221950000007
 20
780.75
 11
-176.07221950000007
 21
780.75
  0
LINE
  8
_0-0_0
  6
CONTINUOUS
 62
    7
 10
1639.4277345
 20
823.75
 11
1639.4277345
 21
823.44998199999998
  0
LINE
  8
_0-0_0
  6
CONTINUOUS
 62
    7
 10
1639.4277345
 20
823.44998199999998
 11
1639.4277345
 21
823.25
  0
CIRCLE
  8
_0-0_0
  6
CONTINUOUS
 62
    7
 10
1602.9277345
 20
811.25
 40
5.5
  0
CIRCLE
  8
_0-0_0
  6
CONTINUOUS
 62
    7
 10
1502.9277345
 20
811.25
 40
5.5
  0
CIRCLE
  8
_0-0_0
  6
CONTINUOUS
 62
    7
 10
1402.9277345
 20
811.25
 40
5.5
  0
CIRCLE
  8
_0-0_0
  6
CONTINUOUS
 62
    7
 10
1302.9277345
 20
811.25
 40
5.5
  0
CIRCLE
  8
_0-0_0
  6
CONTINUOUS
 62
    7
 10
1202.9277345
 20
811.25
 40
5.5
  0
CIRCLE
  8
_0-0_0
  6
CONTINUOUS
 62
    7
 10
1102.9277345
 20
811.25
 40
5.5
  0
CIRCLE
  8
_0-0_0
  6
CONTINUOUS
 62
    7
 10
1002.9277344999999
 20
811.25
 40
5.5
  0
CIRCLE
  8
_0-0_0
  6
CONTINUOUS
 62
    7
 10
902.92773449999993
 20
811.25
 40
5.5
  0
CIRCLE
  8
_0-0_0
  6
CONTINUOUS
 62
    7
 10
802.92773449999993
 20
811.25
 40
5.5
  0
CIRCLE
  8
_0-0_0
  6
CONTINUOUS
 62
    7
 10
702.92773449999993
 20
811.25
 40
5.5
  0
CIRCLE
  8
_0-0_0
  6
CONTINUOUS
 62
    7
 10
602.92773449999993
 20
811.25
 40
5.5
  0
CIRCLE
  8
_0-0_0
  6
CONTINUOUS
 62
    7
 10
502.92779549999995
 20
811.25
 40
5.5
  0
CIRCLE
  8
_0-0_0
  6
CONTINUOUS
 62
    7
 10
402.92779549999995
 20
811.25
 40
5.5
  0
CIRCLE
  8
_0-0_0
  6
CONTINUOUS
 62
    7
 10
302.9277955
 20
811.25
 40
5.5
  0
CIRCLE
  8
_0-0_0
  6
CONTINUOUS
 62
    7
 10
202.9277955
 20
811.25
 40
5.5
  0
CIRCLE
  8
_0-0_0
  6
CONTINUOUS
 62
    7
 10
102.9277955
 20
811.25
 40
5.5
  0
CIRCLE
  8
_0-0_0
  6
CONTINUOUS
 62
    7
 10
2.927795500000002
 20
811.25
 40
5.5
  0
CIRCLE
  8
_0-0_0
  6
CONTINUOUS
 62
    7
 10
-97.072204499999998
 20
811.25
 40
5.5
  0
CIRCLE
  8
_0-0_0
  6
CONTINUOUS
 62
    7
 10
-197.07221950000007
 20
811.25
 40
5.5
  0
LINE
  8
_0-0_0
  6
CONTINUOUS
 62
    7
 10
-175.57221950000007
 20
776.25
 11
-175.57221950000007
 21
780.25
  0
CIRCLE
  8
_0-0_0
  6
CONTINUOUS
 62
    7
 10
1602.9277345
 20
811.25
 40
3.5
  0
CIRCLE
  8
_0-0_0
  6
CONTINUOUS
 62
    7
 10
1502.9277345
 20
811.25
 40
3.5
  0
CIRCLE
  8
_0-0_0
  6
CONTINUOUS
 62
    7
 10
1402.9277345
 20
811.25
 40
3.5
  0
CIRCLE
  8
_0-0_0
  6
CONTINUOUS
 62
    7
 10
1302.9277345
 20
811.25
 40
3.5
  0
CIRCLE
  8
_0-0_0
  6
CONTINUOUS
 62
    7
 10
1202.9277345
 20
811.25
 40
3.5
  0
CIRCLE
  8
_0-0_0
  6
CONTINUOUS
 62
    7
 10
1102.9277345
 20
811.25
 40
3.5
  0
CIRCLE
  8
_0-0_0
  6
CONTINUOUS
 62
    7
 10
1002.9277344999999
 20
811.25
 40
3.5
  0
CIRCLE
  8
_0-0_0
  6
CONTINUOUS
 62
    7
 10
902.92773449999993
 20
811.25
 40
3.5
  0
CIRCLE
  8
_0-0_0
  6
CONTINUOUS
 62
    7
 10
802.92773449999993
 20
811.25
 40
3.5
  0
CIRCLE
  8
_0-0_0
  6
CONTINUOUS
 62
    7
 10
702.92773449999993
 20
811.25
 40
3.5
  0
CIRCLE
  8
_0-0_0
  6
CONTINUOUS
 62
    7
 10
602.92773449999993
 20
811.25
 40
3.5
  0
CIRCLE
  8
_0-0_0
  6
CONTINUOUS
 62
    7
 10
502.92779549999995
 20
811.25
 40
3.5
  0
CIRCLE
  8
_0-0_0
  6
CONTINUOUS
 62
    7
 10
402.92779549999995
 20
811.25
 40
3.5
  0
CIRCLE
  8
_0-0_0
  6
CONTINUOUS
 62
    7
 10
302.9277955
 20
811.25
 40
3.5
  0
CIRCLE
  8
_0-0_0
  6
CONTINUOUS
 62
    7
 10
202.9277955
 20
811.25
 40
3.5
  0
CIRCLE
  8
_0-0_0
  6
CONTINUOUS
 62
    7
 10
102.9277955
 20
811.25
 40
3.5
  0
CIRCLE
  8
_0-0_0
  6
CONTINUOUS
 62
    7
 10
2.927795500000002
 20
811.25
 40
3.5
  0
CIRCLE
  8
_0-0_0
  6
CONTINUOUS
 62
    7
 10
-97.072204499999998
 20
811.25
 40
3.5
  0
CIRCLE
  8
_0-0_0
  6
CONTINUOUS
 62
    7
 10
-197.07221950000007
 20
811.25
 40
3.5
  0
ARC
  8
_0-0_0
  6
CONTINUOUS
 62
    7
 10
-178.27221650000001
 20
779.94998199999998
 40
0.2
 50
339.62356199999999
 51
90.000002999999978
  0
LINE
  8
_0-0_0
  6
CONTINUOUS
 62
    7
 10
-178.08473249999997
 20
779.88034100000004
 11
-179.38473550000003
 21
776.38034100000004
  0
ARC
  8
_0-0_0
  6
CONTINUOUS
 62
    7
 10
-179.57221950000007
 20
776.44998199999998
 40
0.2
 50
200.37643
 51
339.62356199999999
  0
LINE
  8
_0-0_0
  6
CONTINUOUS
 62
    7
 10
-181.05970750000006
 20
779.88034100000004
 11
-179.7597045
 21
776.38034100000004
  0
ARC
  8
_0-0_0
  6
CONTINUOUS
 62
    7
 10
-180.87222350000002
 20
779.94998199999998
 40
0.2
 50
90.000003000000007
 51
200.37643
  0
LINE
  8
_0-0_0
  6
CONTINUOUS
 62
    7
 10
-180.87222350000002
 20
780.14999399999999
 11
-178.27221650000001
 21
780.14999399999999
  0
ARC
  8
_0-0_0
  6
CONTINUOUS
 62
    7
 10
1559.1276854999999
 20
779.94998199999998
 40
0.2
 50
90.000003000000007
 51
200.37643
  0
LINE
  8
_0-0_0
  6
CONTINUOUS
 62
    7
 10
1559.1276854999999
 20
780.14999399999999
 11
1561.7277835
 21
780.14999399999999
  0
ARC
  8
_0-0_0
  6
CONTINUOUS
 62
    7
 10
1556.9277345
 20
780.25
 40
0.5
 50
90.000003000000007
 51
179.99999099999999
  0
LINE
  8
_0-0_0
  6
CONTINUOUS
 62
    7
 10
1556.4277345
 20
780.25
 11
1556.4277345
 21
776.25
  0
ARC
  8
_0-0_0
  6
CONTINUOUS
 62
    7
 10
1556.9277345
 20
776.25
 40
0.5
 50
179.99999099999999
 51
269.99999700000001
  0
LINE
  8
_0-0_0
  6
CONTINUOUS
 62
    7
 10
1563.9277345
 20
775.75
 11
1556.9277345
 21
775.75
  0
ARC
  8
_0-0_0
  6
CONTINUOUS
 62
    7
 10
1563.9277345
 20
776.25
 40
0.5
 50
269.99999700000001
 51
0
  0
LINE
  8
_0-0_0
  6
CONTINUOUS
 62
    7
 10
1564.4277345
 20
776.25
 11
1564.4277345
 21
780.25
  0
ARC
  8
_0-0_0
  6
CONTINUOUS
 62
    7
 10
1563.9277345
 20
780.25
 40
0.5
 50
0
 51
90.000003000000007
  0
LINE
  8
_0-0_0
  6
CONTINUOUS
 62
    7
 10
1556.9277345
 20
780.75
 11
1563.9277345
 21
780.75
  0
LINE
  8
_0-0_0
  6
CONTINUOUS
 62
    7
 10
1558.9403075
 20
779.88034100000004
 11
1560.2402345
 21
776.38034100000004
  0
ARC
  8
_0-0_0
  6
CONTINUOUS
 62
    7
 10
1560.4277345
 20
776.44998199999998
 40
0.2
 50
200.37643
 51
339.62356199999999
  0
LINE
  8
_0-0_0
  6
CONTINUOUS
 62
    7
 10
1561.9151615000001
 20
779.88034100000004
 11
1560.6152345
 21
776.38034100000004
  0
ARC
  8
_0-0_0
  6
CONTINUOUS
 62
    7
 10
1561.7277835
 20
779.94998199999998
 40
0.2
 50
339.62356199999999
 51
90.000002999999978
  0
LINE
  8
_0-0_0
  6
CONTINUOUS
 62
    7
 10
-227.07223550000003
 20
773.25
 11
-222.07223550000003
 21
773.25
  0
LINE
  8
_0-0_0
  6
CONTINUOUS
 62
    7
 10
-222.07223550000003
 20
773.25
 11
-220.27221650000001
 21
773.25
  0
LINE
  8
_0-0_0
  6
CONTINUOUS
 62
    7
 10
-220.27221650000001
 20
773.25
 11
-219.57223550000003
 21
773.25
  0
ARC
  8
_0-0_0
  6
CONTINUOUS
 62
    7
 10
-220.27221650000001
 20
772.75
 40
0.5
 50
0
 51
90.000003000000007
  0
ARC
  8
_0-0_0
  6
CONTINUOUS
 62
    7
 10
-227.07223550000003
 20
772.75
 40
0.5
 50
90.000003000000007
 51
179.99999099999999
  0
ARC
  8
_0-0_0
  6
CONTINUOUS
 62
    7
 10
-123.57221950000007
 20
772.75
 40
0.5
 50
0
 51
90.000003000000007
  0
LINE
  8
_0-0_0
  6
CONTINUOUS
 62
    7
 10
-219.57223550000003
 20
773.25
 11
-219.57223550000003
 21
771.75
  0
LINE
  8
_0-0_0
  6
CONTINUOUS
 62
    7
 10
-219.57223550000003
 20
773.75
 11
-219.57223550000003
 21
773.25
  0
LINE
  8
_0-0_0
  6
CONTINUOUS
 62
    7
 10
-219.57223550000003
 20
774.25
 11
-219.57223550000003
 21
773.75
  0
LINE
  8
_0-0_0
  6
CONTINUOUS
 62
    7
 10
-219.57223550000003
 20
775.25
 11
-219.57223550000003
 21
774.25
  0
LINE
  8
_0-0_0
  6
CONTINUOUS
 62
    7
 10
-215.57221950000007
 20
773.25
 11
-214.87222350000002
 21
773.25
  0
LINE
  8
_0-0_0
  6
CONTINUOUS
 62
    7
 10
-219.77221650000001
 20
772.75
 11
-219.77221650000001
 21
771.75
  0
LINE
  8
_0-0_0
  6
CONTINUOUS
 62
    7
 10
-216.57223550000003
 20
746.25
 11
-216.57223550000003
 21
747.84997599999997
  0
LINE
  8
_0-0_0
  6
CONTINUOUS
 62
    7
 10
-216.57223550000003
 20
746.25
 11
-222.07223550000003
 21
746.25
  0
LINE
  8
_0-0_0
  6
CONTINUOUS
 62
    7
 10
-200.57221950000007
 20
752.94998199999998
 11
-158.57221950000007
 21
752.94998199999998
  0
LINE
  8
_0-0_0
  6
CONTINUOUS
 62
    7
 10
-200.57221950000007
 20
772.54998799999998
 11
-158.57221950000007
 21
772.54998799999998
  0
LINE
  8
_0-0_0
  6
CONTINUOUS
 62
    7
 10
-137.07221950000007
 20
746.25
 11
-146.57221950000007
 21
746.25
  0
LINE
  8
_0-0_0
  6
CONTINUOUS
 62
    7
 10
-146.57221950000007
 20
746.25
 11
-146.57221950000007
 21
747.84997599999997
  0
ARC
  8
_0-0_0
  6
CONTINUOUS
 62
    7
 10
-146.87222350000002
 20
747.84997599999997
 40
0.2999999999999999
 50
0
 51
90.000003000000007
  0
LINE
  8
_0-0_0
  6
CONTINUOUS
 62
    7
 10
-147.57221950000007
 20
748.14999399999999
 11
-146.87222350000002
 21
748.14999399999999
  0
LINE
  8
_0-0_0
  6
CONTINUOUS
 62
    7
 10
-148.07221950000007
 20
748.54998799999998
 11
-147.57221950000007
 21
748.54998799999998
  0
LINE
  8
_0-0_0
  6
CONTINUOUS
 62
    7
 10
-161.57221950000007
 20
748.54998799999998
 11
-148.07221950000007
 21
748.54998799999998
  0
ARC
  8
_0-0_0
  6
CONTINUOUS
 62
    7
 10
-164.07221950000007
 20
748.54998799999998
 40
2.5
 50
0
 51
90.000003000000007
  0
LINE
  8
_0-0_0
  6
CONTINUOUS
 62
    7
 10
-195.07221950000007
 20
751.04998799999998
 11
-164.07221950000007
 21
751.04998799999998
  0
ARC
  8
_0-0_0
  6
CONTINUOUS
 62
    7
 10
-195.07221950000007
 20
748.54998799999998
 40
2.5
 50
90.000003000000007
 51
179.99999099999999
  0
LINE
  8
_0-0_0
  6
CONTINUOUS
 62
    7
 10
-215.07221950000007
 20
748.54998799999998
 11
-197.57221950000007
 21
748.54998799999998
  0
LINE
  8
_0-0_0
  6
CONTINUOUS
 62
    7
 10
-215.57221950000007
 20
748.54998799999998
 11
-215.07221950000007
 21
748.54998799999998
  0
LINE
  8
_0-0_0
  6
CONTINUOUS
 62
    7
 10
-216.27221650000001
 20
748.14999399999999
 11
-215.57221950000007
 21
748.14999399999999
  0
ARC
  8
_0-0_0
  6
CONTINUOUS
 62
    7
 10
-216.27221650000001
 20
747.84997599999997
 40
0.2999999999999999
 50
90.000003000000007
 51
179.99999099999999
  0
LINE
  8
_0-0_0
  6
CONTINUOUS
 62
    7
 10
-227.57223550000003
 20
770.97485400000005
 11
-227.57223550000003
 21
772.75
  0
LINE
  8
_0-0_0
  6
CONTINUOUS
 62
    7
 10
-222.57223550000003
 20
773.75
 11
-222.57223550000003
 21
773.25
  0
LINE
  8
_0-0_0
  6
CONTINUOUS
 62
    7
 10
-222.57223550000003
 20
769.80355800000007
 11
-222.57223550000003
 21
769.90853900000002
  0
LINE
  8
_0-0_0
  6
CONTINUOUS
 62
    7
 10
-222.57223550000003
 20
773.75
 11
-222.57223550000003
 21
775.24996899999996
  0
LINE
  8
_0-0_0
  6
CONTINUOUS
 62
    7
 10
-123.07221950000007
 20
775.24996899999996
 11
-123.07221950000007
 21
773.75
  0
LINE
  8
_0-0_0
  6
CONTINUOUS
 62
    7
 10
-123.07221950000007
 20
773.75
 11
-123.07221950000007
 21
772.75
  0
LINE
  8
_0-0_0
  6
CONTINUOUS
 62
    7
 10
-123.07221950000007
 20
771.94998199999998
 11
-123.07221950000007
 21
772.75
  0
LINE
  8
_0-0_0
  6
CONTINUOUS
 62
    7
 10
-123.57221950000007
 20
773.25
 11
-123.07221950000007
 21
773.25
  0
LINE
  8
_0-0_0
  6
CONTINUOUS
 62
    7
 10
-136.07221950000007
 20
773.25
 11
-123.57221950000007
 21
773.25
  0
LINE
  8
_0-0_0
  6
CONTINUOUS
 62
    7
 10
-123.07221950000007
 20
775.25
 11
-123.07221950000007
 21
774.25
  0
LINE
  8
_0-0_0
  6
CONTINUOUS
 62
    7
 10
-123.07221950000007
 20
773.75
 11
-123.07221950000007
 21
773.25
  0
LINE
  8
_0-0_0
  6
CONTINUOUS
 62
    7
 10
-123.07221950000007
 20
774.25
 11
-123.07221950000007
 21
773.75
  0
ARC
  8
_0-0_0
  6
CONTINUOUS
 62
    7
 10
-217.57223550000003
 20
771.75
 40
2
 50
179.99999099999999
 51
0
  0
LINE
  8
_0-0_0
  6
CONTINUOUS
 62
    7
 10
-136.57221950000007
 20
773.25
 11
-136.07221950000007
 21
773.25
  0
LINE
  8
_0-0_0
  6
CONTINUOUS
 62
    7
 10
-136.57221950000007
 20
772.75
 11
-136.57221950000007
 21
773.25
  0
LINE
  8
_0-0_0
  6
CONTINUOUS
 62
    7
 10
-136.57221950000007
 20
771.75
 11
-136.57221950000007
 21
771.94998199999998
  0
ARC
  8
_0-0_0
  6
CONTINUOUS
 62
    7
 10
-138.57221950000007
 20
771.75
 40
2
 50
179.99999099999999
 51
0
  0
LINE
  8
_0-0_0
  6
CONTINUOUS
 62
    7
 10
-140.57221950000007
 20
773.25
 11
-140.57221950000007
 21
771.75
  0
LINE
  8
_0-0_0
  6
CONTINUOUS
 62
    7
 10
-141.27221650000001
 20
773.25
 11
-140.57221950000007
 21
773.25
  0
LINE
  8
_0-0_0
  6
CONTINUOUS
 62
    7
 10
-215.57221950000007
 20
771.75
 11
-215.57221950000007
 21
773.25
  0
LINE
  8
_0-0_0
  6
CONTINUOUS
 62
    7
 10
-219.57223550000003
 20
774.25
 11
-123.07221950000007
 21
774.25
  0
ARC
  8
_0-0_0
  6
CONTINUOUS
 62
    7
 10
-214.87222350000002
 20
772.75
 40
0.5
 50
90.000003000000007
 51
179.99999099999999
  0
ARC
  8
_0-0_0
  6
CONTINUOUS
 62
    7
 10
-217.57223550000003
 20
771.75
 40
2.2000000000000002
 50
179.99999099999999
 51
0
  0
LINE
  8
_0-0_0
  6
CONTINUOUS
 62
    7
 10
-215.57221950000007
 20
748.14999399999999
 11
-215.07221950000007
 21
748.14999399999999
  0
LINE
  8
_0-0_0
  6
CONTINUOUS
 62
    7
 10
-215.07221950000007
 20
748.54998799999998
 11
-215.07221950000007
 21
748.14999399999999
  0
LINE
  8
_0-0_0
  6
CONTINUOUS
 62
    7
 10
-197.57221950000007
 20
748.54998799999998
 11
-161.57221950000007
 21
748.54998799999998
  0
LINE
  8
_0-0_0
  6
CONTINUOUS
 62
    7
 10
-148.07221950000007
 20
748.14999399999999
 11
-147.57221950000007
 21
748.14999399999999
  0
LINE
  8
_0-0_0
  6
CONTINUOUS
 62
    7
 10
-148.07221950000007
 20
748.54998799999998
 11
-148.07221950000007
 21
748.14999399999999
  0
LINE
  8
_0-0_0
  6
CONTINUOUS
 62
    7
 10
-137.07221950000007
 20
745.75
 11
-146.07221950000007
 21
745.75
  0
ARC
  8
_0-0_0
  6
CONTINUOUS
 62
    7
 10
-146.07221950000007
 20
746.25
 40
0.5
 50
179.99999099999999
 51
269.99999700000001
  0
LINE
  8
_0-0_0
  6
CONTINUOUS
 62
    7
 10
-137.07221950000007
 20
746.25
 11
-136.57221950000007
 21
746.25
  0
LINE
  8
_0-0_0
  6
CONTINUOUS
 62
    7
 10
-136.57221950000007
 20
746.25
 11
-136.57221950000007
 21
746.44998199999998
  0
LINE
  8
_0-0_0
  6
CONTINUOUS
 62
    7
 10
-132.07221950000007
 20
746.64999399999999
 11
-136.37222350000002
 21
746.64999399999999
  0
LINE
  8
_0-0_0
  6
CONTINUOUS
 62
    7
 10
-131.57221950000007
 20
747.14999399999999
 11
-131.57221950000007
 21
748.92511000000002
  0
ARC
  8
_0-0_0
  6
CONTINUOUS
 62
    7
 10
-134.62017850000007
 20
748.86898799999994
 40
3.0490550000000001
 50
1.0548960000000001
 51
14.838094000000002
  0
LINE
  8
_0-0_0
  6
CONTINUOUS
 62
    7
 10
-132.07221950000007
 20
749.84997599999997
 11
-136.43975850000004
 21
749.84997599999997
  0
LINE
  8
_0-0_0
  6
CONTINUOUS
 62
    7
 10
-136.57221950000007
 20
749.99142499999994
 11
-136.57221950000007
 21
750.33367900000007
  0
ARC
  8
_0-0_0
  6
CONTINUOUS
 62
    7
 10
-138.57221950000007
 20
771.75
 40
2.2000000000000002
 50
179.99999099999999
 51
303.74900400000001
  0
LINE
  8
_0-0_0
  6
CONTINUOUS
 62
    7
 10
-140.77221650000001
 20
772.75
 11
-140.77221650000001
 21
771.75
  0
LINE
  8
_0-0_0
  6
CONTINUOUS
 62
    7
 10
-141.27221650000001
 20
773.25
 11
-214.87222350000002
 21
773.25
  0
LINE
  8
_0-0_0
  6
CONTINUOUS
 62
    7
 10
-215.37222350000002
 20
771.75
 11
-215.37222350000002
 21
772.75
  0
LINE
  8
_0-0_0
  6
CONTINUOUS
 62
    7
 10
-214.87222350000002
 20
771.54998799999998
 11
-214.87222350000002
 21
771.75
  0
ARC
  8
_0-0_0
  6
CONTINUOUS
 62
    7
 10
-213.87222350000002
 20
771.54998799999998
 40
1
 50
90.000003000000007
 51
179.99999099999999
  0
LINE
  8
_0-0_0
  6
CONTINUOUS
 62
    7
 10
-213.87222350000002
 20
772.54998799999998
 11
-200.57221950000007
 21
772.54998799999998
  0
LINE
  8
_0-0_0
  6
CONTINUOUS
 62
    7
 10
-158.57221950000007
 20
772.54998799999998
 11
-144.57221950000007
 21
772.54998799999998
  0
ARC
  8
_0-0_0
  6
CONTINUOUS
 62
    7
 10
-144.57221950000007
 20
769.54998799999998
 40
3
 50
0
 51
90.000003000000007
  0
LINE
  8
_0-0_0
  6
CONTINUOUS
 62
    7
 10
-141.57221950000007
 20
755.94998199999998
 11
-141.57221950000007
 21
769.54998799999998
  0
ARC
  8
_0-0_0
  6
CONTINUOUS
 62
    7
 10
-144.57221950000007
 20
755.94998199999998
 40
3
 50
269.99999700000001
 51
0
  0
LINE
  8
_0-0_0
  6
CONTINUOUS
 62
    7
 10
-144.57221950000007
 20
752.94998199999998
 11
-158.57221950000007
 21
752.94998199999998
  0
LINE
  8
_0-0_0
  6
CONTINUOUS
 62
    7
 10
-200.57221950000007
 20
752.94998199999998
 11
-214.57221950000007
 21
752.94998199999998
  0
ARC
  8
_0-0_0
  6
CONTINUOUS
 62
    7
 10
-214.57221950000007
 20
755.94998199999998
 40
3
 50
179.99999099999999
 51
269.99999700000001
  0
LINE
  8
_0-0_0
  6
CONTINUOUS
 62
    7
 10
-217.57223550000003
 20
768.18768299999999
 11
-217.57223550000003
 21
755.94998199999998
  0
ARC
  8
_0-0_0
  6
CONTINUOUS
 62
    7
 10
-216.57223550000003
 20
768.18768299999999
 40
1
 50
105.68034800000001
 51
179.99999100000002
  0
ARC
  8
_0-0_0
  6
CONTINUOUS
 62
    7
 10
-224.52426149999997
 20
771.03097500000001
 40
3.0490550000000001
 50
181.05489
 51
194.838089
  0
LINE
  8
_0-0_0
  6
CONTINUOUS
 62
    7
 10
-222.70468150000011
 20
770.04998799999998
 11
-227.07223550000003
 21
770.04998799999998
  0
LINE
  8
_0-0_0
  6
CONTINUOUS
 62
    7
 10
-222.57223550000003
 20
749.99142499999994
 11
-222.57223550000003
 21
750.096405
  0
LINE
  8
_0-0_0
  6
CONTINUOUS
 62
    7
 10
-222.70468150000011
 20
749.84997599999997
 11
-227.07223550000003
 21
749.84997599999997
  0
ARC
  8
_0-0_0
  6
CONTINUOUS
 62
    7
 10
-224.52307150000001
 20
748.86834700000009
 40
3.050319
 50
165.15540799999999
 51
178.932897
  0
LINE
  8
_0-0_0
  6
CONTINUOUS
 62
    7
 10
-227.57223550000003
 20
747.14999399999999
 11
-227.57223550000003
 21
748.92511000000002
  0
LINE
  8
_0-0_0
  6
CONTINUOUS
 62
    7
 10
-222.77221650000001
 20
746.64999399999999
 11
-227.07223550000003
 21
746.64999399999999
  0
LINE
  8
_0-0_0
  6
CONTINUOUS
 62
    7
 10
-222.57223550000003
 20
746.25
 11
-222.57223550000003
 21
746.44998199999998
  0
LINE
  8
_0-0_0
  6
CONTINUOUS
 62
    7
 10
-222.57223550000003
 20
746.25
 11
-222.07223550000003
 21
746.25
  0
LINE
  8
_0-0_0
  6
CONTINUOUS
 62
    7
 10
-217.07223550000003
 20
745.75
 11
-222.07223550000003
 21
745.75
  0
ARC
  8
_0-0_0
  6
CONTINUOUS
 62
    7
 10
-217.07223550000003
 20
746.25
 40
0.5
 50
269.99999700000001
 51
0
  0
LINE
  8
_0-0_0
  6
CONTINUOUS
 62
    7
 10
-227.25396750000004
 20
770.04998799999998
 11
-227.27432249999993
 21
770.05099500000006
  0
LINE
  8
_0-0_0
  6
CONTINUOUS
 62
    7
 10
-227.27432249999993
 20
770.05099500000006
 11
-227.29470850000007
 21
770.05413799999997
  0
LINE
  8
_0-0_0
  6
CONTINUOUS
 62
    7
 10
-227.29470850000007
 20
770.05413799999997
 11
-227.32153349999999
 21
770.06173699999999
  0
LINE
  8
_0-0_0
  6
CONTINUOUS
 62
    7
 10
-227.32153349999999
 20
770.06173699999999
 11
-227.3471985000001
 21
770.07312000000002
  0
LINE
  8
_0-0_0
  6
CONTINUOUS
 62
    7
 10
-227.3471985000001
 20
770.07312000000002
 11
-227.37100250000003
 21
770.08798200000001
  0
LINE
  8
_0-0_0
  6
CONTINUOUS
 62
    7
 10
-227.37100250000003
 20
770.08798200000001
 11
-227.38772549999999
 21
770.10150099999998
  0
LINE
  8
_0-0_0
  6
CONTINUOUS
 62
    7
 10
-227.38772549999999
 20
770.10150099999998
 11
-227.40322850000007
 21
770.11672999999996
  0
LINE
  8
_0-0_0
  6
CONTINUOUS
 62
    7
 10
-227.40322850000007
 20
770.11672999999996
 11
-227.43014549999998
 21
770.15136699999994
  0
LINE
  8
_0-0_0
  6
CONTINUOUS
 62
    7
 10
-227.43014549999998
 20
770.15136699999994
 11
-227.45120249999991
 21
770.18969700000002
  0
LINE
  8
_0-0_0
  6
CONTINUOUS
 62
    7
 10
-227.45120249999991
 20
770.18969700000002
 11
-227.46316550000006
 21
770.21963499999993
  0
LINE
  8
_0-0_0
  6
CONTINUOUS
 62
    7
 10
-227.46316550000006
 20
770.21963499999993
 11
-227.4721985000001
 21
770.25
  0
LINE
  8
_0-0_0
  6
CONTINUOUS
 62
    7
 10
-227.56100450000008
 20
770.75
 11
-234.57223550000003
 21
770.75
  0
LINE
  8
_0-0_0
  6
CONTINUOUS
 62
    7
 10
-234.57223550000003
 20
770.75
 11
-239.24765049999996
 21
770.75
  0
LINE
  8
_0-0_0
  6
CONTINUOUS
 62
    7
 10
-234.57223550000003
 20
770.75
 11
-234.57223550000003
 21
768.75
  0
LINE
  8
_0-0_0
  6
CONTINUOUS
 62
    7
 10
-222.57223550000003
 20
768.75
 11
-222.57223550000003
 21
769.80355800000007
  0
ARC
  8
_0-0_0
  6
CONTINUOUS
 62
    7
 10
-123.57221950000007
 20
771.94998199999998
 40
0.5
 50
269.99999700000001
 51
0
  0
ARC
  8
_0-0_0
  6
CONTINUOUS
 62
    7
 10
-136.07221950000007
 20
772.75
 40
0.5
 50
90.000003000000007
 51
179.99999099999999
  0
LINE
  8
_0-0_0
  6
CONTINUOUS
 62
    7
 10
-136.57221950000007
 20
771.94998199999998
 11
-136.57221950000007
 21
772.75
  0
LINE
  8
_0-0_0
  6
CONTINUOUS
 62
    7
 10
-216.37222350000002
 20
748.13284299999998
 11
-216.37222350000002
 21
746.14999399999999
  0
LINE
  8
_0-0_0
  6
CONTINUOUS
 62
    7
 10
-216.37222350000002
 20
746.14999399999999
 11
-215.37222350000002
 21
746.14999399999999
  0
LINE
  8
_0-0_0
  6
CONTINUOUS
 62
    7
 10
-215.07221950000007
 20
748.14999399999999
 11
-148.07221950000007
 21
748.14999399999999
  0
LINE
  8
_0-0_0
  6
CONTINUOUS
 62
    7
 10
-215.37222350000002
 20
746.14999399999999
 11
-147.77221650000001
 21
746.14999399999999
  0
LINE
  8
_0-0_0
  6
CONTINUOUS
 62
    7
 10
-147.77221650000001
 20
746.14999399999999
 11
-146.77221650000001
 21
746.14999399999999
  0
LINE
  8
_0-0_0
  6
CONTINUOUS
 62
    7
 10
-146.77221650000001
 20
748.13284299999998
 11
-146.77221650000001
 21
746.14999399999999
  0
LINE
  8
_0-0_0
  6
CONTINUOUS
 62
    7
 10
-136.57221950000007
 20
746.25
 11
-137.07221950000007
 21
745.75
  0
ARC
  8
_0-0_0
  6
CONTINUOUS
 62
    7
 10
-136.37222350000002
 20
746.44998199999998
 40
0.2
 50
90.000003000000007
 51
179.99999099999999
  0
ARC
  8
_0-0_0
  6
CONTINUOUS
 62
    7
 10
-132.07221950000007
 20
747.14999399999999
 40
0.5
 50
269.99999700000001
 51
0
  0
LINE
  8
_0-0_0
  6
CONTINUOUS
 62
    7
 10
-131.89047249999999
 20
749.84997599999997
 11
-131.87011750000011
 21
749.84896900000001
  0
LINE
  8
_0-0_0
  6
CONTINUOUS
 62
    7
 10
-131.87011750000011
 20
749.84896900000001
 11
-131.84971650000011
 21
749.84582499999999
  0
LINE
  8
_0-0_0
  6
CONTINUOUS
 62
    7
 10
-131.84971650000011
 20
749.84582499999999
 11
-131.82289150000008
 21
749.83822600000008
  0
LINE
  8
_0-0_0
  6
CONTINUOUS
 62
    7
 10
-131.82289150000008
 20
749.83822600000008
 11
-131.7972565
 21
749.82687399999998
  0
LINE
  8
_0-0_0
  6
CONTINUOUS
 62
    7
 10
-131.7972565
 20
749.82687399999998
 11
-131.77345250000008
 21
749.81198100000006
  0
LINE
  8
_0-0_0
  6
CONTINUOUS
 62
    7
 10
-131.77345250000008
 20
749.81198100000006
 11
-131.75669850000008
 21
749.79846199999997
  0
LINE
  8
_0-0_0
  6
CONTINUOUS
 62
    7
 10
-131.75669850000008
 20
749.79846199999997
 11
-131.7411955
 21
749.78326399999992
  0
LINE
  8
_0-0_0
  6
CONTINUOUS
 62
    7
 10
-131.7411955
 20
749.78326399999992
 11
-131.71429450000005
 21
749.74859600000002
  0
LINE
  8
_0-0_0
  6
CONTINUOUS
 62
    7
 10
-131.71429450000005
 20
749.74859600000002
 11
-131.69325249999997
 21
749.71026600000005
  0
LINE
  8
_0-0_0
  6
CONTINUOUS
 62
    7
 10
-131.69325249999997
 20
749.71026600000005
 11
-131.68125950000001
 21
749.68035899999995
  0
LINE
  8
_0-0_0
  6
CONTINUOUS
 62
    7
 10
-131.68125950000001
 20
749.68035899999995
 11
-131.67221050000001
 21
749.64999399999999
  0
LINE
  8
_0-0_0
  6
CONTINUOUS
 62
    7
 10
-131.89047249999999
 20
749.84997599999997
 11
-132.07221950000007
 21
749.84997599999997
  0
LINE
  8
_0-0_0
  6
CONTINUOUS
 62
    7
 10
-136.57221950000007
 20
768.29998799999998
 11
-136.57221950000007
 21
770.79998799999998
  0
LINE
  8
_0-0_0
  6
CONTINUOUS
 62
    7
 10
-136.57221950000007
 20
768.29998799999998
 11
-136.57221950000007
 21
751.79998799999998
  0
LINE
  8
_0-0_0
  6
CONTINUOUS
 62
    7
 10
-136.57221950000007
 20
750.33367900000007
 11
-136.57221950000007
 21
751.79998799999998
  0
ARC
  8
_0-0_0
  6
CONTINUOUS
 62
    7
 10
-137.07221950000007
 20
769.50500499999998
 40
0.5
 50
0
 51
123.74898500000002
  0
ARC
  8
_0-0_0
  6
CONTINUOUS
 62
    7
 10
-136.40193150000005
 20
750.02328499999999
 40
0.1734229999999999
 50
181.12417600000003
 51
270.64883800000007
  0
LINE
  8
_0-0_0
  6
CONTINUOUS
 62
    7
 10
-136.5762635000001
 20
750.04998799999998
 11
-136.57617249999998
 21
750.01986699999998
  0
ARC
  8
_0-0_0
  6
CONTINUOUS
 62
    7
 10
-141.27221650000001
 20
772.75
 40
0.5
 50
0
 51
90.000003000000007
  0
ARC
  8
_0-0_0
  6
CONTINUOUS
 62
    7
 10
-217.57223550000003
 20
771.75
 40
2.7000000000000002
 50
285.68033600000007
 51
0.0000000000000381
  0
ARC
  8
_0-0_0
  6
CONTINUOUS
 62
    7
 10
-200.57221950000007
 20
755.94998199999998
 40
3
 50
269.99999700000001
 51
0
  0
LINE
  8
_0-0_0
  6
CONTINUOUS
 62
    7
 10
-197.57221950000007
 20
755.94998199999998
 11
-197.57221950000007
 21
769.54998799999998
  0
ARC
  8
_0-0_0
  6
CONTINUOUS
 62
    7
 10
-200.57221950000007
 20
769.54998799999998
 40
3
 50
0
 51
90.000003000000007
  0
ARC
  8
_0-0_0
  6
CONTINUOUS
 62
    7
 10
-205.07221950000007
 20
765.25
 40
4.5
 50
269.99999700000001
 51
90.000002999999992
  0
LINE
  8
_0-0_0
  6
CONTINUOUS
 62
    7
 10
-205.07221950000007
 20
760.75
 11
-210.07221950000007
 21
760.75
  0
ARC
  8
_0-0_0
  6
CONTINUOUS
 62
    7
 10
-210.07221950000007
 20
765.25
 40
4.5
 50
90.000003000000007
 51
269.99999700000006
  0
LINE
  8
_0-0_0
  6
CONTINUOUS
 62
    7
 10
-210.07221950000007
 20
769.75
 11
-205.07221950000007
 21
769.75
  0
ARC
  8
_0-0_0
  6
CONTINUOUS
 62
    7
 10
-158.57221950000007
 20
755.94998199999998
 40
3
 50
179.99999099999999
 51
269.99999700000001
  0
LINE
  8
_0-0_0
  6
CONTINUOUS
 62
    7
 10
-161.57221950000007
 20
769.54998799999998
 11
-161.57221950000007
 21
755.94998199999998
  0
ARC
  8
_0-0_0
  6
CONTINUOUS
 62
    7
 10
-158.57221950000007
 20
769.54998799999998
 40
3
 50
90.000003000000007
 51
179.99999099999999
  0
ARC
  8
_0-0_0
  6
CONTINUOUS
 62
    7
 10
-149.07221950000007
 20
765.25
 40
4.5
 50
269.99999700000001
 51
90.000002999999992
  0
LINE
  8
_0-0_0
  6
CONTINUOUS
 62
    7
 10
-149.07221950000007
 20
760.75
 11
-154.07221950000007
 21
760.75
  0
ARC
  8
_0-0_0
  6
CONTINUOUS
 62
    7
 10
-154.07221950000007
 20
765.25
 40
4.5
 50
90.000003000000007
 51
269.99999700000006
  0
LINE
  8
_0-0_0
  6
CONTINUOUS
 62
    7
 10
-154.07221950000007
 20
769.75
 11
-149.07221950000007
 21
769.75
  0
LINE
  8
_0-0_0
  6
CONTINUOUS
 62
    7
 10
-227.07223550000003
 20
770.04998799999998
 11
-227.25396750000004
 21
770.04998799999998
  0
LINE
  8
_0-0_0
  6
CONTINUOUS
 62
    7
 10
-222.57223550000003
 20
768.75
 11
-222.57223550000003
 21
751.14999399999999
  0
LINE
  8
_0-0_0
  6
CONTINUOUS
 62
    7
 10
-222.57223550000003
 20
750.096405
 11
-222.57223550000003
 21
751.14999399999999
  0
ARC
  8
_0-0_0
  6
CONTINUOUS
 62
    7
 10
-222.74252350000006
 20
750.02328499999999
 40
0.1734209999999999
 50
269.35085600000002
 51
358.87625300000002
  0
LINE
  8
_0-0_0
  6
CONTINUOUS
 62
    7
 10
-222.56817649999994
 20
750.04998799999998
 11
-222.56826750000005
 21
750.01986699999998
  0
LINE
  8
_0-0_0
  6
CONTINUOUS
 62
    7
 10
-222.56817649999994
 20
769.84997599999997
 11
-222.56826750000005
 21
769.88012700000002
  0
ARC
  8
_0-0_0
  6
CONTINUOUS
 62
    7
 10
-222.74252350000006
 20
769.87670900000001
 40
0.1734219999999999
 50
1.1236539999999999
 51
90.649110000000007
  0
LINE
  8
_0-0_0
  6
CONTINUOUS
 62
    7
 10
-227.07223550000003
 20
749.84997599999997
 11
-227.25396750000004
 21
749.84997599999997
  0
LINE
  8
_0-0_0
  6
CONTINUOUS
 62
    7
 10
-227.25396750000004
 20
749.84997599999997
 11
-227.27432249999993
 21
749.84896900000001
  0
LINE
  8
_0-0_0
  6
CONTINUOUS
 62
    7
 10
-227.27432249999993
 20
749.84896900000001
 11
-227.29470850000007
 21
749.84582499999999
  0
LINE
  8
_0-0_0
  6
CONTINUOUS
 62
    7
 10
-227.29470850000007
 20
749.84582499999999
 11
-227.32153349999999
 21
749.83822600000008
  0
LINE
  8
_0-0_0
  6
CONTINUOUS
 62
    7
 10
-227.32153349999999
 20
749.83822600000008
 11
-227.3471985000001
 21
749.82687399999998
  0
LINE
  8
_0-0_0
  6
CONTINUOUS
 62
    7
 10
-227.3471985000001
 20
749.82687399999998
 11
-227.37100250000003
 21
749.81198100000006
  0
LINE
  8
_0-0_0
  6
CONTINUOUS
 62
    7
 10
-227.37100250000003
 20
749.81198100000006
 11
-227.38772549999999
 21
749.79846199999997
  0
LINE
  8
_0-0_0
  6
CONTINUOUS
 62
    7
 10
-227.38772549999999
 20
749.79846199999997
 11
-227.40322850000007
 21
749.78326399999992
  0
LINE
  8
_0-0_0
  6
CONTINUOUS
 62
    7
 10
-227.40322850000007
 20
749.78326399999992
 11
-227.43014549999998
 21
749.74859600000002
  0
LINE
  8
_0-0_0
  6
CONTINUOUS
 62
    7
 10
-227.43014549999998
 20
749.74859600000002
 11
-227.45120249999991
 21
749.71026600000005
  0
LINE
  8
_0-0_0
  6
CONTINUOUS
 62
    7
 10
-227.45120249999991
 20
749.71026600000005
 11
-227.46316550000006
 21
749.68035899999995
  0
LINE
  8
_0-0_0
  6
CONTINUOUS
 62
    7
 10
-227.46316550000006
 20
749.68035899999995
 11
-227.4721985000001
 21
749.64999399999999
  0
ARC
  8
_0-0_0
  6
CONTINUOUS
 62
    7
 10
-227.07223550000003
 20
747.14999399999999
 40
0.5
 50
179.99999099999999
 51
269.99999700000001
  0
ARC
  8
_0-0_0
  6
CONTINUOUS
 62
    7
 10
-222.77221650000001
 20
746.44998199999998
 40
0.2
 50
0
 51
90.000003000000007
  0
LINE
  8
_0-0_0
  6
CONTINUOUS
 62
    7
 10
-222.57223550000003
 20
746.25
 11
-222.07223550000003
 21
745.75
  0
ARC
  8
_0-0_0
  6
CONTINUOUS
 62
    7
 10
-239.24765049999996
 20
768.75
 40
2
 50
90.000003000000007
 51
108.434997
  0
LINE
  8
_0-0_0
  6
CONTINUOUS
 62
    7
 10
-234.57223550000003
 20
768.25
 11
-234.57223550000003
 21
768.75
  0
LINE
  8
_0-0_0
  6
CONTINUOUS
 62
    7
 10
-234.57223550000003
 20
765.25
 11
-234.57223550000003
 21
764.75
  0
LINE
  8
_0-0_0
  6
CONTINUOUS
 62
    7
 10
-234.57223550000003
 20
765.25
 11
-234.57223550000003
 21
768.25
  0
ARC
  8
_0-0_0
  6
CONTINUOUS
 62
    7
 10
-228.5722045
 20
765.44998199999998
 40
0.500016
 50
0.001164
 51
179.99560600000004
  0
LINE
  8
_0-0_0
  6
CONTINUOUS
 62
    7
 10
-229.07223550000003
 20
765.44998199999998
 11
-229.07223550000003
 21
753.44998199999998
  0
ARC
  8
_0-0_0
  6
CONTINUOUS
 62
    7
 10
-228.5722045
 20
753.45001200000002
 40
0.500016
 50
180.00117
 51
359.995611
  0
LINE
  8
_0-0_0
  6
CONTINUOUS
 62
    7
 10
-228.07223550000003
 20
765.44998199999998
 11
-228.07223550000003
 21
753.44998199999998
  0
ARC
  8
_0-0_0
  6
CONTINUOUS
 62
    7
 10
-230.0722045
 20
765.44998199999998
 40
0.500016
 50
0.001164
 51
179.99560600000004
  0
LINE
  8
_0-0_0
  6
CONTINUOUS
 62
    7
 10
-230.57223550000003
 20
765.44998199999998
 11
-230.57223550000003
 21
753.44998199999998
  0
ARC
  8
_0-0_0
  6
CONTINUOUS
 62
    7
 10
-230.0722045
 20
753.45001200000002
 40
0.500016
 50
180.00117
 51
359.995611
  0
LINE
  8
_0-0_0
  6
CONTINUOUS
 62
    7
 10
-229.57223550000003
 20
765.44998199999998
 11
-229.57223550000003
 21
753.44998199999998
  0
ARC
  8
_0-0_0
  6
CONTINUOUS
 62
    7
 10
-231.5722045
 20
765.44998199999998
 40
0.500016
 50
0.001164
 51
179.99560600000004
  0
LINE
  8
_0-0_0
  6
CONTINUOUS
 62
    7
 10
-232.07223550000003
 20
765.44998199999998
 11
-232.07223550000003
 21
753.44998199999998
  0
ARC
  8
_0-0_0
  6
CONTINUOUS
 62
    7
 10
-231.5722045
 20
753.45001200000002
 40
0.500016
 50
180.00117
 51
359.995611
  0
LINE
  8
_0-0_0
  6
CONTINUOUS
 62
    7
 10
-231.07223550000003
 20
765.44998199999998
 11
-231.07223550000003
 21
753.44998199999998
  0
ARC
  8
_0-0_0
  6
CONTINUOUS
 62
    7
 10
-233.0722045
 20
765.44998199999998
 40
0.500016
 50
0.001164
 51
179.99560600000004
  0
LINE
  8
_0-0_0
  6
CONTINUOUS
 62
    7
 10
-233.57223550000003
 20
765.44998199999998
 11
-233.57223550000003
 21
753.44998199999998
  0
ARC
  8
_0-0_0
  6
CONTINUOUS
 62
    7
 10
-233.0722045
 20
753.45001200000002
 40
0.500016
 50
180.00117
 51
359.995611
  0
LINE
  8
_0-0_0
  6
CONTINUOUS
 62
    7
 10
-232.57223550000003
 20
765.44998199999998
 11
-232.57223550000003
 21
753.44998199999998
  0
LINE
  8
_0-0_0
  6
CONTINUOUS
 62
    7
 10
-136.57221950000007
 20
771.44998199999998
 11
-136.07221950000007
 21
771.44998199999998
  0
LINE
  8
_0-0_0
  6
CONTINUOUS
 62
    7
 10
-136.07221950000007
 20
771.44998199999998
 11
-123.57221950000007
 21
771.44998199999998
  0
ARC
  8
_0-0_0
  6
CONTINUOUS
 62
    7
 10
-136.07221950000007
 20
771.94998199999998
 40
0.5
 50
179.99999099999999
 51
269.99999700000001
  0
LINE
  8
_0-0_0
  6
CONTINUOUS
 62
    7
 10
-136.57221950000007
 20
771.08395399999995
 11
-136.57221950000007
 21
771.44998199999998
  0
LINE
  8
_0-0_0
  6
CONTINUOUS
 62
    7
 10
-136.57221950000007
 20
770.83346600000004
 11
-136.57221950000007
 21
770.79998799999998
  0
LINE
  8
_0-0_0
  6
CONTINUOUS
 62
    7
 10
-136.57221950000007
 20
771.08395399999995
 11
-136.57221950000007
 21
770.83346600000004
  0
CIRCLE
  8
_0-0_0
  6
CONTINUOUS
 62
    7
 10
-217.57223550000003
 20
771.75
 40
1.4750000000000001
  0
CIRCLE
  8
_0-0_0
  6
CONTINUOUS
 62
    7
 10
-138.57221950000007
 20
771.75
 40
1.4750000000000001
  0
LINE
  8
_0-0_0
  6
CONTINUOUS
 62
    7
 10
-136.57221950000007
 20
746.09997599999997
 11
-136.57221950000007
 21
746.25
  0
LINE
  8
_0-0_0
  6
CONTINUOUS
 62
    7
 10
-131.07221950000007
 20
746.09997599999997
 11
-136.57221950000007
 21
746.09997599999997
  0
LINE
  8
_0-0_0
  6
CONTINUOUS
 62
    7
 10
-131.07221950000007
 20
748.64999399999999
 11
-131.57221950000007
 21
748.64999399999999
  0
LINE
  8
_0-0_0
  6
CONTINUOUS
 62
    7
 10
-136.07221950000007
 20
771.29998799999998
 11
-136.57221950000007
 21
770.79998799999998
  0
LINE
  8
_0-0_0
  6
CONTINUOUS
 62
    7
 10
-136.07221950000007
 20
771.29998799999998
 11
-131.07221950000007
 21
771.29998799999998
  0
LINE
  8
_0-0_0
  6
CONTINUOUS
 62
    7
 10
-227.56100450000008
 20
749.14999399999999
 11
-239.24765049999996
 21
749.14999399999999
  0
LINE
  8
_0-0_0
  6
CONTINUOUS
 62
    7
 10
-240.32223550000003
 20
770.49996899999996
 11
-239.88012750000007
 21
770.64733899999999
  0
LINE
  8
_0-0_0
  6
CONTINUOUS
 62
    7
 10
-244.04656950000003
 20
765.25
 11
-244.73992950000002
 21
765.25
  0
LINE
  8
_0-0_0
  6
CONTINUOUS
 62
    7
 10
-244.04656950000003
 20
765.25
 11
-239.7220155
 21
765.25
  0
LINE
  8
_0-0_0
  6
CONTINUOUS
 62
    7
 10
-239.24765049999996
 20
765.25
 11
-239.7220155
 21
765.25
  0
LINE
  8
_0-0_0
  6
CONTINUOUS
 62
    7
 10
-234.57223550000003
 20
765.25
 11
-239.24765049999996
 21
765.25
  0
LINE
  8
_0-0_0
  6
CONTINUOUS
 62
    7
 10
-136.57221950000007
 20
745.95355199999995
 11
-136.57221950000007
 21
746.09997599999997
  0
LINE
  8
_0-0_0
  6
CONTINUOUS
 62
    7
 10
-136.57221950000007
 20
745.89642300000003
 11
-136.57221950000007
 21
745.95355199999995
  0
LINE
  8
_0-0_0
  6
CONTINUOUS
 62
    7
 10
-136.57221950000007
 20
745.75
 11
-136.57221950000007
 21
745.89642300000003
  0
ARC
  8
_0-0_0
  6
CONTINUOUS
 62
    7
 10
-131.07221950000007
 20
746.59997599999997
 40
0.5
 50
269.99999700000001
 51
0
  0
LINE
  8
_0-0_0
  6
CONTINUOUS
 62
    7
 10
-130.57221950000007
 20
748.15570100000002
 11
-130.57221950000007
 21
746.59997599999997
  0
ARC
  8
_0-0_0
  6
CONTINUOUS
 62
    7
 10
-131.05912750000005
 20
748.15234400000008
 40
0.4869939999999999
 50
0.394923
 51
23.93947
  0
ARC
  8
_0-0_0
  6
CONTINUOUS
 62
    7
 10
-131.07221950000007
 20
748.14999399999999
 40
0.5
 50
23.578231000000002
 51
90.000002999999992
  0
LINE
  8
_0-0_0
  6
CONTINUOUS
 62
    7
 10
-130.57221950000007
 20
768.29998799999998
 11
-130.57221950000007
 21
770.79998799999998
  0
ARC
  8
_0-0_0
  6
CONTINUOUS
 62
    7
 10
-131.07221950000007
 20
770.79998799999998
 40
0.5
 50
0
 51
90.000003000000007
  0
LINE
  8
_0-0_0
  6
CONTINUOUS
 62
    7
 10
-131.07221950000007
 20
755
 11
-133.27221650000001
 21
755
  0
LINE
  8
_0-0_0
  6
CONTINUOUS
 62
    7
 10
-130.57221950000007
 20
768.29998799999998
 11
-130.57221950000007
 21
755.5
  0
LINE
  8
_0-0_0
  6
CONTINUOUS
 62
    7
 10
-133.57221950000007
 20
754.69998199999998
 11
-133.57221950000007
 21
752.12167399999998
  0
LINE
  8
_0-0_0
  6
CONTINUOUS
 62
    7
 10
-203.60067750000007
 20
761.14999399999999
 11
-211.54376249999996
 21
761.14999399999999
  0
ARC
  8
_0-0_0
  6
CONTINUOUS
 62
    7
 10
-211.54376249999996
 20
761.64999399999999
 40
0.5
 50
210.00000299999999
 51
269.99999700000001
  0
LINE
  8
_0-0_0
  6
CONTINUOUS
 62
    7
 10
-211.97677650000014
 20
761.39999399999999
 11
-214.05523650000009
 21
765
  0
ARC
  8
_0-0_0
  6
CONTINUOUS
 62
    7
 10
-213.62222350000002
 20
765.25
 40
0.5
 50
149.99999700000001
 51
210.00000299999996
  0
LINE
  8
_0-0_0
  6
CONTINUOUS
 62
    7
 10
-214.05523650000009
 20
765.5
 11
-211.97677650000014
 21
769.09997599999997
  0
ARC
  8
_0-0_0
  6
CONTINUOUS
 62
    7
 10
-211.54376249999996
 20
768.84997599999997
 40
0.5
 50
90.000003000000007
 51
149.99999700000001
  0
LINE
  8
_0-0_0
  6
CONTINUOUS
 62
    7
 10
-211.54376249999996
 20
769.34997599999997
 11
-203.60067750000007
 21
769.34997599999997
  0
ARC
  8
_0-0_0
  6
CONTINUOUS
 62
    7
 10
-203.60067750000007
 20
768.84997599999997
 40
0.5
 50
30.000001000000001
 51
90.000003000000007
  0
LINE
  8
_0-0_0
  6
CONTINUOUS
 62
    7
 10
-203.16766350000012
 20
769.09997599999997
 11
-201.08920350000017
 21
765.5
  0
ARC
  8
_0-0_0
  6
CONTINUOUS
 62
    7
 10
-201.52221650000001
 20
765.25
 40
0.5
 50
329.99998900000003
 51
30.000000999999983
  0
LINE
  8
_0-0_0
  6
CONTINUOUS
 62
    7
 10
-201.08920350000017
 20
765
 11
-203.16766350000012
 21
761.39999399999999
  0
ARC
  8
_0-0_0
  6
CONTINUOUS
 62
    7
 10
-203.60067750000007
 20
761.64999399999999
 40
0.5
 50
269.99999700000001
 51
329.99998900000003
  0
ARC
  8
_0-0_0
  6
CONTINUOUS
 62
    7
 10
-155.60148650000008
 20
761.75
 40
0.5
 50
210.00000299999999
 51
269.99999700000001
  0
LINE
  8
_0-0_0
  6
CONTINUOUS
 62
    7
 10
-156.03450050000004
 20
761.5
 11
-158.05522150000002
 21
765
  0
ARC
  8
_0-0_0
  6
CONTINUOUS
 62
    7
 10
-157.62222350000002
 20
765.25
 40
0.5
 50
149.99999700000001
 51
210.00000299999996
  0
LINE
  8
_0-0_0
  6
CONTINUOUS
 62
    7
 10
-158.05522150000002
 20
765.5
 11
-156.03450050000004
 21
769
  0
ARC
  8
_0-0_0
  6
CONTINUOUS
 62
    7
 10
-155.60148650000008
 20
768.75
 40
0.5
 50
90.000003000000007
 51
149.99999700000001
  0
LINE
  8
_0-0_0
  6
CONTINUOUS
 62
    7
 10
-155.60148650000008
 20
769.25
 11
-147.54293849999999
 21
769.25
  0
ARC
  8
_0-0_0
  6
CONTINUOUS
 62
    7
 10
-147.54293849999999
 20
768.75
 40
0.5
 50
30.000001000000001
 51
90.000003000000007
  0
LINE
  8
_0-0_0
  6
CONTINUOUS
 62
    7
 10
-147.10992450000003
 20
769
 11
-145.08920350000005
 21
765.5
  0
ARC
  8
_0-0_0
  6
CONTINUOUS
 62
    7
 10
-145.52221650000001
 20
765.25
 40
0.5
 50
329.99998900000003
 51
30.000000999999983
  0
LINE
  8
_0-0_0
  6
CONTINUOUS
 62
    7
 10
-145.08920350000005
 20
765
 11
-147.10992450000003
 21
761.5
  0
ARC
  8
_0-0_0
  6
CONTINUOUS
 62
    7
 10
-147.54293849999999
 20
761.75
 40
0.5
 50
269.99999700000001
 51
329.99998900000003
  0
LINE
  8
_0-0_0
  6
CONTINUOUS
 62
    7
 10
-147.54293849999999
 20
761.25
 11
-155.60148650000008
 21
761.25
  0
LINE
  8
_0-0_0
  6
CONTINUOUS
 62
    7
 10
-239.88012750000007
 20
749.25262500000008
 11
-239.76065050000011
 21
749.21701000000007
  0
LINE
  8
_0-0_0
  6
CONTINUOUS
 62
    7
 10
-239.76065050000011
 20
749.21701000000007
 11
-239.63906850000012
 21
749.18911700000001
  0
LINE
  8
_0-0_0
  6
CONTINUOUS
 62
    7
 10
-239.63906850000012
 20
749.18911700000001
 11
-239.51596050000012
 21
749.16906700000004
  0
LINE
  8
_0-0_0
  6
CONTINUOUS
 62
    7
 10
-239.51596050000012
 20
749.16906700000004
 11
-239.39172350000013
 21
749.15695200000005
  0
LINE
  8
_0-0_0
  6
CONTINUOUS
 62
    7
 10
-239.39172350000013
 20
749.15695200000005
 11
-239.26687650000008
 21
749.15283199999999
  0
LINE
  8
_0-0_0
  6
CONTINUOUS
 62
    7
 10
-239.26687650000008
 20
749.15283199999999
 11
-239.24765049999996
 21
749.15289299999995
  0
ARC
  8
_0-0_0
  6
CONTINUOUS
 62
    7
 10
-239.24765049999996
 20
751.14999399999999
 40
2
 50
251.56498899999997
 51
269.99999700000001
  0
LINE
  8
_0-0_0
  6
CONTINUOUS
 62
    7
 10
-245.57223550000003
 20
766.00003100000004
 11
-245.57223550000003
 21
764.87899800000002
  0
LINE
  8
_0-0_0
  6
CONTINUOUS
 62
    7
 10
-217.37222350000002
 20
770.64999399999999
 11
-217.77221650000001
 21
770.64999399999999
  0
LINE
  8
_0-0_0
  6
CONTINUOUS
 62
    7
 10
-217.37222350000002
 20
770.64999399999999
 11
-217.37222350000002
 21
771.29998799999998
  0
ARC
  8
_0-0_0
  6
CONTINUOUS
 62
    7
 10
-217.12222350000002
 20
771.29998799999998
 40
0.25
 50
90.000003000000007
 51
179.99999099999999
  0
LINE
  8
_0-0_0
  6
CONTINUOUS
 62
    7
 10
-217.12222350000002
 20
771.54998799999998
 11
-216.4721985000001
 21
771.54998799999998
  0
LINE
  8
_0-0_0
  6
CONTINUOUS
 62
    7
 10
-216.4721985000001
 20
771.54998799999998
 11
-216.4721985000001
 21
771.94998199999998
  0
LINE
  8
_0-0_0
  6
CONTINUOUS
 62
    7
 10
-217.12222350000002
 20
771.94998199999998
 11
-216.4721985000001
 21
771.94998199999998
  0
ARC
  8
_0-0_0
  6
CONTINUOUS
 62
    7
 10
-217.12222350000002
 20
772.19998199999998
 40
0.25
 50
179.99999099999999
 51
269.99999700000001
  0
LINE
  8
_0-0_0
  6
CONTINUOUS
 62
    7
 10
-217.37222350000002
 20
772.84997599999997
 11
-217.37222350000002
 21
772.19998199999998
  0
LINE
  8
_0-0_0
  6
CONTINUOUS
 62
    7
 10
-217.37222350000002
 20
772.84997599999997
 11
-217.77221650000001
 21
772.84997599999997
  0
LINE
  8
_0-0_0
  6
CONTINUOUS
 62
    7
 10
-217.77221650000001
 20
772.84997599999997
 11
-217.77221650000001
 21
772.19998199999998
  0
ARC
  8
_0-0_0
  6
CONTINUOUS
 62
    7
 10
-218.02221650000001
 20
772.19998199999998
 40
0.25
 50
269.99999700000001
 51
0
  0
LINE
  8
_0-0_0
  6
CONTINUOUS
 62
    7
 10
-218.02221650000001
 20
771.94998199999998
 11
-218.67221050000012
 21
771.94998199999998
  0
LINE
  8
_0-0_0
  6
CONTINUOUS
 62
    7
 10
-218.67221050000012
 20
771.54998799999998
 11
-218.67221050000012
 21
771.94998199999998
  0
LINE
  8
_0-0_0
  6
CONTINUOUS
 62
    7
 10
-218.02221650000001
 20
771.54998799999998
 11
-218.67221050000012
 21
771.54998799999998
  0
ARC
  8
_0-0_0
  6
CONTINUOUS
 62
    7
 10
-218.02221650000001
 20
771.29998799999998
 40
0.25
 50
0
 51
90.000003000000007
  0
LINE
  8
_0-0_0
  6
CONTINUOUS
 62
    7
 10
-217.77221650000001
 20
770.64999399999999
 11
-217.77221650000001
 21
771.29998799999998
  0
LINE
  8
_0-0_0
  6
CONTINUOUS
 62
    7
 10
-138.37222350000002
 20
770.64999399999999
 11
-138.77221650000001
 21
770.64999399999999
  0
LINE
  8
_0-0_0
  6
CONTINUOUS
 62
    7
 10
-138.37222350000002
 20
770.64999399999999
 11
-138.37222350000002
 21
771.29998799999998
  0
ARC
  8
_0-0_0
  6
CONTINUOUS
 62
    7
 10
-138.12222350000002
 20
771.29998799999998
 40
0.25
 50
90.000003000000007
 51
179.99999099999999
  0
LINE
  8
_0-0_0
  6
CONTINUOUS
 62
    7
 10
-138.12222350000002
 20
771.54998799999998
 11
-137.47221350000007
 21
771.54998799999998
  0
LINE
  8
_0-0_0
  6
CONTINUOUS
 62
    7
 10
-137.47221350000007
 20
771.54998799999998
 11
-137.47221350000007
 21
771.94998199999998
  0
LINE
  8
_0-0_0
  6
CONTINUOUS
 62
    7
 10
-138.12222350000002
 20
771.94998199999998
 11
-137.47221350000007
 21
771.94998199999998
  0
ARC
  8
_0-0_0
  6
CONTINUOUS
 62
    7
 10
-138.12222350000002
 20
772.19998199999998
 40
0.25
 50
179.99999099999999
 51
269.99999700000001
  0
LINE
  8
_0-0_0
  6
CONTINUOUS
 62
    7
 10
-138.37222350000002
 20
772.84997599999997
 11
-138.37222350000002
 21
772.19998199999998
  0
LINE
  8
_0-0_0
  6
CONTINUOUS
 62
    7
 10
-138.37222350000002
 20
772.84997599999997
 11
-138.77221650000001
 21
772.84997599999997
  0
LINE
  8
_0-0_0
  6
CONTINUOUS
 62
    7
 10
-138.77221650000001
 20
772.84997599999997
 11
-138.77221650000001
 21
772.19998199999998
  0
ARC
  8
_0-0_0
  6
CONTINUOUS
 62
    7
 10
-139.02221650000001
 20
772.19998199999998
 40
0.25
 50
269.99999700000001
 51
0
  0
LINE
  8
_0-0_0
  6
CONTINUOUS
 62
    7
 10
-139.02221650000001
 20
771.94998199999998
 11
-139.67221050000001
 21
771.94998199999998
  0
LINE
  8
_0-0_0
  6
CONTINUOUS
 62
    7
 10
-139.67221050000001
 20
771.54998799999998
 11
-139.67221050000001
 21
771.94998199999998
  0
LINE
  8
_0-0_0
  6
CONTINUOUS
 62
    7
 10
-139.02221650000001
 20
771.54998799999998
 11
-139.67221050000001
 21
771.54998799999998
  0
ARC
  8
_0-0_0
  6
CONTINUOUS
 62
    7
 10
-139.02221650000001
 20
771.29998799999998
 40
0.25
 50
0
 51
90.000003000000007
  0
LINE
  8
_0-0_0
  6
CONTINUOUS
 62
    7
 10
-138.77221650000001
 20
770.64999399999999
 11
-138.77221650000001
 21
771.29998799999998
  0
LINE
  8
_0-0_0
  6
CONTINUOUS
 62
    7
 10
-131.07221950000007
 20
745.75
 11
-136.57221950000007
 21
745.75
  0
LINE
  8
_0-0_0
  6
CONTINUOUS
 62
    7
 10
-130.57221950000007
 20
752
 11
-130.57221950000007
 21
755.5
  0
LINE
  8
_0-0_0
  6
CONTINUOUS
 62
    7
 10
-130.57221950000007
 20
752
 11
-130.57221950000007
 21
751.64999399999999
  0
LINE
  8
_0-0_0
  6
CONTINUOUS
 62
    7
 10
-130.57221950000007
 20
748.15570100000002
 11
-130.57221950000007
 21
751.64999399999999
  0
LINE
  8
_0-0_0
  6
CONTINUOUS
 62
    7
 10
-130.57221950000007
 20
746.307098
 11
-130.57221950000007
 21
746.59997599999997
  0
LINE
  8
_0-0_0
  6
CONTINUOUS
 62
    7
 10
-130.57221950000007
 20
746.307098
 11
-130.57221950000007
 21
746.25
  0
LINE
  8
_0-0_0
  6
CONTINUOUS
 62
    7
 10
-133.57221950000007
 20
750.57128899999998
 11
-133.57221950000007
 21
752.12167399999998
  0
LINE
  8
_0-0_0
  6
CONTINUOUS
 62
    7
 10
-133.57221950000007
 20
749.85012800000004
 11
-133.57221950000007
 21
750.57128899999998
  0
ARC
  8
_0-0_0
  6
CONTINUOUS
 62
    7
 10
-131.07221950000007
 20
755.5
 40
0.5
 50
269.99999700000001
 51
0
  0
ARC
  8
_0-0_0
  6
CONTINUOUS
 62
    7
 10
-133.27221650000001
 20
754.69998199999998
 40
0.2999999999999999
 50
90.000003000000007
 51
179.99999099999999
  0
LINE
  8
_0-0_0
  6
CONTINUOUS
 62
    7
 10
-244.20468150000011
 20
750.69415299999991
 11
-239.88012750000007
 21
749.25262500000008
  0
LINE
  8
_0-0_0
  6
CONTINUOUS
 62
    7
 10
-245.57223550000003
 20
752.59149200000002
 11
-245.57223550000003
 21
755.94229100000007
  0
LINE
  8
_0-0_0
  6
CONTINUOUS
 62
    7
 10
-245.57223550000003
 20
763.957672
 11
-245.57223550000003
 21
764.87899800000002
  0
ARC
  8
_0-0_0
  6
CONTINUOUS
 62
    7
 10
-243.57223550000003
 20
752.59149200000002
 40
2
 50
179.99999099999999
 51
251.56498899999997
  0
LINE
  8
_0-0_0
  6
CONTINUOUS
 62
    7
 10
-260.57223550000003
 20
769.47543300000007
 11
-260.57223550000003
 21
769.32870500000001
  0
LINE
  8
_0-0_0
  6
CONTINUOUS
 62
    7
 10
-260.57223550000003
 20
769.66595499999994
 11
-260.57223550000003
 21
769.47543300000007
  0
LINE
  8
_0-0_0
  6
CONTINUOUS
 62
    7
 10
-260.57223550000003
 20
769.84097300000008
 11
-260.57223550000003
 21
769.66595499999994
  0
LINE
  8
_0-0_0
  6
CONTINUOUS
 62
    7
 10
-260.57223550000003
 20
769.99856599999998
 11
-260.57223550000003
 21
769.84097300000008
  0
LINE
  8
_0-0_0
  6
CONTINUOUS
 62
    7
 10
-260.57223550000003
 20
770.13699300000007
 11
-260.57223550000003
 21
769.99856599999998
  0
LINE
  8
_0-0_0
  6
CONTINUOUS
 62
    7
 10
-260.57223550000003
 20
770.25476099999992
 11
-260.57223550000003
 21
770.13699300000007
  0
LINE
  8
_0-0_0
  6
CONTINUOUS
 62
    7
 10
-260.57223550000003
 20
770.35052500000006
 11
-260.57223550000003
 21
770.25476099999992
  0
LINE
  8
_0-0_0
  6
CONTINUOUS
 62
    7
 10
-260.57223550000003
 20
770.42330900000002
 11
-260.57223550000003
 21
770.35052500000006
  0
LINE
  8
_0-0_0
  6
CONTINUOUS
 62
    7
 10
-260.57223550000003
 20
770.47228999999993
 11
-260.57223550000003
 21
770.42330900000002
  0
LINE
  8
_0-0_0
  6
CONTINUOUS
 62
    7
 10
-260.57223550000003
 20
770.5
 11
-260.57223550000003
 21
770.47228999999993
  0
LINE
  8
_0-0_0
  6
CONTINUOUS
 62
    7
 10
-260.57223550000003
 20
770.5
 11
-260.57223550000003
 21
770.49688700000002
  0
LINE
  8
_0-0_0
  6
CONTINUOUS
 62
    7
 10
-260.57223550000003
 20
766.00305200000003
 11
-260.57223550000003
 21
766
  0
LINE
  8
_0-0_0
  6
CONTINUOUS
 62
    7
 10
-260.57223550000003
 20
766.02767900000003
 11
-260.57223550000003
 21
766
  0
LINE
  8
_0-0_0
  6
CONTINUOUS
 62
    7
 10
-260.57223550000003
 20
766.07665999999995
 11
-260.57223550000003
 21
766.02767900000003
  0
LINE
  8
_0-0_0
  6
CONTINUOUS
 62
    7
 10
-260.57223550000003
 20
766.14941399999998
 11
-260.57223550000003
 21
766.07665999999995
  0
LINE
  8
_0-0_0
  6
CONTINUOUS
 62
    7
 10
-260.57223550000003
 20
766.24520899999993
 11
-260.57223550000003
 21
766.14941399999998
  0
LINE
  8
_0-0_0
  6
CONTINUOUS
 62
    7
 10
-260.57223550000003
 20
766.27542100000005
 11
-260.57223550000003
 21
766.24520899999993
  0
LINE
  8
_0-0_0
  6
CONTINUOUS
 62
    7
 10
-260.57223550000003
 20
766.362976
 11
-260.57223550000003
 21
766.27542100000005
  0
LINE
  8
_0-0_0
  6
CONTINUOUS
 62
    7
 10
-260.57223550000003
 20
766.50140399999998
 11
-260.57223550000003
 21
766.362976
  0
LINE
  8
_0-0_0
  6
CONTINUOUS
 62
    7
 10
-260.57223550000003
 20
766.658997
 11
-260.57223550000003
 21
766.50140399999998
  0
LINE
  8
_0-0_0
  6
CONTINUOUS
 62
    7
 10
-260.57223550000003
 20
766.83401500000002
 11
-260.57223550000003
 21
766.658997
  0
LINE
  8
_0-0_0
  6
CONTINUOUS
 62
    7
 10
-260.57223550000003
 20
767.02453600000001
 11
-260.57223550000003
 21
766.83401500000002
  0
LINE
  8
_0-0_0
  6
CONTINUOUS
 62
    7
 10
-260.57223550000003
 20
767.22851600000001
 11
-260.57223550000003
 21
767.02453600000001
  0
LINE
  8
_0-0_0
  6
CONTINUOUS
 62
    7
 10
-260.57223550000003
 20
767.44366500000001
 11
-260.57223550000003
 21
767.22851600000001
  0
LINE
  8
_0-0_0
  6
CONTINUOUS
 62
    7
 10
-260.57223550000003
 20
767.66763300000002
 11
-260.57223550000003
 21
767.44366500000001
  0
LINE
  8
_0-0_0
  6
CONTINUOUS
 62
    7
 10
-260.57223550000003
 20
767.89801
 11
-260.57223550000003
 21
767.66763300000002
  0
LINE
  8
_0-0_0
  6
CONTINUOUS
 62
    7
 10
-260.57223550000003
 20
768.13223300000004
 11
-260.57223550000003
 21
767.89801
  0
LINE
  8
_0-0_0
  6
CONTINUOUS
 62
    7
 10
-260.57223550000003
 20
768.36773700000003
 11
-260.57223550000003
 21
768.13223300000004
  0
LINE
  8
_0-0_0
  6
CONTINUOUS
 62
    7
 10
-260.57223550000003
 20
768.60195900000008
 11
-260.57223550000003
 21
768.36773700000003
  0
LINE
  8
_0-0_0
  6
CONTINUOUS
 62
    7
 10
-260.57223550000003
 20
768.83233599999994
 11
-260.57223550000003
 21
768.60195900000008
  0
LINE
  8
_0-0_0
  6
CONTINUOUS
 62
    7
 10
-260.57223550000003
 20
769.05630500000007
 11
-260.57223550000003
 21
768.83233599999994
  0
LINE
  8
_0-0_0
  6
CONTINUOUS
 62
    7
 10
-260.57223550000003
 20
769.27145399999995
 11
-260.57223550000003
 21
769.05630500000007
  0
LINE
  8
_0-0_0
  6
CONTINUOUS
 62
    7
 10
-260.57223550000003
 20
769.32870500000001
 11
-260.57223550000003
 21
769.27145399999995
  0
LINE
  8
_0-0_0
  6
CONTINUOUS
 62
    7
 10
-245.27221650000001
 20
762.16198699999995
 11
-245.33102450000001
 21
762.40881300000001
  0
LINE
  8
_0-0_0
  6
CONTINUOUS
 62
    7
 10
-245.33102450000001
 20
762.40881300000001
 11
-245.38076750000005
 21
762.601135
  0
LINE
  8
_0-0_0
  6
CONTINUOUS
 62
    7
 10
-245.38076750000005
 20
762.601135
 11
-245.45193450000011
 21
762.86694299999999
  0
LINE
  8
_0-0_0
  6
CONTINUOUS
 62
    7
 10
-245.45193450000011
 20
762.86694299999999
 11
-245.4848935
 21
762.993652
  0
LINE
  8
_0-0_0
  6
CONTINUOUS
 62
    7
 10
-245.4848935
 20
762.993652
 11
-245.51013150000017
 21
763.09707600000002
  0
LINE
  8
_0-0_0
  6
CONTINUOUS
 62
    7
 10
-245.51013150000017
 20
763.09707600000002
 11
-245.53216550000002
 21
763.19702099999995
  0
LINE
  8
_0-0_0
  6
CONTINUOUS
 62
    7
 10
-245.53216550000002
 20
763.19702099999995
 11
-245.55355850000001
 21
763.31472800000006
  0
LINE
  8
_0-0_0
  6
CONTINUOUS
 62
    7
 10
-245.55355850000001
 20
763.31472800000006
 11
-245.56210349999992
 21
763.37686200000007
  0
LINE
  8
_0-0_0
  6
CONTINUOUS
 62
    7
 10
-245.56210349999992
 20
763.37686200000007
 11
-245.56820650000009
 21
763.43746899999996
  0
LINE
  8
_0-0_0
  6
CONTINUOUS
 62
    7
 10
-245.56820650000009
 20
763.43746899999996
 11
-245.57119749999993
 21
763.48669399999994
  0
LINE
  8
_0-0_0
  6
CONTINUOUS
 62
    7
 10
-245.57119749999993
 20
763.48669399999994
 11
-245.57223550000003
 21
763.53491200000008
  0
LINE
  8
_0-0_0
  6
CONTINUOUS
 62
    7
 10
-245.27221650000001
 20
757.737976
 11
-245.18875150000008
 21
758.11663799999997
  0
LINE
  8
_0-0_0
  6
CONTINUOUS
 62
    7
 10
-245.18875150000008
 20
758.11663799999997
 11
-245.14865150000014
 21
758.30816700000003
  0
LINE
  8
_0-0_0
  6
CONTINUOUS
 62
    7
 10
-245.14865150000014
 20
758.30816700000003
 11
-245.09259049999991
 21
758.598206
  0
LINE
  8
_0-0_0
  6
CONTINUOUS
 62
    7
 10
-245.09259049999991
 20
758.598206
 11
-245.05499250000003
 21
758.81778000000008
  0
LINE
  8
_0-0_0
  6
CONTINUOUS
 62
    7
 10
-245.05499250000003
 20
758.81778000000008
 11
-245.02233849999993
 21
759.03903200000002
  0
LINE
  8
_0-0_0
  6
CONTINUOUS
 62
    7
 10
-245.02233849999993
 20
759.03903200000002
 11
-244.99517850000007
 21
759.26583900000003
  0
LINE
  8
_0-0_0
  6
CONTINUOUS
 62
    7
 10
-244.99517850000007
 20
759.26583900000003
 11
-244.97512849999998
 21
759.49322499999994
  0
LINE
  8
_0-0_0
  6
CONTINUOUS
 62
    7
 10
-244.97512849999998
 20
759.49322499999994
 11
-244.96795650000013
 21
759.60696400000006
  0
LINE
  8
_0-0_0
  6
CONTINUOUS
 62
    7
 10
-244.96795650000013
 20
759.60696400000006
 11
-244.96279950000007
 21
759.720642
  0
LINE
  8
_0-0_0
  6
CONTINUOUS
 62
    7
 10
-244.96279950000007
 20
759.720642
 11
-244.95907650000004
 21
759.87207000000001
  0
LINE
  8
_0-0_0
  6
CONTINUOUS
 62
    7
 10
-244.95907650000004
 20
759.87207000000001
 11
-244.95901550000008
 21
760.02331500000003
  0
LINE
  8
_0-0_0
  6
CONTINUOUS
 62
    7
 10
-244.95901550000008
 20
760.02331500000003
 11
-244.96261649999997
 21
760.17437700000005
  0
LINE
  8
_0-0_0
  6
CONTINUOUS
 62
    7
 10
-244.96261649999997
 20
760.17437700000005
 11
-244.97210749999999
 21
760.36291499999993
  0
LINE
  8
_0-0_0
  6
CONTINUOUS
 62
    7
 10
-244.97210749999999
 20
760.36291499999993
 11
-244.98696949999999
 21
760.55117799999994
  0
LINE
  8
_0-0_0
  6
CONTINUOUS
 62
    7
 10
-244.98696949999999
 20
760.55117799999994
 11
-245.00689749999992
 21
760.739105
  0
LINE
  8
_0-0_0
  6
CONTINUOUS
 62
    7
 10
-245.00689749999992
 20
760.739105
 11
-245.02328549999993
 21
760.86798099999999
  0
LINE
  8
_0-0_0
  6
CONTINUOUS
 62
    7
 10
-245.02328549999993
 20
760.86798099999999
 11
-245.0417175
 21
760.99664299999995
  0
LINE
  8
_0-0_0
  6
CONTINUOUS
 62
    7
 10
-245.0417175
 20
760.99664299999995
 11
-245.06585749999999
 21
761.14855999999997
  0
LINE
  8
_0-0_0
  6
CONTINUOUS
 62
    7
 10
-245.06585749999999
 20
761.14855999999997
 11
-245.09225450000008
 21
761.29992700000003
  0
LINE
  8
_0-0_0
  6
CONTINUOUS
 62
    7
 10
-245.09225450000008
 20
761.29992700000003
 11
-245.14840750000008
 21
761.59054600000002
  0
LINE
  8
_0-0_0
  6
CONTINUOUS
 62
    7
 10
-245.14840750000008
 20
761.59054600000002
 11
-245.18856849999997
 21
761.78250100000002
  0
LINE
  8
_0-0_0
  6
CONTINUOUS
 62
    7
 10
-245.18856849999997
 20
761.78250100000002
 11
-245.27221650000001
 21
762.16198699999995
  0
LINE
  8
_0-0_0
  6
CONTINUOUS
 62
    7
 10
-245.27221650000001
 20
757.737976
 11
-245.33102450000001
 21
757.49111900000003
  0
LINE
  8
_0-0_0
  6
CONTINUOUS
 62
    7
 10
-245.33102450000001
 20
757.49111900000003
 11
-245.38076750000005
 21
757.29879800000003
  0
LINE
  8
_0-0_0
  6
CONTINUOUS
 62
    7
 10
-245.38076750000005
 20
757.29879800000003
 11
-245.45190450000018
 21
757.033051
  0
LINE
  8
_0-0_0
  6
CONTINUOUS
 62
    7
 10
-245.45190450000018
 20
757.033051
 11
-245.48486350000007
 21
756.906342
  0
LINE
  8
_0-0_0
  6
CONTINUOUS
 62
    7
 10
-245.48486350000007
 20
756.906342
 11
-245.51013150000017
 21
756.80291699999998
  0
LINE
  8
_0-0_0
  6
CONTINUOUS
 62
    7
 10
-245.51013150000017
 20
756.80291699999998
 11
-245.53216550000002
 21
756.70294200000001
  0
LINE
  8
_0-0_0
  6
CONTINUOUS
 62
    7
 10
-245.53216550000002
 20
756.70294200000001
 11
-245.55355850000001
 21
756.58523600000001
  0
LINE
  8
_0-0_0
  6
CONTINUOUS
 62
    7
 10
-245.55355850000001
 20
756.58523600000001
 11
-245.56210349999992
 21
756.52310199999999
  0
LINE
  8
_0-0_0
  6
CONTINUOUS
 62
    7
 10
-245.56210349999992
 20
756.52310199999999
 11
-245.56820650000009
 21
756.46249399999999
  0
LINE
  8
_0-0_0
  6
CONTINUOUS
 62
    7
 10
-245.56820650000009
 20
756.46249399999999
 11
-245.57119749999993
 21
756.41326900000001
  0
LINE
  8
_0-0_0
  6
CONTINUOUS
 62
    7
 10
-245.57119749999993
 20
756.41326900000001
 11
-245.57223550000003
 21
756.36505099999999
  0
ARC
  8
_0-0_0
  6
CONTINUOUS
 62
    7
 10
-131.07221950000007
 20
746.25
 40
0.5
 50
269.99999700000001
 51
0
  0
LINE
  8
_0-0_0
  6
CONTINUOUS
 62
    7
 10
-131.11654650000003
 20
750.57128899999998
 11
-131.11654650000003
 21
753.89999399999999
  0
LINE
  8
_0-0_0
  6
CONTINUOUS
 62
    7
 10
-131.11654650000003
 20
749.39999399999999
 11
-131.11654650000003
 21
750.57128899999998
  0
CIRCLE
  8
_0-0_0
  6
CONTINUOUS
 62
    7
 10
-207.57221950000007
 20
765.25
 40
2.5
  0
CIRCLE
  8
_0-0_0
  6
CONTINUOUS
 62
    7
 10
-151.57221950000007
 20
765.25
 40
2.5
  0
LINE
  8
_0-0_0
  6
CONTINUOUS
 62
    7
 10
-245.57223550000003
 20
756.05767800000001
 11
-255.28005950000011
 21
756.05767800000001
  0
LINE
  8
_0-0_0
  6
CONTINUOUS
 62
    7
 10
-255.28005950000011
 20
753.44998199999998
 11
-255.33453349999991
 21
753.51992799999994
  0
LINE
  8
_0-0_0
  6
CONTINUOUS
 62
    7
 10
-255.33453349999991
 20
753.51992799999994
 11
-255.38562049999996
 21
753.58874500000002
  0
LINE
  8
_0-0_0
  6
CONTINUOUS
 62
    7
 10
-255.38562049999996
 20
753.58874500000002
 11
-255.43325849999997
 21
753.65625
  0
LINE
  8
_0-0_0
  6
CONTINUOUS
 62
    7
 10
-255.43325849999997
 20
753.65625
 11
-255.47775249999995
 21
753.72280899999998
  0
LINE
  8
_0-0_0
  6
CONTINUOUS
 62
    7
 10
-255.47775249999995
 20
753.72280899999998
 11
-255.53250150000008
 21
753.81033300000001
  0
LINE
  8
_0-0_0
  6
CONTINUOUS
 62
    7
 10
-255.53250150000008
 20
753.81033300000001
 11
-255.58200050000005
 21
753.89645399999995
  0
LINE
  8
_0-0_0
  6
CONTINUOUS
 62
    7
 10
-255.58200050000005
 20
753.89645399999995
 11
-255.62646450000011
 21
753.98126200000002
  0
LINE
  8
_0-0_0
  6
CONTINUOUS
 62
    7
 10
-255.62646450000011
 20
753.98126200000002
 11
-255.67343150000011
 21
754.08160399999997
  0
LINE
  8
_0-0_0
  6
CONTINUOUS
 62
    7
 10
-255.67343150000011
 20
754.08160399999997
 11
-255.71365349999996
 21
754.18051100000002
  0
LINE
  8
_0-0_0
  6
CONTINUOUS
 62
    7
 10
-255.71365349999996
 20
754.18051100000002
 11
-255.74728449999998
 21
754.27825899999993
  0
LINE
  8
_0-0_0
  6
CONTINUOUS
 62
    7
 10
-255.74728449999998
 20
754.27825899999993
 11
-255.77459750000003
 21
754.375092
  0
LINE
  8
_0-0_0
  6
CONTINUOUS
 62
    7
 10
-255.77459750000003
 20
754.375092
 11
-255.79562350000015
 21
754.47113000000002
  0
LINE
  8
_0-0_0
  6
CONTINUOUS
 62
    7
 10
-255.79562350000015
 20
754.47113000000002
 11
-255.81155450000006
 21
754.57498199999998
  0
LINE
  8
_0-0_0
  6
CONTINUOUS
 62
    7
 10
-255.81155450000006
 20
754.57498199999998
 11
-255.8203125
 21
754.678406
  0
LINE
  8
_0-0_0
  6
CONTINUOUS
 62
    7
 10
-255.8203125
 20
754.678406
 11
-255.82196049999993
 21
754.78164700000002
  0
LINE
  8
_0-0_0
  6
CONTINUOUS
 62
    7
 10
-255.82196049999993
 20
754.78164700000002
 11
-255.81649749999997
 21
754.88494900000001
  0
LINE
  8
_0-0_0
  6
CONTINUOUS
 62
    7
 10
-255.81649749999997
 20
754.88494900000001
 11
-255.80389450000007
 21
754.98852499999998
  0
LINE
  8
_0-0_0
  6
CONTINUOUS
 62
    7
 10
-255.80389450000007
 20
754.98852499999998
 11
-255.78405750000002
 21
755.09268199999997
  0
LINE
  8
_0-0_0
  6
CONTINUOUS
 62
    7
 10
-255.78405750000002
 20
755.09268199999997
 11
-255.75692750000007
 21
755.197632
  0
LINE
  8
_0-0_0
  6
CONTINUOUS
 62
    7
 10
-255.75692750000007
 20
755.197632
 11
-255.72225950000006
 21
755.30367999999999
  0
LINE
  8
_0-0_0
  6
CONTINUOUS
 62
    7
 10
-255.72225950000006
 20
755.30367999999999
 11
-255.67993150000007
 21
755.41104100000007
  0
LINE
  8
_0-0_0
  6
CONTINUOUS
 62
    7
 10
-255.67993150000007
 20
755.41104100000007
 11
-255.6296084999999
 21
755.52005000000008
  0
LINE
  8
_0-0_0
  6
CONTINUOUS
 62
    7
 10
-255.6296084999999
 20
755.52005000000008
 11
-255.57534850000002
 21
755.623199
  0
LINE
  8
_0-0_0
  6
CONTINUOUS
 62
    7
 10
-255.57534850000002
 20
755.623199
 11
-255.51364150000018
 21
755.72824100000003
  0
LINE
  8
_0-0_0
  6
CONTINUOUS
 62
    7
 10
-255.51364150000018
 20
755.72824100000003
 11
-255.44412250000005
 21
755.83547999999996
  0
LINE
  8
_0-0_0
  6
CONTINUOUS
 62
    7
 10
-255.44412250000005
 20
755.83547999999996
 11
-255.36642449999999
 21
755.94519000000003
  0
LINE
  8
_0-0_0
  6
CONTINUOUS
 62
    7
 10
-255.36642449999999
 20
755.94519000000003
 11
-255.28005950000011
 21
756.05767800000001
  0
LINE
  8
_0-0_0
  6
CONTINUOUS
 62
    7
 10
-245.57223550000003
 20
753.44998199999998
 11
-255.28005950000011
 21
753.44998199999998
  0
LINE
  8
_0-0_0
  6
CONTINUOUS
 62
    7
 10
-245.57223550000003
 20
755.94229100000007
 11
-245.57223550000003
 21
756.05767800000001
  0
LINE
  8
_0-0_0
  6
CONTINUOUS
 62
    7
 10
-255.32223550000003
 20
753.44998199999998
 11
-255.28005950000011
 21
753.44998199999998
  0
LINE
  8
_0-0_0
  6
CONTINUOUS
 62
    7
 10
-245.57223550000003
 20
763.84228499999995
 11
-255.28005950000011
 21
763.84228499999995
  0
LINE
  8
_0-0_0
  6
CONTINUOUS
 62
    7
 10
-245.57223550000003
 20
763.957672
 11
-245.57223550000003
 21
763.84228499999995
  0
LINE
  8
_0-0_0
  6
CONTINUOUS
 62
    7
 10
-255.28005950000011
 20
763.84228499999995
 11
-255.33453349999991
 21
763.91223100000002
  0
LINE
  8
_0-0_0
  6
CONTINUOUS
 62
    7
 10
-255.33453349999991
 20
763.91223100000002
 11
-255.38562049999996
 21
763.98104899999998
  0
LINE
  8
_0-0_0
  6
CONTINUOUS
 62
    7
 10
-255.38562049999996
 20
763.98104899999998
 11
-255.43325849999997
 21
764.04855300000008
  0
LINE
  8
_0-0_0
  6
CONTINUOUS
 62
    7
 10
-255.43325849999997
 20
764.04855300000008
 11
-255.47775249999995
 21
764.11511199999995
  0
LINE
  8
_0-0_0
  6
CONTINUOUS
 62
    7
 10
-255.47775249999995
 20
764.11511199999995
 11
-255.53250150000008
 21
764.20263699999998
  0
LINE
  8
_0-0_0
  6
CONTINUOUS
 62
    7
 10
-255.53250150000008
 20
764.20263699999998
 11
-255.58200050000005
 21
764.28875700000003
  0
LINE
  8
_0-0_0
  6
CONTINUOUS
 62
    7
 10
-255.58200050000005
 20
764.28875700000003
 11
-255.62646450000011
 21
764.37359600000002
  0
LINE
  8
_0-0_0
  6
CONTINUOUS
 62
    7
 10
-255.62646450000011
 20
764.37359600000002
 11
-255.67343150000011
 21
764.47390700000005
  0
LINE
  8
_0-0_0
  6
CONTINUOUS
 62
    7
 10
-255.67343150000011
 20
764.47390700000005
 11
-255.71365349999996
 21
764.57281499999999
  0
LINE
  8
_0-0_0
  6
CONTINUOUS
 62
    7
 10
-255.71365349999996
 20
764.57281499999999
 11
-255.74728449999998
 21
764.67059300000005
  0
LINE
  8
_0-0_0
  6
CONTINUOUS
 62
    7
 10
-255.74728449999998
 20
764.67059300000005
 11
-255.77459750000003
 21
764.76739500000008
  0
LINE
  8
_0-0_0
  6
CONTINUOUS
 62
    7
 10
-255.77459750000003
 20
764.76739500000008
 11
-255.79562350000015
 21
764.86343399999998
  0
LINE
  8
_0-0_0
  6
CONTINUOUS
 62
    7
 10
-255.79562350000015
 20
764.86343399999998
 11
-255.81155450000006
 21
764.96728499999995
  0
LINE
  8
_0-0_0
  6
CONTINUOUS
 62
    7
 10
-255.81155450000006
 20
764.96728499999995
 11
-255.8203125
 21
765.07070900000008
  0
LINE
  8
_0-0_0
  6
CONTINUOUS
 62
    7
 10
-255.8203125
 20
765.07070900000008
 11
-255.82196049999993
 21
765.17394999999999
  0
LINE
  8
_0-0_0
  6
CONTINUOUS
 62
    7
 10
-255.82196049999993
 20
765.17394999999999
 11
-255.81649749999997
 21
765.27725199999998
  0
LINE
  8
_0-0_0
  6
CONTINUOUS
 62
    7
 10
-255.81649749999997
 20
765.27725199999998
 11
-255.80389450000007
 21
765.38082899999995
  0
LINE
  8
_0-0_0
  6
CONTINUOUS
 62
    7
 10
-255.80389450000007
 20
765.38082899999995
 11
-255.78405750000002
 21
765.48498500000005
  0
LINE
  8
_0-0_0
  6
CONTINUOUS
 62
    7
 10
-255.78405750000002
 20
765.48498500000005
 11
-255.75692750000007
 21
765.58993499999997
  0
LINE
  8
_0-0_0
  6
CONTINUOUS
 62
    7
 10
-255.75692750000007
 20
765.58993499999997
 11
-255.72225950000006
 21
765.69598399999995
  0
LINE
  8
_0-0_0
  6
CONTINUOUS
 62
    7
 10
-255.72225950000006
 20
765.69598399999995
 11
-255.67993150000007
 21
765.80334500000004
  0
LINE
  8
_0-0_0
  6
CONTINUOUS
 62
    7
 10
-255.67993150000007
 20
765.80334500000004
 11
-255.6296084999999
 21
765.91235400000005
  0
LINE
  8
_0-0_0
  6
CONTINUOUS
 62
    7
 10
-255.6296084999999
 20
765.91235400000005
 11
-255.58392350000008
 21
766
  0
LINE
  8
_0-0_0
  6
CONTINUOUS
 62
    7
 10
-260.57223550000003
 20
769.47543300000007
 11
-260.82223550000003
 21
769.5
  0
LINE
  8
_0-0_0
  6
CONTINUOUS
 62
    7
 10
-260.57223550000003
 20
769.27145399999995
 11
-260.82223550000003
 21
769.5
  0
LINE
  8
_0-0_0
  6
CONTINUOUS
 62
    7
 10
-260.57223550000003
 20
769.66595499999994
 11
-260.82223550000003
 21
769.71945200000005
  0
LINE
  8
_0-0_0
  6
CONTINUOUS
 62
    7
 10
-260.57223550000003
 20
769.47543300000007
 11
-260.82223550000003
 21
769.71945200000005
  0
LINE
  8
_0-0_0
  6
CONTINUOUS
 62
    7
 10
-260.57223550000003
 20
769.84097300000008
 11
-260.82223550000003
 21
769.922821
  0
LINE
  8
_0-0_0
  6
CONTINUOUS
 62
    7
 10
-260.57223550000003
 20
769.66595499999994
 11
-260.82223550000003
 21
769.922821
  0
LINE
  8
_0-0_0
  6
CONTINUOUS
 62
    7
 10
-260.57223550000003
 20
769.99856599999998
 11
-260.82223550000003
 21
770.10784899999999
  0
LINE
  8
_0-0_0
  6
CONTINUOUS
 62
    7
 10
-260.57223550000003
 20
769.84097300000008
 11
-260.82223550000003
 21
770.10784899999999
  0
LINE
  8
_0-0_0
  6
CONTINUOUS
 62
    7
 10
-260.57223550000003
 20
770.13699300000007
 11
-260.82223550000003
 21
770.27252199999998
  0
LINE
  8
_0-0_0
  6
CONTINUOUS
 62
    7
 10
-260.57223550000003
 20
769.99856599999998
 11
-260.82223550000003
 21
770.27252199999998
  0
LINE
  8
_0-0_0
  6
CONTINUOUS
 62
    7
 10
-260.57223550000003
 20
770.25476099999992
 11
-260.82223550000003
 21
770.41503899999998
  0
LINE
  8
_0-0_0
  6
CONTINUOUS
 62
    7
 10
-260.57223550000003
 20
770.13699300000007
 11
-260.82223550000003
 21
770.41503899999998
  0
LINE
  8
_0-0_0
  6
CONTINUOUS
 62
    7
 10
-260.57223550000003
 20
770.35052500000006
 11
-260.82223550000003
 21
770.53384400000004
  0
LINE
  8
_0-0_0
  6
CONTINUOUS
 62
    7
 10
-260.57223550000003
 20
770.25476099999992
 11
-260.82223550000003
 21
770.53384400000004
  0
LINE
  8
_0-0_0
  6
CONTINUOUS
 62
    7
 10
-260.57223550000003
 20
770.42330900000002
 11
-260.82223550000003
 21
770.62762500000008
  0
LINE
  8
_0-0_0
  6
CONTINUOUS
 62
    7
 10
-260.57223550000003
 20
770.35052500000006
 11
-260.82223550000003
 21
770.62762500000008
  0
LINE
  8
_0-0_0
  6
CONTINUOUS
 62
    7
 10
-260.57223550000003
 20
770.47228999999993
 11
-260.82223550000003
 21
770.69534299999998
  0
LINE
  8
_0-0_0
  6
CONTINUOUS
 62
    7
 10
-260.57223550000003
 20
770.42330900000002
 11
-260.82223550000003
 21
770.69534299999998
  0
LINE
  8
_0-0_0
  6
CONTINUOUS
 62
    7
 10
-260.57223550000003
 20
770.49688700000002
 11
-260.82223550000003
 21
770.73629800000003
  0
LINE
  8
_0-0_0
  6
CONTINUOUS
 62
    7
 10
-260.57223550000003
 20
770.47228999999993
 11
-260.82223550000003
 21
770.73629800000003
  0
LINE
  8
_0-0_0
  6
CONTINUOUS
 62
    7
 10
-260.57223550000003
 20
770.49688700000002
 11
-260.82223550000003
 21
770.75
  0
LINE
  8
_0-0_0
  6
CONTINUOUS
 62
    7
 10
-260.57223550000003
 20
766.00305200000003
 11
-260.82223550000003
 21
765.75
  0
LINE
  8
_0-0_0
  6
CONTINUOUS
 62
    7
 10
-260.57223550000003
 20
766.02767900000003
 11
-260.82223550000003
 21
765.76367200000004
  0
LINE
  8
_0-0_0
  6
CONTINUOUS
 62
    7
 10
-260.57223550000003
 20
766.00305200000003
 11
-260.82223550000003
 21
765.76367200000004
  0
LINE
  8
_0-0_0
  6
CONTINUOUS
 62
    7
 10
-260.57223550000003
 20
766.07665999999995
 11
-260.82223550000003
 21
765.80462599999998
  0
LINE
  8
_0-0_0
  6
CONTINUOUS
 62
    7
 10
-260.57223550000003
 20
766.02767900000003
 11
-260.82223550000003
 21
765.80462599999998
  0
LINE
  8
_0-0_0
  6
CONTINUOUS
 62
    7
 10
-260.57223550000003
 20
766.14941399999998
 11
-260.82223550000003
 21
765.872345
  0
LINE
  8
_0-0_0
  6
CONTINUOUS
 62
    7
 10
-260.57223550000003
 20
766.07665999999995
 11
-260.82223550000003
 21
765.872345
  0
LINE
  8
_0-0_0
  6
CONTINUOUS
 62
    7
 10
-260.57223550000003
 20
766.24520899999993
 11
-260.82223550000003
 21
765.96612499999992
  0
LINE
  8
_0-0_0
  6
CONTINUOUS
 62
    7
 10
-260.57223550000003
 20
766.14941399999998
 11
-260.82223550000003
 21
765.96612499999992
  0
LINE
  8
_0-0_0
  6
CONTINUOUS
 62
    7
 10
-260.57223550000003
 20
766.24520899999993
 11
-260.70217950000006
 21
766.16137700000002
  0
LINE
  8
_0-0_0
  6
CONTINUOUS
 62
    7
 10
-260.57223550000003
 20
766.362976
 11
-260.82223550000003
 21
766.08492999999999
  0
LINE
  8
_0-0_0
  6
CONTINUOUS
 62
    7
 10
-260.70217950000006
 20
766.16137700000002
 11
-260.82223550000003
 21
766.08492999999999
  0
LINE
  8
_0-0_0
  6
CONTINUOUS
 62
    7
 10
-260.57223550000003
 20
766.50140399999998
 11
-260.82223550000003
 21
766.22744799999998
  0
LINE
  8
_0-0_0
  6
CONTINUOUS
 62
    7
 10
-260.57223550000003
 20
766.362976
 11
-260.82223550000003
 21
766.22744799999998
  0
LINE
  8
_0-0_0
  6
CONTINUOUS
 62
    7
 10
-260.57223550000003
 20
766.658997
 11
-260.82223550000003
 21
766.39211999999998
  0
LINE
  8
_0-0_0
  6
CONTINUOUS
 62
    7
 10
-260.57223550000003
 20
766.50140399999998
 11
-260.82223550000003
 21
766.39211999999998
  0
LINE
  8
_0-0_0
  6
CONTINUOUS
 62
    7
 10
-260.57223550000003
 20
766.83401500000002
 11
-260.82223550000003
 21
766.57714800000008
  0
LINE
  8
_0-0_0
  6
CONTINUOUS
 62
    7
 10
-260.57223550000003
 20
766.658997
 11
-260.82223550000003
 21
766.57714800000008
  0
LINE
  8
_0-0_0
  6
CONTINUOUS
 62
    7
 10
-260.57223550000003
 20
767.02453600000001
 11
-260.82223550000003
 21
766.78051800000003
  0
LINE
  8
_0-0_0
  6
CONTINUOUS
 62
    7
 10
-260.57223550000003
 20
766.83401500000002
 11
-260.82223550000003
 21
766.78051800000003
  0
LINE
  8
_0-0_0
  6
CONTINUOUS
 62
    7
 10
-260.57223550000003
 20
767.22851600000001
 11
-260.82223550000003
 21
767
  0
LINE
  8
_0-0_0
  6
CONTINUOUS
 62
    7
 10
-260.57223550000003
 20
767.02453600000001
 11
-260.82223550000003
 21
767
  0
LINE
  8
_0-0_0
  6
CONTINUOUS
 62
    7
 10
-260.57223550000003
 20
767.44366500000001
 11
-260.82223550000003
 21
767.23315400000001
  0
LINE
  8
_0-0_0
  6
CONTINUOUS
 62
    7
 10
-260.57223550000003
 20
767.22851600000001
 11
-260.82223550000003
 21
767.23315400000001
  0
LINE
  8
_0-0_0
  6
CONTINUOUS
 62
    7
 10
-260.57223550000003
 20
767.66763300000002
 11
-260.82223550000003
 21
767.47744799999998
  0
LINE
  8
_0-0_0
  6
CONTINUOUS
 62
    7
 10
-260.57223550000003
 20
767.44366500000001
 11
-260.82223550000003
 21
767.47744799999998
  0
LINE
  8
_0-0_0
  6
CONTINUOUS
 62
    7
 10
-260.57223550000003
 20
767.89801
 11
-260.82223550000003
 21
767.73019399999998
  0
LINE
  8
_0-0_0
  6
CONTINUOUS
 62
    7
 10
-260.57223550000003
 20
767.66763300000002
 11
-260.82223550000003
 21
767.73019399999998
  0
LINE
  8
_0-0_0
  6
CONTINUOUS
 62
    7
 10
-260.57223550000003
 20
768.13223300000004
 11
-260.82223550000003
 21
767.98864700000001
  0
LINE
  8
_0-0_0
  6
CONTINUOUS
 62
    7
 10
-260.57223550000003
 20
767.89801
 11
-260.82223550000003
 21
767.98864700000001
  0
LINE
  8
_0-0_0
  6
CONTINUOUS
 62
    7
 10
-260.57223550000003
 20
768.36773700000003
 11
-260.82223550000003
 21
768.25
  0
LINE
  8
_0-0_0
  6
CONTINUOUS
 62
    7
 10
-260.57223550000003
 20
768.13223300000004
 11
-260.82223550000003
 21
768.25
  0
LINE
  8
_0-0_0
  6
CONTINUOUS
 62
    7
 10
-260.57223550000003
 20
768.60195900000008
 11
-260.82223550000003
 21
768.51129200000003
  0
LINE
  8
_0-0_0
  6
CONTINUOUS
 62
    7
 10
-260.57223550000003
 20
768.36773700000003
 11
-260.82223550000003
 21
768.51129200000003
  0
LINE
  8
_0-0_0
  6
CONTINUOUS
 62
    7
 10
-260.57223550000003
 20
768.83233599999994
 11
-260.82223550000003
 21
768.76977499999998
  0
LINE
  8
_0-0_0
  6
CONTINUOUS
 62
    7
 10
-260.57223550000003
 20
768.60195900000008
 11
-260.82223550000003
 21
768.76977499999998
  0
LINE
  8
_0-0_0
  6
CONTINUOUS
 62
    7
 10
-260.57223550000003
 20
769.05630500000007
 11
-260.82223550000003
 21
769.02252199999998
  0
LINE
  8
_0-0_0
  6
CONTINUOUS
 62
    7
 10
-260.57223550000003
 20
768.83233599999994
 11
-260.82223550000003
 21
769.02252199999998
  0
LINE
  8
_0-0_0
  6
CONTINUOUS
 62
    7
 10
-260.57223550000003
 20
769.27145399999995
 11
-260.82223550000003
 21
769.26681499999995
  0
LINE
  8
_0-0_0
  6
CONTINUOUS
 62
    7
 10
-260.57223550000003
 20
769.05630500000007
 11
-260.82223550000003
 21
769.26681499999995
  0
LINE
  8
_0-0_0
  6
CONTINUOUS
 62
    7
 10
-245.57223550000003
 20
761.512024
 11
-245.57223550000003
 21
762.55767800000001
  0
LINE
  8
_0-0_0
  6
CONTINUOUS
 62
    7
 10
-245.57223550000003
 20
763.84228499999995
 11
-245.57223550000003
 21
762.55767800000001
  0
LINE
  8
_0-0_0
  6
CONTINUOUS
 62
    7
 10
-245.57223550000003
 20
761.512024
 11
-245.57223550000003
 21
758.38793899999996
  0
LINE
  8
_0-0_0
  6
CONTINUOUS
 62
    7
 10
-245.57223550000003
 20
757.34228499999995
 11
-245.57223550000003
 21
756.05767800000001
  0
LINE
  8
_0-0_0
  6
CONTINUOUS
 62
    7
 10
-245.57223550000003
 20
757.34228499999995
 11
-245.57223550000003
 21
758.38793899999996
  0
LINE
  8
_0-0_0
  6
CONTINUOUS
 62
    7
 10
-130.97221350000007
 20
750.69113199999993
 11
-130.97221350000007
 21
753.64999399999999
  0
LINE
  8
_0-0_0
  6
CONTINUOUS
 62
    7
 10
-130.97221350000007
 20
749.64999399999999
 11
-130.97221350000007
 21
750.69113199999993
  0
LINE
  8
_0-0_0
  6
CONTINUOUS
 62
    7
 10
-245.57223550000003
 20
757.34228499999995
 11
-255.28005950000011
 21
757.34228499999995
  0
ARC
  8
_0-0_0
  6
CONTINUOUS
 62
    7
 10
-250.39831550000008
 20
756.69909699999994
 40
4.9238749999999998
 50
172.49424200000001
 51
181.535968
  0
ARC
  8
_0-0_0
  6
CONTINUOUS
 62
    7
 10
-250.36032150000005
 20
756.70404099999996
 40
4.9620009999999999
 50
181.58130700000004
 51
187.48478900000003
  0
LINE
  8
_0-0_0
  6
CONTINUOUS
 62
    7
 10
-256.57223550000003
 20
757.21844499999997
 11
-256.57223550000003
 21
754.69998199999998
  0
LINE
  8
_0-0_0
  6
CONTINUOUS
 62
    7
 10
-256.57223550000003
 20
765.19998199999998
 11
-256.57223550000003
 21
757.21844499999997
  0
LINE
  8
_0-0_0
  6
CONTINUOUS
 62
    7
 10
-255.28005950000011
 20
762.55767800000001
 11
-255.37438950000001
 21
762.31106599999998
  0
LINE
  8
_0-0_0
  6
CONTINUOUS
 62
    7
 10
-255.37438950000001
 20
762.31106599999998
 11
-255.45834349999996
 21
762.07110599999999
  0
LINE
  8
_0-0_0
  6
CONTINUOUS
 62
    7
 10
-255.45834349999996
 20
762.07110599999999
 11
-255.53250150000008
 21
761.83697499999994
  0
LINE
  8
_0-0_0
  6
CONTINUOUS
 62
    7
 10
-255.53250150000008
 20
761.83697499999994
 11
-255.59738149999998
 21
761.60794099999998
  0
LINE
  8
_0-0_0
  6
CONTINUOUS
 62
    7
 10
-255.59738149999998
 20
761.60794099999998
 11
-255.65341149999995
 21
761.38327000000004
  0
LINE
  8
_0-0_0
  6
CONTINUOUS
 62
    7
 10
-255.65341149999995
 20
761.38327000000004
 11
-255.70095850000007
 21
761.16229199999998
  0
LINE
  8
_0-0_0
  6
CONTINUOUS
 62
    7
 10
-255.70095850000007
 20
761.16229199999998
 11
-255.7403875
 21
760.94436599999995
  0
LINE
  8
_0-0_0
  6
CONTINUOUS
 62
    7
 10
-255.7403875
 20
760.94436599999995
 11
-255.77188150000006
 21
760.72891200000004
  0
LINE
  8
_0-0_0
  6
CONTINUOUS
 62
    7
 10
-255.77188150000006
 20
760.72891200000004
 11
-255.79562350000015
 21
760.51538099999993
  0
LINE
  8
_0-0_0
  6
CONTINUOUS
 62
    7
 10
-255.79562350000015
 20
760.51538099999993
 11
-255.81155450000006
 21
760.30767800000001
  0
LINE
  8
_0-0_0
  6
CONTINUOUS
 62
    7
 10
-255.81155450000006
 20
760.30767800000001
 11
-255.8203125
 21
760.10082999999997
  0
LINE
  8
_0-0_0
  6
CONTINUOUS
 62
    7
 10
-255.8203125
 20
760.10082999999997
 11
-255.82196049999993
 21
759.89434800000004
  0
LINE
  8
_0-0_0
  6
CONTINUOUS
 62
    7
 10
-255.82196049999993
 20
759.89434800000004
 11
-255.81649749999997
 21
759.68777499999999
  0
LINE
  8
_0-0_0
  6
CONTINUOUS
 62
    7
 10
-255.81649749999997
 20
759.68777499999999
 11
-255.80389450000007
 21
759.480591
  0
LINE
  8
_0-0_0
  6
CONTINUOUS
 62
    7
 10
-255.80389450000007
 20
759.480591
 11
-255.78405750000002
 21
759.27227799999991
  0
LINE
  8
_0-0_0
  6
CONTINUOUS
 62
    7
 10
-255.78405750000002
 20
759.27227799999991
 11
-255.75692750000007
 21
759.06237800000008
  0
LINE
  8
_0-0_0
  6
CONTINUOUS
 62
    7
 10
-255.75692750000007
 20
759.06237800000008
 11
-255.72225950000006
 21
758.85031099999992
  0
LINE
  8
_0-0_0
  6
CONTINUOUS
 62
    7
 10
-255.72225950000006
 20
758.85031099999992
 11
-255.67993150000007
 21
758.63555900000006
  0
LINE
  8
_0-0_0
  6
CONTINUOUS
 62
    7
 10
-255.67993150000007
 20
758.63555900000006
 11
-255.6296084999999
 21
758.41754200000003
  0
LINE
  8
_0-0_0
  6
CONTINUOUS
 62
    7
 10
-255.6296084999999
 20
758.41754200000003
 11
-255.57534850000002
 21
758.21124299999997
  0
LINE
  8
_0-0_0
  6
CONTINUOUS
 62
    7
 10
-255.57534850000002
 20
758.21124299999997
 11
-255.51364150000018
 21
758.00116000000003
  0
LINE
  8
_0-0_0
  6
CONTINUOUS
 62
    7
 10
-255.51364150000018
 20
758.00116000000003
 11
-255.44412250000005
 21
757.78668199999993
  0
LINE
  8
_0-0_0
  6
CONTINUOUS
 62
    7
 10
-255.44412250000005
 20
757.78668199999993
 11
-255.36642449999999
 21
757.56726099999992
  0
LINE
  8
_0-0_0
  6
CONTINUOUS
 62
    7
 10
-255.36642449999999
 20
757.56726099999992
 11
-255.28005950000011
 21
757.34228499999995
  0
ARC
  8
_0-0_0
  6
CONTINUOUS
 62
    7
 10
-250.40847750000012
 20
763.19998199999998
 40
4.9136889999999998
 50
172.48898299999999
 51
187.51101699999998
  0
LINE
  8
_0-0_0
  6
CONTINUOUS
 62
    7
 10
-245.57223550000003
 20
762.55767800000001
 11
-255.28005950000011
 21
762.55767800000001
  0
LINE
  8
_0-0_0
  6
CONTINUOUS
 62
    7
 10
-270.32223550000003
 20
769.47543300000007
 11
-270.07223550000003
 21
769.5
  0
LINE
  8
_0-0_0
  6
CONTINUOUS
 62
    7
 10
-270.07223550000003
 20
769.5
 11
-260.82223550000003
 21
769.5
  0
LINE
  8
_0-0_0
  6
CONTINUOUS
 62
    7
 10
-270.32223550000003
 20
769.27145399999995
 11
-270.07223550000003
 21
769.5
  0
LINE
  8
_0-0_0
  6
CONTINUOUS
 62
    7
 10
-270.32223550000003
 20
769.27145399999995
 11
-260.57223550000003
 21
769.27145399999995
  0
LINE
  8
_0-0_0
  6
CONTINUOUS
 62
    7
 10
-270.32223550000003
 20
769.66595499999994
 11
-270.07223550000003
 21
769.71945200000005
  0
LINE
  8
_0-0_0
  6
CONTINUOUS
 62
    7
 10
-270.07223550000003
 20
769.71945200000005
 11
-260.82223550000003
 21
769.71945200000005
  0
LINE
  8
_0-0_0
  6
CONTINUOUS
 62
    7
 10
-270.32223550000003
 20
769.47543300000007
 11
-270.07223550000003
 21
769.71945200000005
  0
LINE
  8
_0-0_0
  6
CONTINUOUS
 62
    7
 10
-270.32223550000003
 20
769.84097300000008
 11
-270.07223550000003
 21
769.922821
  0
LINE
  8
_0-0_0
  6
CONTINUOUS
 62
    7
 10
-270.07223550000003
 20
769.922821
 11
-260.82223550000003
 21
769.922821
  0
LINE
  8
_0-0_0
  6
CONTINUOUS
 62
    7
 10
-270.32223550000003
 20
769.66595499999994
 11
-270.07223550000003
 21
769.922821
  0
LINE
  8
_0-0_0
  6
CONTINUOUS
 62
    7
 10
-270.32223550000003
 20
769.99856599999998
 11
-270.07223550000003
 21
770.10784899999999
  0
LINE
  8
_0-0_0
  6
CONTINUOUS
 62
    7
 10
-270.07223550000003
 20
770.10784899999999
 11
-260.82223550000003
 21
770.10784899999999
  0
LINE
  8
_0-0_0
  6
CONTINUOUS
 62
    7
 10
-270.32223550000003
 20
769.84097300000008
 11
-270.07223550000003
 21
770.10784899999999
  0
LINE
  8
_0-0_0
  6
CONTINUOUS
 62
    7
 10
-270.32223550000003
 20
770.13699300000007
 11
-270.07223550000003
 21
770.27252199999998
  0
LINE
  8
_0-0_0
  6
CONTINUOUS
 62
    7
 10
-270.07223550000003
 20
770.27252199999998
 11
-260.82223550000003
 21
770.27252199999998
  0
LINE
  8
_0-0_0
  6
CONTINUOUS
 62
    7
 10
-270.32223550000003
 20
769.99856599999998
 11
-270.07223550000003
 21
770.27252199999998
  0
LINE
  8
_0-0_0
  6
CONTINUOUS
 62
    7
 10
-270.32223550000003
 20
770.25476099999992
 11
-270.07223550000003
 21
770.41503899999998
  0
LINE
  8
_0-0_0
  6
CONTINUOUS
 62
    7
 10
-270.07223550000003
 20
770.41503899999998
 11
-260.82223550000003
 21
770.41503899999998
  0
LINE
  8
_0-0_0
  6
CONTINUOUS
 62
    7
 10
-270.32223550000003
 20
770.13699300000007
 11
-270.07223550000003
 21
770.41503899999998
  0
LINE
  8
_0-0_0
  6
CONTINUOUS
 62
    7
 10
-270.32223550000003
 20
770.35052500000006
 11
-270.07223550000003
 21
770.53384400000004
  0
LINE
  8
_0-0_0
  6
CONTINUOUS
 62
    7
 10
-270.07223550000003
 20
770.53384400000004
 11
-260.82223550000003
 21
770.53384400000004
  0
LINE
  8
_0-0_0
  6
CONTINUOUS
 62
    7
 10
-270.32223550000003
 20
770.25476099999992
 11
-270.07223550000003
 21
770.53384400000004
  0
LINE
  8
_0-0_0
  6
CONTINUOUS
 62
    7
 10
-270.32223550000003
 20
770.42330900000002
 11
-270.07223550000003
 21
770.62762500000008
  0
LINE
  8
_0-0_0
  6
CONTINUOUS
 62
    7
 10
-270.07223550000003
 20
770.62762500000008
 11
-260.82223550000003
 21
770.62762500000008
  0
LINE
  8
_0-0_0
  6
CONTINUOUS
 62
    7
 10
-270.32223550000003
 20
770.35052500000006
 11
-270.07223550000003
 21
770.62762500000008
  0
LINE
  8
_0-0_0
  6
CONTINUOUS
 62
    7
 10
-270.32223550000003
 20
770.47228999999993
 11
-270.07223550000003
 21
770.69534299999998
  0
LINE
  8
_0-0_0
  6
CONTINUOUS
 62
    7
 10
-270.07223550000003
 20
770.69534299999998
 11
-260.82223550000003
 21
770.69534299999998
  0
LINE
  8
_0-0_0
  6
CONTINUOUS
 62
    7
 10
-270.32223550000003
 20
770.42330900000002
 11
-270.07223550000003
 21
770.69534299999998
  0
LINE
  8
_0-0_0
  6
CONTINUOUS
 62
    7
 10
-270.32223550000003
 20
770.49688700000002
 11
-270.07223550000003
 21
770.73629800000003
  0
LINE
  8
_0-0_0
  6
CONTINUOUS
 62
    7
 10
-270.07223550000003
 20
770.73629800000003
 11
-260.82223550000003
 21
770.73629800000003
  0
LINE
  8
_0-0_0
  6
CONTINUOUS
 62
    7
 10
-270.32223550000003
 20
770.47228999999993
 11
-270.07223550000003
 21
770.73629800000003
  0
LINE
  8
_0-0_0
  6
CONTINUOUS
 62
    7
 10
-270.07223550000003
 20
770.75
 11
-260.82223550000003
 21
770.75
  0
LINE
  8
_0-0_0
  6
CONTINUOUS
 62
    7
 10
-270.32223550000003
 20
770.49688700000002
 11
-270.07223550000003
 21
770.75
  0
LINE
  8
_0-0_0
  6
CONTINUOUS
 62
    7
 10
-270.32223550000003
 20
766.00305200000003
 11
-270.07223550000003
 21
765.75
  0
LINE
  8
_0-0_0
  6
CONTINUOUS
 62
    7
 10
-270.07223550000003
 20
765.75
 11
-260.82223550000003
 21
765.75
  0
LINE
  8
_0-0_0
  6
CONTINUOUS
 62
    7
 10
-270.32223550000003
 20
766.02767900000003
 11
-270.07223550000003
 21
765.76367200000004
  0
LINE
  8
_0-0_0
  6
CONTINUOUS
 62
    7
 10
-270.07223550000003
 20
765.76367200000004
 11
-260.82223550000003
 21
765.76367200000004
  0
LINE
  8
_0-0_0
  6
CONTINUOUS
 62
    7
 10
-270.32223550000003
 20
766.00305200000003
 11
-270.07223550000003
 21
765.76367200000004
  0
LINE
  8
_0-0_0
  6
CONTINUOUS
 62
    7
 10
-270.32223550000003
 20
766.07665999999995
 11
-270.07223550000003
 21
765.80462599999998
  0
LINE
  8
_0-0_0
  6
CONTINUOUS
 62
    7
 10
-270.07223550000003
 20
765.80462599999998
 11
-260.82223550000003
 21
765.80462599999998
  0
LINE
  8
_0-0_0
  6
CONTINUOUS
 62
    7
 10
-270.32223550000003
 20
766.02767900000003
 11
-270.07223550000003
 21
765.80462599999998
  0
LINE
  8
_0-0_0
  6
CONTINUOUS
 62
    7
 10
-270.32223550000003
 20
766.14941399999998
 11
-270.07223550000003
 21
765.872345
  0
LINE
  8
_0-0_0
  6
CONTINUOUS
 62
    7
 10
-270.07223550000003
 20
765.872345
 11
-260.82223550000003
 21
765.872345
  0
LINE
  8
_0-0_0
  6
CONTINUOUS
 62
    7
 10
-270.32223550000003
 20
766.07665999999995
 11
-270.07223550000003
 21
765.872345
  0
LINE
  8
_0-0_0
  6
CONTINUOUS
 62
    7
 10
-270.32223550000003
 20
766.24520899999993
 11
-270.07223550000003
 21
765.96612499999992
  0
LINE
  8
_0-0_0
  6
CONTINUOUS
 62
    7
 10
-270.07223550000003
 20
765.96612499999992
 11
-260.82223550000003
 21
765.96612499999992
  0
LINE
  8
_0-0_0
  6
CONTINUOUS
 62
    7
 10
-270.32223550000003
 20
766.14941399999998
 11
-270.07223550000003
 21
765.96612499999992
  0
LINE
  8
_0-0_0
  6
CONTINUOUS
 62
    7
 10
-270.07223550000003
 20
766.08492999999999
 11
-260.82223550000003
 21
766.08492999999999
  0
LINE
  8
_0-0_0
  6
CONTINUOUS
 62
    7
 10
-270.19226049999997
 20
766.16137700000002
 11
-270.07223550000003
 21
766.08492999999999
  0
LINE
  8
_0-0_0
  6
CONTINUOUS
 62
    7
 10
-270.32223550000003
 20
766.24520899999993
 11
-270.19226049999997
 21
766.16137700000002
  0
LINE
  8
_0-0_0
  6
CONTINUOUS
 62
    7
 10
-270.32223550000003
 20
766.362976
 11
-270.07223550000003
 21
766.08492999999999
  0
LINE
  8
_0-0_0
  6
CONTINUOUS
 62
    7
 10
-270.32223550000003
 20
766.50140399999998
 11
-270.07223550000003
 21
766.22744799999998
  0
LINE
  8
_0-0_0
  6
CONTINUOUS
 62
    7
 10
-270.07223550000003
 20
766.22744799999998
 11
-260.82223550000003
 21
766.22744799999998
  0
LINE
  8
_0-0_0
  6
CONTINUOUS
 62
    7
 10
-270.32223550000003
 20
766.362976
 11
-270.07223550000003
 21
766.22744799999998
  0
LINE
  8
_0-0_0
  6
CONTINUOUS
 62
    7
 10
-270.32223550000003
 20
766.658997
 11
-270.07223550000003
 21
766.39211999999998
  0
LINE
  8
_0-0_0
  6
CONTINUOUS
 62
    7
 10
-270.07223550000003
 20
766.39211999999998
 11
-260.82223550000003
 21
766.39211999999998
  0
LINE
  8
_0-0_0
  6
CONTINUOUS
 62
    7
 10
-270.32223550000003
 20
766.50140399999998
 11
-270.07223550000003
 21
766.39211999999998
  0
LINE
  8
_0-0_0
  6
CONTINUOUS
 62
    7
 10
-270.32223550000003
 20
766.83401500000002
 11
-270.07223550000003
 21
766.57714800000008
  0
LINE
  8
_0-0_0
  6
CONTINUOUS
 62
    7
 10
-270.07223550000003
 20
766.57714800000008
 11
-260.82223550000003
 21
766.57714800000008
  0
LINE
  8
_0-0_0
  6
CONTINUOUS
 62
    7
 10
-270.32223550000003
 20
766.658997
 11
-270.07223550000003
 21
766.57714800000008
  0
LINE
  8
_0-0_0
  6
CONTINUOUS
 62
    7
 10
-270.32223550000003
 20
767.02453600000001
 11
-270.07223550000003
 21
766.78051800000003
  0
LINE
  8
_0-0_0
  6
CONTINUOUS
 62
    7
 10
-270.07223550000003
 20
766.78051800000003
 11
-260.82223550000003
 21
766.78051800000003
  0
LINE
  8
_0-0_0
  6
CONTINUOUS
 62
    7
 10
-270.32223550000003
 20
766.83401500000002
 11
-270.07223550000003
 21
766.78051800000003
  0
LINE
  8
_0-0_0
  6
CONTINUOUS
 62
    7
 10
-270.32223550000003
 20
767.22851600000001
 11
-270.07223550000003
 21
767
  0
LINE
  8
_0-0_0
  6
CONTINUOUS
 62
    7
 10
-270.07223550000003
 20
767
 11
-260.82223550000003
 21
767
  0
LINE
  8
_0-0_0
  6
CONTINUOUS
 62
    7
 10
-270.32223550000003
 20
767.22851600000001
 11
-260.57223550000003
 21
767.22851600000001
  0
LINE
  8
_0-0_0
  6
CONTINUOUS
 62
    7
 10
-270.32223550000003
 20
767.02453600000001
 11
-270.07223550000003
 21
767
  0
LINE
  8
_0-0_0
  6
CONTINUOUS
 62
    7
 10
-270.32223550000003
 20
767.44366500000001
 11
-270.07223550000003
 21
767.23315400000001
  0
LINE
  8
_0-0_0
  6
CONTINUOUS
 62
    7
 10
-270.07223550000003
 20
767.23315400000001
 11
-260.82223550000003
 21
767.23315400000001
  0
LINE
  8
_0-0_0
  6
CONTINUOUS
 62
    7
 10
-270.32223550000003
 20
767.44366500000001
 11
-260.57223550000003
 21
767.44366500000001
  0
LINE
  8
_0-0_0
  6
CONTINUOUS
 62
    7
 10
-270.32223550000003
 20
767.22851600000001
 11
-270.07223550000003
 21
767.23315400000001
  0
LINE
  8
_0-0_0
  6
CONTINUOUS
 62
    7
 10
-270.32223550000003
 20
767.66763300000002
 11
-270.07223550000003
 21
767.47744799999998
  0
LINE
  8
_0-0_0
  6
CONTINUOUS
 62
    7
 10
-270.07223550000003
 20
767.47744799999998
 11
-260.82223550000003
 21
767.47744799999998
  0
LINE
  8
_0-0_0
  6
CONTINUOUS
 62
    7
 10
-270.32223550000003
 20
767.66763300000002
 11
-260.57223550000003
 21
767.66763300000002
  0
LINE
  8
_0-0_0
  6
CONTINUOUS
 62
    7
 10
-270.32223550000003
 20
767.44366500000001
 11
-270.07223550000003
 21
767.47744799999998
  0
LINE
  8
_0-0_0
  6
CONTINUOUS
 62
    7
 10
-270.32223550000003
 20
767.89801
 11
-270.07223550000003
 21
767.73019399999998
  0
LINE
  8
_0-0_0
  6
CONTINUOUS
 62
    7
 10
-270.07223550000003
 20
767.73019399999998
 11
-260.82223550000003
 21
767.73019399999998
  0
LINE
  8
_0-0_0
  6
CONTINUOUS
 62
    7
 10
-270.32223550000003
 20
767.89801
 11
-260.57223550000003
 21
767.89801
  0
LINE
  8
_0-0_0
  6
CONTINUOUS
 62
    7
 10
-270.32223550000003
 20
767.66763300000002
 11
-270.07223550000003
 21
767.73019399999998
  0
LINE
  8
_0-0_0
  6
CONTINUOUS
 62
    7
 10
-270.32223550000003
 20
768.13223300000004
 11
-270.07223550000003
 21
767.98864700000001
  0
LINE
  8
_0-0_0
  6
CONTINUOUS
 62
    7
 10
-270.07223550000003
 20
767.98864700000001
 11
-260.82223550000003
 21
767.98864700000001
  0
LINE
  8
_0-0_0
  6
CONTINUOUS
 62
    7
 10
-270.32223550000003
 20
768.13223300000004
 11
-260.57223550000003
 21
768.13223300000004
  0
LINE
  8
_0-0_0
  6
CONTINUOUS
 62
    7
 10
-270.32223550000003
 20
767.89801
 11
-270.07223550000003
 21
767.98864700000001
  0
LINE
  8
_0-0_0
  6
CONTINUOUS
 62
    7
 10
-270.32223550000003
 20
768.36773700000003
 11
-270.07223550000003
 21
768.25
  0
LINE
  8
_0-0_0
  6
CONTINUOUS
 62
    7
 10
-270.07223550000003
 20
768.25
 11
-260.82223550000003
 21
768.25
  0
LINE
  8
_0-0_0
  6
CONTINUOUS
 62
    7
 10
-270.32223550000003
 20
768.36773700000003
 11
-260.57223550000003
 21
768.36773700000003
  0
LINE
  8
_0-0_0
  6
CONTINUOUS
 62
    7
 10
-270.32223550000003
 20
768.13223300000004
 11
-270.07223550000003
 21
768.25
  0
LINE
  8
_0-0_0
  6
CONTINUOUS
 62
    7
 10
-270.32223550000003
 20
768.60195900000008
 11
-270.07223550000003
 21
768.51129200000003
  0
LINE
  8
_0-0_0
  6
CONTINUOUS
 62
    7
 10
-270.07223550000003
 20
768.51129200000003
 11
-260.82223550000003
 21
768.51129200000003
  0
LINE
  8
_0-0_0
  6
CONTINUOUS
 62
    7
 10
-270.32223550000003
 20
768.60195900000008
 11
-260.57223550000003
 21
768.60195900000008
  0
LINE
  8
_0-0_0
  6
CONTINUOUS
 62
    7
 10
-270.32223550000003
 20
768.36773700000003
 11
-270.07223550000003
 21
768.51129200000003
  0
LINE
  8
_0-0_0
  6
CONTINUOUS
 62
    7
 10
-270.32223550000003
 20
768.83233599999994
 11
-270.07223550000003
 21
768.76977499999998
  0
LINE
  8
_0-0_0
  6
CONTINUOUS
 62
    7
 10
-270.07223550000003
 20
768.76977499999998
 11
-260.82223550000003
 21
768.76977499999998
  0
LINE
  8
_0-0_0
  6
CONTINUOUS
 62
    7
 10
-270.32223550000003
 20
768.83233599999994
 11
-260.57223550000003
 21
768.83233599999994
  0
LINE
  8
_0-0_0
  6
CONTINUOUS
 62
    7
 10
-270.32223550000003
 20
768.60195900000008
 11
-270.07223550000003
 21
768.76977499999998
  0
LINE
  8
_0-0_0
  6
CONTINUOUS
 62
    7
 10
-270.32223550000003
 20
769.05630500000007
 11
-270.07223550000003
 21
769.02252199999998
  0
LINE
  8
_0-0_0
  6
CONTINUOUS
 62
    7
 10
-270.07223550000003
 20
769.02252199999998
 11
-260.82223550000003
 21
769.02252199999998
  0
LINE
  8
_0-0_0
  6
CONTINUOUS
 62
    7
 10
-270.32223550000003
 20
769.05630500000007
 11
-260.57223550000003
 21
769.05630500000007
  0
LINE
  8
_0-0_0
  6
CONTINUOUS
 62
    7
 10
-270.32223550000003
 20
768.83233599999994
 11
-270.07223550000003
 21
769.02252199999998
  0
LINE
  8
_0-0_0
  6
CONTINUOUS
 62
    7
 10
-270.32223550000003
 20
769.27145399999995
 11
-270.07223550000003
 21
769.26681499999995
  0
LINE
  8
_0-0_0
  6
CONTINUOUS
 62
    7
 10
-270.07223550000003
 20
769.26681499999995
 11
-260.82223550000003
 21
769.26681499999995
  0
LINE
  8
_0-0_0
  6
CONTINUOUS
 62
    7
 10
-270.32223550000003
 20
769.05630500000007
 11
-270.07223550000003
 21
769.26681499999995
  0
LINE
  8
_0-0_0
  6
CONTINUOUS
 62
    7
 10
-270.57223550000003
 20
770.25
 11
-270.57223550000003
 21
766.49481200000002
  0
LINE
  8
_0-0_0
  6
CONTINUOUS
 62
    7
 10
-270.57223550000003
 20
766.49481200000002
 11
-270.57223550000003
 21
766.25
  0
LINE
  8
_0-0_0
  6
CONTINUOUS
 62
    7
 10
-256.97222950000014
 20
764.94998199999998
 11
-256.97222950000014
 21
762.44998199999998
  0
LINE
  8
_0-0_0
  6
CONTINUOUS
 62
    7
 10
-256.97222950000014
 20
762.44998199999998
 11
-256.97222950000014
 21
754.94998199999998
  0
LINE
  8
_0-0_0
  6
CONTINUOUS
 62
    7
 10
-257.77221650000001
 20
764.48809800000004
 11
-257.77221650000001
 21
762.21905500000003
  0
LINE
  8
_0-0_0
  6
CONTINUOUS
 62
    7
 10
-257.77221650000001
 20
762.21905500000003
 11
-257.77221650000001
 21
755.41186500000003
  0
LINE
  8
_0-0_0
  6
CONTINUOUS
 62
    7
 10
-315.77221650000001
 20
763.94998199999998
 11
-315.77221650000001
 21
763.94863899999996
  0
LINE
  8
_0-0_0
  6
CONTINUOUS
 62
    7
 10
-315.77221650000001
 20
763.94863899999996
 11
-315.77221650000001
 21
755.94998199999998
  0
LINE
  8
_0-0_0
  6
CONTINUOUS
 62
    7
 10
-260.57223550000003
 20
749.40307600000006
 11
-260.57223550000003
 21
749.39999399999999
  0
LINE
  8
_0-0_0
  6
CONTINUOUS
 62
    7
 10
-260.57223550000003
 20
749.42770399999995
 11
-260.57223550000003
 21
749.40307600000006
  0
LINE
  8
_0-0_0
  6
CONTINUOUS
 62
    7
 10
-260.57223550000003
 20
749.47665400000005
 11
-260.57223550000003
 21
749.42770399999995
  0
LINE
  8
_0-0_0
  6
CONTINUOUS
 62
    7
 10
-260.57223550000003
 20
749.54943800000001
 11
-260.57223550000003
 21
749.47665400000005
  0
LINE
  8
_0-0_0
  6
CONTINUOUS
 62
    7
 10
-260.57223550000003
 20
749.64520300000004
 11
-260.57223550000003
 21
749.54943800000001
  0
LINE
  8
_0-0_0
  6
CONTINUOUS
 62
    7
 10
-260.57223550000003
 20
749.67541499999993
 11
-260.57223550000003
 21
749.64520300000004
  0
LINE
  8
_0-0_0
  6
CONTINUOUS
 62
    7
 10
-260.57223550000003
 20
749.76297
 11
-260.57223550000003
 21
749.67541499999993
  0
LINE
  8
_0-0_0
  6
CONTINUOUS
 62
    7
 10
-260.57223550000003
 20
749.90139799999997
 11
-260.57223550000003
 21
749.76297
  0
LINE
  8
_0-0_0
  6
CONTINUOUS
 62
    7
 10
-260.57223550000003
 20
750.05898999999999
 11
-260.57223550000003
 21
749.90139799999997
  0
LINE
  8
_0-0_0
  6
CONTINUOUS
 62
    7
 10
-260.57223550000003
 20
750.23400900000001
 11
-260.57223550000003
 21
750.05898999999999
  0
LINE
  8
_0-0_0
  6
CONTINUOUS
 62
    7
 10
-260.57223550000003
 20
750.42453
 11
-260.57223550000003
 21
750.23400900000001
  0
LINE
  8
_0-0_0
  6
CONTINUOUS
 62
    7
 10
-260.57223550000003
 20
750.62851000000001
 11
-260.57223550000003
 21
750.42453
  0
LINE
  8
_0-0_0
  6
CONTINUOUS
 62
    7
 10
-260.57223550000003
 20
750.843658
 11
-260.57223550000003
 21
750.62851000000001
  0
LINE
  8
_0-0_0
  6
CONTINUOUS
 62
    7
 10
-260.57223550000003
 20
751.06762700000002
 11
-260.57223550000003
 21
750.843658
  0
LINE
  8
_0-0_0
  6
CONTINUOUS
 62
    7
 10
-260.57223550000003
 20
751.29800399999999
 11
-260.57223550000003
 21
751.06762700000002
  0
LINE
  8
_0-0_0
  6
CONTINUOUS
 62
    7
 10
-260.57223550000003
 20
751.53222699999992
 11
-260.57223550000003
 21
751.29800399999999
  0
LINE
  8
_0-0_0
  6
CONTINUOUS
 62
    7
 10
-260.57223550000003
 20
751.76773100000003
 11
-260.57223550000003
 21
751.53222699999992
  0
LINE
  8
_0-0_0
  6
CONTINUOUS
 62
    7
 10
-260.57223550000003
 20
752.00195299999996
 11
-260.57223550000003
 21
751.76773100000003
  0
LINE
  8
_0-0_0
  6
CONTINUOUS
 62
    7
 10
-260.57223550000003
 20
752.23233000000005
 11
-260.57223550000003
 21
752.00195299999996
  0
LINE
  8
_0-0_0
  6
CONTINUOUS
 62
    7
 10
-260.57223550000003
 20
752.45629899999994
 11
-260.57223550000003
 21
752.23233000000005
  0
LINE
  8
_0-0_0
  6
CONTINUOUS
 62
    7
 10
-260.57223550000003
 20
752.67144800000005
 11
-260.57223550000003
 21
752.45629899999994
  0
LINE
  8
_0-0_0
  6
CONTINUOUS
 62
    7
 10
-260.57223550000003
 20
752.72869900000001
 11
-260.57223550000003
 21
752.67144800000005
  0
LINE
  8
_0-0_0
  6
CONTINUOUS
 62
    7
 10
-260.57223550000003
 20
749.40307600000006
 11
-260.82223550000003
 21
749.14999399999999
  0
LINE
  8
_0-0_0
  6
CONTINUOUS
 62
    7
 10
-260.57223550000003
 20
749.42770399999995
 11
-260.82223550000003
 21
749.16369600000007
  0
LINE
  8
_0-0_0
  6
CONTINUOUS
 62
    7
 10
-260.57223550000003
 20
749.40307600000006
 11
-260.82223550000003
 21
749.16369600000007
  0
LINE
  8
_0-0_0
  6
CONTINUOUS
 62
    7
 10
-260.57223550000003
 20
749.47665400000005
 11
-260.82223550000003
 21
749.20461999999998
  0
LINE
  8
_0-0_0
  6
CONTINUOUS
 62
    7
 10
-260.57223550000003
 20
749.42770399999995
 11
-260.82223550000003
 21
749.20461999999998
  0
LINE
  8
_0-0_0
  6
CONTINUOUS
 62
    7
 10
-260.57223550000003
 20
749.54943800000001
 11
-260.82223550000003
 21
749.27233899999999
  0
LINE
  8
_0-0_0
  6
CONTINUOUS
 62
    7
 10
-260.57223550000003
 20
749.47665400000005
 11
-260.82223550000003
 21
749.27233899999999
  0
LINE
  8
_0-0_0
  6
CONTINUOUS
 62
    7
 10
-260.57223550000003
 20
749.64520300000004
 11
-260.82223550000003
 21
749.36611900000003
  0
LINE
  8
_0-0_0
  6
CONTINUOUS
 62
    7
 10
-260.57223550000003
 20
749.54943800000001
 11
-260.82223550000003
 21
749.36611900000003
  0
LINE
  8
_0-0_0
  6
CONTINUOUS
 62
    7
 10
-260.57223550000003
 20
749.64520300000004
 11
-260.70217950000006
 21
749.56137100000001
  0
LINE
  8
_0-0_0
  6
CONTINUOUS
 62
    7
 10
-260.57223550000003
 20
749.76297
 11
-260.82223550000003
 21
749.48492399999998
  0
LINE
  8
_0-0_0
  6
CONTINUOUS
 62
    7
 10
-260.70217950000006
 20
749.56137100000001
 11
-260.82223550000003
 21
749.48492399999998
  0
LINE
  8
_0-0_0
  6
CONTINUOUS
 62
    7
 10
-260.57223550000003
 20
749.90139799999997
 11
-260.82223550000003
 21
749.62744099999998
  0
LINE
  8
_0-0_0
  6
CONTINUOUS
 62
    7
 10
-260.57223550000003
 20
749.76297
 11
-260.82223550000003
 21
749.62744099999998
  0
LINE
  8
_0-0_0
  6
CONTINUOUS
 62
    7
 10
-260.57223550000003
 20
750.05898999999999
 11
-260.82223550000003
 21
749.79211400000008
  0
LINE
  8
_0-0_0
  6
CONTINUOUS
 62
    7
 10
-260.57223550000003
 20
749.90139799999997
 11
-260.82223550000003
 21
749.79211400000008
  0
LINE
  8
_0-0_0
  6
CONTINUOUS
 62
    7
 10
-260.57223550000003
 20
750.23400900000001
 11
-260.82223550000003
 21
749.97717299999999
  0
LINE
  8
_0-0_0
  6
CONTINUOUS
 62
    7
 10
-260.57223550000003
 20
750.05898999999999
 11
-260.82223550000003
 21
749.97717299999999
  0
LINE
  8
_0-0_0
  6
CONTINUOUS
 62
    7
 10
-260.57223550000003
 20
750.42453
 11
-260.82223550000003
 21
750.18051100000002
  0
LINE
  8
_0-0_0
  6
CONTINUOUS
 62
    7
 10
-260.57223550000003
 20
750.23400900000001
 11
-260.82223550000003
 21
750.18051100000002
  0
LINE
  8
_0-0_0
  6
CONTINUOUS
 62
    7
 10
-260.57223550000003
 20
750.62851000000001
 11
-260.82223550000003
 21
750.39999399999999
  0
LINE
  8
_0-0_0
  6
CONTINUOUS
 62
    7
 10
-260.57223550000003
 20
750.42453
 11
-260.82223550000003
 21
750.39999399999999
  0
LINE
  8
_0-0_0
  6
CONTINUOUS
 62
    7
 10
-260.57223550000003
 20
750.843658
 11
-260.82223550000003
 21
750.63314800000001
  0
LINE
  8
_0-0_0
  6
CONTINUOUS
 62
    7
 10
-260.57223550000003
 20
750.62851000000001
 11
-260.82223550000003
 21
750.63314800000001
  0
LINE
  8
_0-0_0
  6
CONTINUOUS
 62
    7
 10
-260.57223550000003
 20
751.06762700000002
 11
-260.82223550000003
 21
750.87744099999998
  0
LINE
  8
_0-0_0
  6
CONTINUOUS
 62
    7
 10
-260.57223550000003
 20
750.843658
 11
-260.82223550000003
 21
750.87744099999998
  0
LINE
  8
_0-0_0
  6
CONTINUOUS
 62
    7
 10
-260.57223550000003
 20
751.29800399999999
 11
-260.82223550000003
 21
751.13018799999998
  0
LINE
  8
_0-0_0
  6
CONTINUOUS
 62
    7
 10
-260.57223550000003
 20
751.06762700000002
 11
-260.82223550000003
 21
751.13018799999998
  0
LINE
  8
_0-0_0
  6
CONTINUOUS
 62
    7
 10
-260.57223550000003
 20
751.53222699999992
 11
-260.82223550000003
 21
751.38867200000004
  0
LINE
  8
_0-0_0
  6
CONTINUOUS
 62
    7
 10
-260.57223550000003
 20
751.29800399999999
 11
-260.82223550000003
 21
751.38867200000004
  0
LINE
  8
_0-0_0
  6
CONTINUOUS
 62
    7
 10
-260.57223550000003
 20
751.76773100000003
 11
-260.82223550000003
 21
751.64999399999999
  0
LINE
  8
_0-0_0
  6
CONTINUOUS
 62
    7
 10
-260.57223550000003
 20
751.53222699999992
 11
-260.82223550000003
 21
751.64999399999999
  0
LINE
  8
_0-0_0
  6
CONTINUOUS
 62
    7
 10
-260.57223550000003
 20
752.00195299999996
 11
-260.82223550000003
 21
751.91131599999994
  0
LINE
  8
_0-0_0
  6
CONTINUOUS
 62
    7
 10
-260.57223550000003
 20
751.76773100000003
 11
-260.82223550000003
 21
751.91131599999994
  0
LINE
  8
_0-0_0
  6
CONTINUOUS
 62
    7
 10
-260.57223550000003
 20
752.23233000000005
 11
-260.82223550000003
 21
752.16976899999997
  0
LINE
  8
_0-0_0
  6
CONTINUOUS
 62
    7
 10
-260.57223550000003
 20
752.00195299999996
 11
-260.82223550000003
 21
752.16976899999997
  0
LINE
  8
_0-0_0
  6
CONTINUOUS
 62
    7
 10
-260.57223550000003
 20
752.45629899999994
 11
-260.82223550000003
 21
752.42251599999997
  0
LINE
  8
_0-0_0
  6
CONTINUOUS
 62
    7
 10
-260.57223550000003
 20
752.23233000000005
 11
-260.82223550000003
 21
752.42251599999997
  0
LINE
  8
_0-0_0
  6
CONTINUOUS
 62
    7
 10
-260.57223550000003
 20
752.67144800000005
 11
-260.82223550000003
 21
752.66680900000006
  0
LINE
  8
_0-0_0
  6
CONTINUOUS
 62
    7
 10
-260.57223550000003
 20
752.45629899999994
 11
-260.82223550000003
 21
752.66680900000006
  0
LINE
  8
_0-0_0
  6
CONTINUOUS
 62
    7
 10
-260.57223550000003
 20
752.87542699999995
 11
-260.57223550000003
 21
752.72869900000001
  0
LINE
  8
_0-0_0
  6
CONTINUOUS
 62
    7
 10
-260.57223550000003
 20
752.87542699999995
 11
-260.82223550000003
 21
752.89999399999999
  0
LINE
  8
_0-0_0
  6
CONTINUOUS
 62
    7
 10
-260.57223550000003
 20
752.67144800000005
 11
-260.82223550000003
 21
752.89999399999999
  0
LINE
  8
_0-0_0
  6
CONTINUOUS
 62
    7
 10
-260.57223550000003
 20
753.06594799999993
 11
-260.57223550000003
 21
752.87542699999995
  0
LINE
  8
_0-0_0
  6
CONTINUOUS
 62
    7
 10
-260.57223550000003
 20
753.24096699999996
 11
-260.57223550000003
 21
753.06594799999993
  0
LINE
  8
_0-0_0
  6
CONTINUOUS
 62
    7
 10
-260.57223550000003
 20
753.39855999999997
 11
-260.57223550000003
 21
753.24096699999996
  0
LINE
  8
_0-0_0
  6
CONTINUOUS
 62
    7
 10
-260.57223550000003
 20
753.53698699999995
 11
-260.57223550000003
 21
753.39855999999997
  0
LINE
  8
_0-0_0
  6
CONTINUOUS
 62
    7
 10
-260.57223550000003
 20
753.65475500000002
 11
-260.57223550000003
 21
753.53698699999995
  0
LINE
  8
_0-0_0
  6
CONTINUOUS
 62
    7
 10
-260.57223550000003
 20
753.75054899999998
 11
-260.57223550000003
 21
753.65475500000002
  0
LINE
  8
_0-0_0
  6
CONTINUOUS
 62
    7
 10
-260.57223550000003
 20
753.82330300000001
 11
-260.57223550000003
 21
753.75054899999998
  0
LINE
  8
_0-0_0
  6
CONTINUOUS
 62
    7
 10
-260.57223550000003
 20
753.87228400000004
 11
-260.57223550000003
 21
753.82330300000001
  0
LINE
  8
_0-0_0
  6
CONTINUOUS
 62
    7
 10
-260.57223550000003
 20
753.89999399999999
 11
-260.57223550000003
 21
753.87228400000004
  0
LINE
  8
_0-0_0
  6
CONTINUOUS
 62
    7
 10
-260.57223550000003
 20
753.89999399999999
 11
-260.57223550000003
 21
753.89691199999993
  0
LINE
  8
_0-0_0
  6
CONTINUOUS
 62
    7
 10
-270.32223550000003
 20
749.40307600000006
 11
-270.07223550000003
 21
749.14999399999999
  0
LINE
  8
_0-0_0
  6
CONTINUOUS
 62
    7
 10
-270.07223550000003
 20
749.14999399999999
 11
-260.82223550000003
 21
749.14999399999999
  0
LINE
  8
_0-0_0
  6
CONTINUOUS
 62
    7
 10
-270.32223550000003
 20
749.42770399999995
 11
-270.07223550000003
 21
749.16369600000007
  0
LINE
  8
_0-0_0
  6
CONTINUOUS
 62
    7
 10
-270.07223550000003
 20
749.16369600000007
 11
-260.82223550000003
 21
749.16369600000007
  0
LINE
  8
_0-0_0
  6
CONTINUOUS
 62
    7
 10
-270.32223550000003
 20
749.40307600000006
 11
-270.07223550000003
 21
749.16369600000007
  0
LINE
  8
_0-0_0
  6
CONTINUOUS
 62
    7
 10
-270.32223550000003
 20
749.47665400000005
 11
-270.07223550000003
 21
749.20461999999998
  0
LINE
  8
_0-0_0
  6
CONTINUOUS
 62
    7
 10
-270.07223550000003
 20
749.20461999999998
 11
-260.82223550000003
 21
749.20461999999998
  0
LINE
  8
_0-0_0
  6
CONTINUOUS
 62
    7
 10
-270.32223550000003
 20
749.42770399999995
 11
-270.07223550000003
 21
749.20461999999998
  0
LINE
  8
_0-0_0
  6
CONTINUOUS
 62
    7
 10
-270.32223550000003
 20
749.54943800000001
 11
-270.07223550000003
 21
749.27233899999999
  0
LINE
  8
_0-0_0
  6
CONTINUOUS
 62
    7
 10
-270.07223550000003
 20
749.27233899999999
 11
-260.82223550000003
 21
749.27233899999999
  0
LINE
  8
_0-0_0
  6
CONTINUOUS
 62
    7
 10
-270.32223550000003
 20
749.47665400000005
 11
-270.07223550000003
 21
749.27233899999999
  0
LINE
  8
_0-0_0
  6
CONTINUOUS
 62
    7
 10
-270.32223550000003
 20
749.64520300000004
 11
-270.07223550000003
 21
749.36611900000003
  0
LINE
  8
_0-0_0
  6
CONTINUOUS
 62
    7
 10
-270.07223550000003
 20
749.36611900000003
 11
-260.82223550000003
 21
749.36611900000003
  0
LINE
  8
_0-0_0
  6
CONTINUOUS
 62
    7
 10
-270.32223550000003
 20
749.54943800000001
 11
-270.07223550000003
 21
749.36611900000003
  0
LINE
  8
_0-0_0
  6
CONTINUOUS
 62
    7
 10
-270.07223550000003
 20
749.48492399999998
 11
-260.82223550000003
 21
749.48492399999998
  0
LINE
  8
_0-0_0
  6
CONTINUOUS
 62
    7
 10
-270.19226049999997
 20
749.56137100000001
 11
-270.07223550000003
 21
749.48492399999998
  0
LINE
  8
_0-0_0
  6
CONTINUOUS
 62
    7
 10
-270.32223550000003
 20
749.64520300000004
 11
-270.19226049999997
 21
749.56137100000001
  0
LINE
  8
_0-0_0
  6
CONTINUOUS
 62
    7
 10
-270.32223550000003
 20
749.76297
 11
-270.07223550000003
 21
749.48492399999998
  0
LINE
  8
_0-0_0
  6
CONTINUOUS
 62
    7
 10
-270.32223550000003
 20
749.90139799999997
 11
-270.07223550000003
 21
749.62744099999998
  0
LINE
  8
_0-0_0
  6
CONTINUOUS
 62
    7
 10
-270.07223550000003
 20
749.62744099999998
 11
-260.82223550000003
 21
749.62744099999998
  0
LINE
  8
_0-0_0
  6
CONTINUOUS
 62
    7
 10
-270.32223550000003
 20
749.76297
 11
-270.07223550000003
 21
749.62744099999998
  0
LINE
  8
_0-0_0
  6
CONTINUOUS
 62
    7
 10
-270.32223550000003
 20
750.05898999999999
 11
-270.07223550000003
 21
749.79211400000008
  0
LINE
  8
_0-0_0
  6
CONTINUOUS
 62
    7
 10
-270.07223550000003
 20
749.79211400000008
 11
-260.82223550000003
 21
749.79211400000008
  0
LINE
  8
_0-0_0
  6
CONTINUOUS
 62
    7
 10
-270.32223550000003
 20
749.90139799999997
 11
-270.07223550000003
 21
749.79211400000008
  0
LINE
  8
_0-0_0
  6
CONTINUOUS
 62
    7
 10
-270.32223550000003
 20
750.23400900000001
 11
-270.07223550000003
 21
749.97717299999999
  0
LINE
  8
_0-0_0
  6
CONTINUOUS
 62
    7
 10
-270.07223550000003
 20
749.97717299999999
 11
-260.82223550000003
 21
749.97717299999999
  0
LINE
  8
_0-0_0
  6
CONTINUOUS
 62
    7
 10
-270.32223550000003
 20
750.05898999999999
 11
-270.07223550000003
 21
749.97717299999999
  0
LINE
  8
_0-0_0
  6
CONTINUOUS
 62
    7
 10
-270.32223550000003
 20
750.42453
 11
-270.07223550000003
 21
750.18051100000002
  0
LINE
  8
_0-0_0
  6
CONTINUOUS
 62
    7
 10
-270.07223550000003
 20
750.18051100000002
 11
-260.82223550000003
 21
750.18051100000002
  0
LINE
  8
_0-0_0
  6
CONTINUOUS
 62
    7
 10
-270.32223550000003
 20
750.23400900000001
 11
-270.07223550000003
 21
750.18051100000002
  0
LINE
  8
_0-0_0
  6
CONTINUOUS
 62
    7
 10
-270.32223550000003
 20
750.62851000000001
 11
-270.07223550000003
 21
750.39999399999999
  0
LINE
  8
_0-0_0
  6
CONTINUOUS
 62
    7
 10
-270.07223550000003
 20
750.39999399999999
 11
-260.82223550000003
 21
750.39999399999999
  0
LINE
  8
_0-0_0
  6
CONTINUOUS
 62
    7
 10
-270.32223550000003
 20
750.62851000000001
 11
-260.57223550000003
 21
750.62851000000001
  0
LINE
  8
_0-0_0
  6
CONTINUOUS
 62
    7
 10
-270.32223550000003
 20
750.42453
 11
-270.07223550000003
 21
750.39999399999999
  0
LINE
  8
_0-0_0
  6
CONTINUOUS
 62
    7
 10
-270.32223550000003
 20
750.843658
 11
-270.07223550000003
 21
750.63314800000001
  0
LINE
  8
_0-0_0
  6
CONTINUOUS
 62
    7
 10
-270.07223550000003
 20
750.63314800000001
 11
-260.82223550000003
 21
750.63314800000001
  0
LINE
  8
_0-0_0
  6
CONTINUOUS
 62
    7
 10
-270.32223550000003
 20
750.843658
 11
-260.57223550000003
 21
750.843658
  0
LINE
  8
_0-0_0
  6
CONTINUOUS
 62
    7
 10
-270.32223550000003
 20
750.62851000000001
 11
-270.07223550000003
 21
750.63314800000001
  0
LINE
  8
_0-0_0
  6
CONTINUOUS
 62
    7
 10
-270.32223550000003
 20
751.06762700000002
 11
-270.07223550000003
 21
750.87744099999998
  0
LINE
  8
_0-0_0
  6
CONTINUOUS
 62
    7
 10
-270.07223550000003
 20
750.87744099999998
 11
-260.82223550000003
 21
750.87744099999998
  0
LINE
  8
_0-0_0
  6
CONTINUOUS
 62
    7
 10
-270.32223550000003
 20
751.06762700000002
 11
-260.57223550000003
 21
751.06762700000002
  0
LINE
  8
_0-0_0
  6
CONTINUOUS
 62
    7
 10
-270.32223550000003
 20
750.843658
 11
-270.07223550000003
 21
750.87744099999998
  0
LINE
  8
_0-0_0
  6
CONTINUOUS
 62
    7
 10
-270.32223550000003
 20
751.29800399999999
 11
-270.07223550000003
 21
751.13018799999998
  0
LINE
  8
_0-0_0
  6
CONTINUOUS
 62
    7
 10
-270.07223550000003
 20
751.13018799999998
 11
-260.82223550000003
 21
751.13018799999998
  0
LINE
  8
_0-0_0
  6
CONTINUOUS
 62
    7
 10
-270.32223550000003
 20
751.29800399999999
 11
-260.57223550000003
 21
751.29800399999999
  0
LINE
  8
_0-0_0
  6
CONTINUOUS
 62
    7
 10
-270.32223550000003
 20
751.06762700000002
 11
-270.07223550000003
 21
751.13018799999998
  0
LINE
  8
_0-0_0
  6
CONTINUOUS
 62
    7
 10
-270.32223550000003
 20
751.53222699999992
 11
-270.07223550000003
 21
751.38867200000004
  0
LINE
  8
_0-0_0
  6
CONTINUOUS
 62
    7
 10
-270.07223550000003
 20
751.38867200000004
 11
-260.82223550000003
 21
751.38867200000004
  0
LINE
  8
_0-0_0
  6
CONTINUOUS
 62
    7
 10
-270.32223550000003
 20
751.53222699999992
 11
-260.57223550000003
 21
751.53222699999992
  0
LINE
  8
_0-0_0
  6
CONTINUOUS
 62
    7
 10
-270.32223550000003
 20
751.29800399999999
 11
-270.07223550000003
 21
751.38867200000004
  0
LINE
  8
_0-0_0
  6
CONTINUOUS
 62
    7
 10
-270.32223550000003
 20
751.76773100000003
 11
-270.07223550000003
 21
751.64999399999999
  0
LINE
  8
_0-0_0
  6
CONTINUOUS
 62
    7
 10
-270.07223550000003
 20
751.64999399999999
 11
-260.82223550000003
 21
751.64999399999999
  0
LINE
  8
_0-0_0
  6
CONTINUOUS
 62
    7
 10
-270.32223550000003
 20
751.76773100000003
 11
-260.57223550000003
 21
751.76773100000003
  0
LINE
  8
_0-0_0
  6
CONTINUOUS
 62
    7
 10
-270.32223550000003
 20
751.53222699999992
 11
-270.07223550000003
 21
751.64999399999999
  0
LINE
  8
_0-0_0
  6
CONTINUOUS
 62
    7
 10
-270.32223550000003
 20
752.00195299999996
 11
-270.07223550000003
 21
751.91131599999994
  0
LINE
  8
_0-0_0
  6
CONTINUOUS
 62
    7
 10
-270.07223550000003
 20
751.91131599999994
 11
-260.82223550000003
 21
751.91131599999994
  0
LINE
  8
_0-0_0
  6
CONTINUOUS
 62
    7
 10
-270.32223550000003
 20
752.00195299999996
 11
-260.57223550000003
 21
752.00195299999996
  0
LINE
  8
_0-0_0
  6
CONTINUOUS
 62
    7
 10
-270.32223550000003
 20
751.76773100000003
 11
-270.07223550000003
 21
751.91131599999994
  0
LINE
  8
_0-0_0
  6
CONTINUOUS
 62
    7
 10
-270.32223550000003
 20
752.23233000000005
 11
-270.07223550000003
 21
752.16976899999997
  0
LINE
  8
_0-0_0
  6
CONTINUOUS
 62
    7
 10
-270.07223550000003
 20
752.16976899999997
 11
-260.82223550000003
 21
752.16976899999997
  0
LINE
  8
_0-0_0
  6
CONTINUOUS
 62
    7
 10
-270.32223550000003
 20
752.23233000000005
 11
-260.57223550000003
 21
752.23233000000005
  0
LINE
  8
_0-0_0
  6
CONTINUOUS
 62
    7
 10
-270.32223550000003
 20
752.00195299999996
 11
-270.07223550000003
 21
752.16976899999997
  0
LINE
  8
_0-0_0
  6
CONTINUOUS
 62
    7
 10
-270.32223550000003
 20
752.45629899999994
 11
-270.07223550000003
 21
752.42251599999997
  0
LINE
  8
_0-0_0
  6
CONTINUOUS
 62
    7
 10
-270.07223550000003
 20
752.42251599999997
 11
-260.82223550000003
 21
752.42251599999997
  0
LINE
  8
_0-0_0
  6
CONTINUOUS
 62
    7
 10
-270.32223550000003
 20
752.45629899999994
 11
-260.57223550000003
 21
752.45629899999994
  0
LINE
  8
_0-0_0
  6
CONTINUOUS
 62
    7
 10
-270.32223550000003
 20
752.23233000000005
 11
-270.07223550000003
 21
752.42251599999997
  0
LINE
  8
_0-0_0
  6
CONTINUOUS
 62
    7
 10
-270.32223550000003
 20
752.67144800000005
 11
-270.07223550000003
 21
752.66680900000006
  0
LINE
  8
_0-0_0
  6
CONTINUOUS
 62
    7
 10
-270.07223550000003
 20
752.66680900000006
 11
-260.82223550000003
 21
752.66680900000006
  0
LINE
  8
_0-0_0
  6
CONTINUOUS
 62
    7
 10
-270.32223550000003
 20
752.67144800000005
 11
-260.57223550000003
 21
752.67144800000005
  0
LINE
  8
_0-0_0
  6
CONTINUOUS
 62
    7
 10
-270.32223550000003
 20
752.45629899999994
 11
-270.07223550000003
 21
752.66680900000006
  0
LINE
  8
_0-0_0
  6
CONTINUOUS
 62
    7
 10
-270.32223550000003
 20
752.87542699999995
 11
-270.07223550000003
 21
752.89999399999999
  0
LINE
  8
_0-0_0
  6
CONTINUOUS
 62
    7
 10
-270.07223550000003
 20
752.89999399999999
 11
-260.82223550000003
 21
752.89999399999999
  0
LINE
  8
_0-0_0
  6
CONTINUOUS
 62
    7
 10
-270.32223550000003
 20
752.67144800000005
 11
-270.07223550000003
 21
752.89999399999999
  0
LINE
  8
_0-0_0
  6
CONTINUOUS
 62
    7
 10
-260.57223550000003
 20
753.06594799999993
 11
-260.82223550000003
 21
753.11944599999993
  0
LINE
  8
_0-0_0
  6
CONTINUOUS
 62
    7
 10
-260.57223550000003
 20
752.87542699999995
 11
-260.82223550000003
 21
753.11944599999993
  0
LINE
  8
_0-0_0
  6
CONTINUOUS
 62
    7
 10
-260.57223550000003
 20
753.24096699999996
 11
-260.82223550000003
 21
753.32281499999999
  0
LINE
  8
_0-0_0
  6
CONTINUOUS
 62
    7
 10
-260.57223550000003
 20
753.06594799999993
 11
-260.82223550000003
 21
753.32281499999999
  0
LINE
  8
_0-0_0
  6
CONTINUOUS
 62
    7
 10
-260.57223550000003
 20
753.39855999999997
 11
-260.82223550000003
 21
753.50784299999998
  0
LINE
  8
_0-0_0
  6
CONTINUOUS
 62
    7
 10
-260.57223550000003
 20
753.24096699999996
 11
-260.82223550000003
 21
753.50784299999998
  0
LINE
  8
_0-0_0
  6
CONTINUOUS
 62
    7
 10
-260.57223550000003
 20
753.53698699999995
 11
-260.82223550000003
 21
753.67251599999997
  0
LINE
  8
_0-0_0
  6
CONTINUOUS
 62
    7
 10
-260.57223550000003
 20
753.39855999999997
 11
-260.82223550000003
 21
753.67251599999997
  0
LINE
  8
_0-0_0
  6
CONTINUOUS
 62
    7
 10
-260.57223550000003
 20
753.65475500000002
 11
-260.82223550000003
 21
753.81506300000001
  0
LINE
  8
_0-0_0
  6
CONTINUOUS
 62
    7
 10
-260.57223550000003
 20
753.53698699999995
 11
-260.82223550000003
 21
753.81506300000001
  0
LINE
  8
_0-0_0
  6
CONTINUOUS
 62
    7
 10
-260.57223550000003
 20
753.75054899999998
 11
-260.82223550000003
 21
753.93383799999992
  0
LINE
  8
_0-0_0
  6
CONTINUOUS
 62
    7
 10
-260.57223550000003
 20
753.65475500000002
 11
-260.82223550000003
 21
753.93383799999992
  0
LINE
  8
_0-0_0
  6
CONTINUOUS
 62
    7
 10
-260.57223550000003
 20
753.82330300000001
 11
-260.82223550000003
 21
754.02761800000007
  0
LINE
  8
_0-0_0
  6
CONTINUOUS
 62
    7
 10
-260.57223550000003
 20
753.75054899999998
 11
-260.82223550000003
 21
754.02761800000007
  0
LINE
  8
_0-0_0
  6
CONTINUOUS
 62
    7
 10
-260.57223550000003
 20
753.87228400000004
 11
-260.82223550000003
 21
754.09533699999997
  0
LINE
  8
_0-0_0
  6
CONTINUOUS
 62
    7
 10
-260.57223550000003
 20
753.82330300000001
 11
-260.82223550000003
 21
754.09533699999997
  0
LINE
  8
_0-0_0
  6
CONTINUOUS
 62
    7
 10
-260.57223550000003
 20
753.89691199999993
 11
-260.82223550000003
 21
754.13629200000003
  0
LINE
  8
_0-0_0
  6
CONTINUOUS
 62
    7
 10
-260.57223550000003
 20
753.87228400000004
 11
-260.82223550000003
 21
754.13629200000003
  0
LINE
  8
_0-0_0
  6
CONTINUOUS
 62
    7
 10
-260.57223550000003
 20
753.89691199999993
 11
-260.82223550000003
 21
754.14999399999999
  0
LINE
  8
_0-0_0
  6
CONTINUOUS
 62
    7
 10
-270.57223550000003
 20
749.89483599999994
 11
-270.57223550000003
 21
749.64999399999999
  0
LINE
  8
_0-0_0
  6
CONTINUOUS
 62
    7
 10
-270.32223550000003
 20
752.87542699999995
 11
-270.07223550000003
 21
753.11944599999993
  0
LINE
  8
_0-0_0
  6
CONTINUOUS
 62
    7
 10
-270.32223550000003
 20
753.06594799999993
 11
-270.07223550000003
 21
753.11944599999993
  0
LINE
  8
_0-0_0
  6
CONTINUOUS
 62
    7
 10
-270.32223550000003
 20
753.06594799999993
 11
-270.07223550000003
 21
753.32281499999999
  0
LINE
  8
_0-0_0
  6
CONTINUOUS
 62
    7
 10
-270.32223550000003
 20
753.24096699999996
 11
-270.07223550000003
 21
753.32281499999999
  0
LINE
  8
_0-0_0
  6
CONTINUOUS
 62
    7
 10
-270.32223550000003
 20
753.24096699999996
 11
-270.07223550000003
 21
753.50784299999998
  0
LINE
  8
_0-0_0
  6
CONTINUOUS
 62
    7
 10
-270.32223550000003
 20
753.39855999999997
 11
-270.07223550000003
 21
753.50784299999998
  0
LINE
  8
_0-0_0
  6
CONTINUOUS
 62
    7
 10
-270.32223550000003
 20
753.39855999999997
 11
-270.07223550000003
 21
753.67251599999997
  0
LINE
  8
_0-0_0
  6
CONTINUOUS
 62
    7
 10
-270.32223550000003
 20
753.53698699999995
 11
-270.07223550000003
 21
753.67251599999997
  0
LINE
  8
_0-0_0
  6
CONTINUOUS
 62
    7
 10
-270.32223550000003
 20
753.53698699999995
 11
-270.07223550000003
 21
753.81506300000001
  0
LINE
  8
_0-0_0
  6
CONTINUOUS
 62
    7
 10
-270.32223550000003
 20
753.65475500000002
 11
-270.07223550000003
 21
753.81506300000001
  0
LINE
  8
_0-0_0
  6
CONTINUOUS
 62
    7
 10
-270.32223550000003
 20
753.65475500000002
 11
-270.07223550000003
 21
753.93383799999992
  0
LINE
  8
_0-0_0
  6
CONTINUOUS
 62
    7
 10
-270.32223550000003
 20
753.75054899999998
 11
-270.07223550000003
 21
753.93383799999992
  0
LINE
  8
_0-0_0
  6
CONTINUOUS
 62
    7
 10
-270.32223550000003
 20
753.75054899999998
 11
-270.07223550000003
 21
754.02761800000007
  0
LINE
  8
_0-0_0
  6
CONTINUOUS
 62
    7
 10
-270.32223550000003
 20
753.82330300000001
 11
-270.07223550000003
 21
754.02761800000007
  0
LINE
  8
_0-0_0
  6
CONTINUOUS
 62
    7
 10
-270.32223550000003
 20
753.82330300000001
 11
-270.07223550000003
 21
754.09533699999997
  0
LINE
  8
_0-0_0
  6
CONTINUOUS
 62
    7
 10
-270.32223550000003
 20
753.87228400000004
 11
-270.07223550000003
 21
754.09533699999997
  0
LINE
  8
_0-0_0
  6
CONTINUOUS
 62
    7
 10
-270.32223550000003
 20
753.87228400000004
 11
-270.07223550000003
 21
754.13629200000003
  0
LINE
  8
_0-0_0
  6
CONTINUOUS
 62
    7
 10
-270.32223550000003
 20
753.89691199999993
 11
-270.07223550000003
 21
754.13629200000003
  0
LINE
  8
_0-0_0
  6
CONTINUOUS
 62
    7
 10
-270.32223550000003
 20
753.89691199999993
 11
-270.07223550000003
 21
754.14999399999999
  0
LINE
  8
_0-0_0
  6
CONTINUOUS
 62
    7
 10
-270.57223550000003
 20
753.64999399999999
 11
-270.57223550000003
 21
749.89483599999994
  0
LINE
  8
_0-0_0
  6
CONTINUOUS
 62
    7
 10
-270.07223550000003
 20
753.11944599999993
 11
-260.82223550000003
 21
753.11944599999993
  0
LINE
  8
_0-0_0
  6
CONTINUOUS
 62
    7
 10
-270.07223550000003
 20
753.32281499999999
 11
-260.82223550000003
 21
753.32281499999999
  0
LINE
  8
_0-0_0
  6
CONTINUOUS
 62
    7
 10
-270.07223550000003
 20
753.50784299999998
 11
-260.82223550000003
 21
753.50784299999998
  0
LINE
  8
_0-0_0
  6
CONTINUOUS
 62
    7
 10
-270.07223550000003
 20
753.67251599999997
 11
-260.82223550000003
 21
753.67251599999997
  0
LINE
  8
_0-0_0
  6
CONTINUOUS
 62
    7
 10
-270.07223550000003
 20
753.81506300000001
 11
-260.82223550000003
 21
753.81506300000001
  0
LINE
  8
_0-0_0
  6
CONTINUOUS
 62
    7
 10
-270.07223550000003
 20
753.93383799999992
 11
-260.82223550000003
 21
753.93383799999992
  0
LINE
  8
_0-0_0
  6
CONTINUOUS
 62
    7
 10
-270.07223550000003
 20
754.02761800000007
 11
-260.82223550000003
 21
754.02761800000007
  0
LINE
  8
_0-0_0
  6
CONTINUOUS
 62
    7
 10
-270.07223550000003
 20
754.09533699999997
 11
-260.82223550000003
 21
754.09533699999997
  0
LINE
  8
_0-0_0
  6
CONTINUOUS
 62
    7
 10
-270.07223550000003
 20
754.13629200000003
 11
-260.82223550000003
 21
754.13629200000003
  0
LINE
  8
_0-0_0
  6
CONTINUOUS
 62
    7
 10
-270.07223550000003
 20
754.14999399999999
 11
-260.82223550000003
 21
754.14999399999999
  0
LINE
  8
_0-0_0
  6
CONTINUOUS
 62
    7
 10
-234.57223550000003
 20
770.5
 11
-260.57223550000003
 21
770.5
  0
LINE
  8
_0-0_0
  6
CONTINUOUS
 62
    7
 10
-234.57223550000003
 20
766
 11
-260.57223550000003
 21
766
  0
LINE
  8
_0-0_0
  6
CONTINUOUS
 62
    7
 10
-133.57221950000007
 20
753.89999399999999
 11
-131.11654650000003
 21
753.89999399999999
  0
LINE
  8
_0-0_0
  6
CONTINUOUS
 62
    7
 10
-131.61763050000002
 20
749.39999399999999
 11
-131.11654650000003
 21
749.39999399999999
  0
LINE
  8
_0-0_0
  6
CONTINUOUS
 62
    7
 10
-260.57223550000003
 20
770.5
 11
-260.82223550000003
 21
770.75
  0
LINE
  8
_0-0_0
  6
CONTINUOUS
 62
    7
 10
-260.57223550000003
 20
766
 11
-260.82223550000003
 21
765.75
  0
LINE
  8
_0-0_0
  6
CONTINUOUS
 62
    7
 10
-130.97221350000007
 20
753.64999399999999
 11
-131.11654650000003
 21
753.89999399999999
  0
LINE
  8
_0-0_0
  6
CONTINUOUS
 62
    7
 10
-130.97221350000007
 20
749.64999399999999
 11
-131.11654650000003
 21
749.39999399999999
  0
LINE
  8
_0-0_0
  6
CONTINUOUS
 62
    7
 10
-256.57223550000003
 20
754.69998199999998
 11
-255.32223550000003
 21
753.44998199999998
  0
LINE
  8
_0-0_0
  6
CONTINUOUS
 62
    7
 10
-256.57223550000003
 20
765.19998199999998
 11
-255.77221650000001
 21
765.99996899999996
  0
LINE
  8
_0-0_0
  6
CONTINUOUS
 62
    7
 10
-270.57223550000003
 20
770.25
 11
-270.07235750000018
 21
770.74981700000001
  0
LINE
  8
_0-0_0
  6
CONTINUOUS
 62
    7
 10
-270.57223550000003
 20
766.25
 11
-270.07235750000018
 21
765.75015299999995
  0
LINE
  8
_0-0_0
  6
CONTINUOUS
 62
    7
 10
-256.57223550000003
 20
764.94998199999998
 11
-256.97222950000014
 21
764.94998199999998
  0
LINE
  8
_0-0_0
  6
CONTINUOUS
 62
    7
 10
-256.57223550000003
 20
754.94998199999998
 11
-256.97222950000014
 21
754.94998199999998
  0
LINE
  8
_0-0_0
  6
CONTINUOUS
 62
    7
 10
-257.77221650000001
 20
764.48809800000004
 11
-256.97222950000014
 21
764.94998199999998
  0
LINE
  8
_0-0_0
  6
CONTINUOUS
 62
    7
 10
-257.77221650000001
 20
755.41186500000003
 11
-256.97222950000014
 21
754.94998199999998
  0
LINE
  8
_0-0_0
  6
CONTINUOUS
 62
    7
 10
-257.77221650000001
 20
763.94998199999998
 11
-315.77221650000001
 21
763.94998199999998
  0
LINE
  8
_0-0_0
  6
CONTINUOUS
 62
    7
 10
-257.77221650000001
 20
755.94998199999998
 11
-315.77221650000001
 21
755.94998199999998
  0
LINE
  8
_0-0_0
  6
CONTINUOUS
 62
    7
 10
-240.32223550000003
 20
749.39999399999999
 11
-260.57223550000003
 21
749.39999399999999
  0
LINE
  8
_0-0_0
  6
CONTINUOUS
 62
    7
 10
-255.77221650000001
 20
753.89999399999999
 11
-260.57223550000003
 21
753.89999399999999
  0
LINE
  8
_0-0_0
  6
CONTINUOUS
 62
    7
 10
-260.57223550000003
 20
753.89999399999999
 11
-260.82223550000003
 21
754.14999399999999
  0
LINE
  8
_0-0_0
  6
CONTINUOUS
 62
    7
 10
-270.57223550000003
 20
749.64999399999999
 11
-270.07235750000018
 21
749.15014599999995
  0
LINE
  8
_0-0_0
  6
CONTINUOUS
 62
    7
 10
-270.57223550000003
 20
753.64999399999999
 11
-270.07235750000018
 21
754.14984099999992
  0
LINE
  8
_0-0_0
  6
CONTINUOUS
 62
    7
 10
-344.08322150000004
 20
802.14999399999999
 11
-344.08322150000004
 21
789.14999399999999
  0
LINE
  8
_0-0_0
  6
CONTINUOUS
 62
    7
 10
-343.88320950000002
 20
802.14999399999999
 11
-344.08322150000004
 21
802.14999399999999
  0
LINE
  8
_0-0_0
  6
CONTINUOUS
 62
    7
 10
-343.88320950000002
 20
789.14999399999999
 11
-344.08322150000004
 21
789.14999399999999
  0
LINE
  8
_0-0_0
  6
CONTINUOUS
 62
    7
 10
-343.88320950000002
 20
802.14999399999999
 11
-343.88320950000002
 21
820.75
  0
LINE
  8
_0-0_0
  6
CONTINUOUS
 62
    7
 10
-343.78323350000005
 20
820.75
 11
-343.88320950000002
 21
820.75
  0
LINE
  8
_0-0_0
  6
CONTINUOUS
 62
    7
 10
-343.78323350000005
 20
823.25
 11
-343.78323350000005
 21
820.75
  0
ARC
  8
_0-0_0
  6
CONTINUOUS
 62
    7
 10
-344.28323350000005
 20
823.25
 40
0.5
 50
0
 51
90.000003000000007
  0
LINE
  8
_0-0_0
  6
CONTINUOUS
 62
    7
 10
-344.28323350000005
 20
823.75
 11
-347.28323350000005
 21
823.75
  0
ARC
  8
_0-0_0
  6
CONTINUOUS
 62
    7
 10
-347.28323350000005
 20
823.25
 40
0.5
 50
90.000003000000007
 51
179.99999099999999
  0
ARC
  8
_0-0_0
  6
CONTINUOUS
 62
    7
 10
-351.78323350000005
 20
775.75
 40
0.5
 50
179.99999099999999
 51
269.99999700000001
  0
LINE
  8
_0-0_0
  6
CONTINUOUS
 62
    7
 10
-349.28323350000005
 20
775.25
 11
-351.78323350000005
 21
775.25
  0
ARC
  8
_0-0_0
  6
CONTINUOUS
 62
    7
 10
-349.28323350000005
 20
775.75
 40
0.5
 50
269.99999700000001
 51
0
  0
LINE
  8
_0-0_0
  6
CONTINUOUS
 62
    7
 10
-348.78323350000005
 20
780.75
 11
-348.78323350000005
 21
775.75
  0
ARC
  8
_0-0_0
  6
CONTINUOUS
 62
    7
 10
-348.28323350000005
 20
780.75
 40
0.5
 50
90.000003000000007
 51
179.99999099999999
  0
LINE
  8
_0-0_0
  6
CONTINUOUS
 62
    7
 10
-344.28323350000005
 20
781.25
 11
-348.28323350000005
 21
781.25
  0
ARC
  8
_0-0_0
  6
CONTINUOUS
 62
    7
 10
-344.28323350000005
 20
781.75
 40
0.5
 50
269.99999700000001
 51
0
  0
LINE
  8
_0-0_0
  6
CONTINUOUS
 62
    7
 10
-343.78323350000005
 20
784.94998199999998
 11
-343.78323350000005
 21
781.75
  0
LINE
  8
_0-0_0
  6
CONTINUOUS
 62
    7
 10
-343.88320950000002
 20
784.94998199999998
 11
-343.78323350000005
 21
784.94998199999998
  0
LINE
  8
_0-0_0
  6
CONTINUOUS
 62
    7
 10
-343.88320950000002
 20
784.94998199999998
 11
-343.88320950000002
 21
789.14999399999999
  0
LINE
  8
_0-0_0
  6
CONTINUOUS
 62
    7
 10
-344.78323350000005
 20
823.25
 11
-362.58322150000004
 21
823.25
  0
ARC
  8
_0-0_0
  6
CONTINUOUS
 62
    7
 10
-344.78323350000005
 20
822.75
 40
0.5
 50
0
 51
90.000003000000007
  0
LINE
  8
_0-0_0
  6
CONTINUOUS
 62
    7
 10
-344.28323350000005
 20
822.75
 11
-344.28323350000005
 21
782.25
  0
ARC
  8
_0-0_0
  6
CONTINUOUS
 62
    7
 10
-344.78323350000005
 20
782.25
 40
0.5
 50
269.99999700000001
 51
0
  0
LINE
  8
_0-0_0
  6
CONTINUOUS
 62
    7
 10
-348.28323350000005
 20
781.75
 11
-344.78323350000005
 21
781.75
  0
ARC
  8
_0-0_0
  6
CONTINUOUS
 62
    7
 10
-348.28323350000005
 20
780.75
 40
1
 50
90.000003000000007
 51
179.99999099999999
  0
LINE
  8
_0-0_0
  6
CONTINUOUS
 62
    7
 10
-349.28323350000005
 20
780.75
 11
-349.28323350000005
 21
776.25
  0
ARC
  8
_0-0_0
  6
CONTINUOUS
 62
    7
 10
-349.78323350000005
 20
776.25
 40
0.5
 50
269.99999700000001
 51
0
  0
LINE
  8
_0-0_0
  6
CONTINUOUS
 62
    7
 10
-366.78323350000005
 20
775.75
 11
-349.78323350000005
 21
775.75
  0
LINE
  8
_0-0_0
  6
CONTINUOUS
 62
    7
 10
-348.28323350000005
 20
823.44998199999998
 11
-348.28323350000005
 21
823.25
  0
ARC
  8
_0-0_0
  6
CONTINUOUS
 62
    7
 10
-348.58322150000004
 20
823.44998199999998
 40
0.2999999999999999
 50
0
 51
90.000003000000007
  0
LINE
  8
_0-0_0
  6
CONTINUOUS
 62
    7
 10
-348.58322150000004
 20
823.75
 11
-363.28323350000005
 21
823.75
  0
ARC
  8
_0-0_0
  6
CONTINUOUS
 62
    7
 10
-363.28323350000005
 20
823.44998199999998
 40
0.2999999999999999
 50
90.000003000000007
 51
179.99999099999999
  0
LINE
  8
_0-0_0
  6
CONTINUOUS
 62
    7
 10
-363.58322150000004
 20
823.44998199999998
 11
-363.58322150000004
 21
820.25
  0
LINE
  8
_0-0_0
  6
CONTINUOUS
 62
    7
 10
-363.58322150000004
 20
820.25
 11
-369.28323350000005
 21
820.25
  0
LINE
  8
_0-0_0
  6
CONTINUOUS
 62
    7
 10
-369.28323350000005
 20
820.25
 11
-370.08322150000004
 21
819.44998199999998
  0
ARC
  8
_0-0_0
  6
CONTINUOUS
 62
    7
 10
-362.58322150000004
 20
822.75
 40
0.5
 50
90.000003000000007
 51
179.99999099999999
  0
LINE
  8
_0-0_0
  6
CONTINUOUS
 62
    7
 10
-363.08322150000004
 20
822.75
 11
-363.08322150000004
 21
819.94998199999998
  0
ARC
  8
_0-0_0
  6
CONTINUOUS
 62
    7
 10
-363.58322150000004
 20
819.94998199999998
 40
0.5
 50
269.99999700000001
 51
0
  0
LINE
  8
_0-0_0
  6
CONTINUOUS
 62
    7
 10
-363.58322150000004
 20
819.44998199999998
 11
-371.78323350000005
 21
819.44998199999998
  0
ARC
  8
_0-0_0
  6
CONTINUOUS
 62
    7
 10
-371.78323350000005
 20
818.94998199999998
 40
0.5
 50
90.000003000000007
 51
179.99999099999999
  0
LINE
  8
_0-0_0
  6
CONTINUOUS
 62
    7
 10
-372.28323350000005
 20
782.25
 11
-372.28323350000005
 21
818.94998199999998
  0
ARC
  8
_0-0_0
  6
CONTINUOUS
 62
    7
 10
-371.78323350000005
 20
782.25
 40
0.5
 50
179.99999099999999
 51
269.99999700000001
  0
LINE
  8
_0-0_0
  6
CONTINUOUS
 62
    7
 10
-371.78323350000005
 20
781.75
 11
-368.28323350000005
 21
781.75
  0
ARC
  8
_0-0_0
  6
CONTINUOUS
 62
    7
 10
-368.28323350000005
 20
780.75
 40
1
 50
0
 51
90.000003000000007
  0
LINE
  8
_0-0_0
  6
CONTINUOUS
 62
    7
 10
-367.28323350000005
 20
776.25
 11
-367.28323350000005
 21
780.75
  0
ARC
  8
_0-0_0
  6
CONTINUOUS
 62
    7
 10
-366.78323350000005
 20
776.25
 40
0.5
 50
179.99999099999999
 51
269.99999700000001
  0
CIRCLE
  8
_0-0_0
  6
CONTINUOUS
 62
    7
 10
-358.28323350000005
 20
784.75
 40
2.0670000000000002
  0
LINE
  8
_0-0_0
  6
CONTINUOUS
 62
    7
 10
-370.28323350000005
 20
819.75
 11
-370.28323350000005
 21
819.44998199999998
  0
LINE
  8
_0-0_0
  6
CONTINUOUS
 62
    7
 10
-370.28323350000005
 20
819.75
 11
-372.28323350000005
 21
819.75
  0
ARC
  8
_0-0_0
  6
CONTINUOUS
 62
    7
 10
-372.28323350000005
 20
819.25
 40
0.5
 50
90.000003000000007
 51
179.99999099999999
  0
LINE
  8
_0-0_0
  6
CONTINUOUS
 62
    7
 10
-372.78323350000005
 20
819.25
 11
-372.78323350000005
 21
781.75
  0
ARC
  8
_0-0_0
  6
CONTINUOUS
 62
    7
 10
-372.28323350000005
 20
781.75
 40
0.5
 50
179.99999099999999
 51
269.99999700000001
  0
LINE
  8
_0-0_0
  6
CONTINUOUS
 62
    7
 10
-368.28323350000005
 20
781.25
 11
-372.28323350000005
 21
781.25
  0
ARC
  8
_0-0_0
  6
CONTINUOUS
 62
    7
 10
-368.28323350000005
 20
780.75
 40
0.5
 50
0
 51
90.000003000000007
  0
LINE
  8
_0-0_0
  6
CONTINUOUS
 62
    7
 10
-367.78323350000005
 20
775.75
 11
-367.78323350000005
 21
780.75
  0
ARC
  8
_0-0_0
  6
CONTINUOUS
 62
    7
 10
-367.28323350000005
 20
775.75
 40
0.5
 50
179.99999099999999
 51
269.99999700000001
  0
LINE
  8
_0-0_0
  6
CONTINUOUS
 62
    7
 10
-367.28323350000005
 20
775.25
 11
-364.78323350000005
 21
775.25
  0
ARC
  8
_0-0_0
  6
CONTINUOUS
 62
    7
 10
-364.78323350000005
 20
775.75
 40
0.5
 50
269.99999700000001
 51
0
  0
LINE
  8
_0-0_0
  6
CONTINUOUS
 62
    7
 10
-348.78323350000005
 20
775.75
 11
-348.68322750000016
 21
775.75
  0
LINE
  8
_0-0_0
  6
CONTINUOUS
 62
    7
 10
-348.68322750000016
 20
775.75
 11
-348.68322750000016
 21
776.25
  0
LINE
  8
_0-0_0
  6
CONTINUOUS
 62
    7
 10
-348.68322750000016
 20
780.25
 11
-348.68322750000016
 21
776.25
  0
LINE
  8
_0-0_0
  6
CONTINUOUS
 62
    7
 10
-348.78323350000005
 20
780.75
 11
-348.68322750000016
 21
780.75
  0
LINE
  8
_0-0_0
  6
CONTINUOUS
 62
    7
 10
-348.68322750000016
 20
780.25
 11
-348.68322750000016
 21
780.75
  0
LINE
  8
_0-0_0
  6
CONTINUOUS
 62
    7
 10
-348.58322150000004
 20
776.25
 11
-348.58322150000004
 21
776.38034100000004
  0
LINE
  8
_0-0_0
  6
CONTINUOUS
 62
    7
 10
-348.58322150000004
 20
779.88034100000004
 11
-348.58322150000004
 21
776.38034100000004
  0
LINE
  8
_0-0_0
  6
CONTINUOUS
 62
    7
 10
-348.68322750000016
 20
780.14999399999999
 11
-348.58322150000004
 21
780.14999399999999
  0
LINE
  8
_0-0_0
  6
CONTINUOUS
 62
    7
 10
-348.58322150000004
 20
779.88034100000004
 11
-348.58322150000004
 21
780.14999399999999
  0
LINE
  8
_0-0_0
  6
CONTINUOUS
 62
    7
 10
-348.68322750000016
 20
776.25
 11
-348.58322150000004
 21
776.25
  0
LINE
  8
_0-0_0
  6
CONTINUOUS
 62
    7
 10
-348.68322750000016
 20
776.25
 11
-348.58322150000004
 21
776.25
  0
LINE
  8
_0-0_0
  6
CONTINUOUS
 62
    7
 10
-367.08322150000004
 20
773.25
 11
-362.88320950000002
 21
773.25
  0
LINE
  8
_0-0_0
  6
CONTINUOUS
 62
    7
 10
-351.28323350000005
 20
773.25
 11
-353.68322750000016
 21
773.25
  0
LINE
  8
_0-0_0
  6
CONTINUOUS
 62
    7
 10
-351.28323350000005
 20
773.25
 11
-350.08322150000004
 21
773.25
  0
ARC
  8
_0-0_0
  6
CONTINUOUS
 62
    7
 10
-350.08322150000004
 20
772.75
 40
0.5
 50
0
 51
90.000003000000007
  0
ARC
  8
_0-0_0
  6
CONTINUOUS
 62
    7
 10
-351.28323350000005
 20
772.75
 40
0.5
 50
90.000003000000007
 51
179.99999099999999
  0
ARC
  8
_0-0_0
  6
CONTINUOUS
 62
    7
 10
-353.68322750000016
 20
773.75
 40
0.5
 50
179.99999099999999
 51
269.99999700000001
  0
ARC
  8
_0-0_0
  6
CONTINUOUS
 62
    7
 10
-362.88320950000002
 20
773.75
 40
0.5
 50
269.99999700000001
 51
0
  0
ARC
  8
_0-0_0
  6
CONTINUOUS
 62
    7
 10
-367.08322150000004
 20
772.75
 40
0.5
 50
90.000003000000007
 51
179.99999099999999
  0
LINE
  8
_0-0_0
  6
CONTINUOUS
 62
    7
 10
-366.08322150000004
 20
773.75
 11
-366.08322150000004
 21
773.25
  0
ARC
  8
_0-0_0
  6
CONTINUOUS
 62
    7
 10
-365.58322150000004
 20
773.75
 40
0.5
 50
90.000003000000007
 51
179.99999099999999
  0
LINE
  8
_0-0_0
  6
CONTINUOUS
 62
    7
 10
-364.08322150000004
 20
774.25
 11
-365.58322150000004
 21
774.25
  0
ARC
  8
_0-0_0
  6
CONTINUOUS
 62
    7
 10
-364.08322150000004
 20
775.25
 40
1
 50
269.99999700000001
 51
0
  0
LINE
  8
_0-0_0
  6
CONTINUOUS
 62
    7
 10
-363.08322150000004
 20
775.75
 11
-363.08322150000004
 21
775.25
  0
LINE
  8
_0-0_0
  6
CONTINUOUS
 62
    7
 10
-362.58322150000004
 20
775.75
 11
-362.58322150000004
 21
774.75
  0
ARC
  8
_0-0_0
  6
CONTINUOUS
 62
    7
 10
-364.08322150000004
 20
774.75
 40
1.5
 50
269.99999700000001
 51
0
  0
ARC
  8
_0-0_0
  6
CONTINUOUS
 62
    7
 10
-352.48321549999991
 20
774.75
 40
1.5
 50
179.99999099999999
 51
269.99999700000001
  0
LINE
  8
_0-0_0
  6
CONTINUOUS
 62
    7
 10
-350.48321549999991
 20
773.75
 11
-350.48321549999991
 21
773.25
  0
ARC
  8
_0-0_0
  6
CONTINUOUS
 62
    7
 10
-350.98321549999991
 20
773.75
 40
0.5
 50
0
 51
90.000003000000007
  0
LINE
  8
_0-0_0
  6
CONTINUOUS
 62
    7
 10
-352.48321549999991
 20
774.25
 11
-350.98321549999991
 21
774.25
  0
ARC
  8
_0-0_0
  6
CONTINUOUS
 62
    7
 10
-352.48321549999991
 20
775.25
 40
1
 50
179.99999099999999
 51
269.99999700000001
  0
LINE
  8
_0-0_0
  6
CONTINUOUS
 62
    7
 10
-353.48321549999991
 20
775.75
 11
-353.48321549999991
 21
775.25
  0
LINE
  8
_0-0_0
  6
CONTINUOUS
 62
    7
 10
-353.98321549999991
 20
775.75
 11
-353.98321549999991
 21
774.75
  0
LINE
  8
_0-0_0
  6
CONTINUOUS
 62
    7
 10
-349.58322150000004
 20
746.25
 11
-349.58322150000004
 21
747.14999399999999
  0
LINE
  8
_0-0_0
  6
CONTINUOUS
 62
    7
 10
-349.58322150000004
 20
747.14999399999999
 11
-349.58322150000004
 21
749.64999399999999
  0
LINE
  8
_0-0_0
  6
CONTINUOUS
 62
    7
 10
-349.58322150000004
 20
749.64999399999999
 11
-349.58322150000004
 21
770.25
  0
LINE
  8
_0-0_0
  6
CONTINUOUS
 62
    7
 10
-349.58322150000004
 20
770.25
 11
-349.58322150000004
 21
772.75
  0
LINE
  8
_0-0_0
  6
CONTINUOUS
 62
    7
 10
-351.78323350000005
 20
772.75
 11
-351.78323350000005
 21
771.50497399999995
  0
LINE
  8
_0-0_0
  6
CONTINUOUS
 62
    7
 10
-354.18322750000016
 20
773.75
 11
-354.18322750000016
 21
775.54998799999998
  0
ARC
  8
_0-0_0
  6
CONTINUOUS
 62
    7
 10
-354.68322750000016
 20
775.54998799999998
 40
0.5
 50
0
 51
23.579369
  0
LINE
  8
_0-0_0
  6
CONTINUOUS
 62
    7
 10
-362.38320950000002
 20
773.75
 11
-362.38320950000002
 21
775.54998799999998
  0
ARC
  8
_0-0_0
  6
CONTINUOUS
 62
    7
 10
-361.88320950000002
 20
775.54998799999998
 40
0.5
 50
156.420635
 51
179.99999099999999
  0
LINE
  8
_0-0_0
  6
CONTINUOUS
 62
    7
 10
-367.58322150000004
 20
746.25
 11
-367.58322150000004
 21
756.44998199999998
  0
LINE
  8
_0-0_0
  6
CONTINUOUS
 62
    7
 10
-367.58322150000004
 20
756.44998199999998
 11
-367.58322150000004
 21
757.44998199999998
  0
LINE
  8
_0-0_0
  6
CONTINUOUS
 62
    7
 10
-367.58322150000004
 20
757.44998199999998
 11
-367.58322150000004
 21
762.44998199999998
  0
LINE
  8
_0-0_0
  6
CONTINUOUS
 62
    7
 10
-367.58322150000004
 20
762.44998199999998
 11
-367.58322150000004
 21
763.44998199999998
  0
LINE
  8
_0-0_0
  6
CONTINUOUS
 62
    7
 10
-367.58322150000004
 20
772.75
 11
-367.58322150000004
 21
763.44998199999998
  0
LINE
  8
_0-0_0
  6
CONTINUOUS
 62
    7
 10
-348.78323350000005
 20
771.75
 11
-349.58322150000004
 21
771.75
  0
LINE
  8
_0-0_0
  6
CONTINUOUS
 62
    7
 10
-348.78323350000005
 20
772.54998799999998
 11
-349.58322150000004
 21
772.54998799999998
  0
LINE
  8
_0-0_0
  6
CONTINUOUS
 62
    7
 10
-348.78323350000005
 20
771.54998799999998
 11
-348.78323350000005
 21
772.54998799999998
  0
LINE
  8
_0-0_0
  6
CONTINUOUS
 62
    7
 10
-348.78323350000005
 20
752.94998199999998
 11
-349.58322150000004
 21
752.94998199999998
  0
LINE
  8
_0-0_0
  6
CONTINUOUS
 62
    7
 10
-348.78323350000005
 20
752.94998199999998
 11
-348.78323350000005
 21
755.94998199999998
  0
LINE
  8
_0-0_0
  6
CONTINUOUS
 62
    7
 10
-348.78323350000005
 20
768.18768299999999
 11
-348.78323350000005
 21
755.94998199999998
  0
LINE
  8
_0-0_0
  6
CONTINUOUS
 62
    7
 10
-348.78323350000005
 20
768.18768299999999
 11
-348.78323350000005
 21
769.15045199999997
  0
LINE
  8
_0-0_0
  6
CONTINUOUS
 62
    7
 10
-349.58322150000004
 20
769.15045199999997
 11
-349.58322150000004
 21
771.75
  0
ARC
  8
_0-0_0
  6
CONTINUOUS
 62
    7
 10
-355.19815050000011
 20
768.43203700000004
 40
5.7120379999999997
 50
18.558475999999999
 51
26.433648000000002
  0
ARC
  8
_0-0_0
  6
CONTINUOUS
 62
    7
 10
-349.78323350000005
 20
770.25
 40
0.2
 50
269.99999700000001
 51
0
  0
ARC
  8
_0-0_0
  6
CONTINUOUS
 62
    7
 10
-349.78323350000005
 20
749.64999399999999
 40
0.2
 50
0
 51
90.000003000000007
  0
ARC
  8
_0-0_0
  6
CONTINUOUS
 62
    7
 10
-355.19802849999996
 20
751.46801800000003
 40
5.711964
 50
333.565022
 51
341.44031000000001
  0
ARC
  8
_0-0_0
  6
CONTINUOUS
 62
    7
 10
-350.08322150000004
 20
747.14999399999999
 40
0.5
 50
269.99999700000001
 51
0
  0
LINE
  8
_0-0_0
  6
CONTINUOUS
 62
    7
 10
-350.08322150000004
 20
746.25
 11
-349.58322150000004
 21
746.25
  0
LINE
  8
_0-0_0
  6
CONTINUOUS
 62
    7
 10
-349.58322150000004
 20
746.25
 11
-350.08322150000004
 21
745.75
  0
ARC
  8
_0-0_0
  6
CONTINUOUS
 62
    7
 10
-351.78323350000005
 20
768.75
 40
2.2999999999999998
 50
34.417387999999995
 51
79.713437000000013
  0
LINE
  8
_0-0_0
  6
CONTINUOUS
 62
    7
 10
-349.8445435000001
 20
770.04998799999998
 11
-349.88586450000003
 21
770.04998799999998
  0
LINE
  8
_0-0_0
  6
CONTINUOUS
 62
    7
 10
-349.8445435000001
 20
770.04998799999998
 11
-349.83499150000011
 21
770.05102499999998
  0
LINE
  8
_0-0_0
  6
CONTINUOUS
 62
    7
 10
-349.83499150000011
 20
770.05102499999998
 11
-349.82547049999994
 21
770.05419899999993
  0
LINE
  8
_0-0_0
  6
CONTINUOUS
 62
    7
 10
-349.82547049999994
 20
770.05419899999993
 11
-349.81622349999998
 21
770.05960099999993
  0
LINE
  8
_0-0_0
  6
CONTINUOUS
 62
    7
 10
-349.81622349999998
 20
770.05960099999993
 11
-349.8074345
 21
770.06710799999996
  0
LINE
  8
_0-0_0
  6
CONTINUOUS
 62
    7
 10
-349.8074345
 20
770.06710799999996
 11
-349.79202250000003
 21
770.08776899999998
  0
LINE
  8
_0-0_0
  6
CONTINUOUS
 62
    7
 10
-349.79202250000003
 20
770.08776899999998
 11
-349.7802435000001
 21
770.11502100000007
  0
LINE
  8
_0-0_0
  6
CONTINUOUS
 62
    7
 10
-349.7802435000001
 20
770.11502100000007
 11
-349.77307150000001
 21
770.147156
  0
LINE
  8
_0-0_0
  6
CONTINUOUS
 62
    7
 10
-349.77307150000001
 20
770.147156
 11
-349.77117950000002
 21
770.18221999999992
  0
LINE
  8
_0-0_0
  6
CONTINUOUS
 62
    7
 10
-349.77117950000002
 20
770.18221999999992
 11
-349.77502449999997
 21
770.21838400000001
  0
LINE
  8
_0-0_0
  6
CONTINUOUS
 62
    7
 10
-349.77502449999997
 20
770.21838400000001
 11
-349.78323350000005
 21
770.25
  0
ARC
  8
_0-0_0
  6
CONTINUOUS
 62
    7
 10
-351.28323350000005
 20
771.50497399999995
 40
0.5
 50
179.99999099999999
 51
259.71343899999994
  0
LINE
  8
_0-0_0
  6
CONTINUOUS
 62
    7
 10
-366.78323350000005
 20
768.75
 11
-366.78323350000005
 21
755.14999399999999
  0
LINE
  8
_0-0_0
  6
CONTINUOUS
 62
    7
 10
-366.78323350000005
 20
754.64999399999999
 11
-366.78323350000005
 21
755.14999399999999
  0
LINE
  8
_0-0_0
  6
CONTINUOUS
 62
    7
 10
-366.78323350000005
 20
751.64999399999999
 11
-366.78323350000005
 21
754.64999399999999
  0
LINE
  8
_0-0_0
  6
CONTINUOUS
 62
    7
 10
-366.78323350000005
 20
751.14999399999999
 11
-366.78323350000005
 21
751.64999399999999
  0
ARC
  8
_0-0_0
  6
CONTINUOUS
 62
    7
 10
-364.78323350000005
 20
768.75
 40
2
 50
93.840255999999997
 51
179.99999099999999
  0
LINE
  8
_0-0_0
  6
CONTINUOUS
 62
    7
 10
-364.78323350000005
 20
770.75
 11
-355.78323350000005
 21
770.75
  0
LINE
  8
_0-0_0
  6
CONTINUOUS
 62
    7
 10
-351.78323350000005
 20
770.75
 11
-352.28323350000005
 21
770.75
  0
LINE
  8
_0-0_0
  6
CONTINUOUS
 62
    7
 10
-352.28323350000005
 20
770.75
 11
-355.28323350000005
 21
770.75
  0
LINE
  8
_0-0_0
  6
CONTINUOUS
 62
    7
 10
-355.78323350000005
 20
770.75
 11
-355.28323350000005
 21
770.75
  0
ARC
  8
_0-0_0
  6
CONTINUOUS
 62
    7
 10
-351.78323350000005
 20
768.75
 40
2
 50
0
 51
90.000003000000007
  0
LINE
  8
_0-0_0
  6
CONTINUOUS
 62
    7
 10
-367.78323350000005
 20
771.75
 11
-367.58322150000004
 21
771.75
  0
LINE
  8
_0-0_0
  6
CONTINUOUS
 62
    7
 10
-367.78323350000005
 20
772.54998799999998
 11
-367.58322150000004
 21
772.54998799999998
  0
LINE
  8
_0-0_0
  6
CONTINUOUS
 62
    7
 10
-367.78323350000005
 20
772.54998799999998
 11
-367.78323350000005
 21
771.75012199999992
  0
LINE
  8
_0-0_0
  6
CONTINUOUS
 62
    7
 10
-367.78323350000005
 20
752.94998199999998
 11
-367.58322150000004
 21
752.94998199999998
  0
LINE
  8
_0-0_0
  6
CONTINUOUS
 62
    7
 10
-367.78323350000005
 20
755.94998199999998
 11
-367.78323350000005
 21
752.94998199999998
  0
LINE
  8
_0-0_0
  6
CONTINUOUS
 62
    7
 10
-367.78323350000005
 20
768.18768299999999
 11
-367.78323350000005
 21
755.94998199999998
  0
LINE
  8
_0-0_0
  6
CONTINUOUS
 62
    7
 10
-367.78323350000005
 20
769.15045199999997
 11
-367.78323350000005
 21
768.18768299999999
  0
ARC
  8
_0-0_0
  6
CONTINUOUS
 62
    7
 10
-367.08322150000004
 20
762.44998199999998
 40
0.5
 50
90.000003000000007
 51
179.99999099999999
  0
ARC
  8
_0-0_0
  6
CONTINUOUS
 62
    7
 10
-367.08322150000004
 20
757.44998199999998
 40
0.5
 50
179.99999099999999
 51
269.99999700000001
  0
LINE
  8
_0-0_0
  6
CONTINUOUS
 62
    7
 10
-367.58322150000004
 20
746.25
 11
-367.08322150000004
 21
746.25
  0
LINE
  8
_0-0_0
  6
CONTINUOUS
 62
    7
 10
-367.58322150000004
 20
746.25
 11
-367.08322150000004
 21
745.75
  0
LINE
  8
_0-0_0
  6
CONTINUOUS
 62
    7
 10
-349.58322150000004
 20
752.95001200000002
 11
-349.58322150000004
 21
751.79998799999998
  0
ARC
  8
_0-0_0
  6
CONTINUOUS
 62
    7
 10
-351.98321549999991
 20
751.79998799999998
 40
2.3999999999999999
 50
359.58604600000001
 51
0.0000099999999787
  0
LINE
  8
_0-0_0
  6
CONTINUOUS
 62
    7
 10
-348.78323350000005
 20
769.15045199999997
 11
-348.78323350000005
 21
771.75
  0
LINE
  8
_0-0_0
  6
CONTINUOUS
 62
    7
 10
-349.78323350000005
 20
770.04998799999998
 11
-349.8445435000001
 21
770.04998799999998
  0
LINE
  8
_0-0_0
  6
CONTINUOUS
 62
    7
 10
-349.88586450000003
 20
770.04998799999998
 11
-349.88806150000005
 21
770.04998799999998
  0
LINE
  8
_0-0_0
  6
CONTINUOUS
 62
    7
 10
-350.08322150000004
 20
746.25
 11
-367.08322150000004
 21
746.25
  0
LINE
  8
_0-0_0
  6
CONTINUOUS
 62
    7
 10
-350.01974450000012
 20
750.04998799999998
 11
-349.98281850000012
 21
749.97976700000004
  0
LINE
  8
_0-0_0
  6
CONTINUOUS
 62
    7
 10
-349.98281850000012
 20
749.97976700000004
 11
-349.96322650000002
 21
749.94528200000002
  0
LINE
  8
_0-0_0
  6
CONTINUOUS
 62
    7
 10
-349.96322650000002
 20
749.94528200000002
 11
-349.93713350000007
 21
749.90344200000004
  0
LINE
  8
_0-0_0
  6
CONTINUOUS
 62
    7
 10
-349.93713350000007
 20
749.90344200000004
 11
-349.92382850000013
 21
749.88439900000003
  0
LINE
  8
_0-0_0
  6
CONTINUOUS
 62
    7
 10
-349.92382850000013
 20
749.88439900000003
 11
-349.90545650000013
 21
749.86200000000008
  0
LINE
  8
_0-0_0
  6
CONTINUOUS
 62
    7
 10
-349.90545650000013
 20
749.86200000000008
 11
-349.89266950000001
 21
749.85137899999995
  0
LINE
  8
_0-0_0
  6
CONTINUOUS
 62
    7
 10
-349.89266950000001
 20
749.85137899999995
 11
-349.88806150000005
 21
749.84997599999997
  0
LINE
  8
_0-0_0
  6
CONTINUOUS
 62
    7
 10
-349.88586450000003
 20
749.84997599999997
 11
-349.88806150000005
 21
749.84997599999997
  0
LINE
  8
_0-0_0
  6
CONTINUOUS
 62
    7
 10
-350.01974450000012
 20
769.84997599999997
 11
-349.98281850000012
 21
769.92022700000007
  0
LINE
  8
_0-0_0
  6
CONTINUOUS
 62
    7
 10
-349.98281850000012
 20
769.92022700000007
 11
-349.96322650000002
 21
769.95468099999994
  0
LINE
  8
_0-0_0
  6
CONTINUOUS
 62
    7
 10
-349.96322650000002
 20
769.95468099999994
 11
-349.93713350000007
 21
769.99652100000003
  0
LINE
  8
_0-0_0
  6
CONTINUOUS
 62
    7
 10
-349.93713350000007
 20
769.99652100000003
 11
-349.92382850000013
 21
770.01556400000004
  0
LINE
  8
_0-0_0
  6
CONTINUOUS
 62
    7
 10
-349.92382850000013
 20
770.01556400000004
 11
-349.90545650000013
 21
770.03796399999999
  0
LINE
  8
_0-0_0
  6
CONTINUOUS
 62
    7
 10
-349.90545650000013
 20
770.03796399999999
 11
-349.89266950000001
 21
770.04858400000001
  0
LINE
  8
_0-0_0
  6
CONTINUOUS
 62
    7
 10
-349.89266950000001
 20
770.04858400000001
 11
-349.88806150000005
 21
770.04998799999998
  0
LINE
  8
_0-0_0
  6
CONTINUOUS
 62
    7
 10
-349.88586450000003
 20
749.84997599999997
 11
-349.8445435000001
 21
749.84997599999997
  0
LINE
  8
_0-0_0
  6
CONTINUOUS
 62
    7
 10
-349.78323350000005
 20
749.84997599999997
 11
-349.8445435000001
 21
749.84997599999997
  0
LINE
  8
_0-0_0
  6
CONTINUOUS
 62
    7
 10
-349.8445435000001
 20
749.84997599999997
 11
-349.83496149999996
 21
749.84893799999998
  0
LINE
  8
_0-0_0
  6
CONTINUOUS
 62
    7
 10
-349.83496149999996
 20
749.84893799999998
 11
-349.82547049999994
 21
749.84576399999992
  0
LINE
  8
_0-0_0
  6
CONTINUOUS
 62
    7
 10
-349.82547049999994
 20
749.84576399999992
 11
-349.81622349999998
 21
749.84036300000002
  0
LINE
  8
_0-0_0
  6
CONTINUOUS
 62
    7
 10
-349.81622349999998
 20
749.84036300000002
 11
-349.8074345
 21
749.832855
  0
LINE
  8
_0-0_0
  6
CONTINUOUS
 62
    7
 10
-349.8074345
 20
749.832855
 11
-349.79202250000003
 21
749.81222500000001
  0
LINE
  8
_0-0_0
  6
CONTINUOUS
 62
    7
 10
-349.79202250000003
 20
749.81222500000001
 11
-349.7802435000001
 21
749.784943
  0
LINE
  8
_0-0_0
  6
CONTINUOUS
 62
    7
 10
-349.7802435000001
 20
749.784943
 11
-349.77307150000001
 21
749.75280799999996
  0
LINE
  8
_0-0_0
  6
CONTINUOUS
 62
    7
 10
-349.77307150000001
 20
749.75280799999996
 11
-349.77117950000002
 21
749.71774299999993
  0
LINE
  8
_0-0_0
  6
CONTINUOUS
 62
    7
 10
-349.77117950000002
 20
749.71774299999993
 11
-349.77502449999997
 21
749.68157999999994
  0
LINE
  8
_0-0_0
  6
CONTINUOUS
 62
    7
 10
-349.77502449999997
 20
749.68157999999994
 11
-349.78323350000005
 21
749.64999399999999
  0
ARC
  8
_0-0_0
  6
CONTINUOUS
 62
    7
 10
-351.78323350000005
 20
751.14999399999999
 40
2.2999999999999998
 50
280.28656300000006
 51
325.58260500000006
  0
LINE
  8
_0-0_0
  6
CONTINUOUS
 62
    7
 10
-350.08322150000004
 20
746.64999399999999
 11
-351.28323350000005
 21
746.64999399999999
  0
LINE
  8
_0-0_0
  6
CONTINUOUS
 62
    7
 10
-350.08322150000004
 20
745.75
 11
-367.08322150000004
 21
745.75
  0
LINE
  8
_0-0_0
  6
CONTINUOUS
 62
    7
 10
-366.78323350000005
 20
762.94998199999998
 11
-367.08322150000004
 21
762.94998199999998
  0
ARC
  8
_0-0_0
  6
CONTINUOUS
 62
    7
 10
-366.28323350000005
 20
755.14999399999999
 40
0.5
 50
179.99999099999999
 51
269.99999700000001
  0
CIRCLE
  8
_0-0_0
  6
CONTINUOUS
 62
    7
 10
-364.28323350000005
 20
751.64999399999999
 40
2.5
  0
LINE
  8
_0-0_0
  6
CONTINUOUS
 62
    7
 10
-361.28323350000005
 20
749.14999399999999
 11
-364.28323350000005
 21
749.14999399999999
  0
LINE
  8
_0-0_0
  6
CONTINUOUS
 62
    7
 10
-360.78323350000005
 20
749.14999399999999
 11
-361.28323350000005
 21
749.14999399999999
  0
ARC
  8
_0-0_0
  6
CONTINUOUS
 62
    7
 10
-364.78323350000005
 20
751.14999399999999
 40
2
 50
179.99999099999999
 51
269.99999700000001
  0
LINE
  8
_0-0_0
  6
CONTINUOUS
 62
    7
 10
-364.28323350000005
 20
749.14999399999999
 11
-364.78323350000005
 21
749.14999399999999
  0
LINE
  8
_0-0_0
  6
CONTINUOUS
 62
    7
 10
-364.78323350000005
 20
770.64733899999999
 11
-364.79910250000012
 21
770.67459099999996
  0
LINE
  8
_0-0_0
  6
CONTINUOUS
 62
    7
 10
-364.79910250000012
 20
770.67459099999996
 11
-364.81494150000003
 21
770.69757099999993
  0
LINE
  8
_0-0_0
  6
CONTINUOUS
 62
    7
 10
-364.81494150000003
 20
770.69757099999993
 11
-364.8289185000001
 21
770.71432499999992
  0
LINE
  8
_0-0_0
  6
CONTINUOUS
 62
    7
 10
-364.8289185000001
 20
770.71432499999992
 11
-364.84283449999998
 21
770.72766100000001
  0
LINE
  8
_0-0_0
  6
CONTINUOUS
 62
    7
 10
-364.84283449999998
 20
770.72766100000001
 11
-364.85504149999997
 21
770.73660300000006
  0
LINE
  8
_0-0_0
  6
CONTINUOUS
 62
    7
 10
-364.85504149999997
 20
770.73660300000006
 11
-364.86715750000008
 21
770.74279799999999
  0
LINE
  8
_0-0_0
  6
CONTINUOUS
 62
    7
 10
-364.86715750000008
 20
770.74279799999999
 11
-364.87802150000016
 21
770.74609400000008
  0
LINE
  8
_0-0_0
  6
CONTINUOUS
 62
    7
 10
-364.87802150000016
 20
770.74609400000008
 11
-364.88879450000013
 21
770.74713100000008
  0
LINE
  8
_0-0_0
  6
CONTINUOUS
 62
    7
 10
-364.88879450000013
 20
770.74713100000008
 11
-364.89123549999999
 21
770.74707000000001
  0
LINE
  8
_0-0_0
  6
CONTINUOUS
 62
    7
 10
-349.78323350000005
 20
768.25
 11
-349.78323350000005
 21
768.75
  0
CIRCLE
  8
_0-0_0
  6
CONTINUOUS
 62
    7
 10
-352.28323350000005
 20
768.25
 40
2.5
  0
LINE
  8
_0-0_0
  6
CONTINUOUS
 62
    7
 10
-349.78323350000005
 20
765.25
 11
-349.78323350000005
 21
764.75
  0
LINE
  8
_0-0_0
  6
CONTINUOUS
 62
    7
 10
-349.78323350000005
 20
765.25
 11
-349.78323350000005
 21
768.25
  0
ARC
  8
_0-0_0
  6
CONTINUOUS
 62
    7
 10
-355.78323350000005
 20
770.25
 40
0.5
 50
0
 51
90.000003000000007
  0
LINE
  8
_0-0_0
  6
CONTINUOUS
 62
    7
 10
-349.78323350000005
 20
751.14999399999999
 11
-349.78323350000005
 21
764.75
  0
LINE
  8
_0-0_0
  6
CONTINUOUS
 62
    7
 10
-367.78323350000005
 20
771.75
 11
-367.78323350000005
 21
769.15045199999997
  0
LINE
  8
_0-0_0
  6
CONTINUOUS
 62
    7
 10
-367.08322150000004
 20
756.94998199999998
 11
-366.78323350000005
 21
756.94998199999998
  0
LINE
  8
_0-0_0
  6
CONTINUOUS
 62
    7
 10
-349.58322150000004
 20
772.55004899999994
 11
-349.58322150000004
 21
772.75
  0
ARC
  8
_0-0_0
  6
CONTINUOUS
 62
    7
 10
-351.78323350000005
 20
751.14999399999999
 40
2
 50
273.84026500000004
 51
0.000010000000014
  0
LINE
  8
_0-0_0
  6
CONTINUOUS
 62
    7
 10
-351.78323350000005
 20
749.14999399999999
 11
-360.78323350000005
 21
749.14999399999999
  0
ARC
  8
_0-0_0
  6
CONTINUOUS
 62
    7
 10
-351.28323350000005
 20
748.39498900000001
 40
0.5
 50
100.28656100000001
 51
179.99999099999999
  0
LINE
  8
_0-0_0
  6
CONTINUOUS
 62
    7
 10
-351.78323350000005
 20
747.14999399999999
 11
-351.78323350000005
 21
748.39498900000001
  0
ARC
  8
_0-0_0
  6
CONTINUOUS
 62
    7
 10
-351.28323350000005
 20
747.14999399999999
 40
0.5
 50
179.99999099999999
 51
269.99999700000001
  0
LINE
  8
_0-0_0
  6
CONTINUOUS
 62
    7
 10
-366.20623750000004
 20
754.64999399999999
 11
-366.28323350000005
 21
754.64999399999999
  0
LINE
  8
_0-0_0
  6
CONTINUOUS
 62
    7
 10
-364.28323350000005
 20
754.64999399999999
 11
-364.76470949999998
 21
754.64999399999999
  0
LINE
  8
_0-0_0
  6
CONTINUOUS
 62
    7
 10
-364.76470949999998
 20
754.64999399999999
 11
-366.20623750000004
 21
754.64999399999999
  0
LINE
  8
_0-0_0
  6
CONTINUOUS
 62
    7
 10
-361.28323350000005
 20
749.64999399999999
 11
-361.28323350000005
 21
749.72695900000008
  0
LINE
  8
_0-0_0
  6
CONTINUOUS
 62
    7
 10
-361.28323350000005
 20
751.16848800000002
 11
-361.28323350000005
 21
749.72695900000008
  0
LINE
  8
_0-0_0
  6
CONTINUOUS
 62
    7
 10
-361.28323350000005
 20
751.16848800000002
 11
-361.28323350000005
 21
751.64999399999999
  0
ARC
  8
_0-0_0
  6
CONTINUOUS
 62
    7
 10
-364.28323350000005
 20
751.64999399999999
 40
3
 50
0
 51
89.999995999999996
  0
ARC
  8
_0-0_0
  6
CONTINUOUS
 62
    7
 10
-360.78323350000005
 20
749.64999399999999
 40
0.5
 50
179.99999099999999
 51
269.99999700000001
  0
LINE
  8
_0-0_0
  6
CONTINUOUS
 62
    7
 10
-355.28323350000005
 20
770.17300399999999
 11
-355.28323350000005
 21
770.25
  0
LINE
  8
_0-0_0
  6
CONTINUOUS
 62
    7
 10
-355.28323350000005
 20
768.73147599999993
 11
-355.28323350000005
 21
770.17300399999999
  0
LINE
  8
_0-0_0
  6
CONTINUOUS
 62
    7
 10
-355.28323350000005
 20
768.25
 11
-355.28323350000005
 21
768.73147599999993
  0
ARC
  8
_0-0_0
  6
CONTINUOUS
 62
    7
 10
-352.28323350000005
 20
768.25
 40
3
 50
179.99999099999999
 51
269.99999700000001
  0
LINE
  8
_0-0_0
  6
CONTINUOUS
 62
    7
 10
-351.80172749999997
 20
765.25
 11
-352.28323350000005
 21
765.25
  0
LINE
  8
_0-0_0
  6
CONTINUOUS
 62
    7
 10
-351.80172749999997
 20
765.25
 11
-350.36019949999991
 21
765.25
  0
LINE
  8
_0-0_0
  6
CONTINUOUS
 62
    7
 10
-350.28323350000005
 20
765.25
 11
-350.36019949999991
 21
765.25
  0
ARC
  8
_0-0_0
  6
CONTINUOUS
 62
    7
 10
-350.28323350000005
 20
764.75
 40
0.5
 50
0
 51
90.000003000000007
  0
LINE
  8
_0-0_0
  6
CONTINUOUS
 62
    7
 10
-351.78323350000005
 20
749.25262500000008
 11
-351.76733450000006
 21
749.22537199999999
  0
LINE
  8
_0-0_0
  6
CONTINUOUS
 62
    7
 10
-351.76733450000006
 20
749.22537199999999
 11
-351.75149550000015
 21
749.20239300000003
  0
LINE
  8
_0-0_0
  6
CONTINUOUS
 62
    7
 10
-351.75149550000015
 20
749.20239300000003
 11
-351.73751850000008
 21
749.18563799999993
  0
LINE
  8
_0-0_0
  6
CONTINUOUS
 62
    7
 10
-351.73751850000008
 20
749.18563799999993
 11
-351.72360249999997
 21
749.17230199999995
  0
LINE
  8
_0-0_0
  6
CONTINUOUS
 62
    7
 10
-351.72360249999997
 20
749.17230199999995
 11
-351.71139549999998
 21
749.16339100000005
  0
LINE
  8
_0-0_0
  6
CONTINUOUS
 62
    7
 10
-351.71139549999998
 20
749.16339100000005
 11
-351.6992795000001
 21
749.15716599999996
  0
LINE
  8
_0-0_0
  6
CONTINUOUS
 62
    7
 10
-351.6992795000001
 20
749.15716599999996
 11
-351.68841550000002
 21
749.15390000000002
  0
LINE
  8
_0-0_0
  6
CONTINUOUS
 62
    7
 10
-351.68841550000002
 20
749.15390000000002
 11
-351.67764250000005
 21
749.15283199999999
  0
LINE
  8
_0-0_0
  6
CONTINUOUS
 62
    7
 10
-351.67764250000005
 20
749.15283199999999
 11
-351.67520149999996
 21
749.15289299999995
  0
ARC
  8
_0-0_0
  6
CONTINUOUS
 62
    7
 10
-361.51333650000015
 20
758.77673299999992
 40
3.063399
 50
199.82113599999997
 51
205.28948099999999
  0
ARC
  8
_0-0_0
  6
CONTINUOUS
 62
    7
 10
-361.51364150000018
 20
761.12335200000007
 40
3.0630549999999999
 50
154.710137
 51
160.17869999999999
  0
ARC
  8
_0-0_0
  6
CONTINUOUS
 62
    7
 10
-358.28323350000005
 20
759.94998199999998
 40
6.5
 50
160.10415599999999
 51
199.895612
  0
ARC
  8
_0-0_0
  6
CONTINUOUS
 62
    7
 10
-355.05310050000003
 20
761.12322999999992
 40
3.0633949999999999
 50
19.82113
 51
25.289566000000001
  0
ARC
  8
_0-0_0
  6
CONTINUOUS
 62
    7
 10
-355.0527955
 20
758.776611
 40
3.0630519999999999
 50
334.71006
 51
340.17869200000001
  0
LINE
  8
_0-0_0
  6
CONTINUOUS
 62
    7
 10
-357.54153450000013
 20
753.44998199999998
 11
-353.02490250000005
 21
756.05767800000001
  0
LINE
  8
_0-0_0
  6
CONTINUOUS
 62
    7
 10
-359.02490250000005
 20
753.44998199999998
 11
-357.54153450000013
 21
753.44998199999998
  0
LINE
  8
_0-0_0
  6
CONTINUOUS
 62
    7
 10
-363.54153450000013
 20
756.05767800000001
 11
-359.02490250000005
 21
753.44998199999998
  0
LINE
  8
_0-0_0
  6
CONTINUOUS
 62
    7
 10
-364.28323350000005
 20
762.55767800000001
 11
-364.28323350000005
 21
757.34228499999995
  0
LINE
  8
_0-0_0
  6
CONTINUOUS
 62
    7
 10
-363.54153450000013
 20
756.05767800000001
 11
-364.28323350000005
 21
757.34228499999995
  0
LINE
  8
_0-0_0
  6
CONTINUOUS
 62
    7
 10
-359.02490250000005
 20
766.44998199999998
 11
-363.54153450000013
 21
763.84228499999995
  0
LINE
  8
_0-0_0
  6
CONTINUOUS
 62
    7
 10
-363.83566250000013
 20
763.332855
 11
-364.28323350000005
 21
762.55767800000001
  0
LINE
  8
_0-0_0
  6
CONTINUOUS
 62
    7
 10
-363.83566250000013
 20
763.332855
 11
-363.54153450000013
 21
763.84228499999995
  0
LINE
  8
_0-0_0
  6
CONTINUOUS
 62
    7
 10
-357.54153450000013
 20
766.44998199999998
 11
-359.02490250000005
 21
766.44998199999998
  0
LINE
  8
_0-0_0
  6
CONTINUOUS
 62
    7
 10
-353.02490250000005
 20
763.84228499999995
 11
-357.54153450000013
 21
766.44998199999998
  0
ARC
  8
_0-0_0
  6
CONTINUOUS
 62
    7
 10
-358.28323350000005
 20
759.94998199999998
 40
6.5
 50
340.10416099999998
 51
19.895609999999952
  0
LINE
  8
_0-0_0
  6
CONTINUOUS
 62
    7
 10
-352.73077450000005
 20
756.56710799999996
 11
-352.28323350000005
 21
757.34228499999995
  0
LINE
  8
_0-0_0
  6
CONTINUOUS
 62
    7
 10
-352.73077450000005
 20
756.56710799999996
 11
-353.02490250000005
 21
756.05767800000001
  0
CIRCLE
  8
_0-0_0
  6
CONTINUOUS
 62
    7
 10
-358.28323350000005
 20
759.94998199999998
 40
5.25
  0
LINE
  8
_0-0_0
  6
CONTINUOUS
 62
    7
 10
-352.28323350000005
 20
762.55767800000001
 11
-352.28323350000005
 21
757.34228499999995
  0
LINE
  8
_0-0_0
  6
CONTINUOUS
 62
    7
 10
-353.02490250000005
 20
763.84228499999995
 11
-352.28323350000005
 21
762.55767800000001
  0
LINE
  8
_0-0_0
  6
CONTINUOUS
 62
    7
 10
-350.39620950000017
 20
769.47543300000007
 11
-350.11816450000015
 21
769.5
  0
LINE
  8
_0-0_0
  6
CONTINUOUS
 62
    7
 10
-350.27844249999998
 20
769.27145399999995
 11
-350.11816450000015
 21
769.5
  0
LINE
  8
_0-0_0
  6
CONTINUOUS
 62
    7
 10
-350.53463749999992
 20
769.66595499999994
 11
-350.26068149999992
 21
769.71945200000005
  0
LINE
  8
_0-0_0
  6
CONTINUOUS
 62
    7
 10
-350.39620950000017
 20
769.47543300000007
 11
-350.26068149999992
 21
769.71945200000005
  0
LINE
  8
_0-0_0
  6
CONTINUOUS
 62
    7
 10
-350.69223050000005
 20
769.84097300000008
 11
-350.42535450000014
 21
769.922821
  0
LINE
  8
_0-0_0
  6
CONTINUOUS
 62
    7
 10
-350.53463749999992
 20
769.66595499999994
 11
-350.42535450000014
 21
769.922821
  0
LINE
  8
_0-0_0
  6
CONTINUOUS
 62
    7
 10
-350.86724849999996
 20
769.99856599999998
 11
-350.61038250000001
 21
770.10784899999999
  0
LINE
  8
_0-0_0
  6
CONTINUOUS
 62
    7
 10
-350.69223050000005
 20
769.84097300000008
 11
-350.61038250000001
 21
770.10784899999999
  0
LINE
  8
_0-0_0
  6
CONTINUOUS
 62
    7
 10
-351.05776950000018
 20
770.13699300000007
 11
-350.81375150000008
 21
770.27252199999998
  0
LINE
  8
_0-0_0
  6
CONTINUOUS
 62
    7
 10
-350.86724849999996
 20
769.99856599999998
 11
-350.81375150000008
 21
770.27252199999998
  0
LINE
  8
_0-0_0
  6
CONTINUOUS
 62
    7
 10
-351.26174949999995
 20
770.25476099999992
 11
-351.03323350000005
 21
770.41503899999998
  0
LINE
  8
_0-0_0
  6
CONTINUOUS
 62
    7
 10
-351.05776950000018
 20
770.13699300000007
 11
-351.03323350000005
 21
770.41503899999998
  0
LINE
  8
_0-0_0
  6
CONTINUOUS
 62
    7
 10
-351.47689850000006
 20
770.35052500000006
 11
-351.26638850000018
 21
770.53384400000004
  0
LINE
  8
_0-0_0
  6
CONTINUOUS
 62
    7
 10
-351.26174949999995
 20
770.25476099999992
 11
-351.26638850000018
 21
770.53384400000004
  0
LINE
  8
_0-0_0
  6
CONTINUOUS
 62
    7
 10
-351.70086650000007
 20
770.42330900000002
 11
-351.51068149999992
 21
770.62762500000008
  0
LINE
  8
_0-0_0
  6
CONTINUOUS
 62
    7
 10
-351.47689850000006
 20
770.35052500000006
 11
-351.51068149999992
 21
770.62762500000008
  0
LINE
  8
_0-0_0
  6
CONTINUOUS
 62
    7
 10
-351.93124450000005
 20
770.47228999999993
 11
-351.76342750000003
 21
770.69534299999998
  0
LINE
  8
_0-0_0
  6
CONTINUOUS
 62
    7
 10
-351.70086650000007
 20
770.42330900000002
 11
-351.76342750000003
 21
770.69534299999998
  0
LINE
  8
_0-0_0
  6
CONTINUOUS
 62
    7
 10
-352.16546650000009
 20
770.49688700000002
 11
-352.02188150000006
 21
770.73629800000003
  0
LINE
  8
_0-0_0
  6
CONTINUOUS
 62
    7
 10
-351.93124450000005
 20
770.47228999999993
 11
-352.02188150000006
 21
770.73629800000003
  0
LINE
  8
_0-0_0
  6
CONTINUOUS
 62
    7
 10
-352.40097050000008
 20
770.49688700000002
 11
-352.28323350000005
 21
770.75
  0
LINE
  8
_0-0_0
  6
CONTINUOUS
 62
    7
 10
-352.16546650000009
 20
770.49688700000002
 11
-352.28323350000005
 21
770.75
  0
LINE
  8
_0-0_0
  6
CONTINUOUS
 62
    7
 10
-352.6351924999999
 20
770.47228999999993
 11
-352.54452549999996
 21
770.73629800000003
  0
LINE
  8
_0-0_0
  6
CONTINUOUS
 62
    7
 10
-352.40097050000008
 20
770.49688700000002
 11
-352.54452549999996
 21
770.73629800000003
  0
LINE
  8
_0-0_0
  6
CONTINUOUS
 62
    7
 10
-352.8655705000001
 20
770.42330900000002
 11
-352.80300949999992
 21
770.69534299999998
  0
LINE
  8
_0-0_0
  6
CONTINUOUS
 62
    7
 10
-352.6351924999999
 20
770.47228999999993
 11
-352.80300949999992
 21
770.69534299999998
  0
LINE
  8
_0-0_0
  6
CONTINUOUS
 62
    7
 10
-353.08953850000012
 20
770.35052500000006
 11
-353.05575550000003
 21
770.62762500000008
  0
LINE
  8
_0-0_0
  6
CONTINUOUS
 62
    7
 10
-352.8655705000001
 20
770.42330900000002
 11
-353.05575550000003
 21
770.62762500000008
  0
LINE
  8
_0-0_0
  6
CONTINUOUS
 62
    7
 10
-353.3046875
 20
770.25476099999992
 11
-353.3000485
 21
770.53384400000004
  0
LINE
  8
_0-0_0
  6
CONTINUOUS
 62
    7
 10
-353.08953850000012
 20
770.35052500000006
 11
-353.3000485
 21
770.53384400000004
  0
LINE
  8
_0-0_0
  6
CONTINUOUS
 62
    7
 10
-353.42422450000004
 20
770.33859299999995
 11
-353.53323350000005
 21
770.41503899999998
  0
LINE
  8
_0-0_0
  6
CONTINUOUS
 62
    7
 10
-353.3046875
 20
770.25476099999992
 11
-353.42422450000004
 21
770.33859299999995
  0
LINE
  8
_0-0_0
  6
CONTINUOUS
 62
    7
 10
-353.5086675
 20
770.13699300000007
 11
-353.53323350000005
 21
770.41503899999998
  0
LINE
  8
_0-0_0
  6
CONTINUOUS
 62
    7
 10
-353.69918849999999
 20
769.99856599999998
 11
-353.7526855000001
 21
770.27252199999998
  0
LINE
  8
_0-0_0
  6
CONTINUOUS
 62
    7
 10
-353.5086675
 20
770.13699300000007
 11
-353.7526855000001
 21
770.27252199999998
  0
LINE
  8
_0-0_0
  6
CONTINUOUS
 62
    7
 10
-353.87420650000013
 20
769.84097300000008
 11
-353.95605449999994
 21
770.10784899999999
  0
LINE
  8
_0-0_0
  6
CONTINUOUS
 62
    7
 10
-353.69918849999999
 20
769.99856599999998
 11
-353.95605449999994
 21
770.10784899999999
  0
LINE
  8
_0-0_0
  6
CONTINUOUS
 62
    7
 10
-354.03179950000003
 20
769.66595499999994
 11
-354.14108250000004
 21
769.922821
  0
LINE
  8
_0-0_0
  6
CONTINUOUS
 62
    7
 10
-353.87420650000013
 20
769.84097300000008
 11
-354.14108250000004
 21
769.922821
  0
LINE
  8
_0-0_0
  6
CONTINUOUS
 62
    7
 10
-354.17022750000001
 20
769.47543300000007
 11
-354.30575550000003
 21
769.71945200000005
  0
LINE
  8
_0-0_0
  6
CONTINUOUS
 62
    7
 10
-354.03179950000003
 20
769.66595499999994
 11
-354.30575550000003
 21
769.71945200000005
  0
LINE
  8
_0-0_0
  6
CONTINUOUS
 62
    7
 10
-354.28799449999997
 20
769.27145399999995
 11
-354.44827250000003
 21
769.5
  0
LINE
  8
_0-0_0
  6
CONTINUOUS
 62
    7
 10
-354.17022750000001
 20
769.47543300000007
 11
-354.44827250000003
 21
769.5
  0
LINE
  8
_0-0_0
  6
CONTINUOUS
 62
    7
 10
-354.38375850000011
 20
769.05630500000007
 11
-354.5670775000001
 21
769.26681499999995
  0
LINE
  8
_0-0_0
  6
CONTINUOUS
 62
    7
 10
-354.28799449999997
 20
769.27145399999995
 11
-354.5670775000001
 21
769.26681499999995
  0
LINE
  8
_0-0_0
  6
CONTINUOUS
 62
    7
 10
-354.45654349999995
 20
768.83233599999994
 11
-354.6608584999999
 21
769.02252199999998
  0
LINE
  8
_0-0_0
  6
CONTINUOUS
 62
    7
 10
-354.38375850000011
 20
769.05630500000007
 11
-354.6608584999999
 21
769.02252199999998
  0
LINE
  8
_0-0_0
  6
CONTINUOUS
 62
    7
 10
-354.50552349999998
 20
768.60195900000008
 11
-354.72857650000014
 21
768.76977499999998
  0
LINE
  8
_0-0_0
  6
CONTINUOUS
 62
    7
 10
-354.45654349999995
 20
768.83233599999994
 11
-354.72857650000014
 21
768.76977499999998
  0
LINE
  8
_0-0_0
  6
CONTINUOUS
 62
    7
 10
-354.50552349999998
 20
768.60195900000008
 11
-354.76953150000008
 21
768.51129200000003
  0
LINE
  8
_0-0_0
  6
CONTINUOUS
 62
    7
 10
-354.53012050000007
 20
768.36773700000003
 11
-354.76953150000008
 21
768.51129200000003
  0
LINE
  8
_0-0_0
  6
CONTINUOUS
 62
    7
 10
-354.53012050000007
 20
768.13223300000004
 11
-354.78323350000005
 21
768.25
  0
LINE
  8
_0-0_0
  6
CONTINUOUS
 62
    7
 10
-354.53012050000007
 20
768.36773700000003
 11
-354.78323350000005
 21
768.25
  0
LINE
  8
_0-0_0
  6
CONTINUOUS
 62
    7
 10
-354.50552349999998
 20
767.89801
 11
-354.76953150000008
 21
767.98864700000001
  0
LINE
  8
_0-0_0
  6
CONTINUOUS
 62
    7
 10
-354.53012050000007
 20
768.13223300000004
 11
-354.76953150000008
 21
767.98864700000001
  0
LINE
  8
_0-0_0
  6
CONTINUOUS
 62
    7
 10
-354.45654349999995
 20
767.66763300000002
 11
-354.72857650000014
 21
767.73019399999998
  0
LINE
  8
_0-0_0
  6
CONTINUOUS
 62
    7
 10
-354.50552349999998
 20
767.89801
 11
-354.72857650000014
 21
767.73019399999998
  0
LINE
  8
_0-0_0
  6
CONTINUOUS
 62
    7
 10
-354.38375850000011
 20
767.44366500000001
 11
-354.6608584999999
 21
767.47744799999998
  0
LINE
  8
_0-0_0
  6
CONTINUOUS
 62
    7
 10
-354.45654349999995
 20
767.66763300000002
 11
-354.6608584999999
 21
767.47744799999998
  0
LINE
  8
_0-0_0
  6
CONTINUOUS
 62
    7
 10
-354.28799449999997
 20
767.22851600000001
 11
-354.5670775000001
 21
767.23315400000001
  0
LINE
  8
_0-0_0
  6
CONTINUOUS
 62
    7
 10
-354.38375850000011
 20
767.44366500000001
 11
-354.5670775000001
 21
767.23315400000001
  0
LINE
  8
_0-0_0
  6
CONTINUOUS
 62
    7
 10
-354.17022750000001
 20
767.02453600000001
 11
-354.44827250000003
 21
767
  0
LINE
  8
_0-0_0
  6
CONTINUOUS
 62
    7
 10
-354.28799449999997
 20
767.22851600000001
 11
-354.44827250000003
 21
767
  0
LINE
  8
_0-0_0
  6
CONTINUOUS
 62
    7
 10
-354.03179950000003
 20
766.83401500000002
 11
-354.30575550000003
 21
766.78051800000003
  0
LINE
  8
_0-0_0
  6
CONTINUOUS
 62
    7
 10
-354.17022750000001
 20
767.02453600000001
 11
-354.30575550000003
 21
766.78051800000003
  0
LINE
  8
_0-0_0
  6
CONTINUOUS
 62
    7
 10
-353.87420650000013
 20
766.658997
 11
-354.14108250000004
 21
766.57714800000008
  0
LINE
  8
_0-0_0
  6
CONTINUOUS
 62
    7
 10
-354.03179950000003
 20
766.83401500000002
 11
-354.14108250000004
 21
766.57714800000008
  0
LINE
  8
_0-0_0
  6
CONTINUOUS
 62
    7
 10
-353.69918849999999
 20
766.50140399999998
 11
-353.95605449999994
 21
766.39211999999998
  0
LINE
  8
_0-0_0
  6
CONTINUOUS
 62
    7
 10
-353.87420650000013
 20
766.658997
 11
-353.95605449999994
 21
766.39211999999998
  0
LINE
  8
_0-0_0
  6
CONTINUOUS
 62
    7
 10
-353.5086675
 20
766.362976
 11
-353.7526855000001
 21
766.22744799999998
  0
LINE
  8
_0-0_0
  6
CONTINUOUS
 62
    7
 10
-353.69918849999999
 20
766.50140399999998
 11
-353.7526855000001
 21
766.22744799999998
  0
LINE
  8
_0-0_0
  6
CONTINUOUS
 62
    7
 10
-353.3046875
 20
766.24520899999993
 11
-353.53323350000005
 21
766.08492999999999
  0
LINE
  8
_0-0_0
  6
CONTINUOUS
 62
    7
 10
-353.5086675
 20
766.362976
 11
-353.53323350000005
 21
766.08492999999999
  0
LINE
  8
_0-0_0
  6
CONTINUOUS
 62
    7
 10
-353.08953850000012
 20
766.14941399999998
 11
-353.3000485
 21
765.96612499999992
  0
LINE
  8
_0-0_0
  6
CONTINUOUS
 62
    7
 10
-353.3046875
 20
766.24520899999993
 11
-353.3000485
 21
765.96612499999992
  0
LINE
  8
_0-0_0
  6
CONTINUOUS
 62
    7
 10
-352.8655705000001
 20
766.07665999999995
 11
-353.05575550000003
 21
765.872345
  0
LINE
  8
_0-0_0
  6
CONTINUOUS
 62
    7
 10
-353.08953850000012
 20
766.14941399999998
 11
-353.05575550000003
 21
765.872345
  0
LINE
  8
_0-0_0
  6
CONTINUOUS
 62
    7
 10
-352.6351924999999
 20
766.02767900000003
 11
-352.80300949999992
 21
765.80462599999998
  0
LINE
  8
_0-0_0
  6
CONTINUOUS
 62
    7
 10
-352.8655705000001
 20
766.07665999999995
 11
-352.80300949999992
 21
765.80462599999998
  0
LINE
  8
_0-0_0
  6
CONTINUOUS
 62
    7
 10
-352.40097050000008
 20
766.00305200000003
 11
-352.54452549999996
 21
765.76367200000004
  0
LINE
  8
_0-0_0
  6
CONTINUOUS
 62
    7
 10
-352.6351924999999
 20
766.02767900000003
 11
-352.54452549999996
 21
765.76367200000004
  0
LINE
  8
_0-0_0
  6
CONTINUOUS
 62
    7
 10
-352.16546650000009
 20
766.00305200000003
 11
-352.28323350000005
 21
765.75
  0
LINE
  8
_0-0_0
  6
CONTINUOUS
 62
    7
 10
-352.40097050000008
 20
766.00305200000003
 11
-352.28323350000005
 21
765.75
  0
LINE
  8
_0-0_0
  6
CONTINUOUS
 62
    7
 10
-351.93124450000005
 20
766.02767900000003
 11
-352.02188150000006
 21
765.76367200000004
  0
LINE
  8
_0-0_0
  6
CONTINUOUS
 62
    7
 10
-352.16546650000009
 20
766.00305200000003
 11
-352.02188150000006
 21
765.76367200000004
  0
LINE
  8
_0-0_0
  6
CONTINUOUS
 62
    7
 10
-351.70086650000007
 20
766.07665999999995
 11
-351.76342750000003
 21
765.80462599999998
  0
LINE
  8
_0-0_0
  6
CONTINUOUS
 62
    7
 10
-351.93124450000005
 20
766.02767900000003
 11
-351.76342750000003
 21
765.80462599999998
  0
LINE
  8
_0-0_0
  6
CONTINUOUS
 62
    7
 10
-351.47689850000006
 20
766.14941399999998
 11
-351.51068149999992
 21
765.872345
  0
LINE
  8
_0-0_0
  6
CONTINUOUS
 62
    7
 10
-351.70086650000007
 20
766.07665999999995
 11
-351.51068149999992
 21
765.872345
  0
LINE
  8
_0-0_0
  6
CONTINUOUS
 62
    7
 10
-351.26174949999995
 20
766.24520899999993
 11
-351.26638850000018
 21
765.96612499999992
  0
LINE
  8
_0-0_0
  6
CONTINUOUS
 62
    7
 10
-351.47689850000006
 20
766.14941399999998
 11
-351.26638850000018
 21
765.96612499999992
  0
LINE
  8
_0-0_0
  6
CONTINUOUS
 62
    7
 10
-351.14221249999991
 20
766.16137700000002
 11
-351.03323350000005
 21
766.08492999999999
  0
LINE
  8
_0-0_0
  6
CONTINUOUS
 62
    7
 10
-351.26174949999995
 20
766.24520899999993
 11
-351.14221249999991
 21
766.16137700000002
  0
LINE
  8
_0-0_0
  6
CONTINUOUS
 62
    7
 10
-351.05776950000018
 20
766.362976
 11
-351.03323350000005
 21
766.08492999999999
  0
LINE
  8
_0-0_0
  6
CONTINUOUS
 62
    7
 10
-350.86724849999996
 20
766.50140399999998
 11
-350.81375150000008
 21
766.22744799999998
  0
LINE
  8
_0-0_0
  6
CONTINUOUS
 62
    7
 10
-351.05776950000018
 20
766.362976
 11
-350.81375150000008
 21
766.22744799999998
  0
LINE
  8
_0-0_0
  6
CONTINUOUS
 62
    7
 10
-350.69223050000005
 20
766.658997
 11
-350.61038250000001
 21
766.39211999999998
  0
LINE
  8
_0-0_0
  6
CONTINUOUS
 62
    7
 10
-350.86724849999996
 20
766.50140399999998
 11
-350.61038250000001
 21
766.39211999999998
  0
LINE
  8
_0-0_0
  6
CONTINUOUS
 62
    7
 10
-350.53463749999992
 20
766.83401500000002
 11
-350.42535450000014
 21
766.57714800000008
  0
LINE
  8
_0-0_0
  6
CONTINUOUS
 62
    7
 10
-350.69223050000005
 20
766.658997
 11
-350.42535450000014
 21
766.57714800000008
  0
LINE
  8
_0-0_0
  6
CONTINUOUS
 62
    7
 10
-350.39620950000017
 20
767.02453600000001
 11
-350.26068149999992
 21
766.78051800000003
  0
LINE
  8
_0-0_0
  6
CONTINUOUS
 62
    7
 10
-350.53463749999992
 20
766.83401500000002
 11
-350.26068149999992
 21
766.78051800000003
  0
LINE
  8
_0-0_0
  6
CONTINUOUS
 62
    7
 10
-350.27844249999998
 20
767.22851600000001
 11
-350.11816450000015
 21
767
  0
LINE
  8
_0-0_0
  6
CONTINUOUS
 62
    7
 10
-350.39620950000017
 20
767.02453600000001
 11
-350.11816450000015
 21
767
  0
LINE
  8
_0-0_0
  6
CONTINUOUS
 62
    7
 10
-350.18264750000003
 20
767.44366500000001
 11
-349.99935950000008
 21
767.23315400000001
  0
LINE
  8
_0-0_0
  6
CONTINUOUS
 62
    7
 10
-350.27844249999998
 20
767.22851600000001
 11
-349.99935950000008
 21
767.23315400000001
  0
LINE
  8
_0-0_0
  6
CONTINUOUS
 62
    7
 10
-350.1098935
 20
767.66763300000002
 11
-349.90557850000005
 21
767.47744799999998
  0
LINE
  8
_0-0_0
  6
CONTINUOUS
 62
    7
 10
-350.18264750000003
 20
767.44366500000001
 11
-349.90557850000005
 21
767.47744799999998
  0
LINE
  8
_0-0_0
  6
CONTINUOUS
 62
    7
 10
-350.06091349999997
 20
767.89801
 11
-349.83786050000003
 21
767.73019399999998
  0
LINE
  8
_0-0_0
  6
CONTINUOUS
 62
    7
 10
-350.1098935
 20
767.66763300000002
 11
-349.83786050000003
 21
767.73019399999998
  0
LINE
  8
_0-0_0
  6
CONTINUOUS
 62
    7
 10
-350.03631650000011
 20
768.13223300000004
 11
-349.79690550000009
 21
767.98864700000001
  0
LINE
  8
_0-0_0
  6
CONTINUOUS
 62
    7
 10
-350.06091349999997
 20
767.89801
 11
-349.79690550000009
 21
767.98864700000001
  0
LINE
  8
_0-0_0
  6
CONTINUOUS
 62
    7
 10
-350.03631650000011
 20
768.36773700000003
 11
-349.78323350000005
 21
768.25
  0
LINE
  8
_0-0_0
  6
CONTINUOUS
 62
    7
 10
-350.03631650000011
 20
768.13223300000004
 11
-349.78323350000005
 21
768.25
  0
LINE
  8
_0-0_0
  6
CONTINUOUS
 62
    7
 10
-350.06091349999997
 20
768.60195900000008
 11
-349.79690550000009
 21
768.51129200000003
  0
LINE
  8
_0-0_0
  6
CONTINUOUS
 62
    7
 10
-350.03631650000011
 20
768.36773700000003
 11
-349.79690550000009
 21
768.51129200000003
  0
LINE
  8
_0-0_0
  6
CONTINUOUS
 62
    7
 10
-350.1098935
 20
768.83233599999994
 11
-349.83786050000003
 21
768.76977499999998
  0
LINE
  8
_0-0_0
  6
CONTINUOUS
 62
    7
 10
-350.06091349999997
 20
768.60195900000008
 11
-349.83786050000003
 21
768.76977499999998
  0
LINE
  8
_0-0_0
  6
CONTINUOUS
 62
    7
 10
-350.18264750000003
 20
769.05630500000007
 11
-349.90557850000005
 21
769.02252199999998
  0
LINE
  8
_0-0_0
  6
CONTINUOUS
 62
    7
 10
-350.1098935
 20
768.83233599999994
 11
-349.90557850000005
 21
769.02252199999998
  0
LINE
  8
_0-0_0
  6
CONTINUOUS
 62
    7
 10
-350.27844249999998
 20
769.27145399999995
 11
-349.99935950000008
 21
769.26681499999995
  0
LINE
  8
_0-0_0
  6
CONTINUOUS
 62
    7
 10
-350.18264750000003
 20
769.05630500000007
 11
-349.99935950000008
 21
769.26681499999995
  0
CIRCLE
  8
_0-0_0
  6
CONTINUOUS
 62
    7
 10
-352.28323350000005
 20
768.25
 40
2
  0
CIRCLE
  8
_0-0_0
  6
CONTINUOUS
 62
    7
 10
-358.28323350000005
 20
759.94998199999998
 40
5
  0
LINE
  8
_0-0_0
  6
CONTINUOUS
 62
    7
 10
-351.70111050000014
 20
767.25
 11
-352.86532650000004
 21
767.25
  0
LINE
  8
_0-0_0
  6
CONTINUOUS
 62
    7
 10
-352.86532650000004
 20
767.25
 11
-353.43322750000016
 21
768.25
  0
LINE
  8
_0-0_0
  6
CONTINUOUS
 62
    7
 10
-353.43322750000016
 20
768.25
 11
-352.86532650000004
 21
769.25
  0
LINE
  8
_0-0_0
  6
CONTINUOUS
 62
    7
 10
-352.86532650000004
 20
769.25
 11
-351.70111050000014
 21
769.25
  0
LINE
  8
_0-0_0
  6
CONTINUOUS
 62
    7
 10
-351.70111050000014
 20
769.25
 11
-351.13320950000002
 21
768.25
  0
LINE
  8
_0-0_0
  6
CONTINUOUS
 62
    7
 10
-351.13320950000002
 20
768.25
 11
-351.70111050000014
 21
767.25
  0
CIRCLE
  8
_0-0_0
  6
CONTINUOUS
 62
    7
 10
-358.28323350000005
 20
759.94998199999998
 40
4.5381200000000002
  0
CIRCLE
  8
_0-0_0
  6
CONTINUOUS
 62
    7
 10
-358.28323350000005
 20
759.94998199999998
 40
4
  0
LINE
  8
_0-0_0
  6
CONTINUOUS
 62
    7
 10
-366.17022750000001
 20
750.42453
 11
-366.44827250000003
 21
750.39999399999999
  0
LINE
  8
_0-0_0
  6
CONTINUOUS
 62
    7
 10
-366.28799449999997
 20
750.62851000000001
 11
-366.44827250000003
 21
750.39999399999999
  0
LINE
  8
_0-0_0
  6
CONTINUOUS
 62
    7
 10
-366.03179950000003
 20
750.23400900000001
 11
-366.30575550000003
 21
750.18051100000002
  0
LINE
  8
_0-0_0
  6
CONTINUOUS
 62
    7
 10
-366.17022750000001
 20
750.42453
 11
-366.30575550000003
 21
750.18051100000002
  0
LINE
  8
_0-0_0
  6
CONTINUOUS
 62
    7
 10
-365.87420650000013
 20
750.05898999999999
 11
-366.14108250000004
 21
749.97717299999999
  0
LINE
  8
_0-0_0
  6
CONTINUOUS
 62
    7
 10
-366.03179950000003
 20
750.23400900000001
 11
-366.14108250000004
 21
749.97717299999999
  0
LINE
  8
_0-0_0
  6
CONTINUOUS
 62
    7
 10
-365.69918849999999
 20
749.90139799999997
 11
-365.95605449999994
 21
749.79211400000008
  0
LINE
  8
_0-0_0
  6
CONTINUOUS
 62
    7
 10
-365.87420650000013
 20
750.05898999999999
 11
-365.95605449999994
 21
749.79211400000008
  0
LINE
  8
_0-0_0
  6
CONTINUOUS
 62
    7
 10
-365.5086675
 20
749.76297
 11
-365.7526855000001
 21
749.62744099999998
  0
LINE
  8
_0-0_0
  6
CONTINUOUS
 62
    7
 10
-365.69918849999999
 20
749.90139799999997
 11
-365.7526855000001
 21
749.62744099999998
  0
LINE
  8
_0-0_0
  6
CONTINUOUS
 62
    7
 10
-365.3046875
 20
749.64520300000004
 11
-365.53323350000005
 21
749.48492399999998
  0
LINE
  8
_0-0_0
  6
CONTINUOUS
 62
    7
 10
-365.5086675
 20
749.76297
 11
-365.53323350000005
 21
749.48492399999998
  0
LINE
  8
_0-0_0
  6
CONTINUOUS
 62
    7
 10
-365.08953850000012
 20
749.54943800000001
 11
-365.3000485
 21
749.36611900000003
  0
LINE
  8
_0-0_0
  6
CONTINUOUS
 62
    7
 10
-365.3046875
 20
749.64520300000004
 11
-365.3000485
 21
749.36611900000003
  0
LINE
  8
_0-0_0
  6
CONTINUOUS
 62
    7
 10
-364.8655705000001
 20
749.47665400000005
 11
-365.05575550000003
 21
749.27233899999999
  0
LINE
  8
_0-0_0
  6
CONTINUOUS
 62
    7
 10
-365.08953850000012
 20
749.54943800000001
 11
-365.05575550000003
 21
749.27233899999999
  0
LINE
  8
_0-0_0
  6
CONTINUOUS
 62
    7
 10
-364.6351924999999
 20
749.42770399999995
 11
-364.80300949999992
 21
749.20461999999998
  0
LINE
  8
_0-0_0
  6
CONTINUOUS
 62
    7
 10
-364.8655705000001
 20
749.47665400000005
 11
-364.80300949999992
 21
749.20461999999998
  0
LINE
  8
_0-0_0
  6
CONTINUOUS
 62
    7
 10
-364.40097050000008
 20
749.40307600000006
 11
-364.54452549999996
 21
749.16369600000007
  0
LINE
  8
_0-0_0
  6
CONTINUOUS
 62
    7
 10
-364.6351924999999
 20
749.42770399999995
 11
-364.54452549999996
 21
749.16369600000007
  0
LINE
  8
_0-0_0
  6
CONTINUOUS
 62
    7
 10
-364.16546650000009
 20
749.40307600000006
 11
-364.28323350000005
 21
749.14999399999999
  0
LINE
  8
_0-0_0
  6
CONTINUOUS
 62
    7
 10
-364.40097050000008
 20
749.40307600000006
 11
-364.28323350000005
 21
749.14999399999999
  0
LINE
  8
_0-0_0
  6
CONTINUOUS
 62
    7
 10
-363.93124450000005
 20
749.42770399999995
 11
-364.02191149999999
 21
749.16369600000007
  0
LINE
  8
_0-0_0
  6
CONTINUOUS
 62
    7
 10
-364.16546650000009
 20
749.40307600000006
 11
-364.02191149999999
 21
749.16369600000007
  0
LINE
  8
_0-0_0
  6
CONTINUOUS
 62
    7
 10
-363.70086650000007
 20
749.47665400000005
 11
-363.76342750000003
 21
749.20461999999998
  0
LINE
  8
_0-0_0
  6
CONTINUOUS
 62
    7
 10
-363.93124450000005
 20
749.42770399999995
 11
-363.76342750000003
 21
749.20461999999998
  0
LINE
  8
_0-0_0
  6
CONTINUOUS
 62
    7
 10
-363.47689850000006
 20
749.54943800000001
 11
-363.51068149999992
 21
749.27233899999999
  0
LINE
  8
_0-0_0
  6
CONTINUOUS
 62
    7
 10
-363.70086650000007
 20
749.47665400000005
 11
-363.51068149999992
 21
749.27233899999999
  0
LINE
  8
_0-0_0
  6
CONTINUOUS
 62
    7
 10
-363.26174949999995
 20
749.64520300000004
 11
-363.26638850000018
 21
749.36611900000003
  0
LINE
  8
_0-0_0
  6
CONTINUOUS
 62
    7
 10
-363.47689850000006
 20
749.54943800000001
 11
-363.26638850000018
 21
749.36611900000003
  0
LINE
  8
_0-0_0
  6
CONTINUOUS
 62
    7
 10
-363.14221249999991
 20
749.56137100000001
 11
-363.03323350000005
 21
749.48492399999998
  0
LINE
  8
_0-0_0
  6
CONTINUOUS
 62
    7
 10
-363.26174949999995
 20
749.64520300000004
 11
-363.14221249999991
 21
749.56137100000001
  0
LINE
  8
_0-0_0
  6
CONTINUOUS
 62
    7
 10
-363.05776950000018
 20
749.76297
 11
-363.03323350000005
 21
749.48492399999998
  0
LINE
  8
_0-0_0
  6
CONTINUOUS
 62
    7
 10
-362.86724849999996
 20
749.90139799999997
 11
-362.81375150000008
 21
749.62744099999998
  0
LINE
  8
_0-0_0
  6
CONTINUOUS
 62
    7
 10
-363.05776950000018
 20
749.76297
 11
-362.81375150000008
 21
749.62744099999998
  0
LINE
  8
_0-0_0
  6
CONTINUOUS
 62
    7
 10
-362.69223050000005
 20
750.05898999999999
 11
-362.61038250000001
 21
749.79211400000008
  0
LINE
  8
_0-0_0
  6
CONTINUOUS
 62
    7
 10
-362.86724849999996
 20
749.90139799999997
 11
-362.61038250000001
 21
749.79211400000008
  0
LINE
  8
_0-0_0
  6
CONTINUOUS
 62
    7
 10
-362.53463749999992
 20
750.23400900000001
 11
-362.42535450000014
 21
749.97717299999999
  0
LINE
  8
_0-0_0
  6
CONTINUOUS
 62
    7
 10
-362.69223050000005
 20
750.05898999999999
 11
-362.42535450000014
 21
749.97717299999999
  0
LINE
  8
_0-0_0
  6
CONTINUOUS
 62
    7
 10
-362.39620950000017
 20
750.42453
 11
-362.26068149999992
 21
750.18051100000002
  0
LINE
  8
_0-0_0
  6
CONTINUOUS
 62
    7
 10
-362.53463749999992
 20
750.23400900000001
 11
-362.26068149999992
 21
750.18051100000002
  0
LINE
  8
_0-0_0
  6
CONTINUOUS
 62
    7
 10
-362.27844249999998
 20
750.62851000000001
 11
-362.11816450000015
 21
750.39999399999999
  0
LINE
  8
_0-0_0
  6
CONTINUOUS
 62
    7
 10
-362.39620950000017
 20
750.42453
 11
-362.11816450000015
 21
750.39999399999999
  0
LINE
  8
_0-0_0
  6
CONTINUOUS
 62
    7
 10
-362.18264750000003
 20
750.843658
 11
-361.99935950000008
 21
750.63314800000001
  0
LINE
  8
_0-0_0
  6
CONTINUOUS
 62
    7
 10
-362.27844249999998
 20
750.62851000000001
 11
-361.99935950000008
 21
750.63314800000001
  0
LINE
  8
_0-0_0
  6
CONTINUOUS
 62
    7
 10
-362.1098935
 20
751.06762700000002
 11
-361.90557850000005
 21
750.87744099999998
  0
LINE
  8
_0-0_0
  6
CONTINUOUS
 62
    7
 10
-362.18264750000003
 20
750.843658
 11
-361.90557850000005
 21
750.87744099999998
  0
LINE
  8
_0-0_0
  6
CONTINUOUS
 62
    7
 10
-362.06091349999997
 20
751.29800399999999
 11
-361.83786050000003
 21
751.13018799999998
  0
LINE
  8
_0-0_0
  6
CONTINUOUS
 62
    7
 10
-362.1098935
 20
751.06762700000002
 11
-361.83786050000003
 21
751.13018799999998
  0
LINE
  8
_0-0_0
  6
CONTINUOUS
 62
    7
 10
-362.03631650000011
 20
751.53222699999992
 11
-361.79690550000009
 21
751.38867200000004
  0
LINE
  8
_0-0_0
  6
CONTINUOUS
 62
    7
 10
-362.06091349999997
 20
751.29800399999999
 11
-361.79690550000009
 21
751.38867200000004
  0
LINE
  8
_0-0_0
  6
CONTINUOUS
 62
    7
 10
-362.03631650000011
 20
751.76773100000003
 11
-361.78323350000005
 21
751.64999399999999
  0
LINE
  8
_0-0_0
  6
CONTINUOUS
 62
    7
 10
-362.03631650000011
 20
751.53222699999992
 11
-361.78323350000005
 21
751.64999399999999
  0
LINE
  8
_0-0_0
  6
CONTINUOUS
 62
    7
 10
-362.06091349999997
 20
752.00195299999996
 11
-361.79690550000009
 21
751.91131599999994
  0
LINE
  8
_0-0_0
  6
CONTINUOUS
 62
    7
 10
-362.03631650000011
 20
751.76773100000003
 11
-361.79690550000009
 21
751.91131599999994
  0
LINE
  8
_0-0_0
  6
CONTINUOUS
 62
    7
 10
-362.1098935
 20
752.23233000000005
 11
-361.83786050000003
 21
752.16976899999997
  0
LINE
  8
_0-0_0
  6
CONTINUOUS
 62
    7
 10
-362.06091349999997
 20
752.00195299999996
 11
-361.83786050000003
 21
752.16976899999997
  0
LINE
  8
_0-0_0
  6
CONTINUOUS
 62
    7
 10
-362.18264750000003
 20
752.45629899999994
 11
-361.90557850000005
 21
752.42251599999997
  0
LINE
  8
_0-0_0
  6
CONTINUOUS
 62
    7
 10
-362.1098935
 20
752.23233000000005
 11
-361.90557850000005
 21
752.42251599999997
  0
LINE
  8
_0-0_0
  6
CONTINUOUS
 62
    7
 10
-362.27844249999998
 20
752.67144800000005
 11
-361.99935950000008
 21
752.66680900000006
  0
LINE
  8
_0-0_0
  6
CONTINUOUS
 62
    7
 10
-362.18264750000003
 20
752.45629899999994
 11
-361.99935950000008
 21
752.66680900000006
  0
LINE
  8
_0-0_0
  6
CONTINUOUS
 62
    7
 10
-362.39620950000017
 20
752.87542699999995
 11
-362.11816450000015
 21
752.89999399999999
  0
LINE
  8
_0-0_0
  6
CONTINUOUS
 62
    7
 10
-362.27844249999998
 20
752.67144800000005
 11
-362.11816450000015
 21
752.89999399999999
  0
LINE
  8
_0-0_0
  6
CONTINUOUS
 62
    7
 10
-365.69918849999999
 20
753.39855999999997
 11
-365.7526855000001
 21
753.67251599999997
  0
LINE
  8
_0-0_0
  6
CONTINUOUS
 62
    7
 10
-365.69918849999999
 20
753.39855999999997
 11
-365.95605449999994
 21
753.50784299999998
  0
LINE
  8
_0-0_0
  6
CONTINUOUS
 62
    7
 10
-365.87420650000013
 20
753.24096699999996
 11
-365.95605449999994
 21
753.50784299999998
  0
LINE
  8
_0-0_0
  6
CONTINUOUS
 62
    7
 10
-365.87420650000013
 20
753.24096699999996
 11
-366.14108250000004
 21
753.32281499999999
  0
LINE
  8
_0-0_0
  6
CONTINUOUS
 62
    7
 10
-366.03179950000003
 20
753.06594799999993
 11
-366.14108250000004
 21
753.32281499999999
  0
LINE
  8
_0-0_0
  6
CONTINUOUS
 62
    7
 10
-366.03179950000003
 20
753.06594799999993
 11
-366.30575550000003
 21
753.11944599999993
  0
LINE
  8
_0-0_0
  6
CONTINUOUS
 62
    7
 10
-366.17022750000001
 20
752.87542699999995
 11
-366.30575550000003
 21
753.11944599999993
  0
LINE
  8
_0-0_0
  6
CONTINUOUS
 62
    7
 10
-366.17022750000001
 20
752.87542699999995
 11
-366.44827250000003
 21
752.89999399999999
  0
LINE
  8
_0-0_0
  6
CONTINUOUS
 62
    7
 10
-366.28799449999997
 20
752.67144800000005
 11
-366.44827250000003
 21
752.89999399999999
  0
LINE
  8
_0-0_0
  6
CONTINUOUS
 62
    7
 10
-366.28799449999997
 20
752.67144800000005
 11
-366.5670775000001
 21
752.66680900000006
  0
LINE
  8
_0-0_0
  6
CONTINUOUS
 62
    7
 10
-366.38378950000015
 20
752.45629899999994
 11
-366.5670775000001
 21
752.66680900000006
  0
LINE
  8
_0-0_0
  6
CONTINUOUS
 62
    7
 10
-366.38378950000015
 20
752.45629899999994
 11
-366.6608584999999
 21
752.42251599999997
  0
LINE
  8
_0-0_0
  6
CONTINUOUS
 62
    7
 10
-366.45654349999995
 20
752.23233000000005
 11
-366.6608584999999
 21
752.42251599999997
  0
LINE
  8
_0-0_0
  6
CONTINUOUS
 62
    7
 10
-366.45654349999995
 20
752.23233000000005
 11
-366.72857650000014
 21
752.16976899999997
  0
LINE
  8
_0-0_0
  6
CONTINUOUS
 62
    7
 10
-366.50552349999998
 20
752.00195299999996
 11
-366.72857650000014
 21
752.16976899999997
  0
LINE
  8
_0-0_0
  6
CONTINUOUS
 62
    7
 10
-366.50552349999998
 20
752.00195299999996
 11
-366.76953150000008
 21
751.91131599999994
  0
LINE
  8
_0-0_0
  6
CONTINUOUS
 62
    7
 10
-366.53012050000007
 20
751.76773100000003
 11
-366.76953150000008
 21
751.91131599999994
  0
LINE
  8
_0-0_0
  6
CONTINUOUS
 62
    7
 10
-366.53012050000007
 20
751.76773100000003
 11
-366.78323350000005
 21
751.64999399999999
  0
LINE
  8
_0-0_0
  6
CONTINUOUS
 62
    7
 10
-366.53012050000007
 20
751.53222699999992
 11
-366.78323350000005
 21
751.64999399999999
  0
LINE
  8
_0-0_0
  6
CONTINUOUS
 62
    7
 10
-366.53012050000007
 20
751.53222699999992
 11
-366.76953150000008
 21
751.38867200000004
  0
LINE
  8
_0-0_0
  6
CONTINUOUS
 62
    7
 10
-366.50552349999998
 20
751.29800399999999
 11
-366.76953150000008
 21
751.38867200000004
  0
LINE
  8
_0-0_0
  6
CONTINUOUS
 62
    7
 10
-366.50552349999998
 20
751.29800399999999
 11
-366.72857650000014
 21
751.13018799999998
  0
LINE
  8
_0-0_0
  6
CONTINUOUS
 62
    7
 10
-366.45654349999995
 20
751.06762700000002
 11
-366.72857650000014
 21
751.13018799999998
  0
LINE
  8
_0-0_0
  6
CONTINUOUS
 62
    7
 10
-366.45654349999995
 20
751.06762700000002
 11
-366.6608584999999
 21
750.87744099999998
  0
LINE
  8
_0-0_0
  6
CONTINUOUS
 62
    7
 10
-366.38378950000015
 20
750.843658
 11
-366.6608584999999
 21
750.87744099999998
  0
LINE
  8
_0-0_0
  6
CONTINUOUS
 62
    7
 10
-366.38378950000015
 20
750.843658
 11
-366.5670775000001
 21
750.63314800000001
  0
LINE
  8
_0-0_0
  6
CONTINUOUS
 62
    7
 10
-366.28799449999997
 20
750.62851000000001
 11
-366.5670775000001
 21
750.63314800000001
  0
CIRCLE
  8
_0-0_0
  6
CONTINUOUS
 62
    7
 10
-364.28323350000005
 20
751.64999399999999
 40
2
  0
LINE
  8
_0-0_0
  6
CONTINUOUS
 62
    7
 10
-365.42422450000004
 20
753.73858599999994
 11
-365.53323350000005
 21
753.81506300000001
  0
LINE
  8
_0-0_0
  6
CONTINUOUS
 62
    7
 10
-365.5086675
 20
753.53698699999995
 11
-365.53323350000005
 21
753.81506300000001
  0
LINE
  8
_0-0_0
  6
CONTINUOUS
 62
    7
 10
-365.5086675
 20
753.53698699999995
 11
-365.7526855000001
 21
753.67251599999997
  0
LINE
  8
_0-0_0
  6
CONTINUOUS
 62
    7
 10
-362.39620950000017
 20
752.87542699999995
 11
-362.26068149999992
 21
753.11944599999993
  0
LINE
  8
_0-0_0
  6
CONTINUOUS
 62
    7
 10
-362.53463749999992
 20
753.06594799999993
 11
-362.26068149999992
 21
753.11944599999993
  0
LINE
  8
_0-0_0
  6
CONTINUOUS
 62
    7
 10
-362.53463749999992
 20
753.06594799999993
 11
-362.42535450000014
 21
753.32281499999999
  0
LINE
  8
_0-0_0
  6
CONTINUOUS
 62
    7
 10
-362.69223050000005
 20
753.24096699999996
 11
-362.42535450000014
 21
753.32281499999999
  0
LINE
  8
_0-0_0
  6
CONTINUOUS
 62
    7
 10
-362.69223050000005
 20
753.24096699999996
 11
-362.61038250000001
 21
753.50784299999998
  0
LINE
  8
_0-0_0
  6
CONTINUOUS
 62
    7
 10
-362.86724849999996
 20
753.39855999999997
 11
-362.61038250000001
 21
753.50784299999998
  0
LINE
  8
_0-0_0
  6
CONTINUOUS
 62
    7
 10
-362.86724849999996
 20
753.39855999999997
 11
-362.81375150000008
 21
753.67251599999997
  0
LINE
  8
_0-0_0
  6
CONTINUOUS
 62
    7
 10
-363.05776950000018
 20
753.53698699999995
 11
-362.81375150000008
 21
753.67251599999997
  0
LINE
  8
_0-0_0
  6
CONTINUOUS
 62
    7
 10
-363.05776950000018
 20
753.53698699999995
 11
-363.03323350000005
 21
753.81506300000001
  0
LINE
  8
_0-0_0
  6
CONTINUOUS
 62
    7
 10
-363.26174949999995
 20
753.65475500000002
 11
-363.03323350000005
 21
753.81506300000001
  0
LINE
  8
_0-0_0
  6
CONTINUOUS
 62
    7
 10
-363.26174949999995
 20
753.65475500000002
 11
-363.26638850000018
 21
753.93383799999992
  0
LINE
  8
_0-0_0
  6
CONTINUOUS
 62
    7
 10
-363.47689850000006
 20
753.75054899999998
 11
-363.26638850000018
 21
753.93383799999992
  0
LINE
  8
_0-0_0
  6
CONTINUOUS
 62
    7
 10
-363.47689850000006
 20
753.75054899999998
 11
-363.51068149999992
 21
754.02761800000007
  0
LINE
  8
_0-0_0
  6
CONTINUOUS
 62
    7
 10
-363.70086650000007
 20
753.82330300000001
 11
-363.51068149999992
 21
754.02761800000007
  0
LINE
  8
_0-0_0
  6
CONTINUOUS
 62
    7
 10
-363.70086650000007
 20
753.82330300000001
 11
-363.76342750000003
 21
754.09533699999997
  0
LINE
  8
_0-0_0
  6
CONTINUOUS
 62
    7
 10
-363.93124450000005
 20
753.87228400000004
 11
-363.76342750000003
 21
754.09533699999997
  0
LINE
  8
_0-0_0
  6
CONTINUOUS
 62
    7
 10
-363.93124450000005
 20
753.87228400000004
 11
-364.02191149999999
 21
754.13629200000003
  0
LINE
  8
_0-0_0
  6
CONTINUOUS
 62
    7
 10
-364.16546650000009
 20
753.89691199999993
 11
-364.02191149999999
 21
754.13629200000003
  0
LINE
  8
_0-0_0
  6
CONTINUOUS
 62
    7
 10
-364.16546650000009
 20
753.89691199999993
 11
-364.28323350000005
 21
754.14999399999999
  0
LINE
  8
_0-0_0
  6
CONTINUOUS
 62
    7
 10
-364.40097050000008
 20
753.89691199999993
 11
-364.28323350000005
 21
754.14999399999999
  0
LINE
  8
_0-0_0
  6
CONTINUOUS
 62
    7
 10
-364.40097050000008
 20
753.89691199999993
 11
-364.54452549999996
 21
754.13629200000003
  0
LINE
  8
_0-0_0
  6
CONTINUOUS
 62
    7
 10
-364.6351924999999
 20
753.87228400000004
 11
-364.54452549999996
 21
754.13629200000003
  0
LINE
  8
_0-0_0
  6
CONTINUOUS
 62
    7
 10
-364.6351924999999
 20
753.87228400000004
 11
-364.80300949999992
 21
754.09533699999997
  0
LINE
  8
_0-0_0
  6
CONTINUOUS
 62
    7
 10
-364.8655705000001
 20
753.82330300000001
 11
-364.80300949999992
 21
754.09533699999997
  0
LINE
  8
_0-0_0
  6
CONTINUOUS
 62
    7
 10
-364.8655705000001
 20
753.82330300000001
 11
-365.05575550000003
 21
754.02761800000007
  0
LINE
  8
_0-0_0
  6
CONTINUOUS
 62
    7
 10
-365.08953850000012
 20
753.75054899999998
 11
-365.05575550000003
 21
754.02761800000007
  0
LINE
  8
_0-0_0
  6
CONTINUOUS
 62
    7
 10
-365.08953850000012
 20
753.75054899999998
 11
-365.3000485
 21
753.93383799999992
  0
LINE
  8
_0-0_0
  6
CONTINUOUS
 62
    7
 10
-365.3046875
 20
753.65475500000002
 11
-365.3000485
 21
753.93383799999992
  0
LINE
  8
_0-0_0
  6
CONTINUOUS
 62
    7
 10
-365.3046875
 20
753.65475500000002
 11
-365.42422450000004
 21
753.73858599999994
  0
LINE
  8
_0-0_0
  6
CONTINUOUS
 62
    7
 10
-363.70111050000014
 20
750.64999399999999
 11
-364.86532650000004
 21
750.64999399999999
  0
LINE
  8
_0-0_0
  6
CONTINUOUS
 62
    7
 10
-364.86532650000004
 20
750.64999399999999
 11
-365.43322750000016
 21
751.64999399999999
  0
LINE
  8
_0-0_0
  6
CONTINUOUS
 62
    7
 10
-365.43322750000016
 20
751.64999399999999
 11
-364.86532650000004
 21
752.64999399999999
  0
LINE
  8
_0-0_0
  6
CONTINUOUS
 62
    7
 10
-364.86532650000004
 20
752.64999399999999
 11
-363.70111050000014
 21
752.64999399999999
  0
LINE
  8
_0-0_0
  6
CONTINUOUS
 62
    7
 10
-363.70111050000014
 20
752.64999399999999
 11
-363.13320950000002
 21
751.64999399999999
  0
LINE
  8
_0-0_0
  6
CONTINUOUS
 62
    7
 10
-363.13320950000002
 20
751.64999399999999
 11
-363.70111050000014
 21
750.64999399999999
  0
LINE
  8
_0-0_0
  6
CONTINUOUS
 62
    7
 10
-349.58322150000004
 20
769.05029300000001
 11
-349.58322150000004
 21
769.05627400000003
  0
LINE
  8
_0-0_0
  6
CONTINUOUS
 62
    7
 10
-349.58322150000004
 20
770.25
 11
-349.58358750000002
 21
770.23788500000001
  0
LINE
  8
_0-0_0
  6
CONTINUOUS
 62
    7
 10
-349.58358750000002
 20
749.66210899999999
 11
-349.58322150000004
 21
749.64999399999999
  0
ARC
  8
_0-0_0
  6
CONTINUOUS
 62
    7
 10
-364.78323350000005
 20
768.75
 40
2
 50
90.000003000000007
 51
93.840255999999997
  0
ARC
  8
_0-0_0
  6
CONTINUOUS
 62
    7
 10
-351.78323350000005
 20
751.14999399999999
 40
2
 50
269.99999700000001
 51
273.84026499999999
  0
ENDSEC
  0
EOF
