  0
SECTION
  2
HEADER
  9
$ACADVER
  1
AC1009
  9
$INSBASE
 10
0
 20
0
 30
0
  9
$EXTMIN
 10
0
 20
0
  9
$EXTMAX
 10
1682
 20
1188
  9
$LIMMIN
 10
0
 20
0
  9
$LIMMAX
 10
1682
 20
1188
  9
$LTSCALE
 40
2
  0
ENDSEC
  0
SECTION
  2
TABLES
  0
TABLE
  2
LTYPE
 70
     9
  0
LTYPE
  2
CONTINUOUS
 70
    64
  3
実線
 72
    65
 73
     0
 40
0.0
  0
LTYPE
  2
DASHED1
 70
    64
  3
--  --  --  --  --  --  --  --  
 72
    65
 73
     2
 40
2.5
 49
1.25
 49
-1.25
  0
LTYPE
  2
DASHED2
 70
    64
  3
----    ----    ----    ----    
 72
    65
 73
     2
 40
5.0
 49
2.5
 49
-2.5
  0
LTYPE
  2
DASHED3
 70
    64
  3
------  ------  ------  ------  
 72
    65
 73
     2
 40
5.0
 49
3.75
 49
-1.25
  0
LTYPE
  2
CENTER1
 70
    64
  3
----- - ----- - ----- - ----- - 
 72
    65
 73
     4
 40
10.0
 49
6.25
 49
-1.25
 49
1.25
 49
-1.25
  0
LTYPE
  2
CENTER2
 70
    64
  3
----------  --  ----------  --  
 72
    65
 73
     4
 40
20.0
 49
12.5
 49
-2.5
 49
2.5
 49
-2.5
  0
LTYPE
  2
PHANTOM1
 70
    64
  3
--- - - --- - - --- - - --- - - 
 72
    65
 73
     6
 40
10.0
 49
3.25
 49
-1.25
 49
1.25
 49
-1.25
 49
1.25
 49
-1.25
  0
LTYPE
  2
PHANTOM2
 70
    64
  3
--------  -  -  --------  -  -  
 72
    65
 73
     6
 40
20.0
 49
10.0
 49
-2.5
 49
1.25
 49
-2.5
 49
1.25
 49
-2.5
  0
LTYPE
  2
DOT
 70
    64
  3
-   -   -   -   -   -   -   -   
 72
    65
 73
     2
 40
2.5
 49
0.625
 49
-1.875
  0
LTYPE
  2
DUMMY
 70
    64
  3
ダミー
 72
    65
 73
     0
 40
0.0
  0
LTYPE
  2
RAND1
 70
    64
  3
ランダム線1
 72
    65
 73
     4
 40
10.0
 49
1.0
 49
-2.0
 49
3.0
 49
-4.0
  0
LTYPE
  2
RAND2
 70
    64
  3
ランダム線2
 72
    65
 73
     4
 40
14.0
 49
2.0
 49
-3.0
 49
4.0
 49
-5.0
  0
LTYPE
  2
RAND3
 70
    64
  3
ランダム線3
 72
    65
 73
     4
 40
18.0
 49
3.0
 49
-4.0
 49
5.0
 49
-6.0
  0
LTYPE
  2
RAND4
 70
    64
  3
ランダム線4
 72
    65
 73
     4
 40
22.0
 49
4.0
 49
-5.0
 49
6.0
 49
-7.0
  0
LTYPE
  2
RAND5
 70
    64
  3
ランダム線5
 72
    65
 73
     4
 40
26.0
 49
5.0
 49
-6.0
 49
7.0
 49
-8.0
  0
LTYPE
  2
LONG1
 70
    64
  3
----------  --  ----------  --  
 72
    65
 73
     4
 40
40.0
 49
32.5
 49
-2.5
 49
2.5
 49
-2.5
  0
LTYPE
  2
LONG2
 70
    64
  3
--------  -  -  --------  -  -  
 72
    65
 73
     6
 40
40.0
 49
30.0
 49
-2.5
 49
1.25
 49
-2.5
 49
1.25
 49
-2.5
  0
LTYPE
  2
LONG3
 70
    64
  3
+++++++++++++++..+++++++++++++++
 72
    65
 73
     2
 40
40.0
 49
37.5
 49
-2.5
  0
LTYPE
  2
LONG4
 70
    64
  3
+++++++++++++++..+++++++++++++++
 72
    65
 73
     2
 40
80.0
 49
75.0
 49
-5.0
  0
LTYPE
  2
LONG5
 70
    64
  3
----------  --  ----------  --  
 72
    65
 73
     4
 40
60.0
 49
37.5
 49
-7.5
 49
7.5
 49
-7.5
  0
LTYPE
  2
dashed
 70
   64
  3
-------   -------------   ------
 72
   65
 73
    2
 40
7.5
 49
6
 49
-1.5
  0
LTYPE
  2
dashed_spaced
 70
   64
  3
----        --------        ----
 72
   65
 73
    2
 40
12
 49
6
 49
-6
  0
LTYPE
  2
long_dashed_dotted
 70
   64
  3
------------- --- --------------
 72
   65
 73
    4
 40
15.25
 49
12
 49
-1.5
 49
0.25
 49
-1.5
  0
LTYPE
  2
long_dashed_double-dotted
 70
   64
  3
----------- --- --- ------------
 72
   65
 73
    6
 40
17
 49
12
 49
-1.5
 49
0.25
 49
-1.5
 49
0.25
 49
-1.5
  0
LTYPE
  2
long_dashed_triplicate-dotted
 70
   64
  3
--------- --- --- --- ----------
 72
   65
 73
    8
 40
18.75
 49
12
 49
-1.5
 49
0.25
 49
-1.5
 49
0.25
 49
-1.5
 49
0.25
 49
-1.5
  0
LTYPE
  2
dotted
 70
   64
  3
   -       -       -       -    
 72
   65
 73
    2
 40
1.75
 49
0.25
 49
-1.5
  0
LTYPE
  2
chain
 70
   64
  3
-------------- -- --------------
 72
   65
 73
    4
 40
18.5
 49
12
 49
-1.5
 49
3.5
 49
-1.5
  0
LTYPE
  2
chain_double_dash
 70
   64
  3
------------ -- -- -------------
 72
   65
 73
    6
 40
23.5
 49
12
 49
-1.5
 49
3.5
 49
-1.5
 49
3.5
 49
-1.5
  0
LTYPE
  2
dashed_dotted
 70
   64
  3
-----------     -     ----------
 72
   65
 73
    4
 40
9.25
 49
6
 49
-1.5
 49
0.25
 49
-1.5
  0
LTYPE
  2
double-dashed_dotted
 70
   64
  3
------   -----------   -   -----
 72
   65
 73
    6
 40
16.75
 49
6
 49
-1.5
 49
6
 49
-1.5
 49
0.25
 49
-1.5
  0
LTYPE
  2
dashed_double-dotted
 70
   64
  3
---------    -    -    ---------
 72
   65
 73
    6
 40
11
 49
6
 49
-1.5
 49
0.25
 49
-1.5
 49
0.25
 49
-1.5
  0
LTYPE
  2
double-dashed_double-dotted
 70
   64
  3
-----   ---------   -   -   ----
 72
   65
 73
    8
 40
18.5
 49
6
 49
-1.5
 49
6
 49
-1.5
 49
0.25
 49
-1.5
 49
0.25
 49
-1.5
  0
LTYPE
  2
dashed_triplicate-dotted
 70
   64
  3
-------    -    -    -    ------
 72
   65
 73
    8
 40
12.75
 49
6
 49
-1.5
 49
0.25
 49
-1.5
 49
0.25
 49
-1.5
 49
0.25
 49
-1.5
  0
LTYPE
  2
double-dashed_triplicate-dotted
 70
   64
  3
-----  ---------  -  -  -  -----
 72
   65
 73
   10
 40
20.25
 49
6
 49
-1.5
 49
6
 49
-1.5
 49
0.25
 49
-1.5
 49
0.25
 49
-1.5
 49
0.25
 49
-1.5
  0
LTYPE
  2
undefined
 70
   64
  3
--------------------------------
 72
   65
 73
    0
 40
0
  0
ENDTAB
  0
TABLE
  2
STYLE
  5
3
100
AcDbSymbolTable
 70
     1
  0
STYLE
  5
10
100
AcDbSymbolTableRecord
100
AcDbTextStyleTableRecord
  2
STANDARD
 70
     0
 40
0.0
 41
1.0
 50
0.0
 71
     0
 42
0.2
  3
txt
  4
bigfont.shx
  0
STYLE
  5
26
100
AcDbSymbolTableRecord
100
AcDbTextStyleTableRecord
  2
TATEGAKI
 70
    68
 40
0.0
 41
1.0
 50
0.0
 71
     0
 42
1.0
  3
txt
  4
bigfont.shx
  0
ENDTAB
  0
TABLE
  2
LAYER
 70
    2
  0
LAYER
  2
_0-0_0
 70
   64
 62
    7
  6
CONTINUOUS
  0
LAYER
  2
ADD_LINE
 70
   64
 62
    7
  6
CONTINUOUS
  0
ENDTAB
  0
ENDSEC
  0
SECTION
  2
BLOCKS
  0
ENDSEC
  0
SECTION
  2
ENTITIES
  0
ARC
  8
_0-0_0
  6
CONTINUOUS
 62
    7
 10
46.727783499999987
 20
765.34997599999997
 40
0.2
 50
269.99999700000001
 51
20.376440000000013
  0
LINE
  8
_0-0_0
  6
CONTINUOUS
 62
    7
 10
46.915267499999914
 20
765.41961700000002
 11
45.615264499999967
 21
768.91961700000002
  0
ARC
  8
_0-0_0
  6
CONTINUOUS
 62
    7
 10
45.427780499999926
 20
768.84997599999997
 40
0.2
 50
20.376439999999999
 51
159.62355600000001
  0
LINE
  8
_0-0_0
  6
CONTINUOUS
 62
    7
 10
43.940292499999941
 20
765.41961700000002
 11
45.240295500000002
 21
768.91961700000002
  0
ARC
  8
_0-0_0
  6
CONTINUOUS
 62
    7
 10
44.127776499999982
 20
765.34997599999997
 40
0.2
 50
159.62355600000001
 51
269.99999700000001
  0
LINE
  8
_0-0_0
  6
CONTINUOUS
 62
    7
 10
44.127776499999982
 20
765.14999399999999
 11
46.727783499999987
 21
765.14999399999999
  0
LINE
  8
_0-0_0
  6
CONTINUOUS
 62
    7
 10
-118.50503550000008
 20
813.75271599999996
 11
-118.50503550000008
 21
813.75170900000001
  0
LINE
  8
_0-0_0
  6
CONTINUOUS
 62
    7
 10
1564.4277345
 20
802.14999399999999
 11
1564.4277345
 21
789.14999399999999
  0
LINE
  8
_0-0_0
  6
CONTINUOUS
 62
    7
 10
-8.5722195000000738
 20
802.14999399999999
 11
-8.5722195000000738
 21
789.14999399999999
  0
LINE
  8
_0-0_0
  6
CONTINUOUS
 62
    7
 10
-8.5722195000000738
 20
802.14999399999999
 11
1564.4277345
 21
802.14999399999999
  0
LINE
  8
_0-0_0
  6
CONTINUOUS
 62
    7
 10
-8.5722195000000738
 20
802.14999399999999
 11
-8.5722195000000738
 21
820.75
  0
LINE
  8
_0-0_0
  6
CONTINUOUS
 62
    7
 10
-8.5722195000000738
 20
823.25
 11
-8.5722195000000738
 21
820.75
  0
LINE
  8
_0-0_0
  6
CONTINUOUS
 62
    7
 10
-8.5722195000000738
 20
823.75
 11
-8.5722195000000738
 21
823.25
  0
LINE
  8
_0-0_0
  6
CONTINUOUS
 62
    7
 10
-8.5722195000000738
 20
775.75
 11
-8.5722195000000738
 21
775.25
  0
LINE
  8
_0-0_0
  6
CONTINUOUS
 62
    7
 10
-8.5722195000000738
 20
780.75
 11
-8.5722195000000738
 21
775.75
  0
LINE
  8
_0-0_0
  6
CONTINUOUS
 62
    7
 10
-8.5722195000000738
 20
781.25
 11
-8.5722195000000738
 21
780.75
  0
LINE
  8
_0-0_0
  6
CONTINUOUS
 62
    7
 10
-8.5722195000000738
 20
781.75
 11
-8.5722195000000738
 21
781.25
  0
LINE
  8
_0-0_0
  6
CONTINUOUS
 62
    7
 10
-8.5722195000000738
 20
784.94998199999998
 11
-8.5722195000000738
 21
781.75
  0
LINE
  8
_0-0_0
  6
CONTINUOUS
 62
    7
 10
-8.5722195000000738
 20
784.94998199999998
 11
-8.5722195000000738
 21
789.14999399999999
  0
LINE
  8
_0-0_0
  6
CONTINUOUS
 62
    7
 10
-8.5722195000000738
 20
789.14999399999999
 11
1564.4277345
 21
789.14999399999999
  0
LINE
  8
_0-0_0
  6
CONTINUOUS
 62
    7
 10
1564.4277345
 20
784.94998199999998
 11
1564.4277345
 21
789.14999399999999
  0
LINE
  8
_0-0_0
  6
CONTINUOUS
 62
    7
 10
1564.4277345
 20
781.75
 11
1564.4277345
 21
784.94998199999998
  0
LINE
  8
_0-0_0
  6
CONTINUOUS
 62
    7
 10
1564.4277345
 20
781.75
 11
1564.4277345
 21
781.25
  0
LINE
  8
_0-0_0
  6
CONTINUOUS
 62
    7
 10
1564.4277345
 20
781.25
 11
1564.4277345
 21
780.75
  0
LINE
  8
_0-0_0
  6
CONTINUOUS
 62
    7
 10
1564.4277345
 20
780.75
 11
1564.4277345
 21
775.75
  0
LINE
  8
_0-0_0
  6
CONTINUOUS
 62
    7
 10
1564.4277345
 20
775.75
 11
1564.4277345
 21
775.25
  0
LINE
  8
_0-0_0
  6
CONTINUOUS
 62
    7
 10
1564.4277345
 20
823.75
 11
1564.4277345
 21
823.25
  0
LINE
  8
_0-0_0
  6
CONTINUOUS
 62
    7
 10
1564.4277345
 20
820.75
 11
1564.4277345
 21
823.25
  0
LINE
  8
_0-0_0
  6
CONTINUOUS
 62
    7
 10
1564.4277345
 20
802.14999399999999
 11
1564.4277345
 21
820.75
  0
CIRCLE
  8
_0-0_0
  6
CONTINUOUS
 62
    7
 10
1527.9277345
 20
811.25
 40
6
  0
CIRCLE
  8
_0-0_0
  6
CONTINUOUS
 62
    7
 10
1427.9277345
 20
811.25
 40
6
  0
CIRCLE
  8
_0-0_0
  6
CONTINUOUS
 62
    7
 10
1327.9277345
 20
811.25
 40
6
  0
CIRCLE
  8
_0-0_0
  6
CONTINUOUS
 62
    7
 10
1227.9277345
 20
811.25
 40
6
  0
CIRCLE
  8
_0-0_0
  6
CONTINUOUS
 62
    7
 10
1127.9277345
 20
811.25
 40
6
  0
CIRCLE
  8
_0-0_0
  6
CONTINUOUS
 62
    7
 10
1027.9277345
 20
811.25
 40
6
  0
CIRCLE
  8
_0-0_0
  6
CONTINUOUS
 62
    7
 10
927.92773449999993
 20
811.25
 40
6
  0
CIRCLE
  8
_0-0_0
  6
CONTINUOUS
 62
    7
 10
827.92773449999993
 20
811.25
 40
6
  0
CIRCLE
  8
_0-0_0
  6
CONTINUOUS
 62
    7
 10
727.92773449999993
 20
811.25
 40
6
  0
CIRCLE
  8
_0-0_0
  6
CONTINUOUS
 62
    7
 10
627.92773449999993
 20
811.25
 40
6
  0
CIRCLE
  8
_0-0_0
  6
CONTINUOUS
 62
    7
 10
527.9277955
 20
811.25
 40
6
  0
CIRCLE
  8
_0-0_0
  6
CONTINUOUS
 62
    7
 10
427.92779549999995
 20
811.25
 40
6
  0
CIRCLE
  8
_0-0_0
  6
CONTINUOUS
 62
    7
 10
327.9277955
 20
811.25
 40
6
  0
CIRCLE
  8
_0-0_0
  6
CONTINUOUS
 62
    7
 10
227.9277955
 20
811.25
 40
6
  0
CIRCLE
  8
_0-0_0
  6
CONTINUOUS
 62
    7
 10
127.9277955
 20
811.25
 40
6
  0
CIRCLE
  8
_0-0_0
  6
CONTINUOUS
 62
    7
 10
27.927780499999926
 20
811.25
 40
6
  0
LINE
  8
_0-0_0
  6
CONTINUOUS
 62
    7
 10
-8.5722195000000738
 20
820.75
 11
1564.4277345
 21
820.75
  0
LINE
  8
_0-0_0
  6
CONTINUOUS
 62
    7
 10
-8.5722195000000738
 20
823.75
 11
1564.4277345
 21
823.75
  0
LINE
  8
_0-0_0
  6
CONTINUOUS
 62
    7
 10
-8.5722195000000738
 20
823.25
 11
-11.072219500000074
 21
823.25
  0
LINE
  8
_0-0_0
  6
CONTINUOUS
 62
    7
 10
-11.072219500000074
 20
823.25
 11
-11.072219500000074
 21
822.75
  0
LINE
  8
_0-0_0
  6
CONTINUOUS
 62
    7
 10
-11.072219500000074
 20
822.75
 11
-11.072219500000074
 21
782.25
  0
LINE
  8
_0-0_0
  6
CONTINUOUS
 62
    7
 10
-8.5722195000000738
 20
781.75
 11
-11.072219500000074
 21
781.75
  0
LINE
  8
_0-0_0
  6
CONTINUOUS
 62
    7
 10
-11.072219500000074
 20
782.25
 11
-11.072219500000074
 21
781.75
  0
LINE
  8
_0-0_0
  6
CONTINUOUS
 62
    7
 10
-11.072219500000074
 20
781.75
 11
-11.072219500000074
 21
780.75
  0
LINE
  8
_0-0_0
  6
CONTINUOUS
 62
    7
 10
-11.072219500000074
 20
780.75
 11
-11.072219500000074
 21
776.25
  0
LINE
  8
_0-0_0
  6
CONTINUOUS
 62
    7
 10
-8.5722195000000738
 20
775.75
 11
-11.072219500000074
 21
775.75
  0
LINE
  8
_0-0_0
  6
CONTINUOUS
 62
    7
 10
-11.072219500000074
 20
776.25
 11
-11.072219500000074
 21
775.75
  0
LINE
  8
_0-0_0
  6
CONTINUOUS
 62
    7
 10
-8.5722195000000738
 20
775.25
 11
1564.4277345
 21
775.25
  0
LINE
  8
_0-0_0
  6
CONTINUOUS
 62
    7
 10
-8.5722195000000738
 20
781.25
 11
1564.4277345
 21
781.25
  0
LINE
  8
_0-0_0
  6
CONTINUOUS
 62
    7
 10
-8.5722195000000738
 20
784.94998199999998
 11
1564.4277345
 21
784.94998199999998
  0
LINE
  8
_0-0_0
  6
CONTINUOUS
 62
    7
 10
1564.4277345
 20
823.25
 11
1566.9277345
 21
823.25
  0
LINE
  8
_0-0_0
  6
CONTINUOUS
 62
    7
 10
1566.9277345
 20
823.25
 11
1566.9277345
 21
822.75
  0
LINE
  8
_0-0_0
  6
CONTINUOUS
 62
    7
 10
1566.9277345
 20
822.75
 11
1566.9277345
 21
782.25
  0
LINE
  8
_0-0_0
  6
CONTINUOUS
 62
    7
 10
1564.4277345
 20
781.75
 11
1566.9277345
 21
781.75
  0
LINE
  8
_0-0_0
  6
CONTINUOUS
 62
    7
 10
1566.9277345
 20
782.25
 11
1566.9277345
 21
781.75
  0
LINE
  8
_0-0_0
  6
CONTINUOUS
 62
    7
 10
1566.9277345
 20
781.75
 11
1566.9277345
 21
780.75
  0
LINE
  8
_0-0_0
  6
CONTINUOUS
 62
    7
 10
1566.9277345
 20
780.75
 11
1566.9277345
 21
776.25
  0
LINE
  8
_0-0_0
  6
CONTINUOUS
 62
    7
 10
1564.4277345
 20
775.75
 11
1566.9277345
 21
775.75
  0
LINE
  8
_0-0_0
  6
CONTINUOUS
 62
    7
 10
1566.9277345
 20
776.25
 11
1566.9277345
 21
775.75
  0
ARC
  8
_0-0_0
  6
CONTINUOUS
 62
    7
 10
48.927780499999926
 20
776.25
 40
0.5
 50
269.99999700000001
 51
0
  0
LINE
  8
_0-0_0
  6
CONTINUOUS
 62
    7
 10
48.927780499999926
 20
775.75
 11
41.927780499999926
 21
775.75
  0
ARC
  8
_0-0_0
  6
CONTINUOUS
 62
    7
 10
41.927780499999926
 20
776.25
 40
0.5
 50
179.99999099999999
 51
269.99999700000001
  0
LINE
  8
_0-0_0
  6
CONTINUOUS
 62
    7
 10
41.427780499999926
 20
780.25
 11
41.427780499999926
 21
776.25
  0
ARC
  8
_0-0_0
  6
CONTINUOUS
 62
    7
 10
41.927780499999926
 20
780.25
 40
0.5
 50
90.000003000000007
 51
179.99999099999999
  0
ARC
  8
_0-0_0
  6
CONTINUOUS
 62
    7
 10
48.927780499999926
 20
780.25
 40
0.5
 50
0
 51
90.000003000000007
  0
LINE
  8
_0-0_0
  6
CONTINUOUS
 62
    7
 10
41.927780499999926
 20
780.75
 11
48.927780499999926
 21
780.75
  0
LINE
  8
_0-0_0
  6
CONTINUOUS
 62
    7
 10
1564.4277345
 20
823.75
 11
1564.4277345
 21
823.44998199999998
  0
LINE
  8
_0-0_0
  6
CONTINUOUS
 62
    7
 10
1564.4277345
 20
823.44998199999998
 11
1564.4277345
 21
823.25
  0
CIRCLE
  8
_0-0_0
  6
CONTINUOUS
 62
    7
 10
1527.9277345
 20
811.25
 40
5.5
  0
CIRCLE
  8
_0-0_0
  6
CONTINUOUS
 62
    7
 10
1427.9277345
 20
811.25
 40
5.5
  0
CIRCLE
  8
_0-0_0
  6
CONTINUOUS
 62
    7
 10
1327.9277345
 20
811.25
 40
5.5
  0
CIRCLE
  8
_0-0_0
  6
CONTINUOUS
 62
    7
 10
1227.9277345
 20
811.25
 40
5.5
  0
CIRCLE
  8
_0-0_0
  6
CONTINUOUS
 62
    7
 10
1127.9277345
 20
811.25
 40
5.5
  0
CIRCLE
  8
_0-0_0
  6
CONTINUOUS
 62
    7
 10
1027.9277345
 20
811.25
 40
5.5
  0
CIRCLE
  8
_0-0_0
  6
CONTINUOUS
 62
    7
 10
927.92773449999993
 20
811.25
 40
5.5
  0
CIRCLE
  8
_0-0_0
  6
CONTINUOUS
 62
    7
 10
827.92773449999993
 20
811.25
 40
5.5
  0
CIRCLE
  8
_0-0_0
  6
CONTINUOUS
 62
    7
 10
727.92773449999993
 20
811.25
 40
5.5
  0
CIRCLE
  8
_0-0_0
  6
CONTINUOUS
 62
    7
 10
627.92773449999993
 20
811.25
 40
5.5
  0
CIRCLE
  8
_0-0_0
  6
CONTINUOUS
 62
    7
 10
527.9277955
 20
811.25
 40
5.5
  0
CIRCLE
  8
_0-0_0
  6
CONTINUOUS
 62
    7
 10
427.92779549999995
 20
811.25
 40
5.5
  0
CIRCLE
  8
_0-0_0
  6
CONTINUOUS
 62
    7
 10
327.9277955
 20
811.25
 40
5.5
  0
CIRCLE
  8
_0-0_0
  6
CONTINUOUS
 62
    7
 10
227.9277955
 20
811.25
 40
5.5
  0
CIRCLE
  8
_0-0_0
  6
CONTINUOUS
 62
    7
 10
127.9277955
 20
811.25
 40
5.5
  0
CIRCLE
  8
_0-0_0
  6
CONTINUOUS
 62
    7
 10
27.927780499999926
 20
811.25
 40
5.5
  0
LINE
  8
_0-0_0
  6
CONTINUOUS
 62
    7
 10
49.427780499999926
 20
776.25
 11
49.427780499999926
 21
780.25
  0
CIRCLE
  8
_0-0_0
  6
CONTINUOUS
 62
    7
 10
1527.9277345
 20
811.25
 40
3.5
  0
CIRCLE
  8
_0-0_0
  6
CONTINUOUS
 62
    7
 10
1427.9277345
 20
811.25
 40
3.5
  0
CIRCLE
  8
_0-0_0
  6
CONTINUOUS
 62
    7
 10
1327.9277345
 20
811.25
 40
3.5
  0
CIRCLE
  8
_0-0_0
  6
CONTINUOUS
 62
    7
 10
1227.9277345
 20
811.25
 40
3.5
  0
CIRCLE
  8
_0-0_0
  6
CONTINUOUS
 62
    7
 10
1127.9277345
 20
811.25
 40
3.5
  0
CIRCLE
  8
_0-0_0
  6
CONTINUOUS
 62
    7
 10
1027.9277345
 20
811.25
 40
3.5
  0
CIRCLE
  8
_0-0_0
  6
CONTINUOUS
 62
    7
 10
927.92773449999993
 20
811.25
 40
3.5
  0
CIRCLE
  8
_0-0_0
  6
CONTINUOUS
 62
    7
 10
827.92773449999993
 20
811.25
 40
3.5
  0
CIRCLE
  8
_0-0_0
  6
CONTINUOUS
 62
    7
 10
727.92773449999993
 20
811.25
 40
3.5
  0
CIRCLE
  8
_0-0_0
  6
CONTINUOUS
 62
    7
 10
627.92773449999993
 20
811.25
 40
3.5
  0
CIRCLE
  8
_0-0_0
  6
CONTINUOUS
 62
    7
 10
527.9277955
 20
811.25
 40
3.5
  0
CIRCLE
  8
_0-0_0
  6
CONTINUOUS
 62
    7
 10
427.92779549999995
 20
811.25
 40
3.5
  0
CIRCLE
  8
_0-0_0
  6
CONTINUOUS
 62
    7
 10
327.9277955
 20
811.25
 40
3.5
  0
CIRCLE
  8
_0-0_0
  6
CONTINUOUS
 62
    7
 10
227.9277955
 20
811.25
 40
3.5
  0
CIRCLE
  8
_0-0_0
  6
CONTINUOUS
 62
    7
 10
127.9277955
 20
811.25
 40
3.5
  0
CIRCLE
  8
_0-0_0
  6
CONTINUOUS
 62
    7
 10
27.927780499999926
 20
811.25
 40
3.5
  0
ARC
  8
_0-0_0
  6
CONTINUOUS
 62
    7
 10
46.727783499999987
 20
779.94998199999998
 40
0.2
 50
339.62356199999999
 51
90.000002999999978
  0
LINE
  8
_0-0_0
  6
CONTINUOUS
 62
    7
 10
46.915267499999914
 20
779.88034100000004
 11
45.615264499999967
 21
776.38034100000004
  0
ARC
  8
_0-0_0
  6
CONTINUOUS
 62
    7
 10
45.427780499999926
 20
776.44998199999998
 40
0.2
 50
200.37643
 51
339.62356199999999
  0
LINE
  8
_0-0_0
  6
CONTINUOUS
 62
    7
 10
43.940292499999941
 20
779.88034100000004
 11
45.240295500000002
 21
776.38034100000004
  0
ARC
  8
_0-0_0
  6
CONTINUOUS
 62
    7
 10
44.127776499999982
 20
779.94998199999998
 40
0.2
 50
90.000003000000007
 51
200.37643
  0
LINE
  8
_0-0_0
  6
CONTINUOUS
 62
    7
 10
44.127776499999982
 20
780.14999399999999
 11
46.727783499999987
 21
780.14999399999999
  0
ARC
  8
_0-0_0
  6
CONTINUOUS
 62
    7
 10
1484.1276854999999
 20
779.94998199999998
 40
0.2
 50
90.000003000000007
 51
200.37643
  0
LINE
  8
_0-0_0
  6
CONTINUOUS
 62
    7
 10
1484.1276854999999
 20
780.14999399999999
 11
1486.7277835
 21
780.14999399999999
  0
ARC
  8
_0-0_0
  6
CONTINUOUS
 62
    7
 10
1481.9277345
 20
780.25
 40
0.5
 50
90.000003000000007
 51
179.99999099999999
  0
LINE
  8
_0-0_0
  6
CONTINUOUS
 62
    7
 10
1481.4277345
 20
780.25
 11
1481.4277345
 21
776.25
  0
ARC
  8
_0-0_0
  6
CONTINUOUS
 62
    7
 10
1481.9277345
 20
776.25
 40
0.5
 50
179.99999099999999
 51
269.99999700000001
  0
LINE
  8
_0-0_0
  6
CONTINUOUS
 62
    7
 10
1488.9277345
 20
775.75
 11
1481.9277345
 21
775.75
  0
ARC
  8
_0-0_0
  6
CONTINUOUS
 62
    7
 10
1488.9277345
 20
776.25
 40
0.5
 50
269.99999700000001
 51
0
  0
LINE
  8
_0-0_0
  6
CONTINUOUS
 62
    7
 10
1489.4277345
 20
776.25
 11
1489.4277345
 21
780.25
  0
ARC
  8
_0-0_0
  6
CONTINUOUS
 62
    7
 10
1488.9277345
 20
780.25
 40
0.5
 50
0
 51
90.000003000000007
  0
LINE
  8
_0-0_0
  6
CONTINUOUS
 62
    7
 10
1481.9277345
 20
780.75
 11
1488.9277345
 21
780.75
  0
LINE
  8
_0-0_0
  6
CONTINUOUS
 62
    7
 10
1483.9403075
 20
779.88034100000004
 11
1485.2402345
 21
776.38034100000004
  0
ARC
  8
_0-0_0
  6
CONTINUOUS
 62
    7
 10
1485.4277345
 20
776.44998199999998
 40
0.2
 50
200.37643
 51
339.62356199999999
  0
LINE
  8
_0-0_0
  6
CONTINUOUS
 62
    7
 10
1486.9151615000001
 20
779.88034100000004
 11
1485.6152345
 21
776.38034100000004
  0
ARC
  8
_0-0_0
  6
CONTINUOUS
 62
    7
 10
1486.7277835
 20
779.94998199999998
 40
0.2
 50
339.62356199999999
 51
90.000002999999978
  0
LINE
  8
_0-0_0
  6
CONTINUOUS
 62
    7
 10
-2.0722195000000738
 20
773.25
 11
2.9277804999999262
 21
773.25
  0
LINE
  8
_0-0_0
  6
CONTINUOUS
 62
    7
 10
2.9277804999999262
 20
773.25
 11
4.7277834999999868
 21
773.25
  0
LINE
  8
_0-0_0
  6
CONTINUOUS
 62
    7
 10
4.7277834999999868
 20
773.25
 11
5.4277804999999262
 21
773.25
  0
ARC
  8
_0-0_0
  6
CONTINUOUS
 62
    7
 10
4.7277834999999868
 20
772.75
 40
0.5
 50
0
 51
90.000003000000007
  0
ARC
  8
_0-0_0
  6
CONTINUOUS
 62
    7
 10
-2.0722195000000738
 20
772.75
 40
0.5
 50
90.000003000000007
 51
179.99999099999999
  0
ARC
  8
_0-0_0
  6
CONTINUOUS
 62
    7
 10
101.42778049999993
 20
772.75
 40
0.5
 50
0
 51
90.000003000000007
  0
LINE
  8
_0-0_0
  6
CONTINUOUS
 62
    7
 10
5.4277804999999262
 20
773.25
 11
5.4277804999999262
 21
771.75
  0
LINE
  8
_0-0_0
  6
CONTINUOUS
 62
    7
 10
5.4277804999999262
 20
773.75
 11
5.4277804999999262
 21
773.25
  0
LINE
  8
_0-0_0
  6
CONTINUOUS
 62
    7
 10
5.4277804999999262
 20
774.25
 11
5.4277804999999262
 21
773.75
  0
LINE
  8
_0-0_0
  6
CONTINUOUS
 62
    7
 10
5.4277804999999262
 20
775.25
 11
5.4277804999999262
 21
774.25
  0
LINE
  8
_0-0_0
  6
CONTINUOUS
 62
    7
 10
9.4277804999999262
 20
773.25
 11
10.127776499999982
 21
773.25
  0
LINE
  8
_0-0_0
  6
CONTINUOUS
 62
    7
 10
5.2277834999999868
 20
772.75
 11
5.2277834999999868
 21
771.75
  0
LINE
  8
_0-0_0
  6
CONTINUOUS
 62
    7
 10
8.4277804999999262
 20
746.25
 11
8.4277804999999262
 21
747.84997599999997
  0
LINE
  8
_0-0_0
  6
CONTINUOUS
 62
    7
 10
8.4277804999999262
 20
746.25
 11
2.9277804999999262
 21
746.25
  0
LINE
  8
_0-0_0
  6
CONTINUOUS
 62
    7
 10
24.427780499999926
 20
752.94998199999998
 11
66.427780499999926
 21
752.94998199999998
  0
LINE
  8
_0-0_0
  6
CONTINUOUS
 62
    7
 10
24.427780499999926
 20
772.54998799999998
 11
66.427780499999926
 21
772.54998799999998
  0
LINE
  8
_0-0_0
  6
CONTINUOUS
 62
    7
 10
87.927780499999926
 20
746.25
 11
78.427780499999926
 21
746.25
  0
LINE
  8
_0-0_0
  6
CONTINUOUS
 62
    7
 10
78.427780499999926
 20
746.25
 11
78.427780499999926
 21
747.84997599999997
  0
ARC
  8
_0-0_0
  6
CONTINUOUS
 62
    7
 10
78.127776499999982
 20
747.84997599999997
 40
0.2999999999999999
 50
0
 51
90.000003000000007
  0
LINE
  8
_0-0_0
  6
CONTINUOUS
 62
    7
 10
77.427780499999926
 20
748.14999399999999
 11
78.127776499999982
 21
748.14999399999999
  0
LINE
  8
_0-0_0
  6
CONTINUOUS
 62
    7
 10
76.927780499999926
 20
748.54998799999998
 11
77.427780499999926
 21
748.54998799999998
  0
LINE
  8
_0-0_0
  6
CONTINUOUS
 62
    7
 10
63.427780499999926
 20
748.54998799999998
 11
76.927780499999926
 21
748.54998799999998
  0
ARC
  8
_0-0_0
  6
CONTINUOUS
 62
    7
 10
60.927780499999926
 20
748.54998799999998
 40
2.5
 50
0
 51
90.000003000000007
  0
LINE
  8
_0-0_0
  6
CONTINUOUS
 62
    7
 10
29.927780499999926
 20
751.04998799999998
 11
60.927780499999926
 21
751.04998799999998
  0
ARC
  8
_0-0_0
  6
CONTINUOUS
 62
    7
 10
29.927780499999926
 20
748.54998799999998
 40
2.5
 50
90.000003000000007
 51
179.99999099999999
  0
LINE
  8
_0-0_0
  6
CONTINUOUS
 62
    7
 10
9.9277804999999262
 20
748.54998799999998
 11
27.427780499999926
 21
748.54998799999998
  0
LINE
  8
_0-0_0
  6
CONTINUOUS
 62
    7
 10
9.4277804999999262
 20
748.54998799999998
 11
9.9277804999999262
 21
748.54998799999998
  0
LINE
  8
_0-0_0
  6
CONTINUOUS
 62
    7
 10
8.7277834999999868
 20
748.14999399999999
 11
9.4277804999999262
 21
748.14999399999999
  0
ARC
  8
_0-0_0
  6
CONTINUOUS
 62
    7
 10
8.7277834999999868
 20
747.84997599999997
 40
0.2999999999999999
 50
90.000003000000007
 51
179.99999099999999
  0
LINE
  8
_0-0_0
  6
CONTINUOUS
 62
    7
 10
-2.5722195000000738
 20
770.97485400000005
 11
-2.5722195000000738
 21
772.75
  0
LINE
  8
_0-0_0
  6
CONTINUOUS
 62
    7
 10
2.4277804999999262
 20
773.75
 11
2.4277804999999262
 21
773.25
  0
LINE
  8
_0-0_0
  6
CONTINUOUS
 62
    7
 10
2.4277804999999262
 20
769.80355800000007
 11
2.4277804999999262
 21
769.90853900000002
  0
LINE
  8
_0-0_0
  6
CONTINUOUS
 62
    7
 10
2.4277804999999262
 20
773.75
 11
2.4277804999999262
 21
775.24996899999996
  0
LINE
  8
_0-0_0
  6
CONTINUOUS
 62
    7
 10
101.92778049999993
 20
775.24996899999996
 11
101.92778049999993
 21
773.75
  0
LINE
  8
_0-0_0
  6
CONTINUOUS
 62
    7
 10
101.92778049999993
 20
773.75
 11
101.92778049999993
 21
772.75
  0
LINE
  8
_0-0_0
  6
CONTINUOUS
 62
    7
 10
101.92778049999993
 20
771.94998199999998
 11
101.92778049999993
 21
772.75
  0
LINE
  8
_0-0_0
  6
CONTINUOUS
 62
    7
 10
101.42778049999993
 20
773.25
 11
101.92778049999993
 21
773.25
  0
LINE
  8
_0-0_0
  6
CONTINUOUS
 62
    7
 10
88.927780499999926
 20
773.25
 11
101.42778049999993
 21
773.25
  0
LINE
  8
_0-0_0
  6
CONTINUOUS
 62
    7
 10
101.92778049999993
 20
775.25
 11
101.92778049999993
 21
774.25
  0
LINE
  8
_0-0_0
  6
CONTINUOUS
 62
    7
 10
101.92778049999993
 20
773.75
 11
101.92778049999993
 21
773.25
  0
LINE
  8
_0-0_0
  6
CONTINUOUS
 62
    7
 10
101.92778049999993
 20
774.25
 11
101.92778049999993
 21
773.75
  0
ARC
  8
_0-0_0
  6
CONTINUOUS
 62
    7
 10
7.4277804999999262
 20
771.75
 40
2
 50
179.99999099999999
 51
0
  0
LINE
  8
_0-0_0
  6
CONTINUOUS
 62
    7
 10
88.427780499999926
 20
773.25
 11
88.927780499999926
 21
773.25
  0
LINE
  8
_0-0_0
  6
CONTINUOUS
 62
    7
 10
88.427780499999926
 20
772.75
 11
88.427780499999926
 21
773.25
  0
LINE
  8
_0-0_0
  6
CONTINUOUS
 62
    7
 10
88.427780499999926
 20
771.75
 11
88.427780499999926
 21
771.94998199999998
  0
ARC
  8
_0-0_0
  6
CONTINUOUS
 62
    7
 10
86.427780499999926
 20
771.75
 40
2
 50
179.99999099999999
 51
0
  0
LINE
  8
_0-0_0
  6
CONTINUOUS
 62
    7
 10
84.427780499999926
 20
773.25
 11
84.427780499999926
 21
771.75
  0
LINE
  8
_0-0_0
  6
CONTINUOUS
 62
    7
 10
83.727783499999987
 20
773.25
 11
84.427780499999926
 21
773.25
  0
LINE
  8
_0-0_0
  6
CONTINUOUS
 62
    7
 10
9.4277804999999262
 20
771.75
 11
9.4277804999999262
 21
773.25
  0
LINE
  8
_0-0_0
  6
CONTINUOUS
 62
    7
 10
5.4277804999999262
 20
774.25
 11
101.92778049999993
 21
774.25
  0
ARC
  8
_0-0_0
  6
CONTINUOUS
 62
    7
 10
10.127776499999982
 20
772.75
 40
0.5
 50
90.000003000000007
 51
179.99999099999999
  0
ARC
  8
_0-0_0
  6
CONTINUOUS
 62
    7
 10
7.4277804999999262
 20
771.75
 40
2.2000000000000002
 50
179.99999099999999
 51
0
  0
LINE
  8
_0-0_0
  6
CONTINUOUS
 62
    7
 10
9.4277804999999262
 20
748.14999399999999
 11
9.9277804999999262
 21
748.14999399999999
  0
LINE
  8
_0-0_0
  6
CONTINUOUS
 62
    7
 10
9.9277804999999262
 20
748.54998799999998
 11
9.9277804999999262
 21
748.14999399999999
  0
LINE
  8
_0-0_0
  6
CONTINUOUS
 62
    7
 10
27.427780499999926
 20
748.54998799999998
 11
63.427780499999926
 21
748.54998799999998
  0
LINE
  8
_0-0_0
  6
CONTINUOUS
 62
    7
 10
76.927780499999926
 20
748.14999399999999
 11
77.427780499999926
 21
748.14999399999999
  0
LINE
  8
_0-0_0
  6
CONTINUOUS
 62
    7
 10
76.927780499999926
 20
748.54998799999998
 11
76.927780499999926
 21
748.14999399999999
  0
LINE
  8
_0-0_0
  6
CONTINUOUS
 62
    7
 10
87.927780499999926
 20
745.75
 11
78.927780499999926
 21
745.75
  0
ARC
  8
_0-0_0
  6
CONTINUOUS
 62
    7
 10
78.927780499999926
 20
746.25
 40
0.5
 50
179.99999099999999
 51
269.99999700000001
  0
LINE
  8
_0-0_0
  6
CONTINUOUS
 62
    7
 10
87.927780499999926
 20
746.25
 11
88.427780499999926
 21
746.25
  0
LINE
  8
_0-0_0
  6
CONTINUOUS
 62
    7
 10
88.427780499999926
 20
746.25
 11
88.427780499999926
 21
746.44998199999998
  0
LINE
  8
_0-0_0
  6
CONTINUOUS
 62
    7
 10
92.927780499999926
 20
746.64999399999999
 11
88.627776499999982
 21
746.64999399999999
  0
LINE
  8
_0-0_0
  6
CONTINUOUS
 62
    7
 10
93.427780499999926
 20
747.14999399999999
 11
93.427780499999926
 21
748.92511000000002
  0
ARC
  8
_0-0_0
  6
CONTINUOUS
 62
    7
 10
90.379821499999935
 20
748.86898799999994
 40
3.0490550000000001
 50
1.0548960000000001
 51
14.838094000000002
  0
LINE
  8
_0-0_0
  6
CONTINUOUS
 62
    7
 10
92.927780499999926
 20
749.84997599999997
 11
88.560241499999961
 21
749.84997599999997
  0
LINE
  8
_0-0_0
  6
CONTINUOUS
 62
    7
 10
88.427780499999926
 20
749.99142499999994
 11
88.427780499999926
 21
750.33367900000007
  0
ARC
  8
_0-0_0
  6
CONTINUOUS
 62
    7
 10
86.427780499999926
 20
771.75
 40
2.2000000000000002
 50
179.99999099999999
 51
303.74900400000001
  0
LINE
  8
_0-0_0
  6
CONTINUOUS
 62
    7
 10
84.227783499999987
 20
772.75
 11
84.227783499999987
 21
771.75
  0
LINE
  8
_0-0_0
  6
CONTINUOUS
 62
    7
 10
83.727783499999987
 20
773.25
 11
10.127776499999982
 21
773.25
  0
LINE
  8
_0-0_0
  6
CONTINUOUS
 62
    7
 10
9.6277764999999818
 20
771.75
 11
9.6277764999999818
 21
772.75
  0
LINE
  8
_0-0_0
  6
CONTINUOUS
 62
    7
 10
10.127776499999982
 20
771.54998799999998
 11
10.127776499999982
 21
771.75
  0
ARC
  8
_0-0_0
  6
CONTINUOUS
 62
    7
 10
11.127776499999982
 20
771.54998799999998
 40
1
 50
90.000003000000007
 51
179.99999099999999
  0
LINE
  8
_0-0_0
  6
CONTINUOUS
 62
    7
 10
11.127776499999982
 20
772.54998799999998
 11
24.427780499999926
 21
772.54998799999998
  0
LINE
  8
_0-0_0
  6
CONTINUOUS
 62
    7
 10
66.427780499999926
 20
772.54998799999998
 11
80.427780499999926
 21
772.54998799999998
  0
ARC
  8
_0-0_0
  6
CONTINUOUS
 62
    7
 10
80.427780499999926
 20
769.54998799999998
 40
3
 50
0
 51
90.000003000000007
  0
LINE
  8
_0-0_0
  6
CONTINUOUS
 62
    7
 10
83.427780499999926
 20
755.94998199999998
 11
83.427780499999926
 21
769.54998799999998
  0
ARC
  8
_0-0_0
  6
CONTINUOUS
 62
    7
 10
80.427780499999926
 20
755.94998199999998
 40
3
 50
269.99999700000001
 51
0
  0
LINE
  8
_0-0_0
  6
CONTINUOUS
 62
    7
 10
80.427780499999926
 20
752.94998199999998
 11
66.427780499999926
 21
752.94998199999998
  0
LINE
  8
_0-0_0
  6
CONTINUOUS
 62
    7
 10
24.427780499999926
 20
752.94998199999998
 11
10.427780499999926
 21
752.94998199999998
  0
ARC
  8
_0-0_0
  6
CONTINUOUS
 62
    7
 10
10.427780499999926
 20
755.94998199999998
 40
3
 50
179.99999099999999
 51
269.99999700000001
  0
LINE
  8
_0-0_0
  6
CONTINUOUS
 62
    7
 10
7.4277804999999262
 20
768.18768299999999
 11
7.4277804999999262
 21
755.94998199999998
  0
ARC
  8
_0-0_0
  6
CONTINUOUS
 62
    7
 10
8.4277804999999262
 20
768.18768299999999
 40
1
 50
105.68034800000001
 51
179.99999100000002
  0
ARC
  8
_0-0_0
  6
CONTINUOUS
 62
    7
 10
0.4757534999999961
 20
771.03097500000001
 40
3.0490550000000001
 50
181.05489
 51
194.838089
  0
LINE
  8
_0-0_0
  6
CONTINUOUS
 62
    7
 10
2.2953184999998939
 20
770.04998799999998
 11
-2.0722195000000738
 21
770.04998799999998
  0
LINE
  8
_0-0_0
  6
CONTINUOUS
 62
    7
 10
2.4277804999999262
 20
749.99142499999994
 11
2.4277804999999262
 21
750.096405
  0
LINE
  8
_0-0_0
  6
CONTINUOUS
 62
    7
 10
2.2953184999998939
 20
749.84997599999997
 11
-2.0722195000000738
 21
749.84997599999997
  0
ARC
  8
_0-0_0
  6
CONTINUOUS
 62
    7
 10
0.4769284999999854
 20
748.86834700000009
 40
3.050319
 50
165.15540799999999
 51
178.932897
  0
LINE
  8
_0-0_0
  6
CONTINUOUS
 62
    7
 10
-2.5722195000000738
 20
747.14999399999999
 11
-2.5722195000000738
 21
748.92511000000002
  0
LINE
  8
_0-0_0
  6
CONTINUOUS
 62
    7
 10
2.2277834999999868
 20
746.64999399999999
 11
-2.0722195000000738
 21
746.64999399999999
  0
LINE
  8
_0-0_0
  6
CONTINUOUS
 62
    7
 10
2.4277804999999262
 20
746.25
 11
2.4277804999999262
 21
746.44998199999998
  0
LINE
  8
_0-0_0
  6
CONTINUOUS
 62
    7
 10
2.4277804999999262
 20
746.25
 11
2.9277804999999262
 21
746.25
  0
LINE
  8
_0-0_0
  6
CONTINUOUS
 62
    7
 10
7.9277804999999262
 20
745.75
 11
2.9277804999999262
 21
745.75
  0
ARC
  8
_0-0_0
  6
CONTINUOUS
 62
    7
 10
7.9277804999999262
 20
746.25
 40
0.5
 50
269.99999700000001
 51
0
  0
LINE
  8
_0-0_0
  6
CONTINUOUS
 62
    7
 10
-2.2539675000000443
 20
770.04998799999998
 11
-2.2743075000000772
 21
770.05099500000006
  0
LINE
  8
_0-0_0
  6
CONTINUOUS
 62
    7
 10
-2.2743075000000772
 20
770.05099500000006
 11
-2.2947235000000319
 21
770.05413799999997
  0
LINE
  8
_0-0_0
  6
CONTINUOUS
 62
    7
 10
-2.2947235000000319
 20
770.05413799999997
 11
-2.3215334999999868
 21
770.06173699999999
  0
LINE
  8
_0-0_0
  6
CONTINUOUS
 62
    7
 10
-2.3215334999999868
 20
770.06173699999999
 11
-2.3471835000000283
 21
770.07312000000002
  0
LINE
  8
_0-0_0
  6
CONTINUOUS
 62
    7
 10
-2.3471835000000283
 20
770.07312000000002
 11
-2.3709875000000693
 21
770.08798200000001
  0
LINE
  8
_0-0_0
  6
CONTINUOUS
 62
    7
 10
-2.3709875000000693
 20
770.08798200000001
 11
-2.387741500000061
 21
770.10150099999998
  0
LINE
  8
_0-0_0
  6
CONTINUOUS
 62
    7
 10
-2.387741500000061
 20
770.10150099999998
 11
-2.403244500000028
 21
770.11672999999996
  0
LINE
  8
_0-0_0
  6
CONTINUOUS
 62
    7
 10
-2.403244500000028
 20
770.11672999999996
 11
-2.4301454999999805
 21
770.15136699999994
  0
LINE
  8
_0-0_0
  6
CONTINUOUS
 62
    7
 10
-2.4301454999999805
 20
770.15136699999994
 11
-2.45118750000006
 21
770.18969700000002
  0
LINE
  8
_0-0_0
  6
CONTINUOUS
 62
    7
 10
-2.45118750000006
 20
770.18969700000002
 11
-2.4631805000000213
 21
770.21963499999993
  0
LINE
  8
_0-0_0
  6
CONTINUOUS
 62
    7
 10
-2.4631805000000213
 20
770.21963499999993
 11
-2.4722135000000662
 21
770.25
  0
LINE
  8
_0-0_0
  6
CONTINUOUS
 62
    7
 10
-2.5610205000000406
 20
770.75
 11
-9.5722195000000738
 21
770.75
  0
LINE
  8
_0-0_0
  6
CONTINUOUS
 62
    7
 10
-9.5722195000000738
 20
770.75
 11
-14.247665500000039
 21
770.75
  0
LINE
  8
_0-0_0
  6
CONTINUOUS
 62
    7
 10
-9.5722195000000738
 20
770.75
 11
-9.5722195000000738
 21
768.75
  0
LINE
  8
_0-0_0
  6
CONTINUOUS
 62
    7
 10
2.4277804999999262
 20
768.75
 11
2.4277804999999262
 21
769.80355800000007
  0
ARC
  8
_0-0_0
  6
CONTINUOUS
 62
    7
 10
101.42778049999993
 20
771.94998199999998
 40
0.5
 50
269.99999700000001
 51
0
  0
ARC
  8
_0-0_0
  6
CONTINUOUS
 62
    7
 10
88.927780499999926
 20
772.75
 40
0.5
 50
90.000003000000007
 51
179.99999099999999
  0
LINE
  8
_0-0_0
  6
CONTINUOUS
 62
    7
 10
88.427780499999926
 20
771.94998199999998
 11
88.427780499999926
 21
772.75
  0
LINE
  8
_0-0_0
  6
CONTINUOUS
 62
    7
 10
8.6277764999999818
 20
748.13284299999998
 11
8.6277764999999818
 21
746.14999399999999
  0
LINE
  8
_0-0_0
  6
CONTINUOUS
 62
    7
 10
8.6277764999999818
 20
746.14999399999999
 11
9.6277764999999818
 21
746.14999399999999
  0
LINE
  8
_0-0_0
  6
CONTINUOUS
 62
    7
 10
9.9277804999999262
 20
748.14999399999999
 11
76.927780499999926
 21
748.14999399999999
  0
LINE
  8
_0-0_0
  6
CONTINUOUS
 62
    7
 10
9.6277764999999818
 20
746.14999399999999
 11
77.227783499999987
 21
746.14999399999999
  0
LINE
  8
_0-0_0
  6
CONTINUOUS
 62
    7
 10
77.227783499999987
 20
746.14999399999999
 11
78.227783499999987
 21
746.14999399999999
  0
LINE
  8
_0-0_0
  6
CONTINUOUS
 62
    7
 10
78.227783499999987
 20
748.13284299999998
 11
78.227783499999987
 21
746.14999399999999
  0
LINE
  8
_0-0_0
  6
CONTINUOUS
 62
    7
 10
88.427780499999926
 20
746.25
 11
87.927780499999926
 21
745.75
  0
ARC
  8
_0-0_0
  6
CONTINUOUS
 62
    7
 10
88.627776499999982
 20
746.44998199999998
 40
0.2
 50
90.000003000000007
 51
179.99999099999999
  0
ARC
  8
_0-0_0
  6
CONTINUOUS
 62
    7
 10
92.927780499999926
 20
747.14999399999999
 40
0.5
 50
269.99999700000001
 51
0
  0
LINE
  8
_0-0_0
  6
CONTINUOUS
 62
    7
 10
93.109527500000013
 20
749.84997599999997
 11
93.129882500000008
 21
749.84896900000001
  0
LINE
  8
_0-0_0
  6
CONTINUOUS
 62
    7
 10
93.129882500000008
 20
749.84896900000001
 11
93.1502835
 21
749.84582499999999
  0
LINE
  8
_0-0_0
  6
CONTINUOUS
 62
    7
 10
93.1502835
 20
749.84582499999999
 11
93.177108499999918
 21
749.83822600000008
  0
LINE
  8
_0-0_0
  6
CONTINUOUS
 62
    7
 10
93.177108499999918
 20
749.83822600000008
 11
93.202743499999997
 21
749.82687399999998
  0
LINE
  8
_0-0_0
  6
CONTINUOUS
 62
    7
 10
93.202743499999997
 20
749.82687399999998
 11
93.226547499999924
 21
749.81198100000006
  0
LINE
  8
_0-0_0
  6
CONTINUOUS
 62
    7
 10
93.226547499999924
 20
749.81198100000006
 11
93.243301499999916
 21
749.79846199999997
  0
LINE
  8
_0-0_0
  6
CONTINUOUS
 62
    7
 10
93.243301499999916
 20
749.79846199999997
 11
93.258804499999997
 21
749.78326399999992
  0
LINE
  8
_0-0_0
  6
CONTINUOUS
 62
    7
 10
93.258804499999997
 20
749.78326399999992
 11
93.285705499999949
 21
749.74859600000002
  0
LINE
  8
_0-0_0
  6
CONTINUOUS
 62
    7
 10
93.285705499999949
 20
749.74859600000002
 11
93.306747499999915
 21
749.71026600000005
  0
LINE
  8
_0-0_0
  6
CONTINUOUS
 62
    7
 10
93.306747499999915
 20
749.71026600000005
 11
93.31874049999999
 21
749.68035899999995
  0
LINE
  8
_0-0_0
  6
CONTINUOUS
 62
    7
 10
93.31874049999999
 20
749.68035899999995
 11
93.327789499999994
 21
749.64999399999999
  0
LINE
  8
_0-0_0
  6
CONTINUOUS
 62
    7
 10
93.109527500000013
 20
749.84997599999997
 11
92.927780499999926
 21
749.84997599999997
  0
LINE
  8
_0-0_0
  6
CONTINUOUS
 62
    7
 10
88.427780499999926
 20
768.29998799999998
 11
88.427780499999926
 21
770.79998799999998
  0
LINE
  8
_0-0_0
  6
CONTINUOUS
 62
    7
 10
88.427780499999926
 20
768.29998799999998
 11
88.427780499999926
 21
751.79998799999998
  0
LINE
  8
_0-0_0
  6
CONTINUOUS
 62
    7
 10
88.427780499999926
 20
750.33367900000007
 11
88.427780499999926
 21
751.79998799999998
  0
ARC
  8
_0-0_0
  6
CONTINUOUS
 62
    7
 10
87.927780499999926
 20
769.50500499999998
 40
0.5
 50
0
 51
123.74898500000002
  0
ARC
  8
_0-0_0
  6
CONTINUOUS
 62
    7
 10
88.598068499999954
 20
750.02328499999999
 40
0.1734229999999999
 50
181.12417600000003
 51
270.64883800000007
  0
LINE
  8
_0-0_0
  6
CONTINUOUS
 62
    7
 10
88.423736499999904
 20
750.04998799999998
 11
88.423827500000016
 21
750.01986699999998
  0
ARC
  8
_0-0_0
  6
CONTINUOUS
 62
    7
 10
83.727783499999987
 20
772.75
 40
0.5
 50
0
 51
90.000003000000007
  0
ARC
  8
_0-0_0
  6
CONTINUOUS
 62
    7
 10
7.4277804999999262
 20
771.75
 40
2.7000000000000002
 50
285.68033600000007
 51
0.0000000000000381
  0
ARC
  8
_0-0_0
  6
CONTINUOUS
 62
    7
 10
24.427780499999926
 20
755.94998199999998
 40
3
 50
269.99999700000001
 51
0
  0
LINE
  8
_0-0_0
  6
CONTINUOUS
 62
    7
 10
27.427780499999926
 20
755.94998199999998
 11
27.427780499999926
 21
769.54998799999998
  0
ARC
  8
_0-0_0
  6
CONTINUOUS
 62
    7
 10
24.427780499999926
 20
769.54998799999998
 40
3
 50
0
 51
90.000003000000007
  0
ARC
  8
_0-0_0
  6
CONTINUOUS
 62
    7
 10
19.927780499999926
 20
765.25
 40
4.5
 50
269.99999700000001
 51
90.000002999999992
  0
LINE
  8
_0-0_0
  6
CONTINUOUS
 62
    7
 10
19.927780499999926
 20
760.75
 11
14.927780499999926
 21
760.75
  0
ARC
  8
_0-0_0
  6
CONTINUOUS
 62
    7
 10
14.927780499999926
 20
765.25
 40
4.5
 50
90.000003000000007
 51
269.99999700000006
  0
LINE
  8
_0-0_0
  6
CONTINUOUS
 62
    7
 10
14.927780499999926
 20
769.75
 11
19.927780499999926
 21
769.75
  0
ARC
  8
_0-0_0
  6
CONTINUOUS
 62
    7
 10
66.427780499999926
 20
755.94998199999998
 40
3
 50
179.99999099999999
 51
269.99999700000001
  0
LINE
  8
_0-0_0
  6
CONTINUOUS
 62
    7
 10
63.427780499999926
 20
769.54998799999998
 11
63.427780499999926
 21
755.94998199999998
  0
ARC
  8
_0-0_0
  6
CONTINUOUS
 62
    7
 10
66.427780499999926
 20
769.54998799999998
 40
3
 50
90.000003000000007
 51
179.99999099999999
  0
ARC
  8
_0-0_0
  6
CONTINUOUS
 62
    7
 10
75.927780499999926
 20
765.25
 40
4.5
 50
269.99999700000001
 51
90.000002999999992
  0
LINE
  8
_0-0_0
  6
CONTINUOUS
 62
    7
 10
75.927780499999926
 20
760.75
 11
70.927780499999926
 21
760.75
  0
ARC
  8
_0-0_0
  6
CONTINUOUS
 62
    7
 10
70.927780499999926
 20
765.25
 40
4.5
 50
90.000003000000007
 51
269.99999700000006
  0
LINE
  8
_0-0_0
  6
CONTINUOUS
 62
    7
 10
70.927780499999926
 20
769.75
 11
75.927780499999926
 21
769.75
  0
LINE
  8
_0-0_0
  6
CONTINUOUS
 62
    7
 10
-2.0722195000000738
 20
770.04998799999998
 11
-2.2539675000000443
 21
770.04998799999998
  0
LINE
  8
_0-0_0
  6
CONTINUOUS
 62
    7
 10
2.4277804999999262
 20
768.75
 11
2.4277804999999262
 21
751.14999399999999
  0
LINE
  8
_0-0_0
  6
CONTINUOUS
 62
    7
 10
2.4277804999999262
 20
750.096405
 11
2.4277804999999262
 21
751.14999399999999
  0
ARC
  8
_0-0_0
  6
CONTINUOUS
 62
    7
 10
2.2574915000000146
 20
750.02328499999999
 40
0.1734209999999999
 50
269.35085600000002
 51
358.87625300000002
  0
LINE
  8
_0-0_0
  6
CONTINUOUS
 62
    7
 10
2.4318234999999504
 20
750.04998799999998
 11
2.4317474999999149
 21
750.01986699999998
  0
LINE
  8
_0-0_0
  6
CONTINUOUS
 62
    7
 10
2.4318234999999504
 20
769.84997599999997
 11
2.4317474999999149
 21
769.88012700000002
  0
ARC
  8
_0-0_0
  6
CONTINUOUS
 62
    7
 10
2.2574915000000146
 20
769.87670900000001
 40
0.1734219999999999
 50
1.1236539999999999
 51
90.649110000000007
  0
LINE
  8
_0-0_0
  6
CONTINUOUS
 62
    7
 10
-2.0722195000000738
 20
749.84997599999997
 11
-2.2539675000000443
 21
749.84997599999997
  0
LINE
  8
_0-0_0
  6
CONTINUOUS
 62
    7
 10
-2.2539675000000443
 20
749.84997599999997
 11
-2.2743075000000772
 21
749.84896900000001
  0
LINE
  8
_0-0_0
  6
CONTINUOUS
 62
    7
 10
-2.2743075000000772
 20
749.84896900000001
 11
-2.2947235000000319
 21
749.84582499999999
  0
LINE
  8
_0-0_0
  6
CONTINUOUS
 62
    7
 10
-2.2947235000000319
 20
749.84582499999999
 11
-2.3215334999999868
 21
749.83822600000008
  0
LINE
  8
_0-0_0
  6
CONTINUOUS
 62
    7
 10
-2.3215334999999868
 20
749.83822600000008
 11
-2.3471835000000283
 21
749.82687399999998
  0
LINE
  8
_0-0_0
  6
CONTINUOUS
 62
    7
 10
-2.3471835000000283
 20
749.82687399999998
 11
-2.3709875000000693
 21
749.81198100000006
  0
LINE
  8
_0-0_0
  6
CONTINUOUS
 62
    7
 10
-2.3709875000000693
 20
749.81198100000006
 11
-2.387741500000061
 21
749.79846199999997
  0
LINE
  8
_0-0_0
  6
CONTINUOUS
 62
    7
 10
-2.387741500000061
 20
749.79846199999997
 11
-2.403244500000028
 21
749.78326399999992
  0
LINE
  8
_0-0_0
  6
CONTINUOUS
 62
    7
 10
-2.403244500000028
 20
749.78326399999992
 11
-2.4301454999999805
 21
749.74859600000002
  0
LINE
  8
_0-0_0
  6
CONTINUOUS
 62
    7
 10
-2.4301454999999805
 20
749.74859600000002
 11
-2.45118750000006
 21
749.71026600000005
  0
LINE
  8
_0-0_0
  6
CONTINUOUS
 62
    7
 10
-2.45118750000006
 20
749.71026600000005
 11
-2.4631805000000213
 21
749.68035899999995
  0
LINE
  8
_0-0_0
  6
CONTINUOUS
 62
    7
 10
-2.4631805000000213
 20
749.68035899999995
 11
-2.4722135000000662
 21
749.64999399999999
  0
ARC
  8
_0-0_0
  6
CONTINUOUS
 62
    7
 10
-2.0722195000000738
 20
747.14999399999999
 40
0.5
 50
179.99999099999999
 51
269.99999700000001
  0
ARC
  8
_0-0_0
  6
CONTINUOUS
 62
    7
 10
2.2277834999999868
 20
746.44998199999998
 40
0.2
 50
0
 51
90.000003000000007
  0
LINE
  8
_0-0_0
  6
CONTINUOUS
 62
    7
 10
2.4277804999999262
 20
746.25
 11
2.9277804999999262
 21
745.75
  0
ARC
  8
_0-0_0
  6
CONTINUOUS
 62
    7
 10
-14.247665500000039
 20
768.75
 40
2
 50
90.000003000000007
 51
108.434997
  0
LINE
  8
_0-0_0
  6
CONTINUOUS
 62
    7
 10
-9.5722195000000738
 20
768.25
 11
-9.5722195000000738
 21
768.75
  0
LINE
  8
_0-0_0
  6
CONTINUOUS
 62
    7
 10
-9.5722195000000738
 20
765.25
 11
-9.5722195000000738
 21
764.75
  0
LINE
  8
_0-0_0
  6
CONTINUOUS
 62
    7
 10
-9.5722195000000738
 20
765.25
 11
-9.5722195000000738
 21
768.25
  0
ARC
  8
_0-0_0
  6
CONTINUOUS
 62
    7
 10
-3.572204499999998
 20
765.44998199999998
 40
0.500016
 50
0.001164
 51
179.99560600000004
  0
LINE
  8
_0-0_0
  6
CONTINUOUS
 62
    7
 10
-4.0722195000000738
 20
765.44998199999998
 11
-4.0722195000000738
 21
753.44998199999998
  0
ARC
  8
_0-0_0
  6
CONTINUOUS
 62
    7
 10
-3.572204499999998
 20
753.45001200000002
 40
0.500016
 50
180.00117
 51
359.995611
  0
LINE
  8
_0-0_0
  6
CONTINUOUS
 62
    7
 10
-3.0722195000000738
 20
765.44998199999998
 11
-3.0722195000000738
 21
753.44998199999998
  0
ARC
  8
_0-0_0
  6
CONTINUOUS
 62
    7
 10
-5.072204499999998
 20
765.44998199999998
 40
0.500016
 50
0.001164
 51
179.99560600000004
  0
LINE
  8
_0-0_0
  6
CONTINUOUS
 62
    7
 10
-5.5722195000000738
 20
765.44998199999998
 11
-5.5722195000000738
 21
753.44998199999998
  0
ARC
  8
_0-0_0
  6
CONTINUOUS
 62
    7
 10
-5.072204499999998
 20
753.45001200000002
 40
0.500016
 50
180.00117
 51
359.995611
  0
LINE
  8
_0-0_0
  6
CONTINUOUS
 62
    7
 10
-4.5722195000000738
 20
765.44998199999998
 11
-4.5722195000000738
 21
753.44998199999998
  0
ARC
  8
_0-0_0
  6
CONTINUOUS
 62
    7
 10
-6.572204499999998
 20
765.44998199999998
 40
0.500016
 50
0.001164
 51
179.99560600000004
  0
LINE
  8
_0-0_0
  6
CONTINUOUS
 62
    7
 10
-7.0722195000000738
 20
765.44998199999998
 11
-7.0722195000000738
 21
753.44998199999998
  0
ARC
  8
_0-0_0
  6
CONTINUOUS
 62
    7
 10
-6.572204499999998
 20
753.45001200000002
 40
0.500016
 50
180.00117
 51
359.995611
  0
LINE
  8
_0-0_0
  6
CONTINUOUS
 62
    7
 10
-6.0722195000000738
 20
765.44998199999998
 11
-6.0722195000000738
 21
753.44998199999998
  0
ARC
  8
_0-0_0
  6
CONTINUOUS
 62
    7
 10
-8.072204499999998
 20
765.44998199999998
 40
0.500016
 50
0.001164
 51
179.99560600000004
  0
LINE
  8
_0-0_0
  6
CONTINUOUS
 62
    7
 10
-8.5722195000000738
 20
765.44998199999998
 11
-8.5722195000000738
 21
753.44998199999998
  0
ARC
  8
_0-0_0
  6
CONTINUOUS
 62
    7
 10
-8.072204499999998
 20
753.45001200000002
 40
0.500016
 50
180.00117
 51
359.995611
  0
LINE
  8
_0-0_0
  6
CONTINUOUS
 62
    7
 10
-7.5722195000000738
 20
765.44998199999998
 11
-7.5722195000000738
 21
753.44998199999998
  0
LINE
  8
_0-0_0
  6
CONTINUOUS
 62
    7
 10
88.427780499999926
 20
771.44998199999998
 11
88.927780499999926
 21
771.44998199999998
  0
LINE
  8
_0-0_0
  6
CONTINUOUS
 62
    7
 10
88.927780499999926
 20
771.44998199999998
 11
101.42778049999993
 21
771.44998199999998
  0
ARC
  8
_0-0_0
  6
CONTINUOUS
 62
    7
 10
88.927780499999926
 20
771.94998199999998
 40
0.5
 50
179.99999099999999
 51
269.99999700000001
  0
LINE
  8
_0-0_0
  6
CONTINUOUS
 62
    7
 10
88.427780499999926
 20
771.08395399999995
 11
88.427780499999926
 21
771.44998199999998
  0
LINE
  8
_0-0_0
  6
CONTINUOUS
 62
    7
 10
88.427780499999926
 20
770.83346600000004
 11
88.427780499999926
 21
770.79998799999998
  0
LINE
  8
_0-0_0
  6
CONTINUOUS
 62
    7
 10
88.427780499999926
 20
771.08395399999995
 11
88.427780499999926
 21
770.83346600000004
  0
CIRCLE
  8
_0-0_0
  6
CONTINUOUS
 62
    7
 10
7.4277804999999262
 20
771.75
 40
1.4750000000000001
  0
CIRCLE
  8
_0-0_0
  6
CONTINUOUS
 62
    7
 10
86.427780499999926
 20
771.75
 40
1.4750000000000001
  0
LINE
  8
_0-0_0
  6
CONTINUOUS
 62
    7
 10
88.427780499999926
 20
746.09997599999997
 11
88.427780499999926
 21
746.25
  0
LINE
  8
_0-0_0
  6
CONTINUOUS
 62
    7
 10
93.927780499999926
 20
746.09997599999997
 11
88.427780499999926
 21
746.09997599999997
  0
LINE
  8
_0-0_0
  6
CONTINUOUS
 62
    7
 10
93.927780499999926
 20
748.64999399999999
 11
93.427780499999926
 21
748.64999399999999
  0
LINE
  8
_0-0_0
  6
CONTINUOUS
 62
    7
 10
88.927780499999926
 20
771.29998799999998
 11
88.427780499999926
 21
770.79998799999998
  0
LINE
  8
_0-0_0
  6
CONTINUOUS
 62
    7
 10
88.927780499999926
 20
771.29998799999998
 11
93.927780499999926
 21
771.29998799999998
  0
LINE
  8
_0-0_0
  6
CONTINUOUS
 62
    7
 10
-2.5610205000000406
 20
749.14999399999999
 11
-14.247665500000039
 21
749.14999399999999
  0
LINE
  8
_0-0_0
  6
CONTINUOUS
 62
    7
 10
-15.322219500000074
 20
770.49996899999996
 11
-14.880127500000071
 21
770.64733899999999
  0
LINE
  8
_0-0_0
  6
CONTINUOUS
 62
    7
 10
-19.046569500000032
 20
765.25
 11
-19.739929500000017
 21
765.25
  0
LINE
  8
_0-0_0
  6
CONTINUOUS
 62
    7
 10
-19.046569500000032
 20
765.25
 11
-14.722000500000036
 21
765.25
  0
LINE
  8
_0-0_0
  6
CONTINUOUS
 62
    7
 10
-14.247665500000039
 20
765.25
 11
-14.722000500000036
 21
765.25
  0
LINE
  8
_0-0_0
  6
CONTINUOUS
 62
    7
 10
-9.5722195000000738
 20
765.25
 11
-14.247665500000039
 21
765.25
  0
LINE
  8
_0-0_0
  6
CONTINUOUS
 62
    7
 10
88.427780499999926
 20
745.95355199999995
 11
88.427780499999926
 21
746.09997599999997
  0
LINE
  8
_0-0_0
  6
CONTINUOUS
 62
    7
 10
88.427780499999926
 20
745.89642300000003
 11
88.427780499999926
 21
745.95355199999995
  0
LINE
  8
_0-0_0
  6
CONTINUOUS
 62
    7
 10
88.427780499999926
 20
745.75
 11
88.427780499999926
 21
745.89642300000003
  0
ARC
  8
_0-0_0
  6
CONTINUOUS
 62
    7
 10
93.927780499999926
 20
746.59997599999997
 40
0.5
 50
269.99999700000001
 51
0
  0
LINE
  8
_0-0_0
  6
CONTINUOUS
 62
    7
 10
94.427780499999926
 20
748.15570100000002
 11
94.427780499999926
 21
746.59997599999997
  0
ARC
  8
_0-0_0
  6
CONTINUOUS
 62
    7
 10
93.940872499999955
 20
748.15234400000008
 40
0.4869939999999999
 50
0.394923
 51
23.93947
  0
ARC
  8
_0-0_0
  6
CONTINUOUS
 62
    7
 10
93.927780499999926
 20
748.14999399999999
 40
0.5
 50
23.578231000000002
 51
90.000002999999992
  0
LINE
  8
_0-0_0
  6
CONTINUOUS
 62
    7
 10
94.427780499999926
 20
768.29998799999998
 11
94.427780499999926
 21
770.79998799999998
  0
ARC
  8
_0-0_0
  6
CONTINUOUS
 62
    7
 10
93.927780499999926
 20
770.79998799999998
 40
0.5
 50
0
 51
90.000003000000007
  0
LINE
  8
_0-0_0
  6
CONTINUOUS
 62
    7
 10
93.927780499999926
 20
755
 11
91.727783499999987
 21
755
  0
LINE
  8
_0-0_0
  6
CONTINUOUS
 62
    7
 10
94.427780499999926
 20
768.29998799999998
 11
94.427780499999926
 21
755.5
  0
LINE
  8
_0-0_0
  6
CONTINUOUS
 62
    7
 10
91.427780499999926
 20
754.69998199999998
 11
91.427780499999926
 21
752.12167399999998
  0
LINE
  8
_0-0_0
  6
CONTINUOUS
 62
    7
 10
21.399322499999926
 20
761.14999399999999
 11
13.456237499999929
 21
761.14999399999999
  0
ARC
  8
_0-0_0
  6
CONTINUOUS
 62
    7
 10
13.456237499999929
 20
761.64999399999999
 40
0.5
 50
210.00000299999999
 51
269.99999700000001
  0
LINE
  8
_0-0_0
  6
CONTINUOUS
 62
    7
 10
13.023223499999972
 20
761.39999399999999
 11
10.944763499999908
 21
765
  0
ARC
  8
_0-0_0
  6
CONTINUOUS
 62
    7
 10
11.377776499999982
 20
765.25
 40
0.5
 50
149.99999700000001
 51
210.00000299999996
  0
LINE
  8
_0-0_0
  6
CONTINUOUS
 62
    7
 10
10.944763499999908
 20
765.5
 11
13.023223499999972
 21
769.09997599999997
  0
ARC
  8
_0-0_0
  6
CONTINUOUS
 62
    7
 10
13.456237499999929
 20
768.84997599999997
 40
0.5
 50
90.000003000000007
 51
149.99999700000001
  0
LINE
  8
_0-0_0
  6
CONTINUOUS
 62
    7
 10
13.456237499999929
 20
769.34997599999997
 11
21.399322499999926
 21
769.34997599999997
  0
ARC
  8
_0-0_0
  6
CONTINUOUS
 62
    7
 10
21.399322499999926
 20
768.84997599999997
 40
0.5
 50
30.000001000000001
 51
90.000003000000007
  0
LINE
  8
_0-0_0
  6
CONTINUOUS
 62
    7
 10
21.832336499999997
 20
769.09997599999997
 11
23.910796499999947
 21
765.5
  0
ARC
  8
_0-0_0
  6
CONTINUOUS
 62
    7
 10
23.477783499999987
 20
765.25
 40
0.5
 50
329.99998900000003
 51
30.000000999999983
  0
LINE
  8
_0-0_0
  6
CONTINUOUS
 62
    7
 10
23.910796499999947
 20
765
 11
21.832336499999997
 21
761.39999399999999
  0
ARC
  8
_0-0_0
  6
CONTINUOUS
 62
    7
 10
21.399322499999926
 20
761.64999399999999
 40
0.5
 50
269.99999700000001
 51
329.99998900000003
  0
ARC
  8
_0-0_0
  6
CONTINUOUS
 62
    7
 10
69.398513499999922
 20
761.75
 40
0.5
 50
210.00000299999999
 51
269.99999700000001
  0
LINE
  8
_0-0_0
  6
CONTINUOUS
 62
    7
 10
68.965499499999964
 20
761.5
 11
66.944778499999984
 21
765
  0
ARC
  8
_0-0_0
  6
CONTINUOUS
 62
    7
 10
67.377776499999982
 20
765.25
 40
0.5
 50
149.99999700000001
 51
210.00000299999996
  0
LINE
  8
_0-0_0
  6
CONTINUOUS
 62
    7
 10
66.944778499999984
 20
765.5
 11
68.965499499999964
 21
769
  0
ARC
  8
_0-0_0
  6
CONTINUOUS
 62
    7
 10
69.398513499999922
 20
768.75
 40
0.5
 50
90.000003000000007
 51
149.99999700000001
  0
LINE
  8
_0-0_0
  6
CONTINUOUS
 62
    7
 10
69.398513499999922
 20
769.25
 11
77.457061500000009
 21
769.25
  0
ARC
  8
_0-0_0
  6
CONTINUOUS
 62
    7
 10
77.457061500000009
 20
768.75
 40
0.5
 50
30.000001000000001
 51
90.000003000000007
  0
LINE
  8
_0-0_0
  6
CONTINUOUS
 62
    7
 10
77.890075499999966
 20
769
 11
79.910796499999947
 21
765.5
  0
ARC
  8
_0-0_0
  6
CONTINUOUS
 62
    7
 10
79.477783499999987
 20
765.25
 40
0.5
 50
329.99998900000003
 51
30.000000999999983
  0
LINE
  8
_0-0_0
  6
CONTINUOUS
 62
    7
 10
79.910796499999947
 20
765
 11
77.890075499999966
 21
761.5
  0
ARC
  8
_0-0_0
  6
CONTINUOUS
 62
    7
 10
77.457061500000009
 20
761.75
 40
0.5
 50
269.99999700000001
 51
329.99998900000003
  0
LINE
  8
_0-0_0
  6
CONTINUOUS
 62
    7
 10
77.457061500000009
 20
761.25
 11
69.398513499999922
 21
761.25
  0
LINE
  8
_0-0_0
  6
CONTINUOUS
 62
    7
 10
-14.880127500000071
 20
749.25262500000008
 11
-14.760635500000035
 21
749.21701000000007
  0
LINE
  8
_0-0_0
  6
CONTINUOUS
 62
    7
 10
-14.760635500000035
 20
749.21701000000007
 11
-14.639068500000008
 21
749.18911700000001
  0
LINE
  8
_0-0_0
  6
CONTINUOUS
 62
    7
 10
-14.639068500000008
 20
749.18911700000001
 11
-14.515945500000043
 21
749.16906700000004
  0
LINE
  8
_0-0_0
  6
CONTINUOUS
 62
    7
 10
-14.515945500000043
 20
749.16906700000004
 11
-14.391723500000012
 21
749.15695200000005
  0
LINE
  8
_0-0_0
  6
CONTINUOUS
 62
    7
 10
-14.391723500000012
 20
749.15695200000005
 11
-14.266891500000042
 21
749.15283199999999
  0
LINE
  8
_0-0_0
  6
CONTINUOUS
 62
    7
 10
-14.266891500000042
 20
749.15283199999999
 11
-14.247665500000039
 21
749.15289299999995
  0
ARC
  8
_0-0_0
  6
CONTINUOUS
 62
    7
 10
-14.247665500000039
 20
751.14999399999999
 40
2
 50
251.56498899999997
 51
269.99999700000001
  0
LINE
  8
_0-0_0
  6
CONTINUOUS
 62
    7
 10
-20.572219500000074
 20
766.00003100000004
 11
-20.572219500000074
 21
764.87899800000002
  0
LINE
  8
_0-0_0
  6
CONTINUOUS
 62
    7
 10
7.6277764999999818
 20
770.64999399999999
 11
7.2277834999999868
 21
770.64999399999999
  0
LINE
  8
_0-0_0
  6
CONTINUOUS
 62
    7
 10
7.6277764999999818
 20
770.64999399999999
 11
7.6277764999999818
 21
771.29998799999998
  0
ARC
  8
_0-0_0
  6
CONTINUOUS
 62
    7
 10
7.8777764999999818
 20
771.29998799999998
 40
0.25
 50
90.000003000000007
 51
179.99999099999999
  0
LINE
  8
_0-0_0
  6
CONTINUOUS
 62
    7
 10
7.8777764999999818
 20
771.54998799999998
 11
8.5277864999999338
 21
771.54998799999998
  0
LINE
  8
_0-0_0
  6
CONTINUOUS
 62
    7
 10
8.5277864999999338
 20
771.54998799999998
 11
8.5277864999999338
 21
771.94998199999998
  0
LINE
  8
_0-0_0
  6
CONTINUOUS
 62
    7
 10
7.8777764999999818
 20
771.94998199999998
 11
8.5277864999999338
 21
771.94998199999998
  0
ARC
  8
_0-0_0
  6
CONTINUOUS
 62
    7
 10
7.8777764999999818
 20
772.19998199999998
 40
0.25
 50
179.99999099999999
 51
269.99999700000001
  0
LINE
  8
_0-0_0
  6
CONTINUOUS
 62
    7
 10
7.6277764999999818
 20
772.84997599999997
 11
7.6277764999999818
 21
772.19998199999998
  0
LINE
  8
_0-0_0
  6
CONTINUOUS
 62
    7
 10
7.6277764999999818
 20
772.84997599999997
 11
7.2277834999999868
 21
772.84997599999997
  0
LINE
  8
_0-0_0
  6
CONTINUOUS
 62
    7
 10
7.2277834999999868
 20
772.84997599999997
 11
7.2277834999999868
 21
772.19998199999998
  0
ARC
  8
_0-0_0
  6
CONTINUOUS
 62
    7
 10
6.9777834999999868
 20
772.19998199999998
 40
0.25
 50
269.99999700000001
 51
0
  0
LINE
  8
_0-0_0
  6
CONTINUOUS
 62
    7
 10
6.9777834999999868
 20
771.94998199999998
 11
6.3277734999999211
 21
771.94998199999998
  0
LINE
  8
_0-0_0
  6
CONTINUOUS
 62
    7
 10
6.3277734999999211
 20
771.54998799999998
 11
6.3277734999999211
 21
771.94998199999998
  0
LINE
  8
_0-0_0
  6
CONTINUOUS
 62
    7
 10
6.9777834999999868
 20
771.54998799999998
 11
6.3277734999999211
 21
771.54998799999998
  0
ARC
  8
_0-0_0
  6
CONTINUOUS
 62
    7
 10
6.9777834999999868
 20
771.29998799999998
 40
0.25
 50
0
 51
90.000003000000007
  0
LINE
  8
_0-0_0
  6
CONTINUOUS
 62
    7
 10
7.2277834999999868
 20
770.64999399999999
 11
7.2277834999999868
 21
771.29998799999998
  0
LINE
  8
_0-0_0
  6
CONTINUOUS
 62
    7
 10
86.627776499999982
 20
770.64999399999999
 11
86.227783499999987
 21
770.64999399999999
  0
LINE
  8
_0-0_0
  6
CONTINUOUS
 62
    7
 10
86.627776499999982
 20
770.64999399999999
 11
86.627776499999982
 21
771.29998799999998
  0
ARC
  8
_0-0_0
  6
CONTINUOUS
 62
    7
 10
86.877776499999982
 20
771.29998799999998
 40
0.25
 50
90.000003000000007
 51
179.99999099999999
  0
LINE
  8
_0-0_0
  6
CONTINUOUS
 62
    7
 10
86.877776499999982
 20
771.54998799999998
 11
87.527786499999934
 21
771.54998799999998
  0
LINE
  8
_0-0_0
  6
CONTINUOUS
 62
    7
 10
87.527786499999934
 20
771.54998799999998
 11
87.527786499999934
 21
771.94998199999998
  0
LINE
  8
_0-0_0
  6
CONTINUOUS
 62
    7
 10
86.877776499999982
 20
771.94998199999998
 11
87.527786499999934
 21
771.94998199999998
  0
ARC
  8
_0-0_0
  6
CONTINUOUS
 62
    7
 10
86.877776499999982
 20
772.19998199999998
 40
0.25
 50
179.99999099999999
 51
269.99999700000001
  0
LINE
  8
_0-0_0
  6
CONTINUOUS
 62
    7
 10
86.627776499999982
 20
772.84997599999997
 11
86.627776499999982
 21
772.19998199999998
  0
LINE
  8
_0-0_0
  6
CONTINUOUS
 62
    7
 10
86.627776499999982
 20
772.84997599999997
 11
86.227783499999987
 21
772.84997599999997
  0
LINE
  8
_0-0_0
  6
CONTINUOUS
 62
    7
 10
86.227783499999987
 20
772.84997599999997
 11
86.227783499999987
 21
772.19998199999998
  0
ARC
  8
_0-0_0
  6
CONTINUOUS
 62
    7
 10
85.977783499999987
 20
772.19998199999998
 40
0.25
 50
269.99999700000001
 51
0
  0
LINE
  8
_0-0_0
  6
CONTINUOUS
 62
    7
 10
85.977783499999987
 20
771.94998199999998
 11
85.327789499999994
 21
771.94998199999998
  0
LINE
  8
_0-0_0
  6
CONTINUOUS
 62
    7
 10
85.327789499999994
 20
771.54998799999998
 11
85.327789499999994
 21
771.94998199999998
  0
LINE
  8
_0-0_0
  6
CONTINUOUS
 62
    7
 10
85.977783499999987
 20
771.54998799999998
 11
85.327789499999994
 21
771.54998799999998
  0
ARC
  8
_0-0_0
  6
CONTINUOUS
 62
    7
 10
85.977783499999987
 20
771.29998799999998
 40
0.25
 50
0
 51
90.000003000000007
  0
LINE
  8
_0-0_0
  6
CONTINUOUS
 62
    7
 10
86.227783499999987
 20
770.64999399999999
 11
86.227783499999987
 21
771.29998799999998
  0
LINE
  8
_0-0_0
  6
CONTINUOUS
 62
    7
 10
93.927780499999926
 20
745.75
 11
88.427780499999926
 21
745.75
  0
LINE
  8
_0-0_0
  6
CONTINUOUS
 62
    7
 10
94.427780499999926
 20
752
 11
94.427780499999926
 21
755.5
  0
LINE
  8
_0-0_0
  6
CONTINUOUS
 62
    7
 10
94.427780499999926
 20
752
 11
94.427780499999926
 21
751.64999399999999
  0
LINE
  8
_0-0_0
  6
CONTINUOUS
 62
    7
 10
94.427780499999926
 20
748.15570100000002
 11
94.427780499999926
 21
751.64999399999999
  0
LINE
  8
_0-0_0
  6
CONTINUOUS
 62
    7
 10
94.427780499999926
 20
746.307098
 11
94.427780499999926
 21
746.59997599999997
  0
LINE
  8
_0-0_0
  6
CONTINUOUS
 62
    7
 10
94.427780499999926
 20
746.307098
 11
94.427780499999926
 21
746.25
  0
LINE
  8
_0-0_0
  6
CONTINUOUS
 62
    7
 10
91.427780499999926
 20
750.57128899999998
 11
91.427780499999926
 21
752.12167399999998
  0
LINE
  8
_0-0_0
  6
CONTINUOUS
 62
    7
 10
91.427780499999926
 20
749.85012800000004
 11
91.427780499999926
 21
750.57128899999998
  0
ARC
  8
_0-0_0
  6
CONTINUOUS
 62
    7
 10
93.927780499999926
 20
755.5
 40
0.5
 50
269.99999700000001
 51
0
  0
ARC
  8
_0-0_0
  6
CONTINUOUS
 62
    7
 10
91.727783499999987
 20
754.69998199999998
 40
0.2999999999999999
 50
90.000003000000007
 51
179.99999099999999
  0
LINE
  8
_0-0_0
  6
CONTINUOUS
 62
    7
 10
-19.204681500000106
 20
750.69415299999991
 11
-14.880127500000071
 21
749.25262500000008
  0
LINE
  8
_0-0_0
  6
CONTINUOUS
 62
    7
 10
-20.572219500000074
 20
752.59149200000002
 11
-20.572219500000074
 21
755.94229100000007
  0
LINE
  8
_0-0_0
  6
CONTINUOUS
 62
    7
 10
-20.572219500000074
 20
763.957672
 11
-20.572219500000074
 21
764.87899800000002
  0
ARC
  8
_0-0_0
  6
CONTINUOUS
 62
    7
 10
-18.572219500000074
 20
752.59149200000002
 40
2
 50
179.99999099999999
 51
251.56498899999997
  0
LINE
  8
_0-0_0
  6
CONTINUOUS
 62
    7
 10
-35.572219500000074
 20
769.47543300000007
 11
-35.572219500000074
 21
769.32870500000001
  0
LINE
  8
_0-0_0
  6
CONTINUOUS
 62
    7
 10
-35.572219500000074
 20
769.66595499999994
 11
-35.572219500000074
 21
769.47543300000007
  0
LINE
  8
_0-0_0
  6
CONTINUOUS
 62
    7
 10
-35.572219500000074
 20
769.84097300000008
 11
-35.572219500000074
 21
769.66595499999994
  0
LINE
  8
_0-0_0
  6
CONTINUOUS
 62
    7
 10
-35.572219500000074
 20
769.99856599999998
 11
-35.572219500000074
 21
769.84097300000008
  0
LINE
  8
_0-0_0
  6
CONTINUOUS
 62
    7
 10
-35.572219500000074
 20
770.13699300000007
 11
-35.572219500000074
 21
769.99856599999998
  0
LINE
  8
_0-0_0
  6
CONTINUOUS
 62
    7
 10
-35.572219500000074
 20
770.25476099999992
 11
-35.572219500000074
 21
770.13699300000007
  0
LINE
  8
_0-0_0
  6
CONTINUOUS
 62
    7
 10
-35.572219500000074
 20
770.35052500000006
 11
-35.572219500000074
 21
770.25476099999992
  0
LINE
  8
_0-0_0
  6
CONTINUOUS
 62
    7
 10
-35.572219500000074
 20
770.42330900000002
 11
-35.572219500000074
 21
770.35052500000006
  0
LINE
  8
_0-0_0
  6
CONTINUOUS
 62
    7
 10
-35.572219500000074
 20
770.47228999999993
 11
-35.572219500000074
 21
770.42330900000002
  0
LINE
  8
_0-0_0
  6
CONTINUOUS
 62
    7
 10
-35.572219500000074
 20
770.5
 11
-35.572219500000074
 21
770.47228999999993
  0
LINE
  8
_0-0_0
  6
CONTINUOUS
 62
    7
 10
-35.572219500000074
 20
770.5
 11
-35.572219500000074
 21
770.49688700000002
  0
LINE
  8
_0-0_0
  6
CONTINUOUS
 62
    7
 10
-35.572219500000074
 20
766.00305200000003
 11
-35.572219500000074
 21
766
  0
LINE
  8
_0-0_0
  6
CONTINUOUS
 62
    7
 10
-35.572219500000074
 20
766.02767900000003
 11
-35.572219500000074
 21
766.00305200000003
  0
LINE
  8
_0-0_0
  6
CONTINUOUS
 62
    7
 10
-35.572219500000074
 20
766.07665999999995
 11
-35.572219500000074
 21
766
  0
LINE
  8
_0-0_0
  6
CONTINUOUS
 62
    7
 10
-35.572219500000074
 20
766.14941399999998
 11
-35.572219500000074
 21
766.07665999999995
  0
LINE
  8
_0-0_0
  6
CONTINUOUS
 62
    7
 10
-35.572219500000074
 20
766.24520899999993
 11
-35.572219500000074
 21
766.14941399999998
  0
LINE
  8
_0-0_0
  6
CONTINUOUS
 62
    7
 10
-35.572219500000074
 20
766.27542100000005
 11
-35.572219500000074
 21
766.24520899999993
  0
LINE
  8
_0-0_0
  6
CONTINUOUS
 62
    7
 10
-35.572219500000074
 20
766.362976
 11
-35.572219500000074
 21
766.27542100000005
  0
LINE
  8
_0-0_0
  6
CONTINUOUS
 62
    7
 10
-35.572219500000074
 20
766.50140399999998
 11
-35.572219500000074
 21
766.362976
  0
LINE
  8
_0-0_0
  6
CONTINUOUS
 62
    7
 10
-35.572219500000074
 20
766.658997
 11
-35.572219500000074
 21
766.50140399999998
  0
LINE
  8
_0-0_0
  6
CONTINUOUS
 62
    7
 10
-35.572219500000074
 20
766.83401500000002
 11
-35.572219500000074
 21
766.658997
  0
LINE
  8
_0-0_0
  6
CONTINUOUS
 62
    7
 10
-35.572219500000074
 20
767.02453600000001
 11
-35.572219500000074
 21
766.83401500000002
  0
LINE
  8
_0-0_0
  6
CONTINUOUS
 62
    7
 10
-35.572219500000074
 20
767.22851600000001
 11
-35.572219500000074
 21
767.02453600000001
  0
LINE
  8
_0-0_0
  6
CONTINUOUS
 62
    7
 10
-35.572219500000074
 20
767.44366500000001
 11
-35.572219500000074
 21
767.22851600000001
  0
LINE
  8
_0-0_0
  6
CONTINUOUS
 62
    7
 10
-35.572219500000074
 20
767.66763300000002
 11
-35.572219500000074
 21
767.44366500000001
  0
LINE
  8
_0-0_0
  6
CONTINUOUS
 62
    7
 10
-35.572219500000074
 20
767.89801
 11
-35.572219500000074
 21
767.66763300000002
  0
LINE
  8
_0-0_0
  6
CONTINUOUS
 62
    7
 10
-35.572219500000074
 20
768.13223300000004
 11
-35.572219500000074
 21
767.89801
  0
LINE
  8
_0-0_0
  6
CONTINUOUS
 62
    7
 10
-35.572219500000074
 20
768.36773700000003
 11
-35.572219500000074
 21
768.13223300000004
  0
LINE
  8
_0-0_0
  6
CONTINUOUS
 62
    7
 10
-35.572219500000074
 20
768.60195900000008
 11
-35.572219500000074
 21
768.36773700000003
  0
LINE
  8
_0-0_0
  6
CONTINUOUS
 62
    7
 10
-35.572219500000074
 20
768.83233599999994
 11
-35.572219500000074
 21
768.60195900000008
  0
LINE
  8
_0-0_0
  6
CONTINUOUS
 62
    7
 10
-35.572219500000074
 20
769.05630500000007
 11
-35.572219500000074
 21
768.83233599999994
  0
LINE
  8
_0-0_0
  6
CONTINUOUS
 62
    7
 10
-35.572219500000074
 20
769.27145399999995
 11
-35.572219500000074
 21
769.05630500000007
  0
LINE
  8
_0-0_0
  6
CONTINUOUS
 62
    7
 10
-35.572219500000074
 20
769.32870500000001
 11
-35.572219500000074
 21
769.27145399999995
  0
LINE
  8
_0-0_0
  6
CONTINUOUS
 62
    7
 10
-20.272216500000013
 20
762.16198699999995
 11
-20.33100950000005
 21
762.40881300000001
  0
LINE
  8
_0-0_0
  6
CONTINUOUS
 62
    7
 10
-20.33100950000005
 20
762.40881300000001
 11
-20.380783500000007
 21
762.601135
  0
LINE
  8
_0-0_0
  6
CONTINUOUS
 62
    7
 10
-20.380783500000007
 20
762.601135
 11
-20.451919500000031
 21
762.86694299999999
  0
LINE
  8
_0-0_0
  6
CONTINUOUS
 62
    7
 10
-20.451919500000031
 20
762.86694299999999
 11
-20.484878500000036
 21
762.993652
  0
LINE
  8
_0-0_0
  6
CONTINUOUS
 62
    7
 10
-20.484878500000036
 20
762.993652
 11
-20.510131500000057
 21
763.09707600000002
  0
LINE
  8
_0-0_0
  6
CONTINUOUS
 62
    7
 10
-20.510131500000057
 20
763.09707600000002
 11
-20.532165500000019
 21
763.19702099999995
  0
LINE
  8
_0-0_0
  6
CONTINUOUS
 62
    7
 10
-20.532165500000019
 20
763.19702099999995
 11
-20.553543500000046
 21
763.31472800000006
  0
LINE
  8
_0-0_0
  6
CONTINUOUS
 62
    7
 10
-20.553543500000046
 20
763.31472800000006
 11
-20.562118499999997
 21
763.37686200000007
  0
LINE
  8
_0-0_0
  6
CONTINUOUS
 62
    7
 10
-20.562118499999997
 20
763.37686200000007
 11
-20.568191500000012
 21
763.43746899999996
  0
LINE
  8
_0-0_0
  6
CONTINUOUS
 62
    7
 10
-20.568191500000012
 20
763.43746899999996
 11
-20.571197500000039
 21
763.48669399999994
  0
LINE
  8
_0-0_0
  6
CONTINUOUS
 62
    7
 10
-20.571197500000039
 20
763.48669399999994
 11
-20.572219500000074
 21
763.53491200000008
  0
LINE
  8
_0-0_0
  6
CONTINUOUS
 62
    7
 10
-20.272216500000013
 20
757.737976
 11
-20.18875150000008
 21
758.11663799999997
  0
LINE
  8
_0-0_0
  6
CONTINUOUS
 62
    7
 10
-20.18875150000008
 20
758.11663799999997
 11
-20.14866649999999
 21
758.30816700000003
  0
LINE
  8
_0-0_0
  6
CONTINUOUS
 62
    7
 10
-20.14866649999999
 20
758.30816700000003
 11
-20.092590500000028
 21
758.598206
  0
LINE
  8
_0-0_0
  6
CONTINUOUS
 62
    7
 10
-20.092590500000028
 20
758.598206
 11
-20.054992500000026
 21
758.81778000000008
  0
LINE
  8
_0-0_0
  6
CONTINUOUS
 62
    7
 10
-20.054992500000026
 20
758.81778000000008
 11
-20.022338500000046
 21
759.03903200000002
  0
LINE
  8
_0-0_0
  6
CONTINUOUS
 62
    7
 10
-20.022338500000046
 20
759.03903200000002
 11
-19.995178500000065
 21
759.26583900000003
  0
LINE
  8
_0-0_0
  6
CONTINUOUS
 62
    7
 10
-19.995178500000065
 20
759.26583900000003
 11
-19.97511350000002
 21
759.49322499999994
  0
LINE
  8
_0-0_0
  6
CONTINUOUS
 62
    7
 10
-19.97511350000002
 20
759.49322499999994
 11
-19.967956500000014
 21
759.60696400000006
  0
LINE
  8
_0-0_0
  6
CONTINUOUS
 62
    7
 10
-19.967956500000014
 20
759.60696400000006
 11
-19.962799500000074
 21
759.720642
  0
LINE
  8
_0-0_0
  6
CONTINUOUS
 62
    7
 10
-19.962799500000074
 20
759.720642
 11
-19.959076500000037
 21
759.87207000000001
  0
LINE
  8
_0-0_0
  6
CONTINUOUS
 62
    7
 10
-19.959076500000037
 20
759.87207000000001
 11
-19.95903050000004
 21
760.02331500000003
  0
LINE
  8
_0-0_0
  6
CONTINUOUS
 62
    7
 10
-19.95903050000004
 20
760.02331500000003
 11
-19.962600500000008
 21
760.17437700000005
  0
LINE
  8
_0-0_0
  6
CONTINUOUS
 62
    7
 10
-19.962600500000008
 20
760.17437700000005
 11
-19.972107499999993
 21
760.36291499999993
  0
LINE
  8
_0-0_0
  6
CONTINUOUS
 62
    7
 10
-19.972107499999993
 20
760.36291499999993
 11
-19.986969499999987
 21
760.55117799999994
  0
LINE
  8
_0-0_0
  6
CONTINUOUS
 62
    7
 10
-19.986969499999987
 20
760.55117799999994
 11
-20.006897500000036
 21
760.739105
  0
LINE
  8
_0-0_0
  6
CONTINUOUS
 62
    7
 10
-20.006897500000036
 20
760.739105
 11
-20.023285500000043
 21
760.86798099999999
  0
LINE
  8
_0-0_0
  6
CONTINUOUS
 62
    7
 10
-20.023285500000043
 20
760.86798099999999
 11
-20.041702500000042
 21
760.99664299999995
  0
LINE
  8
_0-0_0
  6
CONTINUOUS
 62
    7
 10
-20.041702500000042
 20
760.99664299999995
 11
-20.065857499999993
 21
761.14855999999997
  0
LINE
  8
_0-0_0
  6
CONTINUOUS
 62
    7
 10
-20.065857499999993
 20
761.14855999999997
 11
-20.092254500000081
 21
761.29992700000003
  0
LINE
  8
_0-0_0
  6
CONTINUOUS
 62
    7
 10
-20.092254500000081
 20
761.29992700000003
 11
-20.148422500000038
 21
761.59054600000002
  0
LINE
  8
_0-0_0
  6
CONTINUOUS
 62
    7
 10
-20.148422500000038
 20
761.59054600000002
 11
-20.18858350000005
 21
761.78250100000002
  0
LINE
  8
_0-0_0
  6
CONTINUOUS
 62
    7
 10
-20.18858350000005
 20
761.78250100000002
 11
-20.272216500000013
 21
762.16198699999995
  0
LINE
  8
_0-0_0
  6
CONTINUOUS
 62
    7
 10
-20.272216500000013
 20
757.737976
 11
-20.331024500000012
 21
757.49111900000003
  0
LINE
  8
_0-0_0
  6
CONTINUOUS
 62
    7
 10
-20.331024500000012
 20
757.49111900000003
 11
-20.380783500000007
 21
757.29879800000003
  0
LINE
  8
_0-0_0
  6
CONTINUOUS
 62
    7
 10
-20.380783500000007
 20
757.29879800000003
 11
-20.451904500000069
 21
757.033051
  0
LINE
  8
_0-0_0
  6
CONTINUOUS
 62
    7
 10
-20.451904500000069
 20
757.033051
 11
-20.484863500000074
 21
756.906342
  0
LINE
  8
_0-0_0
  6
CONTINUOUS
 62
    7
 10
-20.484863500000074
 20
756.906342
 11
-20.510131500000057
 21
756.80291699999998
  0
LINE
  8
_0-0_0
  6
CONTINUOUS
 62
    7
 10
-20.510131500000057
 20
756.80291699999998
 11
-20.532165500000019
 21
756.70294200000001
  0
LINE
  8
_0-0_0
  6
CONTINUOUS
 62
    7
 10
-20.532165500000019
 20
756.70294200000001
 11
-20.553543500000046
 21
756.58523600000001
  0
LINE
  8
_0-0_0
  6
CONTINUOUS
 62
    7
 10
-20.553543500000046
 20
756.58523600000001
 11
-20.562118499999997
 21
756.52310199999999
  0
LINE
  8
_0-0_0
  6
CONTINUOUS
 62
    7
 10
-20.562118499999997
 20
756.52310199999999
 11
-20.568191500000012
 21
756.46249399999999
  0
LINE
  8
_0-0_0
  6
CONTINUOUS
 62
    7
 10
-20.568191500000012
 20
756.46249399999999
 11
-20.571197500000039
 21
756.41326900000001
  0
LINE
  8
_0-0_0
  6
CONTINUOUS
 62
    7
 10
-20.571197500000039
 20
756.41326900000001
 11
-20.572219500000074
 21
756.36505099999999
  0
ARC
  8
_0-0_0
  6
CONTINUOUS
 62
    7
 10
93.927780499999926
 20
746.25
 40
0.5
 50
269.99999700000001
 51
0
  0
LINE
  8
_0-0_0
  6
CONTINUOUS
 62
    7
 10
93.883453499999973
 20
750.57128899999998
 11
93.883453499999973
 21
753.89999399999999
  0
LINE
  8
_0-0_0
  6
CONTINUOUS
 62
    7
 10
93.883453499999973
 20
749.39999399999999
 11
93.883453499999973
 21
750.57128899999998
  0
CIRCLE
  8
_0-0_0
  6
CONTINUOUS
 62
    7
 10
17.427780499999926
 20
765.25
 40
2.5
  0
CIRCLE
  8
_0-0_0
  6
CONTINUOUS
 62
    7
 10
73.427780499999926
 20
765.25
 40
2.5
  0
LINE
  8
_0-0_0
  6
CONTINUOUS
 62
    7
 10
-20.572219500000074
 20
756.05767800000001
 11
-30.280044500000031
 21
756.05767800000001
  0
LINE
  8
_0-0_0
  6
CONTINUOUS
 62
    7
 10
-30.280044500000031
 20
753.44998199999998
 11
-30.33453350000002
 21
753.51992799999994
  0
LINE
  8
_0-0_0
  6
CONTINUOUS
 62
    7
 10
-30.33453350000002
 20
753.51992799999994
 11
-30.385620500000073
 21
753.58874500000002
  0
LINE
  8
_0-0_0
  6
CONTINUOUS
 62
    7
 10
-30.385620500000073
 20
753.58874500000002
 11
-30.433258500000079
 21
753.65625
  0
LINE
  8
_0-0_0
  6
CONTINUOUS
 62
    7
 10
-30.433258500000079
 20
753.65625
 11
-30.477768500000025
 21
753.72280899999998
  0
LINE
  8
_0-0_0
  6
CONTINUOUS
 62
    7
 10
-30.477768500000025
 20
753.72280899999998
 11
-30.532486500000005
 21
753.81033300000001
  0
LINE
  8
_0-0_0
  6
CONTINUOUS
 62
    7
 10
-30.532486500000005
 20
753.81033300000001
 11
-30.582000500000049
 21
753.89645399999995
  0
LINE
  8
_0-0_0
  6
CONTINUOUS
 62
    7
 10
-30.582000500000049
 20
753.89645399999995
 11
-30.626464500000111
 21
753.98126200000002
  0
LINE
  8
_0-0_0
  6
CONTINUOUS
 62
    7
 10
-30.626464500000111
 20
753.98126200000002
 11
-30.673431500000106
 21
754.08160399999997
  0
LINE
  8
_0-0_0
  6
CONTINUOUS
 62
    7
 10
-30.673431500000106
 20
754.08160399999997
 11
-30.713638500000002
 21
754.18051100000002
  0
LINE
  8
_0-0_0
  6
CONTINUOUS
 62
    7
 10
-30.713638500000002
 20
754.18051100000002
 11
-30.747299500000054
 21
754.27825899999993
  0
LINE
  8
_0-0_0
  6
CONTINUOUS
 62
    7
 10
-30.747299500000054
 20
754.27825899999993
 11
-30.774597500000027
 21
754.375092
  0
LINE
  8
_0-0_0
  6
CONTINUOUS
 62
    7
 10
-30.774597500000027
 20
754.375092
 11
-30.795639500000107
 21
754.47113000000002
  0
LINE
  8
_0-0_0
  6
CONTINUOUS
 62
    7
 10
-30.795639500000107
 20
754.47113000000002
 11
-30.811569500000019
 21
754.57498199999998
  0
LINE
  8
_0-0_0
  6
CONTINUOUS
 62
    7
 10
-30.811569500000019
 20
754.57498199999998
 11
-30.8203125
 21
754.678406
  0
LINE
  8
_0-0_0
  6
CONTINUOUS
 62
    7
 10
-30.8203125
 20
754.678406
 11
-30.821960500000046
 21
754.78164700000002
  0
LINE
  8
_0-0_0
  6
CONTINUOUS
 62
    7
 10
-30.821960500000046
 20
754.78164700000002
 11
-30.816497500000082
 21
754.88494900000001
  0
LINE
  8
_0-0_0
  6
CONTINUOUS
 62
    7
 10
-30.816497500000082
 20
754.88494900000001
 11
-30.803894500000069
 21
754.98852499999998
  0
LINE
  8
_0-0_0
  6
CONTINUOUS
 62
    7
 10
-30.803894500000069
 20
754.98852499999998
 11
-30.784057500000017
 21
755.09268199999997
  0
LINE
  8
_0-0_0
  6
CONTINUOUS
 62
    7
 10
-30.784057500000017
 20
755.09268199999997
 11
-30.756927500000074
 21
755.197632
  0
LINE
  8
_0-0_0
  6
CONTINUOUS
 62
    7
 10
-30.756927500000074
 20
755.197632
 11
-30.722274500000026
 21
755.30367999999999
  0
LINE
  8
_0-0_0
  6
CONTINUOUS
 62
    7
 10
-30.722274500000026
 20
755.30367999999999
 11
-30.679931500000066
 21
755.41104100000007
  0
LINE
  8
_0-0_0
  6
CONTINUOUS
 62
    7
 10
-30.679931500000066
 20
755.41104100000007
 11
-30.629608500000018
 21
755.52005000000008
  0
LINE
  8
_0-0_0
  6
CONTINUOUS
 62
    7
 10
-30.629608500000018
 20
755.52005000000008
 11
-30.575363500000094
 21
755.623199
  0
LINE
  8
_0-0_0
  6
CONTINUOUS
 62
    7
 10
-30.575363500000094
 20
755.623199
 11
-30.513656500000025
 21
755.72824100000003
  0
LINE
  8
_0-0_0
  6
CONTINUOUS
 62
    7
 10
-30.513656500000025
 20
755.72824100000003
 11
-30.444137500000011
 21
755.83547999999996
  0
LINE
  8
_0-0_0
  6
CONTINUOUS
 62
    7
 10
-30.444137500000011
 20
755.83547999999996
 11
-30.366424499999994
 21
755.94519000000003
  0
LINE
  8
_0-0_0
  6
CONTINUOUS
 62
    7
 10
-30.366424499999994
 20
755.94519000000003
 11
-30.280044500000031
 21
756.05767800000001
  0
LINE
  8
_0-0_0
  6
CONTINUOUS
 62
    7
 10
-20.572219500000074
 20
753.44998199999998
 11
-30.280044500000031
 21
753.44998199999998
  0
LINE
  8
_0-0_0
  6
CONTINUOUS
 62
    7
 10
-20.572219500000074
 20
755.94229100000007
 11
-20.572219500000074
 21
756.05767800000001
  0
LINE
  8
_0-0_0
  6
CONTINUOUS
 62
    7
 10
-30.322219500000074
 20
753.44998199999998
 11
-30.280044500000031
 21
753.44998199999998
  0
LINE
  8
_0-0_0
  6
CONTINUOUS
 62
    7
 10
-20.572219500000074
 20
763.84228499999995
 11
-30.280044500000031
 21
763.84228499999995
  0
LINE
  8
_0-0_0
  6
CONTINUOUS
 62
    7
 10
-20.572219500000074
 20
763.957672
 11
-20.572219500000074
 21
763.84228499999995
  0
LINE
  8
_0-0_0
  6
CONTINUOUS
 62
    7
 10
-30.280044500000031
 20
763.84228499999995
 11
-30.33453350000002
 21
763.91223100000002
  0
LINE
  8
_0-0_0
  6
CONTINUOUS
 62
    7
 10
-30.33453350000002
 20
763.91223100000002
 11
-30.385620500000073
 21
763.98104899999998
  0
LINE
  8
_0-0_0
  6
CONTINUOUS
 62
    7
 10
-30.385620500000073
 20
763.98104899999998
 11
-30.433258500000079
 21
764.04855300000008
  0
LINE
  8
_0-0_0
  6
CONTINUOUS
 62
    7
 10
-30.433258500000079
 20
764.04855300000008
 11
-30.477768500000025
 21
764.11511199999995
  0
LINE
  8
_0-0_0
  6
CONTINUOUS
 62
    7
 10
-30.477768500000025
 20
764.11511199999995
 11
-30.532486500000005
 21
764.20263699999998
  0
LINE
  8
_0-0_0
  6
CONTINUOUS
 62
    7
 10
-30.532486500000005
 20
764.20263699999998
 11
-30.582000500000049
 21
764.28875700000003
  0
LINE
  8
_0-0_0
  6
CONTINUOUS
 62
    7
 10
-30.582000500000049
 20
764.28875700000003
 11
-30.626464500000111
 21
764.37359600000002
  0
LINE
  8
_0-0_0
  6
CONTINUOUS
 62
    7
 10
-30.626464500000111
 20
764.37359600000002
 11
-30.673431500000106
 21
764.47390700000005
  0
LINE
  8
_0-0_0
  6
CONTINUOUS
 62
    7
 10
-30.673431500000106
 20
764.47390700000005
 11
-30.713638500000002
 21
764.57281499999999
  0
LINE
  8
_0-0_0
  6
CONTINUOUS
 62
    7
 10
-30.713638500000002
 20
764.57281499999999
 11
-30.747299500000054
 21
764.67059300000005
  0
LINE
  8
_0-0_0
  6
CONTINUOUS
 62
    7
 10
-30.747299500000054
 20
764.67059300000005
 11
-30.774597500000027
 21
764.76739500000008
  0
LINE
  8
_0-0_0
  6
CONTINUOUS
 62
    7
 10
-30.774597500000027
 20
764.76739500000008
 11
-30.795639500000107
 21
764.86343399999998
  0
LINE
  8
_0-0_0
  6
CONTINUOUS
 62
    7
 10
-30.795639500000107
 20
764.86343399999998
 11
-30.811569500000019
 21
764.96728499999995
  0
LINE
  8
_0-0_0
  6
CONTINUOUS
 62
    7
 10
-30.811569500000019
 20
764.96728499999995
 11
-30.8203125
 21
765.07070900000008
  0
LINE
  8
_0-0_0
  6
CONTINUOUS
 62
    7
 10
-30.8203125
 20
765.07070900000008
 11
-30.821960500000046
 21
765.17394999999999
  0
LINE
  8
_0-0_0
  6
CONTINUOUS
 62
    7
 10
-30.821960500000046
 20
765.17394999999999
 11
-30.816497500000082
 21
765.27725199999998
  0
LINE
  8
_0-0_0
  6
CONTINUOUS
 62
    7
 10
-30.816497500000082
 20
765.27725199999998
 11
-30.803894500000069
 21
765.38082899999995
  0
LINE
  8
_0-0_0
  6
CONTINUOUS
 62
    7
 10
-30.803894500000069
 20
765.38082899999995
 11
-30.784057500000017
 21
765.48498500000005
  0
LINE
  8
_0-0_0
  6
CONTINUOUS
 62
    7
 10
-30.784057500000017
 20
765.48498500000005
 11
-30.756927500000074
 21
765.58993499999997
  0
LINE
  8
_0-0_0
  6
CONTINUOUS
 62
    7
 10
-30.756927500000074
 20
765.58993499999997
 11
-30.722274500000026
 21
765.69598399999995
  0
LINE
  8
_0-0_0
  6
CONTINUOUS
 62
    7
 10
-30.722274500000026
 20
765.69598399999995
 11
-30.679931500000066
 21
765.80334500000004
  0
LINE
  8
_0-0_0
  6
CONTINUOUS
 62
    7
 10
-30.679931500000066
 20
765.80334500000004
 11
-30.629608500000018
 21
765.91235400000005
  0
LINE
  8
_0-0_0
  6
CONTINUOUS
 62
    7
 10
-30.629608500000018
 20
765.91235400000005
 11
-30.583923500000083
 21
766
  0
LINE
  8
_0-0_0
  6
CONTINUOUS
 62
    7
 10
-35.572219500000074
 20
769.47543300000007
 11
-35.822219500000074
 21
769.5
  0
LINE
  8
_0-0_0
  6
CONTINUOUS
 62
    7
 10
-35.572219500000074
 20
769.27145399999995
 11
-35.822219500000074
 21
769.5
  0
LINE
  8
_0-0_0
  6
CONTINUOUS
 62
    7
 10
-35.572219500000074
 20
769.66595499999994
 11
-35.822219500000074
 21
769.71945200000005
  0
LINE
  8
_0-0_0
  6
CONTINUOUS
 62
    7
 10
-35.572219500000074
 20
769.47543300000007
 11
-35.822219500000074
 21
769.71945200000005
  0
LINE
  8
_0-0_0
  6
CONTINUOUS
 62
    7
 10
-35.572219500000074
 20
769.84097300000008
 11
-35.822219500000074
 21
769.922821
  0
LINE
  8
_0-0_0
  6
CONTINUOUS
 62
    7
 10
-35.572219500000074
 20
769.66595499999994
 11
-35.822219500000074
 21
769.922821
  0
LINE
  8
_0-0_0
  6
CONTINUOUS
 62
    7
 10
-35.572219500000074
 20
769.99856599999998
 11
-35.822219500000074
 21
770.10784899999999
  0
LINE
  8
_0-0_0
  6
CONTINUOUS
 62
    7
 10
-35.572219500000074
 20
769.84097300000008
 11
-35.822219500000074
 21
770.10784899999999
  0
LINE
  8
_0-0_0
  6
CONTINUOUS
 62
    7
 10
-35.572219500000074
 20
770.13699300000007
 11
-35.822219500000074
 21
770.27252199999998
  0
LINE
  8
_0-0_0
  6
CONTINUOUS
 62
    7
 10
-35.572219500000074
 20
769.99856599999998
 11
-35.822219500000074
 21
770.27252199999998
  0
LINE
  8
_0-0_0
  6
CONTINUOUS
 62
    7
 10
-35.572219500000074
 20
770.25476099999992
 11
-35.822219500000074
 21
770.41503899999998
  0
LINE
  8
_0-0_0
  6
CONTINUOUS
 62
    7
 10
-35.572219500000074
 20
770.13699300000007
 11
-35.822219500000074
 21
770.41503899999998
  0
LINE
  8
_0-0_0
  6
CONTINUOUS
 62
    7
 10
-35.572219500000074
 20
770.35052500000006
 11
-35.822219500000074
 21
770.53384400000004
  0
LINE
  8
_0-0_0
  6
CONTINUOUS
 62
    7
 10
-35.572219500000074
 20
770.25476099999992
 11
-35.822219500000074
 21
770.53384400000004
  0
LINE
  8
_0-0_0
  6
CONTINUOUS
 62
    7
 10
-35.572219500000074
 20
770.42330900000002
 11
-35.822219500000074
 21
770.62762500000008
  0
LINE
  8
_0-0_0
  6
CONTINUOUS
 62
    7
 10
-35.572219500000074
 20
770.35052500000006
 11
-35.822219500000074
 21
770.62762500000008
  0
LINE
  8
_0-0_0
  6
CONTINUOUS
 62
    7
 10
-35.572219500000074
 20
770.47228999999993
 11
-35.822219500000074
 21
770.69534299999998
  0
LINE
  8
_0-0_0
  6
CONTINUOUS
 62
    7
 10
-35.572219500000074
 20
770.42330900000002
 11
-35.822219500000074
 21
770.69534299999998
  0
LINE
  8
_0-0_0
  6
CONTINUOUS
 62
    7
 10
-35.572219500000074
 20
770.49688700000002
 11
-35.822219500000074
 21
770.73629800000003
  0
LINE
  8
_0-0_0
  6
CONTINUOUS
 62
    7
 10
-35.572219500000074
 20
770.47228999999993
 11
-35.822219500000074
 21
770.73629800000003
  0
LINE
  8
_0-0_0
  6
CONTINUOUS
 62
    7
 10
-35.572219500000074
 20
770.49688700000002
 11
-35.822219500000074
 21
770.75
  0
LINE
  8
_0-0_0
  6
CONTINUOUS
 62
    7
 10
-35.572219500000074
 20
766.00305200000003
 11
-35.822219500000074
 21
765.75
  0
LINE
  8
_0-0_0
  6
CONTINUOUS
 62
    7
 10
-35.572219500000074
 20
766.02767900000003
 11
-35.822219500000074
 21
765.76367200000004
  0
LINE
  8
_0-0_0
  6
CONTINUOUS
 62
    7
 10
-35.572219500000074
 20
766.00305200000003
 11
-35.822219500000074
 21
765.76367200000004
  0
LINE
  8
_0-0_0
  6
CONTINUOUS
 62
    7
 10
-35.572219500000074
 20
766.07665999999995
 11
-35.822219500000074
 21
765.80462599999998
  0
LINE
  8
_0-0_0
  6
CONTINUOUS
 62
    7
 10
-35.572219500000074
 20
766.02767900000003
 11
-35.822219500000074
 21
765.80462599999998
  0
LINE
  8
_0-0_0
  6
CONTINUOUS
 62
    7
 10
-35.572219500000074
 20
766.14941399999998
 11
-35.822219500000074
 21
765.872345
  0
LINE
  8
_0-0_0
  6
CONTINUOUS
 62
    7
 10
-35.572219500000074
 20
766.07665999999995
 11
-35.822219500000074
 21
765.872345
  0
LINE
  8
_0-0_0
  6
CONTINUOUS
 62
    7
 10
-35.572219500000074
 20
766.24520899999993
 11
-35.822219500000074
 21
765.96612499999992
  0
LINE
  8
_0-0_0
  6
CONTINUOUS
 62
    7
 10
-35.572219500000074
 20
766.14941399999998
 11
-35.822219500000074
 21
765.96612499999992
  0
LINE
  8
_0-0_0
  6
CONTINUOUS
 62
    7
 10
-35.572219500000074
 20
766.24520899999993
 11
-35.702179500000057
 21
766.16137700000002
  0
LINE
  8
_0-0_0
  6
CONTINUOUS
 62
    7
 10
-35.572219500000074
 20
766.362976
 11
-35.822219500000074
 21
766.08492999999999
  0
LINE
  8
_0-0_0
  6
CONTINUOUS
 62
    7
 10
-35.702179500000057
 20
766.16137700000002
 11
-35.822219500000074
 21
766.08492999999999
  0
LINE
  8
_0-0_0
  6
CONTINUOUS
 62
    7
 10
-35.572219500000074
 20
766.50140399999998
 11
-35.822219500000074
 21
766.22744799999998
  0
LINE
  8
_0-0_0
  6
CONTINUOUS
 62
    7
 10
-35.572219500000074
 20
766.362976
 11
-35.822219500000074
 21
766.22744799999998
  0
LINE
  8
_0-0_0
  6
CONTINUOUS
 62
    7
 10
-35.572219500000074
 20
766.658997
 11
-35.822219500000074
 21
766.39211999999998
  0
LINE
  8
_0-0_0
  6
CONTINUOUS
 62
    7
 10
-35.572219500000074
 20
766.50140399999998
 11
-35.822219500000074
 21
766.39211999999998
  0
LINE
  8
_0-0_0
  6
CONTINUOUS
 62
    7
 10
-35.572219500000074
 20
766.83401500000002
 11
-35.822219500000074
 21
766.57714800000008
  0
LINE
  8
_0-0_0
  6
CONTINUOUS
 62
    7
 10
-35.572219500000074
 20
766.658997
 11
-35.822219500000074
 21
766.57714800000008
  0
LINE
  8
_0-0_0
  6
CONTINUOUS
 62
    7
 10
-35.572219500000074
 20
767.02453600000001
 11
-35.822219500000074
 21
766.78051800000003
  0
LINE
  8
_0-0_0
  6
CONTINUOUS
 62
    7
 10
-35.572219500000074
 20
766.83401500000002
 11
-35.822219500000074
 21
766.78051800000003
  0
LINE
  8
_0-0_0
  6
CONTINUOUS
 62
    7
 10
-35.572219500000074
 20
767.22851600000001
 11
-35.822219500000074
 21
767
  0
LINE
  8
_0-0_0
  6
CONTINUOUS
 62
    7
 10
-35.572219500000074
 20
767.02453600000001
 11
-35.822219500000074
 21
767
  0
LINE
  8
_0-0_0
  6
CONTINUOUS
 62
    7
 10
-35.572219500000074
 20
767.44366500000001
 11
-35.822219500000074
 21
767.23315400000001
  0
LINE
  8
_0-0_0
  6
CONTINUOUS
 62
    7
 10
-35.572219500000074
 20
767.22851600000001
 11
-35.822219500000074
 21
767.23315400000001
  0
LINE
  8
_0-0_0
  6
CONTINUOUS
 62
    7
 10
-35.572219500000074
 20
767.66763300000002
 11
-35.822219500000074
 21
767.47744799999998
  0
LINE
  8
_0-0_0
  6
CONTINUOUS
 62
    7
 10
-35.572219500000074
 20
767.44366500000001
 11
-35.822219500000074
 21
767.47744799999998
  0
LINE
  8
_0-0_0
  6
CONTINUOUS
 62
    7
 10
-35.572219500000074
 20
767.89801
 11
-35.822219500000074
 21
767.73019399999998
  0
LINE
  8
_0-0_0
  6
CONTINUOUS
 62
    7
 10
-35.572219500000074
 20
767.66763300000002
 11
-35.822219500000074
 21
767.73019399999998
  0
LINE
  8
_0-0_0
  6
CONTINUOUS
 62
    7
 10
-35.572219500000074
 20
768.13223300000004
 11
-35.822219500000074
 21
767.98864700000001
  0
LINE
  8
_0-0_0
  6
CONTINUOUS
 62
    7
 10
-35.572219500000074
 20
767.89801
 11
-35.822219500000074
 21
767.98864700000001
  0
LINE
  8
_0-0_0
  6
CONTINUOUS
 62
    7
 10
-35.572219500000074
 20
768.36773700000003
 11
-35.822219500000074
 21
768.25
  0
LINE
  8
_0-0_0
  6
CONTINUOUS
 62
    7
 10
-35.572219500000074
 20
768.13223300000004
 11
-35.822219500000074
 21
768.25
  0
LINE
  8
_0-0_0
  6
CONTINUOUS
 62
    7
 10
-35.572219500000074
 20
768.60195900000008
 11
-35.822219500000074
 21
768.51129200000003
  0
LINE
  8
_0-0_0
  6
CONTINUOUS
 62
    7
 10
-35.572219500000074
 20
768.36773700000003
 11
-35.822219500000074
 21
768.51129200000003
  0
LINE
  8
_0-0_0
  6
CONTINUOUS
 62
    7
 10
-35.572219500000074
 20
768.83233599999994
 11
-35.822219500000074
 21
768.76977499999998
  0
LINE
  8
_0-0_0
  6
CONTINUOUS
 62
    7
 10
-35.572219500000074
 20
768.60195900000008
 11
-35.822219500000074
 21
768.76977499999998
  0
LINE
  8
_0-0_0
  6
CONTINUOUS
 62
    7
 10
-35.572219500000074
 20
769.05630500000007
 11
-35.822219500000074
 21
769.02252199999998
  0
LINE
  8
_0-0_0
  6
CONTINUOUS
 62
    7
 10
-35.572219500000074
 20
768.83233599999994
 11
-35.822219500000074
 21
769.02252199999998
  0
LINE
  8
_0-0_0
  6
CONTINUOUS
 62
    7
 10
-35.572219500000074
 20
769.27145399999995
 11
-35.822219500000074
 21
769.26681499999995
  0
LINE
  8
_0-0_0
  6
CONTINUOUS
 62
    7
 10
-35.572219500000074
 20
769.05630500000007
 11
-35.822219500000074
 21
769.26681499999995
  0
LINE
  8
_0-0_0
  6
CONTINUOUS
 62
    7
 10
-20.572219500000074
 20
761.512024
 11
-20.572219500000074
 21
762.55767800000001
  0
LINE
  8
_0-0_0
  6
CONTINUOUS
 62
    7
 10
-20.572219500000074
 20
763.84228499999995
 11
-20.572219500000074
 21
762.55767800000001
  0
LINE
  8
_0-0_0
  6
CONTINUOUS
 62
    7
 10
-20.572219500000074
 20
761.512024
 11
-20.572219500000074
 21
758.38793899999996
  0
LINE
  8
_0-0_0
  6
CONTINUOUS
 62
    7
 10
-20.572219500000074
 20
757.34228499999995
 11
-20.572219500000074
 21
756.05767800000001
  0
LINE
  8
_0-0_0
  6
CONTINUOUS
 62
    7
 10
-20.572219500000074
 20
757.34228499999995
 11
-20.572219500000074
 21
758.38793899999996
  0
LINE
  8
_0-0_0
  6
CONTINUOUS
 62
    7
 10
94.027786499999934
 20
750.69113199999993
 11
94.027786499999934
 21
753.64999399999999
  0
LINE
  8
_0-0_0
  6
CONTINUOUS
 62
    7
 10
94.027786499999934
 20
749.64999399999999
 11
94.027786499999934
 21
750.69113199999993
  0
LINE
  8
_0-0_0
  6
CONTINUOUS
 62
    7
 10
-20.572219500000074
 20
757.34228499999995
 11
-30.280044500000031
 21
757.34228499999995
  0
ARC
  8
_0-0_0
  6
CONTINUOUS
 62
    7
 10
-25.398315500000081
 20
756.69909699999994
 40
4.9238749999999998
 50
172.49424200000001
 51
181.535968
  0
ARC
  8
_0-0_0
  6
CONTINUOUS
 62
    7
 10
-25.360305500000095
 20
756.70404099999996
 40
4.9620009999999999
 50
181.58130700000004
 51
187.48478900000003
  0
LINE
  8
_0-0_0
  6
CONTINUOUS
 62
    7
 10
-31.572219500000074
 20
757.21844499999997
 11
-31.572219500000074
 21
754.69998199999998
  0
LINE
  8
_0-0_0
  6
CONTINUOUS
 62
    7
 10
-31.572219500000074
 20
765.19998199999998
 11
-31.572219500000074
 21
757.21844499999997
  0
LINE
  8
_0-0_0
  6
CONTINUOUS
 62
    7
 10
-30.280044500000031
 20
762.55767800000001
 11
-30.374389500000007
 21
762.31106599999998
  0
LINE
  8
_0-0_0
  6
CONTINUOUS
 62
    7
 10
-30.374389500000007
 20
762.31106599999998
 11
-30.458328500000107
 21
762.07110599999999
  0
LINE
  8
_0-0_0
  6
CONTINUOUS
 62
    7
 10
-30.458328500000107
 20
762.07110599999999
 11
-30.532486500000005
 21
761.83697499999994
  0
LINE
  8
_0-0_0
  6
CONTINUOUS
 62
    7
 10
-30.532486500000005
 20
761.83697499999994
 11
-30.597366500000021
 21
761.60794099999998
  0
LINE
  8
_0-0_0
  6
CONTINUOUS
 62
    7
 10
-30.597366500000021
 20
761.60794099999998
 11
-30.653411500000061
 21
761.38327000000004
  0
LINE
  8
_0-0_0
  6
CONTINUOUS
 62
    7
 10
-30.653411500000061
 20
761.38327000000004
 11
-30.700973500000032
 21
761.16229199999998
  0
LINE
  8
_0-0_0
  6
CONTINUOUS
 62
    7
 10
-30.700973500000032
 20
761.16229199999998
 11
-30.740387499999997
 21
760.94436599999995
  0
LINE
  8
_0-0_0
  6
CONTINUOUS
 62
    7
 10
-30.740387499999997
 20
760.94436599999995
 11
-30.771865500000104
 21
760.72891200000004
  0
LINE
  8
_0-0_0
  6
CONTINUOUS
 62
    7
 10
-30.771865500000104
 20
760.72891200000004
 11
-30.795639500000107
 21
760.51538099999993
  0
LINE
  8
_0-0_0
  6
CONTINUOUS
 62
    7
 10
-30.795639500000107
 20
760.51538099999993
 11
-30.811569500000019
 21
760.30767800000001
  0
LINE
  8
_0-0_0
  6
CONTINUOUS
 62
    7
 10
-30.811569500000019
 20
760.30767800000001
 11
-30.8203125
 21
760.10082999999997
  0
LINE
  8
_0-0_0
  6
CONTINUOUS
 62
    7
 10
-30.8203125
 20
760.10082999999997
 11
-30.821960500000046
 21
759.89434800000004
  0
LINE
  8
_0-0_0
  6
CONTINUOUS
 62
    7
 10
-30.821960500000046
 20
759.89434800000004
 11
-30.816497500000082
 21
759.68777499999999
  0
LINE
  8
_0-0_0
  6
CONTINUOUS
 62
    7
 10
-30.816497500000082
 20
759.68777499999999
 11
-30.803894500000069
 21
759.480591
  0
LINE
  8
_0-0_0
  6
CONTINUOUS
 62
    7
 10
-30.803894500000069
 20
759.480591
 11
-30.784057500000017
 21
759.27227799999991
  0
LINE
  8
_0-0_0
  6
CONTINUOUS
 62
    7
 10
-30.784057500000017
 20
759.27227799999991
 11
-30.756927500000074
 21
759.06237800000008
  0
LINE
  8
_0-0_0
  6
CONTINUOUS
 62
    7
 10
-30.756927500000074
 20
759.06237800000008
 11
-30.722274500000026
 21
758.85031099999992
  0
LINE
  8
_0-0_0
  6
CONTINUOUS
 62
    7
 10
-30.722274500000026
 20
758.85031099999992
 11
-30.679931500000066
 21
758.63555900000006
  0
LINE
  8
_0-0_0
  6
CONTINUOUS
 62
    7
 10
-30.679931500000066
 20
758.63555900000006
 11
-30.629608500000018
 21
758.41754200000003
  0
LINE
  8
_0-0_0
  6
CONTINUOUS
 62
    7
 10
-30.629608500000018
 20
758.41754200000003
 11
-30.575363500000094
 21
758.21124299999997
  0
LINE
  8
_0-0_0
  6
CONTINUOUS
 62
    7
 10
-30.575363500000094
 20
758.21124299999997
 11
-30.513656500000025
 21
758.00116000000003
  0
LINE
  8
_0-0_0
  6
CONTINUOUS
 62
    7
 10
-30.513656500000025
 20
758.00116000000003
 11
-30.444137500000011
 21
757.78668199999993
  0
LINE
  8
_0-0_0
  6
CONTINUOUS
 62
    7
 10
-30.444137500000011
 20
757.78668199999993
 11
-30.366424499999994
 21
757.56726099999992
  0
LINE
  8
_0-0_0
  6
CONTINUOUS
 62
    7
 10
-30.366424499999994
 20
757.56726099999992
 11
-30.280044500000031
 21
757.34228499999995
  0
ARC
  8
_0-0_0
  6
CONTINUOUS
 62
    7
 10
-25.408477500000004
 20
763.19998199999998
 40
4.9136889999999998
 50
172.48898299999999
 51
187.51101699999998
  0
LINE
  8
_0-0_0
  6
CONTINUOUS
 62
    7
 10
-20.572219500000074
 20
762.55767800000001
 11
-30.280044500000031
 21
762.55767800000001
  0
LINE
  8
_0-0_0
  6
CONTINUOUS
 62
    7
 10
-45.322219500000074
 20
769.47543300000007
 11
-45.072219500000074
 21
769.5
  0
LINE
  8
_0-0_0
  6
CONTINUOUS
 62
    7
 10
-45.072219500000074
 20
769.5
 11
-35.822219500000074
 21
769.5
  0
LINE
  8
_0-0_0
  6
CONTINUOUS
 62
    7
 10
-45.322219500000074
 20
769.27145399999995
 11
-45.072219500000074
 21
769.5
  0
LINE
  8
_0-0_0
  6
CONTINUOUS
 62
    7
 10
-45.322219500000074
 20
769.27145399999995
 11
-35.572219500000074
 21
769.27145399999995
  0
LINE
  8
_0-0_0
  6
CONTINUOUS
 62
    7
 10
-45.322219500000074
 20
769.66595499999994
 11
-45.072219500000074
 21
769.71945200000005
  0
LINE
  8
_0-0_0
  6
CONTINUOUS
 62
    7
 10
-45.072219500000074
 20
769.71945200000005
 11
-35.822219500000074
 21
769.71945200000005
  0
LINE
  8
_0-0_0
  6
CONTINUOUS
 62
    7
 10
-45.322219500000074
 20
769.47543300000007
 11
-45.072219500000074
 21
769.71945200000005
  0
LINE
  8
_0-0_0
  6
CONTINUOUS
 62
    7
 10
-45.322219500000074
 20
769.84097300000008
 11
-45.072219500000074
 21
769.922821
  0
LINE
  8
_0-0_0
  6
CONTINUOUS
 62
    7
 10
-45.072219500000074
 20
769.922821
 11
-35.822219500000074
 21
769.922821
  0
LINE
  8
_0-0_0
  6
CONTINUOUS
 62
    7
 10
-45.322219500000074
 20
769.66595499999994
 11
-45.072219500000074
 21
769.922821
  0
LINE
  8
_0-0_0
  6
CONTINUOUS
 62
    7
 10
-45.322219500000074
 20
769.99856599999998
 11
-45.072219500000074
 21
770.10784899999999
  0
LINE
  8
_0-0_0
  6
CONTINUOUS
 62
    7
 10
-45.072219500000074
 20
770.10784899999999
 11
-35.822219500000074
 21
770.10784899999999
  0
LINE
  8
_0-0_0
  6
CONTINUOUS
 62
    7
 10
-45.322219500000074
 20
769.84097300000008
 11
-45.072219500000074
 21
770.10784899999999
  0
LINE
  8
_0-0_0
  6
CONTINUOUS
 62
    7
 10
-45.322219500000074
 20
770.13699300000007
 11
-45.072219500000074
 21
770.27252199999998
  0
LINE
  8
_0-0_0
  6
CONTINUOUS
 62
    7
 10
-45.072219500000074
 20
770.27252199999998
 11
-35.822219500000074
 21
770.27252199999998
  0
LINE
  8
_0-0_0
  6
CONTINUOUS
 62
    7
 10
-45.322219500000074
 20
769.99856599999998
 11
-45.072219500000074
 21
770.27252199999998
  0
LINE
  8
_0-0_0
  6
CONTINUOUS
 62
    7
 10
-45.322219500000074
 20
770.25476099999992
 11
-45.072219500000074
 21
770.41503899999998
  0
LINE
  8
_0-0_0
  6
CONTINUOUS
 62
    7
 10
-45.072219500000074
 20
770.41503899999998
 11
-35.822219500000074
 21
770.41503899999998
  0
LINE
  8
_0-0_0
  6
CONTINUOUS
 62
    7
 10
-45.322219500000074
 20
770.13699300000007
 11
-45.072219500000074
 21
770.41503899999998
  0
LINE
  8
_0-0_0
  6
CONTINUOUS
 62
    7
 10
-45.322219500000074
 20
770.35052500000006
 11
-45.072219500000074
 21
770.53384400000004
  0
LINE
  8
_0-0_0
  6
CONTINUOUS
 62
    7
 10
-45.072219500000074
 20
770.53384400000004
 11
-35.822219500000074
 21
770.53384400000004
  0
LINE
  8
_0-0_0
  6
CONTINUOUS
 62
    7
 10
-45.322219500000074
 20
770.25476099999992
 11
-45.072219500000074
 21
770.53384400000004
  0
LINE
  8
_0-0_0
  6
CONTINUOUS
 62
    7
 10
-45.322219500000074
 20
770.42330900000002
 11
-45.072219500000074
 21
770.62762500000008
  0
LINE
  8
_0-0_0
  6
CONTINUOUS
 62
    7
 10
-45.072219500000074
 20
770.62762500000008
 11
-35.822219500000074
 21
770.62762500000008
  0
LINE
  8
_0-0_0
  6
CONTINUOUS
 62
    7
 10
-45.322219500000074
 20
770.35052500000006
 11
-45.072219500000074
 21
770.62762500000008
  0
LINE
  8
_0-0_0
  6
CONTINUOUS
 62
    7
 10
-45.322219500000074
 20
770.47228999999993
 11
-45.072219500000074
 21
770.69534299999998
  0
LINE
  8
_0-0_0
  6
CONTINUOUS
 62
    7
 10
-45.072219500000074
 20
770.69534299999998
 11
-35.822219500000074
 21
770.69534299999998
  0
LINE
  8
_0-0_0
  6
CONTINUOUS
 62
    7
 10
-45.322219500000074
 20
770.42330900000002
 11
-45.072219500000074
 21
770.69534299999998
  0
LINE
  8
_0-0_0
  6
CONTINUOUS
 62
    7
 10
-45.322219500000074
 20
770.49688700000002
 11
-45.072219500000074
 21
770.73629800000003
  0
LINE
  8
_0-0_0
  6
CONTINUOUS
 62
    7
 10
-45.072219500000074
 20
770.73629800000003
 11
-35.822219500000074
 21
770.73629800000003
  0
LINE
  8
_0-0_0
  6
CONTINUOUS
 62
    7
 10
-45.322219500000074
 20
770.47228999999993
 11
-45.072219500000074
 21
770.73629800000003
  0
LINE
  8
_0-0_0
  6
CONTINUOUS
 62
    7
 10
-45.072219500000074
 20
770.75
 11
-35.822219500000074
 21
770.75
  0
LINE
  8
_0-0_0
  6
CONTINUOUS
 62
    7
 10
-45.322219500000074
 20
770.49688700000002
 11
-45.072219500000074
 21
770.75
  0
LINE
  8
_0-0_0
  6
CONTINUOUS
 62
    7
 10
-45.322219500000074
 20
766.00305200000003
 11
-45.072219500000074
 21
765.75
  0
LINE
  8
_0-0_0
  6
CONTINUOUS
 62
    7
 10
-45.072219500000074
 20
765.75
 11
-35.822219500000074
 21
765.75
  0
LINE
  8
_0-0_0
  6
CONTINUOUS
 62
    7
 10
-45.322219500000074
 20
766.02767900000003
 11
-45.072219500000074
 21
765.76367200000004
  0
LINE
  8
_0-0_0
  6
CONTINUOUS
 62
    7
 10
-45.072219500000074
 20
765.76367200000004
 11
-35.822219500000074
 21
765.76367200000004
  0
LINE
  8
_0-0_0
  6
CONTINUOUS
 62
    7
 10
-45.322219500000074
 20
766.00305200000003
 11
-45.072219500000074
 21
765.76367200000004
  0
LINE
  8
_0-0_0
  6
CONTINUOUS
 62
    7
 10
-45.322219500000074
 20
766.07665999999995
 11
-45.072219500000074
 21
765.80462599999998
  0
LINE
  8
_0-0_0
  6
CONTINUOUS
 62
    7
 10
-45.072219500000074
 20
765.80462599999998
 11
-35.822219500000074
 21
765.80462599999998
  0
LINE
  8
_0-0_0
  6
CONTINUOUS
 62
    7
 10
-45.322219500000074
 20
766.02767900000003
 11
-45.072219500000074
 21
765.80462599999998
  0
LINE
  8
_0-0_0
  6
CONTINUOUS
 62
    7
 10
-45.322219500000074
 20
766.14941399999998
 11
-45.072219500000074
 21
765.872345
  0
LINE
  8
_0-0_0
  6
CONTINUOUS
 62
    7
 10
-45.072219500000074
 20
765.872345
 11
-35.822219500000074
 21
765.872345
  0
LINE
  8
_0-0_0
  6
CONTINUOUS
 62
    7
 10
-45.322219500000074
 20
766.07665999999995
 11
-45.072219500000074
 21
765.872345
  0
LINE
  8
_0-0_0
  6
CONTINUOUS
 62
    7
 10
-45.322219500000074
 20
766.24520899999993
 11
-45.072219500000074
 21
765.96612499999992
  0
LINE
  8
_0-0_0
  6
CONTINUOUS
 62
    7
 10
-45.072219500000074
 20
765.96612499999992
 11
-35.822219500000074
 21
765.96612499999992
  0
LINE
  8
_0-0_0
  6
CONTINUOUS
 62
    7
 10
-45.322219500000074
 20
766.14941399999998
 11
-45.072219500000074
 21
765.96612499999992
  0
LINE
  8
_0-0_0
  6
CONTINUOUS
 62
    7
 10
-45.072219500000074
 20
766.08492999999999
 11
-35.822219500000074
 21
766.08492999999999
  0
LINE
  8
_0-0_0
  6
CONTINUOUS
 62
    7
 10
-45.192260499999975
 20
766.16137700000002
 11
-45.072219500000074
 21
766.08492999999999
  0
LINE
  8
_0-0_0
  6
CONTINUOUS
 62
    7
 10
-45.322219500000074
 20
766.24520899999993
 11
-45.192260499999975
 21
766.16137700000002
  0
LINE
  8
_0-0_0
  6
CONTINUOUS
 62
    7
 10
-45.322219500000074
 20
766.362976
 11
-45.072219500000074
 21
766.08492999999999
  0
LINE
  8
_0-0_0
  6
CONTINUOUS
 62
    7
 10
-45.322219500000074
 20
766.50140399999998
 11
-45.072219500000074
 21
766.22744799999998
  0
LINE
  8
_0-0_0
  6
CONTINUOUS
 62
    7
 10
-45.072219500000074
 20
766.22744799999998
 11
-35.822219500000074
 21
766.22744799999998
  0
LINE
  8
_0-0_0
  6
CONTINUOUS
 62
    7
 10
-45.322219500000074
 20
766.362976
 11
-45.072219500000074
 21
766.22744799999998
  0
LINE
  8
_0-0_0
  6
CONTINUOUS
 62
    7
 10
-45.322219500000074
 20
766.658997
 11
-45.072219500000074
 21
766.39211999999998
  0
LINE
  8
_0-0_0
  6
CONTINUOUS
 62
    7
 10
-45.072219500000074
 20
766.39211999999998
 11
-35.822219500000074
 21
766.39211999999998
  0
LINE
  8
_0-0_0
  6
CONTINUOUS
 62
    7
 10
-45.322219500000074
 20
766.50140399999998
 11
-45.072219500000074
 21
766.39211999999998
  0
LINE
  8
_0-0_0
  6
CONTINUOUS
 62
    7
 10
-45.322219500000074
 20
766.83401500000002
 11
-45.072219500000074
 21
766.57714800000008
  0
LINE
  8
_0-0_0
  6
CONTINUOUS
 62
    7
 10
-45.072219500000074
 20
766.57714800000008
 11
-35.822219500000074
 21
766.57714800000008
  0
LINE
  8
_0-0_0
  6
CONTINUOUS
 62
    7
 10
-45.322219500000074
 20
766.658997
 11
-45.072219500000074
 21
766.57714800000008
  0
LINE
  8
_0-0_0
  6
CONTINUOUS
 62
    7
 10
-45.322219500000074
 20
767.02453600000001
 11
-45.072219500000074
 21
766.78051800000003
  0
LINE
  8
_0-0_0
  6
CONTINUOUS
 62
    7
 10
-45.072219500000074
 20
766.78051800000003
 11
-35.822219500000074
 21
766.78051800000003
  0
LINE
  8
_0-0_0
  6
CONTINUOUS
 62
    7
 10
-45.322219500000074
 20
766.83401500000002
 11
-45.072219500000074
 21
766.78051800000003
  0
LINE
  8
_0-0_0
  6
CONTINUOUS
 62
    7
 10
-45.322219500000074
 20
767.22851600000001
 11
-45.072219500000074
 21
767
  0
LINE
  8
_0-0_0
  6
CONTINUOUS
 62
    7
 10
-45.072219500000074
 20
767
 11
-35.822219500000074
 21
767
  0
LINE
  8
_0-0_0
  6
CONTINUOUS
 62
    7
 10
-45.322219500000074
 20
767.22851600000001
 11
-35.572219500000074
 21
767.22851600000001
  0
LINE
  8
_0-0_0
  6
CONTINUOUS
 62
    7
 10
-45.322219500000074
 20
767.02453600000001
 11
-45.072219500000074
 21
767
  0
LINE
  8
_0-0_0
  6
CONTINUOUS
 62
    7
 10
-45.322219500000074
 20
767.44366500000001
 11
-45.072219500000074
 21
767.23315400000001
  0
LINE
  8
_0-0_0
  6
CONTINUOUS
 62
    7
 10
-45.072219500000074
 20
767.23315400000001
 11
-35.822219500000074
 21
767.23315400000001
  0
LINE
  8
_0-0_0
  6
CONTINUOUS
 62
    7
 10
-45.322219500000074
 20
767.44366500000001
 11
-35.572219500000074
 21
767.44366500000001
  0
LINE
  8
_0-0_0
  6
CONTINUOUS
 62
    7
 10
-45.322219500000074
 20
767.22851600000001
 11
-45.072219500000074
 21
767.23315400000001
  0
LINE
  8
_0-0_0
  6
CONTINUOUS
 62
    7
 10
-45.322219500000074
 20
767.66763300000002
 11
-45.072219500000074
 21
767.47744799999998
  0
LINE
  8
_0-0_0
  6
CONTINUOUS
 62
    7
 10
-45.072219500000074
 20
767.47744799999998
 11
-35.822219500000074
 21
767.47744799999998
  0
LINE
  8
_0-0_0
  6
CONTINUOUS
 62
    7
 10
-45.322219500000074
 20
767.66763300000002
 11
-35.572219500000074
 21
767.66763300000002
  0
LINE
  8
_0-0_0
  6
CONTINUOUS
 62
    7
 10
-45.322219500000074
 20
767.44366500000001
 11
-45.072219500000074
 21
767.47744799999998
  0
LINE
  8
_0-0_0
  6
CONTINUOUS
 62
    7
 10
-45.322219500000074
 20
767.89801
 11
-45.072219500000074
 21
767.73019399999998
  0
LINE
  8
_0-0_0
  6
CONTINUOUS
 62
    7
 10
-45.072219500000074
 20
767.73019399999998
 11
-35.822219500000074
 21
767.73019399999998
  0
LINE
  8
_0-0_0
  6
CONTINUOUS
 62
    7
 10
-45.322219500000074
 20
767.89801
 11
-35.572219500000074
 21
767.89801
  0
LINE
  8
_0-0_0
  6
CONTINUOUS
 62
    7
 10
-45.322219500000074
 20
767.66763300000002
 11
-45.072219500000074
 21
767.73019399999998
  0
LINE
  8
_0-0_0
  6
CONTINUOUS
 62
    7
 10
-45.322219500000074
 20
768.13223300000004
 11
-45.072219500000074
 21
767.98864700000001
  0
LINE
  8
_0-0_0
  6
CONTINUOUS
 62
    7
 10
-45.072219500000074
 20
767.98864700000001
 11
-35.822219500000074
 21
767.98864700000001
  0
LINE
  8
_0-0_0
  6
CONTINUOUS
 62
    7
 10
-45.322219500000074
 20
768.13223300000004
 11
-35.572219500000074
 21
768.13223300000004
  0
LINE
  8
_0-0_0
  6
CONTINUOUS
 62
    7
 10
-45.322219500000074
 20
767.89801
 11
-45.072219500000074
 21
767.98864700000001
  0
LINE
  8
_0-0_0
  6
CONTINUOUS
 62
    7
 10
-45.322219500000074
 20
768.36773700000003
 11
-45.072219500000074
 21
768.25
  0
LINE
  8
_0-0_0
  6
CONTINUOUS
 62
    7
 10
-45.072219500000074
 20
768.25
 11
-35.822219500000074
 21
768.25
  0
LINE
  8
_0-0_0
  6
CONTINUOUS
 62
    7
 10
-45.322219500000074
 20
768.36773700000003
 11
-35.572219500000074
 21
768.36773700000003
  0
LINE
  8
_0-0_0
  6
CONTINUOUS
 62
    7
 10
-45.322219500000074
 20
768.13223300000004
 11
-45.072219500000074
 21
768.25
  0
LINE
  8
_0-0_0
  6
CONTINUOUS
 62
    7
 10
-45.322219500000074
 20
768.60195900000008
 11
-45.072219500000074
 21
768.51129200000003
  0
LINE
  8
_0-0_0
  6
CONTINUOUS
 62
    7
 10
-45.072219500000074
 20
768.51129200000003
 11
-35.822219500000074
 21
768.51129200000003
  0
LINE
  8
_0-0_0
  6
CONTINUOUS
 62
    7
 10
-45.322219500000074
 20
768.60195900000008
 11
-35.572219500000074
 21
768.60195900000008
  0
LINE
  8
_0-0_0
  6
CONTINUOUS
 62
    7
 10
-45.322219500000074
 20
768.36773700000003
 11
-45.072219500000074
 21
768.51129200000003
  0
LINE
  8
_0-0_0
  6
CONTINUOUS
 62
    7
 10
-45.322219500000074
 20
768.83233599999994
 11
-45.072219500000074
 21
768.76977499999998
  0
LINE
  8
_0-0_0
  6
CONTINUOUS
 62
    7
 10
-45.072219500000074
 20
768.76977499999998
 11
-35.822219500000074
 21
768.76977499999998
  0
LINE
  8
_0-0_0
  6
CONTINUOUS
 62
    7
 10
-45.322219500000074
 20
768.83233599999994
 11
-35.572219500000074
 21
768.83233599999994
  0
LINE
  8
_0-0_0
  6
CONTINUOUS
 62
    7
 10
-45.322219500000074
 20
768.60195900000008
 11
-45.072219500000074
 21
768.76977499999998
  0
LINE
  8
_0-0_0
  6
CONTINUOUS
 62
    7
 10
-45.322219500000074
 20
769.05630500000007
 11
-45.072219500000074
 21
769.02252199999998
  0
LINE
  8
_0-0_0
  6
CONTINUOUS
 62
    7
 10
-45.072219500000074
 20
769.02252199999998
 11
-35.822219500000074
 21
769.02252199999998
  0
LINE
  8
_0-0_0
  6
CONTINUOUS
 62
    7
 10
-45.322219500000074
 20
769.05630500000007
 11
-35.572219500000074
 21
769.05630500000007
  0
LINE
  8
_0-0_0
  6
CONTINUOUS
 62
    7
 10
-45.322219500000074
 20
768.83233599999994
 11
-45.072219500000074
 21
769.02252199999998
  0
LINE
  8
_0-0_0
  6
CONTINUOUS
 62
    7
 10
-45.322219500000074
 20
769.27145399999995
 11
-45.072219500000074
 21
769.26681499999995
  0
LINE
  8
_0-0_0
  6
CONTINUOUS
 62
    7
 10
-45.072219500000074
 20
769.26681499999995
 11
-35.822219500000074
 21
769.26681499999995
  0
LINE
  8
_0-0_0
  6
CONTINUOUS
 62
    7
 10
-45.322219500000074
 20
769.05630500000007
 11
-45.072219500000074
 21
769.26681499999995
  0
LINE
  8
_0-0_0
  6
CONTINUOUS
 62
    7
 10
-45.572219500000074
 20
770.25
 11
-45.572219500000074
 21
766.49481200000002
  0
LINE
  8
_0-0_0
  6
CONTINUOUS
 62
    7
 10
-45.572219500000074
 20
766.49481200000002
 11
-45.572219500000074
 21
766.25
  0
LINE
  8
_0-0_0
  6
CONTINUOUS
 62
    7
 10
-31.972229500000026
 20
764.94998199999998
 11
-31.972229500000026
 21
762.44998199999998
  0
LINE
  8
_0-0_0
  6
CONTINUOUS
 62
    7
 10
-31.972229500000026
 20
762.44998199999998
 11
-31.972229500000026
 21
754.94998199999998
  0
LINE
  8
_0-0_0
  6
CONTINUOUS
 62
    7
 10
-32.772216500000013
 20
764.48809800000004
 11
-32.772216500000013
 21
762.21905500000003
  0
LINE
  8
_0-0_0
  6
CONTINUOUS
 62
    7
 10
-32.772216500000013
 20
762.21905500000003
 11
-32.772216500000013
 21
755.41186500000003
  0
LINE
  8
_0-0_0
  6
CONTINUOUS
 62
    7
 10
-90.772216500000013
 20
763.94998199999998
 11
-90.772216500000013
 21
763.94863899999996
  0
LINE
  8
_0-0_0
  6
CONTINUOUS
 62
    7
 10
-90.772216500000013
 20
763.94863899999996
 11
-90.772216500000013
 21
755.94998199999998
  0
LINE
  8
_0-0_0
  6
CONTINUOUS
 62
    7
 10
-35.572219500000074
 20
749.40307600000006
 11
-35.572219500000074
 21
749.39999399999999
  0
LINE
  8
_0-0_0
  6
CONTINUOUS
 62
    7
 10
-35.572219500000074
 20
749.42770399999995
 11
-35.572219500000074
 21
749.40307600000006
  0
LINE
  8
_0-0_0
  6
CONTINUOUS
 62
    7
 10
-35.572219500000074
 20
749.47665400000005
 11
-35.572219500000074
 21
749.39999399999999
  0
LINE
  8
_0-0_0
  6
CONTINUOUS
 62
    7
 10
-35.572219500000074
 20
749.54943800000001
 11
-35.572219500000074
 21
749.47665400000005
  0
LINE
  8
_0-0_0
  6
CONTINUOUS
 62
    7
 10
-35.572219500000074
 20
749.64520300000004
 11
-35.572219500000074
 21
749.54943800000001
  0
LINE
  8
_0-0_0
  6
CONTINUOUS
 62
    7
 10
-35.572219500000074
 20
749.67541499999993
 11
-35.572219500000074
 21
749.64520300000004
  0
LINE
  8
_0-0_0
  6
CONTINUOUS
 62
    7
 10
-35.572219500000074
 20
749.76297
 11
-35.572219500000074
 21
749.67541499999993
  0
LINE
  8
_0-0_0
  6
CONTINUOUS
 62
    7
 10
-35.572219500000074
 20
749.90139799999997
 11
-35.572219500000074
 21
749.76297
  0
LINE
  8
_0-0_0
  6
CONTINUOUS
 62
    7
 10
-35.572219500000074
 20
750.05898999999999
 11
-35.572219500000074
 21
749.90139799999997
  0
LINE
  8
_0-0_0
  6
CONTINUOUS
 62
    7
 10
-35.572219500000074
 20
750.23400900000001
 11
-35.572219500000074
 21
750.05898999999999
  0
LINE
  8
_0-0_0
  6
CONTINUOUS
 62
    7
 10
-35.572219500000074
 20
750.42453
 11
-35.572219500000074
 21
750.23400900000001
  0
LINE
  8
_0-0_0
  6
CONTINUOUS
 62
    7
 10
-35.572219500000074
 20
750.62851000000001
 11
-35.572219500000074
 21
750.42453
  0
LINE
  8
_0-0_0
  6
CONTINUOUS
 62
    7
 10
-35.572219500000074
 20
750.843658
 11
-35.572219500000074
 21
750.62851000000001
  0
LINE
  8
_0-0_0
  6
CONTINUOUS
 62
    7
 10
-35.572219500000074
 20
751.06762700000002
 11
-35.572219500000074
 21
750.843658
  0
LINE
  8
_0-0_0
  6
CONTINUOUS
 62
    7
 10
-35.572219500000074
 20
751.29800399999999
 11
-35.572219500000074
 21
751.06762700000002
  0
LINE
  8
_0-0_0
  6
CONTINUOUS
 62
    7
 10
-35.572219500000074
 20
751.53222699999992
 11
-35.572219500000074
 21
751.29800399999999
  0
LINE
  8
_0-0_0
  6
CONTINUOUS
 62
    7
 10
-35.572219500000074
 20
751.76773100000003
 11
-35.572219500000074
 21
751.53222699999992
  0
LINE
  8
_0-0_0
  6
CONTINUOUS
 62
    7
 10
-35.572219500000074
 20
752.00195299999996
 11
-35.572219500000074
 21
751.76773100000003
  0
LINE
  8
_0-0_0
  6
CONTINUOUS
 62
    7
 10
-35.572219500000074
 20
752.23233000000005
 11
-35.572219500000074
 21
752.00195299999996
  0
LINE
  8
_0-0_0
  6
CONTINUOUS
 62
    7
 10
-35.572219500000074
 20
752.45629899999994
 11
-35.572219500000074
 21
752.23233000000005
  0
LINE
  8
_0-0_0
  6
CONTINUOUS
 62
    7
 10
-35.572219500000074
 20
752.67144800000005
 11
-35.572219500000074
 21
752.45629899999994
  0
LINE
  8
_0-0_0
  6
CONTINUOUS
 62
    7
 10
-35.572219500000074
 20
752.72869900000001
 11
-35.572219500000074
 21
752.67144800000005
  0
LINE
  8
_0-0_0
  6
CONTINUOUS
 62
    7
 10
-35.572219500000074
 20
749.40307600000006
 11
-35.822219500000074
 21
749.14999399999999
  0
LINE
  8
_0-0_0
  6
CONTINUOUS
 62
    7
 10
-35.572219500000074
 20
749.42770399999995
 11
-35.822219500000074
 21
749.16369600000007
  0
LINE
  8
_0-0_0
  6
CONTINUOUS
 62
    7
 10
-35.572219500000074
 20
749.40307600000006
 11
-35.822219500000074
 21
749.16369600000007
  0
LINE
  8
_0-0_0
  6
CONTINUOUS
 62
    7
 10
-35.572219500000074
 20
749.47665400000005
 11
-35.822219500000074
 21
749.20461999999998
  0
LINE
  8
_0-0_0
  6
CONTINUOUS
 62
    7
 10
-35.572219500000074
 20
749.42770399999995
 11
-35.822219500000074
 21
749.20461999999998
  0
LINE
  8
_0-0_0
  6
CONTINUOUS
 62
    7
 10
-35.572219500000074
 20
749.54943800000001
 11
-35.822219500000074
 21
749.27233899999999
  0
LINE
  8
_0-0_0
  6
CONTINUOUS
 62
    7
 10
-35.572219500000074
 20
749.47665400000005
 11
-35.822219500000074
 21
749.27233899999999
  0
LINE
  8
_0-0_0
  6
CONTINUOUS
 62
    7
 10
-35.572219500000074
 20
749.64520300000004
 11
-35.822219500000074
 21
749.36611900000003
  0
LINE
  8
_0-0_0
  6
CONTINUOUS
 62
    7
 10
-35.572219500000074
 20
749.54943800000001
 11
-35.822219500000074
 21
749.36611900000003
  0
LINE
  8
_0-0_0
  6
CONTINUOUS
 62
    7
 10
-35.572219500000074
 20
749.64520300000004
 11
-35.702179500000057
 21
749.56137100000001
  0
LINE
  8
_0-0_0
  6
CONTINUOUS
 62
    7
 10
-35.572219500000074
 20
749.76297
 11
-35.822219500000074
 21
749.48492399999998
  0
LINE
  8
_0-0_0
  6
CONTINUOUS
 62
    7
 10
-35.702179500000057
 20
749.56137100000001
 11
-35.822219500000074
 21
749.48492399999998
  0
LINE
  8
_0-0_0
  6
CONTINUOUS
 62
    7
 10
-35.572219500000074
 20
749.90139799999997
 11
-35.822219500000074
 21
749.62744099999998
  0
LINE
  8
_0-0_0
  6
CONTINUOUS
 62
    7
 10
-35.572219500000074
 20
749.76297
 11
-35.822219500000074
 21
749.62744099999998
  0
LINE
  8
_0-0_0
  6
CONTINUOUS
 62
    7
 10
-35.572219500000074
 20
750.05898999999999
 11
-35.822219500000074
 21
749.79211400000008
  0
LINE
  8
_0-0_0
  6
CONTINUOUS
 62
    7
 10
-35.572219500000074
 20
749.90139799999997
 11
-35.822219500000074
 21
749.79211400000008
  0
LINE
  8
_0-0_0
  6
CONTINUOUS
 62
    7
 10
-35.572219500000074
 20
750.23400900000001
 11
-35.822219500000074
 21
749.97717299999999
  0
LINE
  8
_0-0_0
  6
CONTINUOUS
 62
    7
 10
-35.572219500000074
 20
750.05898999999999
 11
-35.822219500000074
 21
749.97717299999999
  0
LINE
  8
_0-0_0
  6
CONTINUOUS
 62
    7
 10
-35.572219500000074
 20
750.42453
 11
-35.822219500000074
 21
750.18051100000002
  0
LINE
  8
_0-0_0
  6
CONTINUOUS
 62
    7
 10
-35.572219500000074
 20
750.23400900000001
 11
-35.822219500000074
 21
750.18051100000002
  0
LINE
  8
_0-0_0
  6
CONTINUOUS
 62
    7
 10
-35.572219500000074
 20
750.62851000000001
 11
-35.822219500000074
 21
750.39999399999999
  0
LINE
  8
_0-0_0
  6
CONTINUOUS
 62
    7
 10
-35.572219500000074
 20
750.42453
 11
-35.822219500000074
 21
750.39999399999999
  0
LINE
  8
_0-0_0
  6
CONTINUOUS
 62
    7
 10
-35.572219500000074
 20
750.843658
 11
-35.822219500000074
 21
750.63314800000001
  0
LINE
  8
_0-0_0
  6
CONTINUOUS
 62
    7
 10
-35.572219500000074
 20
750.62851000000001
 11
-35.822219500000074
 21
750.63314800000001
  0
LINE
  8
_0-0_0
  6
CONTINUOUS
 62
    7
 10
-35.572219500000074
 20
751.06762700000002
 11
-35.822219500000074
 21
750.87744099999998
  0
LINE
  8
_0-0_0
  6
CONTINUOUS
 62
    7
 10
-35.572219500000074
 20
750.843658
 11
-35.822219500000074
 21
750.87744099999998
  0
LINE
  8
_0-0_0
  6
CONTINUOUS
 62
    7
 10
-35.572219500000074
 20
751.29800399999999
 11
-35.822219500000074
 21
751.13018799999998
  0
LINE
  8
_0-0_0
  6
CONTINUOUS
 62
    7
 10
-35.572219500000074
 20
751.06762700000002
 11
-35.822219500000074
 21
751.13018799999998
  0
LINE
  8
_0-0_0
  6
CONTINUOUS
 62
    7
 10
-35.572219500000074
 20
751.53222699999992
 11
-35.822219500000074
 21
751.38867200000004
  0
LINE
  8
_0-0_0
  6
CONTINUOUS
 62
    7
 10
-35.572219500000074
 20
751.29800399999999
 11
-35.822219500000074
 21
751.38867200000004
  0
LINE
  8
_0-0_0
  6
CONTINUOUS
 62
    7
 10
-35.572219500000074
 20
751.76773100000003
 11
-35.822219500000074
 21
751.64999399999999
  0
LINE
  8
_0-0_0
  6
CONTINUOUS
 62
    7
 10
-35.572219500000074
 20
751.53222699999992
 11
-35.822219500000074
 21
751.64999399999999
  0
LINE
  8
_0-0_0
  6
CONTINUOUS
 62
    7
 10
-35.572219500000074
 20
752.00195299999996
 11
-35.822219500000074
 21
751.91131599999994
  0
LINE
  8
_0-0_0
  6
CONTINUOUS
 62
    7
 10
-35.572219500000074
 20
751.76773100000003
 11
-35.822219500000074
 21
751.91131599999994
  0
LINE
  8
_0-0_0
  6
CONTINUOUS
 62
    7
 10
-35.572219500000074
 20
752.23233000000005
 11
-35.822219500000074
 21
752.16976899999997
  0
LINE
  8
_0-0_0
  6
CONTINUOUS
 62
    7
 10
-35.572219500000074
 20
752.00195299999996
 11
-35.822219500000074
 21
752.16976899999997
  0
LINE
  8
_0-0_0
  6
CONTINUOUS
 62
    7
 10
-35.572219500000074
 20
752.45629899999994
 11
-35.822219500000074
 21
752.42251599999997
  0
LINE
  8
_0-0_0
  6
CONTINUOUS
 62
    7
 10
-35.572219500000074
 20
752.23233000000005
 11
-35.822219500000074
 21
752.42251599999997
  0
LINE
  8
_0-0_0
  6
CONTINUOUS
 62
    7
 10
-35.572219500000074
 20
752.67144800000005
 11
-35.822219500000074
 21
752.66680900000006
  0
LINE
  8
_0-0_0
  6
CONTINUOUS
 62
    7
 10
-35.572219500000074
 20
752.45629899999994
 11
-35.822219500000074
 21
752.66680900000006
  0
LINE
  8
_0-0_0
  6
CONTINUOUS
 62
    7
 10
-35.572219500000074
 20
752.87542699999995
 11
-35.572219500000074
 21
752.72869900000001
  0
LINE
  8
_0-0_0
  6
CONTINUOUS
 62
    7
 10
-35.572219500000074
 20
752.87542699999995
 11
-35.822219500000074
 21
752.89999399999999
  0
LINE
  8
_0-0_0
  6
CONTINUOUS
 62
    7
 10
-35.572219500000074
 20
752.67144800000005
 11
-35.822219500000074
 21
752.89999399999999
  0
LINE
  8
_0-0_0
  6
CONTINUOUS
 62
    7
 10
-35.572219500000074
 20
753.06594799999993
 11
-35.572219500000074
 21
752.87542699999995
  0
LINE
  8
_0-0_0
  6
CONTINUOUS
 62
    7
 10
-35.572219500000074
 20
753.24096699999996
 11
-35.572219500000074
 21
753.06594799999993
  0
LINE
  8
_0-0_0
  6
CONTINUOUS
 62
    7
 10
-35.572219500000074
 20
753.39855999999997
 11
-35.572219500000074
 21
753.24096699999996
  0
LINE
  8
_0-0_0
  6
CONTINUOUS
 62
    7
 10
-35.572219500000074
 20
753.53698699999995
 11
-35.572219500000074
 21
753.39855999999997
  0
LINE
  8
_0-0_0
  6
CONTINUOUS
 62
    7
 10
-35.572219500000074
 20
753.65475500000002
 11
-35.572219500000074
 21
753.53698699999995
  0
LINE
  8
_0-0_0
  6
CONTINUOUS
 62
    7
 10
-35.572219500000074
 20
753.75054899999998
 11
-35.572219500000074
 21
753.65475500000002
  0
LINE
  8
_0-0_0
  6
CONTINUOUS
 62
    7
 10
-35.572219500000074
 20
753.82330300000001
 11
-35.572219500000074
 21
753.75054899999998
  0
LINE
  8
_0-0_0
  6
CONTINUOUS
 62
    7
 10
-35.572219500000074
 20
753.87228400000004
 11
-35.572219500000074
 21
753.82330300000001
  0
LINE
  8
_0-0_0
  6
CONTINUOUS
 62
    7
 10
-35.572219500000074
 20
753.89999399999999
 11
-35.572219500000074
 21
753.87228400000004
  0
LINE
  8
_0-0_0
  6
CONTINUOUS
 62
    7
 10
-35.572219500000074
 20
753.89999399999999
 11
-35.572219500000074
 21
753.89691199999993
  0
LINE
  8
_0-0_0
  6
CONTINUOUS
 62
    7
 10
-45.322219500000074
 20
749.40307600000006
 11
-45.072219500000074
 21
749.14999399999999
  0
LINE
  8
_0-0_0
  6
CONTINUOUS
 62
    7
 10
-45.072219500000074
 20
749.14999399999999
 11
-35.822219500000074
 21
749.14999399999999
  0
LINE
  8
_0-0_0
  6
CONTINUOUS
 62
    7
 10
-45.322219500000074
 20
749.42770399999995
 11
-45.072219500000074
 21
749.16369600000007
  0
LINE
  8
_0-0_0
  6
CONTINUOUS
 62
    7
 10
-45.072219500000074
 20
749.16369600000007
 11
-35.822219500000074
 21
749.16369600000007
  0
LINE
  8
_0-0_0
  6
CONTINUOUS
 62
    7
 10
-45.322219500000074
 20
749.40307600000006
 11
-45.072219500000074
 21
749.16369600000007
  0
LINE
  8
_0-0_0
  6
CONTINUOUS
 62
    7
 10
-45.322219500000074
 20
749.47665400000005
 11
-45.072219500000074
 21
749.20461999999998
  0
LINE
  8
_0-0_0
  6
CONTINUOUS
 62
    7
 10
-45.072219500000074
 20
749.20461999999998
 11
-35.822219500000074
 21
749.20461999999998
  0
LINE
  8
_0-0_0
  6
CONTINUOUS
 62
    7
 10
-45.322219500000074
 20
749.42770399999995
 11
-45.072219500000074
 21
749.20461999999998
  0
LINE
  8
_0-0_0
  6
CONTINUOUS
 62
    7
 10
-45.322219500000074
 20
749.54943800000001
 11
-45.072219500000074
 21
749.27233899999999
  0
LINE
  8
_0-0_0
  6
CONTINUOUS
 62
    7
 10
-45.072219500000074
 20
749.27233899999999
 11
-35.822219500000074
 21
749.27233899999999
  0
LINE
  8
_0-0_0
  6
CONTINUOUS
 62
    7
 10
-45.322219500000074
 20
749.47665400000005
 11
-45.072219500000074
 21
749.27233899999999
  0
LINE
  8
_0-0_0
  6
CONTINUOUS
 62
    7
 10
-45.322219500000074
 20
749.64520300000004
 11
-45.072219500000074
 21
749.36611900000003
  0
LINE
  8
_0-0_0
  6
CONTINUOUS
 62
    7
 10
-45.072219500000074
 20
749.36611900000003
 11
-35.822219500000074
 21
749.36611900000003
  0
LINE
  8
_0-0_0
  6
CONTINUOUS
 62
    7
 10
-45.322219500000074
 20
749.54943800000001
 11
-45.072219500000074
 21
749.36611900000003
  0
LINE
  8
_0-0_0
  6
CONTINUOUS
 62
    7
 10
-45.072219500000074
 20
749.48492399999998
 11
-35.822219500000074
 21
749.48492399999998
  0
LINE
  8
_0-0_0
  6
CONTINUOUS
 62
    7
 10
-45.192260499999975
 20
749.56137100000001
 11
-45.072219500000074
 21
749.48492399999998
  0
LINE
  8
_0-0_0
  6
CONTINUOUS
 62
    7
 10
-45.322219500000074
 20
749.64520300000004
 11
-45.192260499999975
 21
749.56137100000001
  0
LINE
  8
_0-0_0
  6
CONTINUOUS
 62
    7
 10
-45.322219500000074
 20
749.76297
 11
-45.072219500000074
 21
749.48492399999998
  0
LINE
  8
_0-0_0
  6
CONTINUOUS
 62
    7
 10
-45.322219500000074
 20
749.90139799999997
 11
-45.072219500000074
 21
749.62744099999998
  0
LINE
  8
_0-0_0
  6
CONTINUOUS
 62
    7
 10
-45.072219500000074
 20
749.62744099999998
 11
-35.822219500000074
 21
749.62744099999998
  0
LINE
  8
_0-0_0
  6
CONTINUOUS
 62
    7
 10
-45.322219500000074
 20
749.76297
 11
-45.072219500000074
 21
749.62744099999998
  0
LINE
  8
_0-0_0
  6
CONTINUOUS
 62
    7
 10
-45.322219500000074
 20
750.05898999999999
 11
-45.072219500000074
 21
749.79211400000008
  0
LINE
  8
_0-0_0
  6
CONTINUOUS
 62
    7
 10
-45.072219500000074
 20
749.79211400000008
 11
-35.822219500000074
 21
749.79211400000008
  0
LINE
  8
_0-0_0
  6
CONTINUOUS
 62
    7
 10
-45.322219500000074
 20
749.90139799999997
 11
-45.072219500000074
 21
749.79211400000008
  0
LINE
  8
_0-0_0
  6
CONTINUOUS
 62
    7
 10
-45.322219500000074
 20
750.23400900000001
 11
-45.072219500000074
 21
749.97717299999999
  0
LINE
  8
_0-0_0
  6
CONTINUOUS
 62
    7
 10
-45.072219500000074
 20
749.97717299999999
 11
-35.822219500000074
 21
749.97717299999999
  0
LINE
  8
_0-0_0
  6
CONTINUOUS
 62
    7
 10
-45.322219500000074
 20
750.05898999999999
 11
-45.072219500000074
 21
749.97717299999999
  0
LINE
  8
_0-0_0
  6
CONTINUOUS
 62
    7
 10
-45.322219500000074
 20
750.42453
 11
-45.072219500000074
 21
750.18051100000002
  0
LINE
  8
_0-0_0
  6
CONTINUOUS
 62
    7
 10
-45.072219500000074
 20
750.18051100000002
 11
-35.822219500000074
 21
750.18051100000002
  0
LINE
  8
_0-0_0
  6
CONTINUOUS
 62
    7
 10
-45.322219500000074
 20
750.23400900000001
 11
-45.072219500000074
 21
750.18051100000002
  0
LINE
  8
_0-0_0
  6
CONTINUOUS
 62
    7
 10
-45.322219500000074
 20
750.62851000000001
 11
-45.072219500000074
 21
750.39999399999999
  0
LINE
  8
_0-0_0
  6
CONTINUOUS
 62
    7
 10
-45.072219500000074
 20
750.39999399999999
 11
-35.822219500000074
 21
750.39999399999999
  0
LINE
  8
_0-0_0
  6
CONTINUOUS
 62
    7
 10
-45.322219500000074
 20
750.62851000000001
 11
-35.572219500000074
 21
750.62851000000001
  0
LINE
  8
_0-0_0
  6
CONTINUOUS
 62
    7
 10
-45.322219500000074
 20
750.42453
 11
-45.072219500000074
 21
750.39999399999999
  0
LINE
  8
_0-0_0
  6
CONTINUOUS
 62
    7
 10
-45.322219500000074
 20
750.843658
 11
-45.072219500000074
 21
750.63314800000001
  0
LINE
  8
_0-0_0
  6
CONTINUOUS
 62
    7
 10
-45.072219500000074
 20
750.63314800000001
 11
-35.822219500000074
 21
750.63314800000001
  0
LINE
  8
_0-0_0
  6
CONTINUOUS
 62
    7
 10
-45.322219500000074
 20
750.843658
 11
-35.572219500000074
 21
750.843658
  0
LINE
  8
_0-0_0
  6
CONTINUOUS
 62
    7
 10
-45.322219500000074
 20
750.62851000000001
 11
-45.072219500000074
 21
750.63314800000001
  0
LINE
  8
_0-0_0
  6
CONTINUOUS
 62
    7
 10
-45.322219500000074
 20
751.06762700000002
 11
-45.072219500000074
 21
750.87744099999998
  0
LINE
  8
_0-0_0
  6
CONTINUOUS
 62
    7
 10
-45.072219500000074
 20
750.87744099999998
 11
-35.822219500000074
 21
750.87744099999998
  0
LINE
  8
_0-0_0
  6
CONTINUOUS
 62
    7
 10
-45.322219500000074
 20
751.06762700000002
 11
-35.572219500000074
 21
751.06762700000002
  0
LINE
  8
_0-0_0
  6
CONTINUOUS
 62
    7
 10
-45.322219500000074
 20
750.843658
 11
-45.072219500000074
 21
750.87744099999998
  0
LINE
  8
_0-0_0
  6
CONTINUOUS
 62
    7
 10
-45.322219500000074
 20
751.29800399999999
 11
-45.072219500000074
 21
751.13018799999998
  0
LINE
  8
_0-0_0
  6
CONTINUOUS
 62
    7
 10
-45.072219500000074
 20
751.13018799999998
 11
-35.822219500000074
 21
751.13018799999998
  0
LINE
  8
_0-0_0
  6
CONTINUOUS
 62
    7
 10
-45.322219500000074
 20
751.29800399999999
 11
-35.572219500000074
 21
751.29800399999999
  0
LINE
  8
_0-0_0
  6
CONTINUOUS
 62
    7
 10
-45.322219500000074
 20
751.06762700000002
 11
-45.072219500000074
 21
751.13018799999998
  0
LINE
  8
_0-0_0
  6
CONTINUOUS
 62
    7
 10
-45.322219500000074
 20
751.53222699999992
 11
-45.072219500000074
 21
751.38867200000004
  0
LINE
  8
_0-0_0
  6
CONTINUOUS
 62
    7
 10
-45.072219500000074
 20
751.38867200000004
 11
-35.822219500000074
 21
751.38867200000004
  0
LINE
  8
_0-0_0
  6
CONTINUOUS
 62
    7
 10
-45.322219500000074
 20
751.53222699999992
 11
-35.572219500000074
 21
751.53222699999992
  0
LINE
  8
_0-0_0
  6
CONTINUOUS
 62
    7
 10
-45.322219500000074
 20
751.29800399999999
 11
-45.072219500000074
 21
751.38867200000004
  0
LINE
  8
_0-0_0
  6
CONTINUOUS
 62
    7
 10
-45.322219500000074
 20
751.76773100000003
 11
-45.072219500000074
 21
751.64999399999999
  0
LINE
  8
_0-0_0
  6
CONTINUOUS
 62
    7
 10
-45.072219500000074
 20
751.64999399999999
 11
-35.822219500000074
 21
751.64999399999999
  0
LINE
  8
_0-0_0
  6
CONTINUOUS
 62
    7
 10
-45.322219500000074
 20
751.76773100000003
 11
-35.572219500000074
 21
751.76773100000003
  0
LINE
  8
_0-0_0
  6
CONTINUOUS
 62
    7
 10
-45.322219500000074
 20
751.53222699999992
 11
-45.072219500000074
 21
751.64999399999999
  0
LINE
  8
_0-0_0
  6
CONTINUOUS
 62
    7
 10
-45.322219500000074
 20
752.00195299999996
 11
-45.072219500000074
 21
751.91131599999994
  0
LINE
  8
_0-0_0
  6
CONTINUOUS
 62
    7
 10
-45.072219500000074
 20
751.91131599999994
 11
-35.822219500000074
 21
751.91131599999994
  0
LINE
  8
_0-0_0
  6
CONTINUOUS
 62
    7
 10
-45.322219500000074
 20
752.00195299999996
 11
-35.572219500000074
 21
752.00195299999996
  0
LINE
  8
_0-0_0
  6
CONTINUOUS
 62
    7
 10
-45.322219500000074
 20
751.76773100000003
 11
-45.072219500000074
 21
751.91131599999994
  0
LINE
  8
_0-0_0
  6
CONTINUOUS
 62
    7
 10
-45.322219500000074
 20
752.23233000000005
 11
-45.072219500000074
 21
752.16976899999997
  0
LINE
  8
_0-0_0
  6
CONTINUOUS
 62
    7
 10
-45.072219500000074
 20
752.16976899999997
 11
-35.822219500000074
 21
752.16976899999997
  0
LINE
  8
_0-0_0
  6
CONTINUOUS
 62
    7
 10
-45.322219500000074
 20
752.23233000000005
 11
-35.572219500000074
 21
752.23233000000005
  0
LINE
  8
_0-0_0
  6
CONTINUOUS
 62
    7
 10
-45.322219500000074
 20
752.00195299999996
 11
-45.072219500000074
 21
752.16976899999997
  0
LINE
  8
_0-0_0
  6
CONTINUOUS
 62
    7
 10
-45.322219500000074
 20
752.45629899999994
 11
-45.072219500000074
 21
752.42251599999997
  0
LINE
  8
_0-0_0
  6
CONTINUOUS
 62
    7
 10
-45.072219500000074
 20
752.42251599999997
 11
-35.822219500000074
 21
752.42251599999997
  0
LINE
  8
_0-0_0
  6
CONTINUOUS
 62
    7
 10
-45.322219500000074
 20
752.45629899999994
 11
-35.572219500000074
 21
752.45629899999994
  0
LINE
  8
_0-0_0
  6
CONTINUOUS
 62
    7
 10
-45.322219500000074
 20
752.23233000000005
 11
-45.072219500000074
 21
752.42251599999997
  0
LINE
  8
_0-0_0
  6
CONTINUOUS
 62
    7
 10
-45.322219500000074
 20
752.67144800000005
 11
-45.072219500000074
 21
752.66680900000006
  0
LINE
  8
_0-0_0
  6
CONTINUOUS
 62
    7
 10
-45.072219500000074
 20
752.66680900000006
 11
-35.822219500000074
 21
752.66680900000006
  0
LINE
  8
_0-0_0
  6
CONTINUOUS
 62
    7
 10
-45.322219500000074
 20
752.67144800000005
 11
-35.572219500000074
 21
752.67144800000005
  0
LINE
  8
_0-0_0
  6
CONTINUOUS
 62
    7
 10
-45.322219500000074
 20
752.45629899999994
 11
-45.072219500000074
 21
752.66680900000006
  0
LINE
  8
_0-0_0
  6
CONTINUOUS
 62
    7
 10
-45.322219500000074
 20
752.87542699999995
 11
-45.072219500000074
 21
752.89999399999999
  0
LINE
  8
_0-0_0
  6
CONTINUOUS
 62
    7
 10
-45.072219500000074
 20
752.89999399999999
 11
-35.822219500000074
 21
752.89999399999999
  0
LINE
  8
_0-0_0
  6
CONTINUOUS
 62
    7
 10
-45.322219500000074
 20
752.67144800000005
 11
-45.072219500000074
 21
752.89999399999999
  0
LINE
  8
_0-0_0
  6
CONTINUOUS
 62
    7
 10
-35.572219500000074
 20
753.06594799999993
 11
-35.822219500000074
 21
753.11944599999993
  0
LINE
  8
_0-0_0
  6
CONTINUOUS
 62
    7
 10
-35.572219500000074
 20
752.87542699999995
 11
-35.822219500000074
 21
753.11944599999993
  0
LINE
  8
_0-0_0
  6
CONTINUOUS
 62
    7
 10
-35.572219500000074
 20
753.24096699999996
 11
-35.822219500000074
 21
753.32281499999999
  0
LINE
  8
_0-0_0
  6
CONTINUOUS
 62
    7
 10
-35.572219500000074
 20
753.06594799999993
 11
-35.822219500000074
 21
753.32281499999999
  0
LINE
  8
_0-0_0
  6
CONTINUOUS
 62
    7
 10
-35.572219500000074
 20
753.39855999999997
 11
-35.822219500000074
 21
753.50784299999998
  0
LINE
  8
_0-0_0
  6
CONTINUOUS
 62
    7
 10
-35.572219500000074
 20
753.24096699999996
 11
-35.822219500000074
 21
753.50784299999998
  0
LINE
  8
_0-0_0
  6
CONTINUOUS
 62
    7
 10
-35.572219500000074
 20
753.53698699999995
 11
-35.822219500000074
 21
753.67251599999997
  0
LINE
  8
_0-0_0
  6
CONTINUOUS
 62
    7
 10
-35.572219500000074
 20
753.39855999999997
 11
-35.822219500000074
 21
753.67251599999997
  0
LINE
  8
_0-0_0
  6
CONTINUOUS
 62
    7
 10
-35.572219500000074
 20
753.65475500000002
 11
-35.822219500000074
 21
753.81506300000001
  0
LINE
  8
_0-0_0
  6
CONTINUOUS
 62
    7
 10
-35.572219500000074
 20
753.53698699999995
 11
-35.822219500000074
 21
753.81506300000001
  0
LINE
  8
_0-0_0
  6
CONTINUOUS
 62
    7
 10
-35.572219500000074
 20
753.75054899999998
 11
-35.822219500000074
 21
753.93383799999992
  0
LINE
  8
_0-0_0
  6
CONTINUOUS
 62
    7
 10
-35.572219500000074
 20
753.65475500000002
 11
-35.822219500000074
 21
753.93383799999992
  0
LINE
  8
_0-0_0
  6
CONTINUOUS
 62
    7
 10
-35.572219500000074
 20
753.82330300000001
 11
-35.822219500000074
 21
754.02761800000007
  0
LINE
  8
_0-0_0
  6
CONTINUOUS
 62
    7
 10
-35.572219500000074
 20
753.75054899999998
 11
-35.822219500000074
 21
754.02761800000007
  0
LINE
  8
_0-0_0
  6
CONTINUOUS
 62
    7
 10
-35.572219500000074
 20
753.87228400000004
 11
-35.822219500000074
 21
754.09533699999997
  0
LINE
  8
_0-0_0
  6
CONTINUOUS
 62
    7
 10
-35.572219500000074
 20
753.82330300000001
 11
-35.822219500000074
 21
754.09533699999997
  0
LINE
  8
_0-0_0
  6
CONTINUOUS
 62
    7
 10
-35.572219500000074
 20
753.89691199999993
 11
-35.822219500000074
 21
754.13629200000003
  0
LINE
  8
_0-0_0
  6
CONTINUOUS
 62
    7
 10
-35.572219500000074
 20
753.87228400000004
 11
-35.822219500000074
 21
754.13629200000003
  0
LINE
  8
_0-0_0
  6
CONTINUOUS
 62
    7
 10
-35.572219500000074
 20
753.89691199999993
 11
-35.822219500000074
 21
754.14999399999999
  0
LINE
  8
_0-0_0
  6
CONTINUOUS
 62
    7
 10
-45.572219500000074
 20
749.89483599999994
 11
-45.572219500000074
 21
749.64999399999999
  0
LINE
  8
_0-0_0
  6
CONTINUOUS
 62
    7
 10
-45.322219500000074
 20
752.87542699999995
 11
-45.072219500000074
 21
753.11944599999993
  0
LINE
  8
_0-0_0
  6
CONTINUOUS
 62
    7
 10
-45.322219500000074
 20
753.06594799999993
 11
-45.072219500000074
 21
753.11944599999993
  0
LINE
  8
_0-0_0
  6
CONTINUOUS
 62
    7
 10
-45.322219500000074
 20
753.06594799999993
 11
-45.072219500000074
 21
753.32281499999999
  0
LINE
  8
_0-0_0
  6
CONTINUOUS
 62
    7
 10
-45.322219500000074
 20
753.24096699999996
 11
-45.072219500000074
 21
753.32281499999999
  0
LINE
  8
_0-0_0
  6
CONTINUOUS
 62
    7
 10
-45.322219500000074
 20
753.24096699999996
 11
-45.072219500000074
 21
753.50784299999998
  0
LINE
  8
_0-0_0
  6
CONTINUOUS
 62
    7
 10
-45.322219500000074
 20
753.39855999999997
 11
-45.072219500000074
 21
753.50784299999998
  0
LINE
  8
_0-0_0
  6
CONTINUOUS
 62
    7
 10
-45.322219500000074
 20
753.39855999999997
 11
-45.072219500000074
 21
753.67251599999997
  0
LINE
  8
_0-0_0
  6
CONTINUOUS
 62
    7
 10
-45.322219500000074
 20
753.53698699999995
 11
-45.072219500000074
 21
753.67251599999997
  0
LINE
  8
_0-0_0
  6
CONTINUOUS
 62
    7
 10
-45.322219500000074
 20
753.53698699999995
 11
-45.072219500000074
 21
753.81506300000001
  0
LINE
  8
_0-0_0
  6
CONTINUOUS
 62
    7
 10
-45.322219500000074
 20
753.65475500000002
 11
-45.072219500000074
 21
753.81506300000001
  0
LINE
  8
_0-0_0
  6
CONTINUOUS
 62
    7
 10
-45.322219500000074
 20
753.65475500000002
 11
-45.072219500000074
 21
753.93383799999992
  0
LINE
  8
_0-0_0
  6
CONTINUOUS
 62
    7
 10
-45.322219500000074
 20
753.75054899999998
 11
-45.072219500000074
 21
753.93383799999992
  0
LINE
  8
_0-0_0
  6
CONTINUOUS
 62
    7
 10
-45.322219500000074
 20
753.75054899999998
 11
-45.072219500000074
 21
754.02761800000007
  0
LINE
  8
_0-0_0
  6
CONTINUOUS
 62
    7
 10
-45.322219500000074
 20
753.82330300000001
 11
-45.072219500000074
 21
754.02761800000007
  0
LINE
  8
_0-0_0
  6
CONTINUOUS
 62
    7
 10
-45.322219500000074
 20
753.82330300000001
 11
-45.072219500000074
 21
754.09533699999997
  0
LINE
  8
_0-0_0
  6
CONTINUOUS
 62
    7
 10
-45.322219500000074
 20
753.87228400000004
 11
-45.072219500000074
 21
754.09533699999997
  0
LINE
  8
_0-0_0
  6
CONTINUOUS
 62
    7
 10
-45.322219500000074
 20
753.87228400000004
 11
-45.072219500000074
 21
754.13629200000003
  0
LINE
  8
_0-0_0
  6
CONTINUOUS
 62
    7
 10
-45.322219500000074
 20
753.89691199999993
 11
-45.072219500000074
 21
754.13629200000003
  0
LINE
  8
_0-0_0
  6
CONTINUOUS
 62
    7
 10
-45.322219500000074
 20
753.89691199999993
 11
-45.072219500000074
 21
754.14999399999999
  0
LINE
  8
_0-0_0
  6
CONTINUOUS
 62
    7
 10
-45.572219500000074
 20
753.64999399999999
 11
-45.572219500000074
 21
749.89483599999994
  0
LINE
  8
_0-0_0
  6
CONTINUOUS
 62
    7
 10
-45.072219500000074
 20
753.11944599999993
 11
-35.822219500000074
 21
753.11944599999993
  0
LINE
  8
_0-0_0
  6
CONTINUOUS
 62
    7
 10
-45.072219500000074
 20
753.32281499999999
 11
-35.822219500000074
 21
753.32281499999999
  0
LINE
  8
_0-0_0
  6
CONTINUOUS
 62
    7
 10
-45.072219500000074
 20
753.50784299999998
 11
-35.822219500000074
 21
753.50784299999998
  0
LINE
  8
_0-0_0
  6
CONTINUOUS
 62
    7
 10
-45.072219500000074
 20
753.67251599999997
 11
-35.822219500000074
 21
753.67251599999997
  0
LINE
  8
_0-0_0
  6
CONTINUOUS
 62
    7
 10
-45.072219500000074
 20
753.81506300000001
 11
-35.822219500000074
 21
753.81506300000001
  0
LINE
  8
_0-0_0
  6
CONTINUOUS
 62
    7
 10
-45.072219500000074
 20
753.93383799999992
 11
-35.822219500000074
 21
753.93383799999992
  0
LINE
  8
_0-0_0
  6
CONTINUOUS
 62
    7
 10
-45.072219500000074
 20
754.02761800000007
 11
-35.822219500000074
 21
754.02761800000007
  0
LINE
  8
_0-0_0
  6
CONTINUOUS
 62
    7
 10
-45.072219500000074
 20
754.09533699999997
 11
-35.822219500000074
 21
754.09533699999997
  0
LINE
  8
_0-0_0
  6
CONTINUOUS
 62
    7
 10
-45.072219500000074
 20
754.13629200000003
 11
-35.822219500000074
 21
754.13629200000003
  0
LINE
  8
_0-0_0
  6
CONTINUOUS
 62
    7
 10
-45.072219500000074
 20
754.14999399999999
 11
-35.822219500000074
 21
754.14999399999999
  0
LINE
  8
_0-0_0
  6
CONTINUOUS
 62
    7
 10
-9.5722195000000738
 20
770.5
 11
-35.572219500000074
 21
770.5
  0
LINE
  8
_0-0_0
  6
CONTINUOUS
 62
    7
 10
-9.5722195000000738
 20
766
 11
-35.572219500000074
 21
766
  0
LINE
  8
_0-0_0
  6
CONTINUOUS
 62
    7
 10
91.427780499999926
 20
753.89999399999999
 11
93.883453499999973
 21
753.89999399999999
  0
LINE
  8
_0-0_0
  6
CONTINUOUS
 62
    7
 10
93.382369499999982
 20
749.39999399999999
 11
93.883453499999973
 21
749.39999399999999
  0
LINE
  8
_0-0_0
  6
CONTINUOUS
 62
    7
 10
-35.572219500000074
 20
770.5
 11
-35.822219500000074
 21
770.75
  0
LINE
  8
_0-0_0
  6
CONTINUOUS
 62
    7
 10
-35.572219500000074
 20
766
 11
-35.822219500000074
 21
765.75
  0
LINE
  8
_0-0_0
  6
CONTINUOUS
 62
    7
 10
94.027786499999934
 20
753.64999399999999
 11
93.883453499999973
 21
753.89999399999999
  0
LINE
  8
_0-0_0
  6
CONTINUOUS
 62
    7
 10
94.027786499999934
 20
749.64999399999999
 11
93.883453499999973
 21
749.39999399999999
  0
LINE
  8
_0-0_0
  6
CONTINUOUS
 62
    7
 10
-31.572219500000074
 20
754.69998199999998
 11
-30.322219500000074
 21
753.44998199999998
  0
LINE
  8
_0-0_0
  6
CONTINUOUS
 62
    7
 10
-31.572219500000074
 20
765.19998199999998
 11
-30.772216500000013
 21
765.99996899999996
  0
LINE
  8
_0-0_0
  6
CONTINUOUS
 62
    7
 10
-45.572219500000074
 20
770.25
 11
-45.072372500000029
 21
770.74981700000001
  0
LINE
  8
_0-0_0
  6
CONTINUOUS
 62
    7
 10
-45.572219500000074
 20
766.25
 11
-45.072372500000029
 21
765.75015299999995
  0
LINE
  8
_0-0_0
  6
CONTINUOUS
 62
    7
 10
-31.572219500000074
 20
764.94998199999998
 11
-31.972229500000026
 21
764.94998199999998
  0
LINE
  8
_0-0_0
  6
CONTINUOUS
 62
    7
 10
-31.572219500000074
 20
754.94998199999998
 11
-31.972229500000026
 21
754.94998199999998
  0
LINE
  8
_0-0_0
  6
CONTINUOUS
 62
    7
 10
-32.772216500000013
 20
764.48809800000004
 11
-31.972229500000026
 21
764.94998199999998
  0
LINE
  8
_0-0_0
  6
CONTINUOUS
 62
    7
 10
-32.772216500000013
 20
755.41186500000003
 11
-31.972229500000026
 21
754.94998199999998
  0
LINE
  8
_0-0_0
  6
CONTINUOUS
 62
    7
 10
-32.772216500000013
 20
763.94998199999998
 11
-90.772216500000013
 21
763.94998199999998
  0
LINE
  8
_0-0_0
  6
CONTINUOUS
 62
    7
 10
-32.772216500000013
 20
755.94998199999998
 11
-90.772216500000013
 21
755.94998199999998
  0
LINE
  8
_0-0_0
  6
CONTINUOUS
 62
    7
 10
-15.322250500000109
 20
749.39999399999999
 11
-35.572219500000074
 21
749.39999399999999
  0
LINE
  8
_0-0_0
  6
CONTINUOUS
 62
    7
 10
-35.572219500000074
 20
749.39999399999999
 11
-35.822219500000074
 21
749.14999399999999
  0
LINE
  8
_0-0_0
  6
CONTINUOUS
 62
    7
 10
-30.772216500000013
 20
753.89999399999999
 11
-35.572219500000074
 21
753.89999399999999
  0
LINE
  8
_0-0_0
  6
CONTINUOUS
 62
    7
 10
-35.572219500000074
 20
753.89999399999999
 11
-35.822219500000074
 21
754.14999399999999
  0
LINE
  8
_0-0_0
  6
CONTINUOUS
 62
    7
 10
-45.572219500000074
 20
749.64999399999999
 11
-45.072372500000029
 21
749.15014599999995
  0
LINE
  8
_0-0_0
  6
CONTINUOUS
 62
    7
 10
-45.572219500000074
 20
753.64999399999999
 11
-45.072372500000029
 21
754.14984099999992
  0
LINE
  8
_0-0_0
  6
CONTINUOUS
 62
    7
 10
-119.08322150000004
 20
802.14999399999999
 11
-119.08322150000004
 21
789.14999399999999
  0
LINE
  8
_0-0_0
  6
CONTINUOUS
 62
    7
 10
-118.8832245000001
 20
802.14999399999999
 11
-119.08322150000004
 21
802.14999399999999
  0
LINE
  8
_0-0_0
  6
CONTINUOUS
 62
    7
 10
-118.8832245000001
 20
789.14999399999999
 11
-119.08322150000004
 21
789.14999399999999
  0
LINE
  8
_0-0_0
  6
CONTINUOUS
 62
    7
 10
-118.8832245000001
 20
802.14999399999999
 11
-118.8832245000001
 21
820.75
  0
LINE
  8
_0-0_0
  6
CONTINUOUS
 62
    7
 10
-118.78321849999998
 20
820.75
 11
-118.8832245000001
 21
820.75
  0
LINE
  8
_0-0_0
  6
CONTINUOUS
 62
    7
 10
-118.78321849999998
 20
823.25
 11
-118.78321849999998
 21
820.75
  0
ARC
  8
_0-0_0
  6
CONTINUOUS
 62
    7
 10
-119.28321849999998
 20
823.25
 40
0.5
 50
0
 51
90.000003000000007
  0
LINE
  8
_0-0_0
  6
CONTINUOUS
 62
    7
 10
-119.28321849999998
 20
823.75
 11
-122.28321849999998
 21
823.75
  0
ARC
  8
_0-0_0
  6
CONTINUOUS
 62
    7
 10
-122.28321849999998
 20
823.25
 40
0.5
 50
90.000003000000007
 51
179.99999099999999
  0
ARC
  8
_0-0_0
  6
CONTINUOUS
 62
    7
 10
-126.78321849999998
 20
775.75
 40
0.5
 50
179.99999099999999
 51
269.99999700000001
  0
LINE
  8
_0-0_0
  6
CONTINUOUS
 62
    7
 10
-124.28321849999998
 20
775.25
 11
-126.78321849999998
 21
775.25
  0
ARC
  8
_0-0_0
  6
CONTINUOUS
 62
    7
 10
-124.28321849999998
 20
775.75
 40
0.5
 50
269.99999700000001
 51
0
  0
LINE
  8
_0-0_0
  6
CONTINUOUS
 62
    7
 10
-123.78321849999998
 20
780.75
 11
-123.78321849999998
 21
775.75
  0
ARC
  8
_0-0_0
  6
CONTINUOUS
 62
    7
 10
-123.28321849999998
 20
780.75
 40
0.5
 50
90.000003000000007
 51
179.99999099999999
  0
LINE
  8
_0-0_0
  6
CONTINUOUS
 62
    7
 10
-119.28321849999998
 20
781.25
 11
-123.28321849999998
 21
781.25
  0
ARC
  8
_0-0_0
  6
CONTINUOUS
 62
    7
 10
-119.28321849999998
 20
781.75
 40
0.5
 50
269.99999700000001
 51
0
  0
LINE
  8
_0-0_0
  6
CONTINUOUS
 62
    7
 10
-118.78321849999998
 20
784.94998199999998
 11
-118.78321849999998
 21
781.75
  0
LINE
  8
_0-0_0
  6
CONTINUOUS
 62
    7
 10
-118.8832245000001
 20
784.94998199999998
 11
-118.78321849999998
 21
784.94998199999998
  0
LINE
  8
_0-0_0
  6
CONTINUOUS
 62
    7
 10
-118.8832245000001
 20
784.94998199999998
 11
-118.8832245000001
 21
789.14999399999999
  0
LINE
  8
_0-0_0
  6
CONTINUOUS
 62
    7
 10
-119.78321849999998
 20
823.25
 11
-137.58322150000004
 21
823.25
  0
ARC
  8
_0-0_0
  6
CONTINUOUS
 62
    7
 10
-119.78321849999998
 20
822.75
 40
0.5
 50
0
 51
90.000003000000007
  0
LINE
  8
_0-0_0
  6
CONTINUOUS
 62
    7
 10
-119.28321849999998
 20
822.75
 11
-119.28321849999998
 21
782.25
  0
ARC
  8
_0-0_0
  6
CONTINUOUS
 62
    7
 10
-119.78321849999998
 20
782.25
 40
0.5
 50
269.99999700000001
 51
0
  0
LINE
  8
_0-0_0
  6
CONTINUOUS
 62
    7
 10
-123.28321849999998
 20
781.75
 11
-119.78321849999998
 21
781.75
  0
ARC
  8
_0-0_0
  6
CONTINUOUS
 62
    7
 10
-123.28321849999998
 20
780.75
 40
1
 50
90.000003000000007
 51
179.99999099999999
  0
LINE
  8
_0-0_0
  6
CONTINUOUS
 62
    7
 10
-124.28321849999998
 20
780.75
 11
-124.28321849999998
 21
776.25
  0
ARC
  8
_0-0_0
  6
CONTINUOUS
 62
    7
 10
-124.78321849999998
 20
776.25
 40
0.5
 50
269.99999700000001
 51
0
  0
LINE
  8
_0-0_0
  6
CONTINUOUS
 62
    7
 10
-141.78323350000005
 20
775.75
 11
-124.78321849999998
 21
775.75
  0
LINE
  8
_0-0_0
  6
CONTINUOUS
 62
    7
 10
-123.28321849999998
 20
823.44998199999998
 11
-123.28321849999998
 21
823.25
  0
ARC
  8
_0-0_0
  6
CONTINUOUS
 62
    7
 10
-123.58322150000004
 20
823.44998199999998
 40
0.2999999999999999
 50
0
 51
90.000003000000007
  0
LINE
  8
_0-0_0
  6
CONTINUOUS
 62
    7
 10
-123.58322150000004
 20
823.75
 11
-138.28321849999998
 21
823.75
  0
ARC
  8
_0-0_0
  6
CONTINUOUS
 62
    7
 10
-138.28321849999998
 20
823.44998199999998
 40
0.2999999999999999
 50
90.000003000000007
 51
179.99999099999999
  0
LINE
  8
_0-0_0
  6
CONTINUOUS
 62
    7
 10
-138.58322150000004
 20
823.44998199999998
 11
-138.58322150000004
 21
820.25
  0
LINE
  8
_0-0_0
  6
CONTINUOUS
 62
    7
 10
-138.58322150000004
 20
820.25
 11
-144.28323350000005
 21
820.25
  0
LINE
  8
_0-0_0
  6
CONTINUOUS
 62
    7
 10
-144.28323350000005
 20
820.25
 11
-145.08322150000004
 21
819.44998199999998
  0
ARC
  8
_0-0_0
  6
CONTINUOUS
 62
    7
 10
-137.58322150000004
 20
822.75
 40
0.5
 50
90.000003000000007
 51
179.99999099999999
  0
LINE
  8
_0-0_0
  6
CONTINUOUS
 62
    7
 10
-138.08322150000004
 20
822.75
 11
-138.08322150000004
 21
819.94998199999998
  0
ARC
  8
_0-0_0
  6
CONTINUOUS
 62
    7
 10
-138.58322150000004
 20
819.94998199999998
 40
0.5
 50
269.99999700000001
 51
0
  0
LINE
  8
_0-0_0
  6
CONTINUOUS
 62
    7
 10
-138.58322150000004
 20
819.44998199999998
 11
-146.78323350000005
 21
819.44998199999998
  0
ARC
  8
_0-0_0
  6
CONTINUOUS
 62
    7
 10
-146.78323350000005
 20
818.94998199999998
 40
0.5
 50
90.000003000000007
 51
179.99999099999999
  0
LINE
  8
_0-0_0
  6
CONTINUOUS
 62
    7
 10
-147.28323350000005
 20
782.25
 11
-147.28323350000005
 21
818.94998199999998
  0
ARC
  8
_0-0_0
  6
CONTINUOUS
 62
    7
 10
-146.78323350000005
 20
782.25
 40
0.5
 50
179.99999099999999
 51
269.99999700000001
  0
LINE
  8
_0-0_0
  6
CONTINUOUS
 62
    7
 10
-146.78323350000005
 20
781.75
 11
-143.28323350000005
 21
781.75
  0
ARC
  8
_0-0_0
  6
CONTINUOUS
 62
    7
 10
-143.28323350000005
 20
780.75
 40
1
 50
0
 51
90.000003000000007
  0
LINE
  8
_0-0_0
  6
CONTINUOUS
 62
    7
 10
-142.28323350000005
 20
776.25
 11
-142.28323350000005
 21
780.75
  0
ARC
  8
_0-0_0
  6
CONTINUOUS
 62
    7
 10
-141.78323350000005
 20
776.25
 40
0.5
 50
179.99999099999999
 51
269.99999700000001
  0
CIRCLE
  8
_0-0_0
  6
CONTINUOUS
 62
    7
 10
-133.28321849999998
 20
784.75
 40
2.0670000000000002
  0
LINE
  8
_0-0_0
  6
CONTINUOUS
 62
    7
 10
-145.28323350000005
 20
819.75
 11
-145.28323350000005
 21
819.44998199999998
  0
LINE
  8
_0-0_0
  6
CONTINUOUS
 62
    7
 10
-145.28323350000005
 20
819.75
 11
-147.28323350000005
 21
819.75
  0
ARC
  8
_0-0_0
  6
CONTINUOUS
 62
    7
 10
-147.28323350000005
 20
819.25
 40
0.5
 50
90.000003000000007
 51
179.99999099999999
  0
LINE
  8
_0-0_0
  6
CONTINUOUS
 62
    7
 10
-147.78323350000005
 20
819.25
 11
-147.78323350000005
 21
781.75
  0
ARC
  8
_0-0_0
  6
CONTINUOUS
 62
    7
 10
-147.28323350000005
 20
781.75
 40
0.5
 50
179.99999099999999
 51
269.99999700000001
  0
LINE
  8
_0-0_0
  6
CONTINUOUS
 62
    7
 10
-143.28323350000005
 20
781.25
 11
-147.28323350000005
 21
781.25
  0
ARC
  8
_0-0_0
  6
CONTINUOUS
 62
    7
 10
-143.28323350000005
 20
780.75
 40
0.5
 50
0
 51
90.000003000000007
  0
LINE
  8
_0-0_0
  6
CONTINUOUS
 62
    7
 10
-142.78323350000005
 20
775.75
 11
-142.78323350000005
 21
780.75
  0
ARC
  8
_0-0_0
  6
CONTINUOUS
 62
    7
 10
-142.28323350000005
 20
775.75
 40
0.5
 50
179.99999099999999
 51
269.99999700000001
  0
LINE
  8
_0-0_0
  6
CONTINUOUS
 62
    7
 10
-142.28323350000005
 20
775.25
 11
-139.78321849999998
 21
775.25
  0
ARC
  8
_0-0_0
  6
CONTINUOUS
 62
    7
 10
-139.78321849999998
 20
775.75
 40
0.5
 50
269.99999700000001
 51
0
  0
LINE
  8
_0-0_0
  6
CONTINUOUS
 62
    7
 10
-123.78321849999998
 20
775.75
 11
-123.68321250000008
 21
775.75
  0
LINE
  8
_0-0_0
  6
CONTINUOUS
 62
    7
 10
-123.68321250000008
 20
775.75
 11
-123.68321250000008
 21
776.25
  0
LINE
  8
_0-0_0
  6
CONTINUOUS
 62
    7
 10
-123.68321250000008
 20
780.25
 11
-123.68321250000008
 21
776.25
  0
LINE
  8
_0-0_0
  6
CONTINUOUS
 62
    7
 10
-123.78321849999998
 20
780.75
 11
-123.68321250000008
 21
780.75
  0
LINE
  8
_0-0_0
  6
CONTINUOUS
 62
    7
 10
-123.68321250000008
 20
780.25
 11
-123.68321250000008
 21
780.75
  0
LINE
  8
_0-0_0
  6
CONTINUOUS
 62
    7
 10
-123.58322150000004
 20
776.25
 11
-123.58322150000004
 21
776.38034100000004
  0
LINE
  8
_0-0_0
  6
CONTINUOUS
 62
    7
 10
-123.58322150000004
 20
779.88034100000004
 11
-123.58322150000004
 21
776.38034100000004
  0
LINE
  8
_0-0_0
  6
CONTINUOUS
 62
    7
 10
-123.68321250000008
 20
780.14999399999999
 11
-123.58322150000004
 21
780.14999399999999
  0
LINE
  8
_0-0_0
  6
CONTINUOUS
 62
    7
 10
-123.58322150000004
 20
779.88034100000004
 11
-123.58322150000004
 21
780.14999399999999
  0
LINE
  8
_0-0_0
  6
CONTINUOUS
 62
    7
 10
-123.68321250000008
 20
776.25
 11
-123.58322150000004
 21
776.25
  0
LINE
  8
_0-0_0
  6
CONTINUOUS
 62
    7
 10
-123.68321250000008
 20
776.25
 11
-123.58322150000004
 21
776.25
  0
LINE
  8
_0-0_0
  6
CONTINUOUS
 62
    7
 10
-142.08322150000004
 20
773.25
 11
-137.8832245000001
 21
773.25
  0
LINE
  8
_0-0_0
  6
CONTINUOUS
 62
    7
 10
-126.28321849999998
 20
773.25
 11
-128.68321250000008
 21
773.25
  0
LINE
  8
_0-0_0
  6
CONTINUOUS
 62
    7
 10
-126.28321849999998
 20
773.25
 11
-125.08322150000004
 21
773.25
  0
ARC
  8
_0-0_0
  6
CONTINUOUS
 62
    7
 10
-125.08322150000004
 20
772.75
 40
0.5
 50
0
 51
90.000003000000007
  0
ARC
  8
_0-0_0
  6
CONTINUOUS
 62
    7
 10
-126.28321849999998
 20
772.75
 40
0.5
 50
90.000003000000007
 51
179.99999099999999
  0
ARC
  8
_0-0_0
  6
CONTINUOUS
 62
    7
 10
-128.68321250000008
 20
773.75
 40
0.5
 50
179.99999099999999
 51
269.99999700000001
  0
ARC
  8
_0-0_0
  6
CONTINUOUS
 62
    7
 10
-137.8832245000001
 20
773.75
 40
0.5
 50
269.99999700000001
 51
0
  0
ARC
  8
_0-0_0
  6
CONTINUOUS
 62
    7
 10
-142.08322150000004
 20
772.75
 40
0.5
 50
90.000003000000007
 51
179.99999099999999
  0
LINE
  8
_0-0_0
  6
CONTINUOUS
 62
    7
 10
-141.08322150000004
 20
773.75
 11
-141.08322150000004
 21
773.25
  0
ARC
  8
_0-0_0
  6
CONTINUOUS
 62
    7
 10
-140.58322150000004
 20
773.75
 40
0.5
 50
90.000003000000007
 51
179.99999099999999
  0
LINE
  8
_0-0_0
  6
CONTINUOUS
 62
    7
 10
-139.08322150000004
 20
774.25
 11
-140.58322150000004
 21
774.25
  0
ARC
  8
_0-0_0
  6
CONTINUOUS
 62
    7
 10
-139.08322150000004
 20
775.25
 40
1
 50
269.99999700000001
 51
0
  0
LINE
  8
_0-0_0
  6
CONTINUOUS
 62
    7
 10
-138.08322150000004
 20
775.75
 11
-138.08322150000004
 21
775.25
  0
LINE
  8
_0-0_0
  6
CONTINUOUS
 62
    7
 10
-137.58322150000004
 20
775.75
 11
-137.58322150000004
 21
774.75
  0
ARC
  8
_0-0_0
  6
CONTINUOUS
 62
    7
 10
-139.08322150000004
 20
774.75
 40
1.5
 50
269.99999700000001
 51
0
  0
ARC
  8
_0-0_0
  6
CONTINUOUS
 62
    7
 10
-127.48321550000003
 20
774.75
 40
1.5
 50
179.99999099999999
 51
269.99999700000001
  0
LINE
  8
_0-0_0
  6
CONTINUOUS
 62
    7
 10
-125.48321550000003
 20
773.75
 11
-125.48321550000003
 21
773.25
  0
ARC
  8
_0-0_0
  6
CONTINUOUS
 62
    7
 10
-125.98321550000003
 20
773.75
 40
0.5
 50
0
 51
90.000003000000007
  0
LINE
  8
_0-0_0
  6
CONTINUOUS
 62
    7
 10
-127.48321550000003
 20
774.25
 11
-125.98321550000003
 21
774.25
  0
ARC
  8
_0-0_0
  6
CONTINUOUS
 62
    7
 10
-127.48321550000003
 20
775.25
 40
1
 50
179.99999099999999
 51
269.99999700000001
  0
LINE
  8
_0-0_0
  6
CONTINUOUS
 62
    7
 10
-128.48321550000003
 20
775.75
 11
-128.48321550000003
 21
775.25
  0
LINE
  8
_0-0_0
  6
CONTINUOUS
 62
    7
 10
-128.98321550000003
 20
775.75
 11
-128.98321550000003
 21
774.75
  0
LINE
  8
_0-0_0
  6
CONTINUOUS
 62
    7
 10
-124.58322150000004
 20
746.25
 11
-124.58322150000004
 21
747.14999399999999
  0
LINE
  8
_0-0_0
  6
CONTINUOUS
 62
    7
 10
-124.58322150000004
 20
747.14999399999999
 11
-124.58322150000004
 21
749.64999399999999
  0
LINE
  8
_0-0_0
  6
CONTINUOUS
 62
    7
 10
-124.58322150000004
 20
749.64999399999999
 11
-124.58322150000004
 21
770.25
  0
LINE
  8
_0-0_0
  6
CONTINUOUS
 62
    7
 10
-124.58322150000004
 20
770.25
 11
-124.58322150000004
 21
772.75
  0
LINE
  8
_0-0_0
  6
CONTINUOUS
 62
    7
 10
-126.78321849999998
 20
772.75
 11
-126.78321849999998
 21
771.50497399999995
  0
LINE
  8
_0-0_0
  6
CONTINUOUS
 62
    7
 10
-129.18321250000008
 20
773.75
 11
-129.18321250000008
 21
775.54998799999998
  0
ARC
  8
_0-0_0
  6
CONTINUOUS
 62
    7
 10
-129.68321250000008
 20
775.54998799999998
 40
0.5
 50
0
 51
23.579369
  0
LINE
  8
_0-0_0
  6
CONTINUOUS
 62
    7
 10
-137.3832245000001
 20
773.75
 11
-137.3832245000001
 21
775.54998799999998
  0
ARC
  8
_0-0_0
  6
CONTINUOUS
 62
    7
 10
-136.8832245000001
 20
775.54998799999998
 40
0.5
 50
156.420635
 51
179.99999099999999
  0
LINE
  8
_0-0_0
  6
CONTINUOUS
 62
    7
 10
-142.58322150000004
 20
746.25
 11
-142.58322150000004
 21
756.44998199999998
  0
LINE
  8
_0-0_0
  6
CONTINUOUS
 62
    7
 10
-142.58322150000004
 20
756.44998199999998
 11
-142.58322150000004
 21
757.44998199999998
  0
LINE
  8
_0-0_0
  6
CONTINUOUS
 62
    7
 10
-142.58322150000004
 20
757.44998199999998
 11
-142.58322150000004
 21
762.44998199999998
  0
LINE
  8
_0-0_0
  6
CONTINUOUS
 62
    7
 10
-142.58322150000004
 20
762.44998199999998
 11
-142.58322150000004
 21
763.44998199999998
  0
LINE
  8
_0-0_0
  6
CONTINUOUS
 62
    7
 10
-142.58322150000004
 20
772.75
 11
-142.58322150000004
 21
763.44998199999998
  0
LINE
  8
_0-0_0
  6
CONTINUOUS
 62
    7
 10
-123.78321849999998
 20
771.75
 11
-124.58322150000004
 21
771.75
  0
LINE
  8
_0-0_0
  6
CONTINUOUS
 62
    7
 10
-123.78321849999998
 20
772.54998799999998
 11
-124.58322150000004
 21
772.54998799999998
  0
LINE
  8
_0-0_0
  6
CONTINUOUS
 62
    7
 10
-123.78321849999998
 20
771.54998799999998
 11
-123.78321849999998
 21
772.54998799999998
  0
LINE
  8
_0-0_0
  6
CONTINUOUS
 62
    7
 10
-123.78321849999998
 20
752.94998199999998
 11
-124.58322150000004
 21
752.94998199999998
  0
LINE
  8
_0-0_0
  6
CONTINUOUS
 62
    7
 10
-123.78321849999998
 20
752.94998199999998
 11
-123.78321849999998
 21
755.94998199999998
  0
LINE
  8
_0-0_0
  6
CONTINUOUS
 62
    7
 10
-123.78321849999998
 20
768.18768299999999
 11
-123.78321849999998
 21
755.94998199999998
  0
LINE
  8
_0-0_0
  6
CONTINUOUS
 62
    7
 10
-123.78321849999998
 20
768.18768299999999
 11
-123.78321849999998
 21
769.15045199999997
  0
LINE
  8
_0-0_0
  6
CONTINUOUS
 62
    7
 10
-124.58322150000004
 20
769.15045199999997
 11
-124.58322150000004
 21
771.75
  0
ARC
  8
_0-0_0
  6
CONTINUOUS
 62
    7
 10
-130.19815050000011
 20
768.43203700000004
 40
5.7120379999999997
 50
18.558475999999999
 51
26.433648000000002
  0
ARC
  8
_0-0_0
  6
CONTINUOUS
 62
    7
 10
-124.78321849999998
 20
770.25
 40
0.2
 50
269.99999700000001
 51
0
  0
ARC
  8
_0-0_0
  6
CONTINUOUS
 62
    7
 10
-124.78321849999998
 20
749.64999399999999
 40
0.2
 50
0
 51
90.000003000000007
  0
ARC
  8
_0-0_0
  6
CONTINUOUS
 62
    7
 10
-130.19802850000008
 20
751.46801800000003
 40
5.711964
 50
333.565022
 51
341.44031000000001
  0
ARC
  8
_0-0_0
  6
CONTINUOUS
 62
    7
 10
-125.08322150000004
 20
747.14999399999999
 40
0.5
 50
269.99999700000001
 51
0
  0
LINE
  8
_0-0_0
  6
CONTINUOUS
 62
    7
 10
-125.08322150000004
 20
746.25
 11
-124.58322150000004
 21
746.25
  0
LINE
  8
_0-0_0
  6
CONTINUOUS
 62
    7
 10
-124.58322150000004
 20
746.25
 11
-125.08322150000004
 21
745.75
  0
ARC
  8
_0-0_0
  6
CONTINUOUS
 62
    7
 10
-126.78321849999998
 20
768.75
 40
2.2999999999999998
 50
34.417387999999995
 51
79.713437000000013
  0
LINE
  8
_0-0_0
  6
CONTINUOUS
 62
    7
 10
-124.8445435000001
 20
770.04998799999998
 11
-124.88584950000006
 21
770.04998799999998
  0
LINE
  8
_0-0_0
  6
CONTINUOUS
 62
    7
 10
-124.8445435000001
 20
770.04998799999998
 11
-124.83497650000004
 21
770.05102499999998
  0
LINE
  8
_0-0_0
  6
CONTINUOUS
 62
    7
 10
-124.83497650000004
 20
770.05102499999998
 11
-124.82548550000001
 21
770.05419899999993
  0
LINE
  8
_0-0_0
  6
CONTINUOUS
 62
    7
 10
-124.82548550000001
 20
770.05419899999993
 11
-124.81622349999998
 21
770.05960099999993
  0
LINE
  8
_0-0_0
  6
CONTINUOUS
 62
    7
 10
-124.81622349999998
 20
770.05960099999993
 11
-124.8074345
 21
770.06710799999996
  0
LINE
  8
_0-0_0
  6
CONTINUOUS
 62
    7
 10
-124.8074345
 20
770.06710799999996
 11
-124.79203849999999
 21
770.08776899999998
  0
LINE
  8
_0-0_0
  6
CONTINUOUS
 62
    7
 10
-124.79203849999999
 20
770.08776899999998
 11
-124.78025850000006
 21
770.11502100000007
  0
LINE
  8
_0-0_0
  6
CONTINUOUS
 62
    7
 10
-124.78025850000006
 20
770.11502100000007
 11
-124.77307150000001
 21
770.147156
  0
LINE
  8
_0-0_0
  6
CONTINUOUS
 62
    7
 10
-124.77307150000001
 20
770.147156
 11
-124.77117950000002
 21
770.18221999999992
  0
LINE
  8
_0-0_0
  6
CONTINUOUS
 62
    7
 10
-124.77117950000002
 20
770.18221999999992
 11
-124.77503950000005
 21
770.21838400000001
  0
LINE
  8
_0-0_0
  6
CONTINUOUS
 62
    7
 10
-124.77503950000005
 20
770.21838400000001
 11
-124.78321849999998
 21
770.25
  0
ARC
  8
_0-0_0
  6
CONTINUOUS
 62
    7
 10
-126.28321849999998
 20
771.50497399999995
 40
0.5
 50
179.99999099999999
 51
259.71343899999994
  0
LINE
  8
_0-0_0
  6
CONTINUOUS
 62
    7
 10
-141.78323350000005
 20
768.75
 11
-141.78323350000005
 21
755.14999399999999
  0
LINE
  8
_0-0_0
  6
CONTINUOUS
 62
    7
 10
-141.78323350000005
 20
754.64999399999999
 11
-141.78323350000005
 21
755.14999399999999
  0
LINE
  8
_0-0_0
  6
CONTINUOUS
 62
    7
 10
-141.78323350000005
 20
751.64999399999999
 11
-141.78323350000005
 21
754.64999399999999
  0
LINE
  8
_0-0_0
  6
CONTINUOUS
 62
    7
 10
-141.78323350000005
 20
751.14999399999999
 11
-141.78323350000005
 21
751.64999399999999
  0
ARC
  8
_0-0_0
  6
CONTINUOUS
 62
    7
 10
-139.78321849999998
 20
768.75
 40
2
 50
93.840255999999997
 51
179.99999099999999
  0
LINE
  8
_0-0_0
  6
CONTINUOUS
 62
    7
 10
-139.78321849999998
 20
770.75
 11
-130.78321849999998
 21
770.75
  0
LINE
  8
_0-0_0
  6
CONTINUOUS
 62
    7
 10
-126.78321849999998
 20
770.75
 11
-127.28321849999998
 21
770.75
  0
LINE
  8
_0-0_0
  6
CONTINUOUS
 62
    7
 10
-127.28321849999998
 20
770.75
 11
-130.28321849999998
 21
770.75
  0
LINE
  8
_0-0_0
  6
CONTINUOUS
 62
    7
 10
-130.78321849999998
 20
770.75
 11
-130.28321849999998
 21
770.75
  0
ARC
  8
_0-0_0
  6
CONTINUOUS
 62
    7
 10
-126.78321849999998
 20
768.75
 40
2
 50
0
 51
90.000003000000007
  0
LINE
  8
_0-0_0
  6
CONTINUOUS
 62
    7
 10
-142.78323350000005
 20
771.75
 11
-142.58322150000004
 21
771.75
  0
LINE
  8
_0-0_0
  6
CONTINUOUS
 62
    7
 10
-142.78323350000005
 20
772.54998799999998
 11
-142.58322150000004
 21
772.54998799999998
  0
LINE
  8
_0-0_0
  6
CONTINUOUS
 62
    7
 10
-142.78323350000005
 20
772.54998799999998
 11
-142.78323350000005
 21
771.75012199999992
  0
LINE
  8
_0-0_0
  6
CONTINUOUS
 62
    7
 10
-142.78323350000005
 20
752.94998199999998
 11
-142.58322150000004
 21
752.94998199999998
  0
LINE
  8
_0-0_0
  6
CONTINUOUS
 62
    7
 10
-142.78323350000005
 20
755.94998199999998
 11
-142.78323350000005
 21
752.94998199999998
  0
LINE
  8
_0-0_0
  6
CONTINUOUS
 62
    7
 10
-142.78323350000005
 20
768.18768299999999
 11
-142.78323350000005
 21
755.94998199999998
  0
LINE
  8
_0-0_0
  6
CONTINUOUS
 62
    7
 10
-142.78323350000005
 20
769.15045199999997
 11
-142.78323350000005
 21
768.18768299999999
  0
ARC
  8
_0-0_0
  6
CONTINUOUS
 62
    7
 10
-142.08322150000004
 20
762.44998199999998
 40
0.5
 50
90.000003000000007
 51
179.99999099999999
  0
ARC
  8
_0-0_0
  6
CONTINUOUS
 62
    7
 10
-142.08322150000004
 20
757.44998199999998
 40
0.5
 50
179.99999099999999
 51
269.99999700000001
  0
LINE
  8
_0-0_0
  6
CONTINUOUS
 62
    7
 10
-142.58322150000004
 20
746.25
 11
-142.08322150000004
 21
746.25
  0
LINE
  8
_0-0_0
  6
CONTINUOUS
 62
    7
 10
-142.58322150000004
 20
746.25
 11
-142.08322150000004
 21
745.75
  0
LINE
  8
_0-0_0
  6
CONTINUOUS
 62
    7
 10
-124.58322150000004
 20
752.95001200000002
 11
-124.58322150000004
 21
751.79998799999998
  0
ARC
  8
_0-0_0
  6
CONTINUOUS
 62
    7
 10
-126.98321550000003
 20
751.79998799999998
 40
2.3999999999999999
 50
359.58604600000001
 51
0.0000099999999787
  0
LINE
  8
_0-0_0
  6
CONTINUOUS
 62
    7
 10
-123.78321849999998
 20
769.15045199999997
 11
-123.78321849999998
 21
771.75
  0
LINE
  8
_0-0_0
  6
CONTINUOUS
 62
    7
 10
-124.78321849999998
 20
770.04998799999998
 11
-124.8445435000001
 21
770.04998799999998
  0
LINE
  8
_0-0_0
  6
CONTINUOUS
 62
    7
 10
-124.88584950000006
 20
770.04998799999998
 11
-124.88807650000001
 21
770.04998799999998
  0
LINE
  8
_0-0_0
  6
CONTINUOUS
 62
    7
 10
-125.08322150000004
 20
746.25
 11
-142.08322150000004
 21
746.25
  0
LINE
  8
_0-0_0
  6
CONTINUOUS
 62
    7
 10
-125.0197445
 20
750.04998799999998
 11
-124.98281850000001
 21
749.97976700000004
  0
LINE
  8
_0-0_0
  6
CONTINUOUS
 62
    7
 10
-124.98281850000001
 20
749.97976700000004
 11
-124.96322650000002
 21
749.94528200000002
  0
LINE
  8
_0-0_0
  6
CONTINUOUS
 62
    7
 10
-124.96322650000002
 20
749.94528200000002
 11
-124.93713350000007
 21
749.90344200000004
  0
LINE
  8
_0-0_0
  6
CONTINUOUS
 62
    7
 10
-124.93713350000007
 20
749.90344200000004
 11
-124.92382850000001
 21
749.88439900000003
  0
LINE
  8
_0-0_0
  6
CONTINUOUS
 62
    7
 10
-124.92382850000001
 20
749.88439900000003
 11
-124.90547149999998
 21
749.86200000000008
  0
LINE
  8
_0-0_0
  6
CONTINUOUS
 62
    7
 10
-124.90547149999998
 20
749.86200000000008
 11
-124.89266950000001
 21
749.85137899999995
  0
LINE
  8
_0-0_0
  6
CONTINUOUS
 62
    7
 10
-124.89266950000001
 20
749.85137899999995
 11
-124.88807650000001
 21
749.84997599999997
  0
LINE
  8
_0-0_0
  6
CONTINUOUS
 62
    7
 10
-124.88584950000006
 20
749.84997599999997
 11
-124.88807650000001
 21
749.84997599999997
  0
LINE
  8
_0-0_0
  6
CONTINUOUS
 62
    7
 10
-125.0197445
 20
769.84997599999997
 11
-124.98281850000001
 21
769.92022700000007
  0
LINE
  8
_0-0_0
  6
CONTINUOUS
 62
    7
 10
-124.98281850000001
 20
769.92022700000007
 11
-124.96322650000002
 21
769.95468099999994
  0
LINE
  8
_0-0_0
  6
CONTINUOUS
 62
    7
 10
-124.96322650000002
 20
769.95468099999994
 11
-124.93713350000007
 21
769.99652100000003
  0
LINE
  8
_0-0_0
  6
CONTINUOUS
 62
    7
 10
-124.93713350000007
 20
769.99652100000003
 11
-124.92382850000001
 21
770.01556400000004
  0
LINE
  8
_0-0_0
  6
CONTINUOUS
 62
    7
 10
-124.92382850000001
 20
770.01556400000004
 11
-124.90547149999998
 21
770.03796399999999
  0
LINE
  8
_0-0_0
  6
CONTINUOUS
 62
    7
 10
-124.90547149999998
 20
770.03796399999999
 11
-124.89266950000001
 21
770.04858400000001
  0
LINE
  8
_0-0_0
  6
CONTINUOUS
 62
    7
 10
-124.89266950000001
 20
770.04858400000001
 11
-124.88807650000001
 21
770.04998799999998
  0
LINE
  8
_0-0_0
  6
CONTINUOUS
 62
    7
 10
-124.88584950000006
 20
749.84997599999997
 11
-124.8445435000001
 21
749.84997599999997
  0
LINE
  8
_0-0_0
  6
CONTINUOUS
 62
    7
 10
-124.78321849999998
 20
749.84997599999997
 11
-124.8445435000001
 21
749.84997599999997
  0
LINE
  8
_0-0_0
  6
CONTINUOUS
 62
    7
 10
-124.8445435000001
 20
749.84997599999997
 11
-124.83497650000004
 21
749.84893799999998
  0
LINE
  8
_0-0_0
  6
CONTINUOUS
 62
    7
 10
-124.83497650000004
 20
749.84893799999998
 11
-124.82548550000001
 21
749.84576399999992
  0
LINE
  8
_0-0_0
  6
CONTINUOUS
 62
    7
 10
-124.82548550000001
 20
749.84576399999992
 11
-124.81622349999998
 21
749.84036300000002
  0
LINE
  8
_0-0_0
  6
CONTINUOUS
 62
    7
 10
-124.81622349999998
 20
749.84036300000002
 11
-124.8074345
 21
749.832855
  0
LINE
  8
_0-0_0
  6
CONTINUOUS
 62
    7
 10
-124.8074345
 20
749.832855
 11
-124.79203849999999
 21
749.81222500000001
  0
LINE
  8
_0-0_0
  6
CONTINUOUS
 62
    7
 10
-124.79203849999999
 20
749.81222500000001
 11
-124.78025850000006
 21
749.784943
  0
LINE
  8
_0-0_0
  6
CONTINUOUS
 62
    7
 10
-124.78025850000006
 20
749.784943
 11
-124.77307150000001
 21
749.75280799999996
  0
LINE
  8
_0-0_0
  6
CONTINUOUS
 62
    7
 10
-124.77307150000001
 20
749.75280799999996
 11
-124.77117950000002
 21
749.71774299999993
  0
LINE
  8
_0-0_0
  6
CONTINUOUS
 62
    7
 10
-124.77117950000002
 20
749.71774299999993
 11
-124.77503950000005
 21
749.68157999999994
  0
LINE
  8
_0-0_0
  6
CONTINUOUS
 62
    7
 10
-124.77503950000005
 20
749.68157999999994
 11
-124.78321849999998
 21
749.64999399999999
  0
ARC
  8
_0-0_0
  6
CONTINUOUS
 62
    7
 10
-126.78321849999998
 20
751.14999399999999
 40
2.2999999999999998
 50
280.28656300000006
 51
325.58260500000006
  0
LINE
  8
_0-0_0
  6
CONTINUOUS
 62
    7
 10
-125.08322150000004
 20
746.64999399999999
 11
-126.28321849999998
 21
746.64999399999999
  0
LINE
  8
_0-0_0
  6
CONTINUOUS
 62
    7
 10
-125.08322150000004
 20
745.75
 11
-142.08322150000004
 21
745.75
  0
LINE
  8
_0-0_0
  6
CONTINUOUS
 62
    7
 10
-141.78323350000005
 20
762.94998199999998
 11
-142.08322150000004
 21
762.94998199999998
  0
ARC
  8
_0-0_0
  6
CONTINUOUS
 62
    7
 10
-141.28323350000005
 20
755.14999399999999
 40
0.5
 50
179.99999099999999
 51
269.99999700000001
  0
CIRCLE
  8
_0-0_0
  6
CONTINUOUS
 62
    7
 10
-139.28321849999998
 20
751.64999399999999
 40
2.5
  0
LINE
  8
_0-0_0
  6
CONTINUOUS
 62
    7
 10
-136.28321849999998
 20
749.14999399999999
 11
-139.28321849999998
 21
749.14999399999999
  0
LINE
  8
_0-0_0
  6
CONTINUOUS
 62
    7
 10
-135.78321849999998
 20
749.14999399999999
 11
-136.28321849999998
 21
749.14999399999999
  0
ARC
  8
_0-0_0
  6
CONTINUOUS
 62
    7
 10
-139.78321849999998
 20
751.14999399999999
 40
2
 50
179.99999099999999
 51
269.99999700000001
  0
LINE
  8
_0-0_0
  6
CONTINUOUS
 62
    7
 10
-139.28321849999998
 20
749.14999399999999
 11
-139.78321849999998
 21
749.14999399999999
  0
LINE
  8
_0-0_0
  6
CONTINUOUS
 62
    7
 10
-139.78321849999998
 20
770.64733899999999
 11
-139.7991025
 21
770.67459099999996
  0
LINE
  8
_0-0_0
  6
CONTINUOUS
 62
    7
 10
-139.7991025
 20
770.67459099999996
 11
-139.81494150000003
 21
770.69757099999993
  0
LINE
  8
_0-0_0
  6
CONTINUOUS
 62
    7
 10
-139.81494150000003
 20
770.69757099999993
 11
-139.8289185000001
 21
770.71432499999992
  0
LINE
  8
_0-0_0
  6
CONTINUOUS
 62
    7
 10
-139.8289185000001
 20
770.71432499999992
 11
-139.84281950000002
 21
770.72766100000001
  0
LINE
  8
_0-0_0
  6
CONTINUOUS
 62
    7
 10
-139.84281950000002
 20
770.72766100000001
 11
-139.85504150000008
 21
770.73660300000006
  0
LINE
  8
_0-0_0
  6
CONTINUOUS
 62
    7
 10
-139.85504150000008
 20
770.73660300000006
 11
-139.86715750000008
 21
770.74279799999999
  0
LINE
  8
_0-0_0
  6
CONTINUOUS
 62
    7
 10
-139.86715750000008
 20
770.74279799999999
 11
-139.87802150000005
 21
770.74609400000008
  0
LINE
  8
_0-0_0
  6
CONTINUOUS
 62
    7
 10
-139.87802150000005
 20
770.74609400000008
 11
-139.88877850000006
 21
770.74713100000008
  0
LINE
  8
_0-0_0
  6
CONTINUOUS
 62
    7
 10
-139.88877850000006
 20
770.74713100000008
 11
-139.89125050000007
 21
770.74707000000001
  0
LINE
  8
_0-0_0
  6
CONTINUOUS
 62
    7
 10
-124.78321849999998
 20
768.25
 11
-124.78321849999998
 21
768.75
  0
CIRCLE
  8
_0-0_0
  6
CONTINUOUS
 62
    7
 10
-127.28321849999998
 20
768.25
 40
2.5
  0
LINE
  8
_0-0_0
  6
CONTINUOUS
 62
    7
 10
-124.78321849999998
 20
765.25
 11
-124.78321849999998
 21
764.75
  0
LINE
  8
_0-0_0
  6
CONTINUOUS
 62
    7
 10
-124.78321849999998
 20
765.25
 11
-124.78321849999998
 21
768.25
  0
ARC
  8
_0-0_0
  6
CONTINUOUS
 62
    7
 10
-130.78321849999998
 20
770.25
 40
0.5
 50
0
 51
90.000003000000007
  0
LINE
  8
_0-0_0
  6
CONTINUOUS
 62
    7
 10
-124.78321849999998
 20
751.14999399999999
 11
-124.78321849999998
 21
764.75
  0
LINE
  8
_0-0_0
  6
CONTINUOUS
 62
    7
 10
-142.78323350000005
 20
771.75
 11
-142.78323350000005
 21
769.15045199999997
  0
LINE
  8
_0-0_0
  6
CONTINUOUS
 62
    7
 10
-142.08322150000004
 20
756.94998199999998
 11
-141.78323350000005
 21
756.94998199999998
  0
LINE
  8
_0-0_0
  6
CONTINUOUS
 62
    7
 10
-124.58322150000004
 20
772.55004899999994
 11
-124.58322150000004
 21
772.75
  0
ARC
  8
_0-0_0
  6
CONTINUOUS
 62
    7
 10
-126.78321849999998
 20
751.14999399999999
 40
2
 50
273.84026500000004
 51
0.000010000000014
  0
LINE
  8
_0-0_0
  6
CONTINUOUS
 62
    7
 10
-126.78321849999998
 20
749.14999399999999
 11
-135.78321849999998
 21
749.14999399999999
  0
ARC
  8
_0-0_0
  6
CONTINUOUS
 62
    7
 10
-126.28321849999998
 20
748.39498900000001
 40
0.5
 50
100.28656100000001
 51
179.99999099999999
  0
LINE
  8
_0-0_0
  6
CONTINUOUS
 62
    7
 10
-126.78321849999998
 20
747.14999399999999
 11
-126.78321849999998
 21
748.39498900000001
  0
ARC
  8
_0-0_0
  6
CONTINUOUS
 62
    7
 10
-126.28321849999998
 20
747.14999399999999
 40
0.5
 50
179.99999099999999
 51
269.99999700000001
  0
LINE
  8
_0-0_0
  6
CONTINUOUS
 62
    7
 10
-141.20623750000004
 20
754.64999399999999
 11
-141.28323350000005
 21
754.64999399999999
  0
LINE
  8
_0-0_0
  6
CONTINUOUS
 62
    7
 10
-139.28321849999998
 20
754.64999399999999
 11
-139.76472450000006
 21
754.64999399999999
  0
LINE
  8
_0-0_0
  6
CONTINUOUS
 62
    7
 10
-139.76472450000006
 20
754.64999399999999
 11
-141.20623750000004
 21
754.64999399999999
  0
LINE
  8
_0-0_0
  6
CONTINUOUS
 62
    7
 10
-136.28321849999998
 20
749.64999399999999
 11
-136.28321849999998
 21
749.72695900000008
  0
LINE
  8
_0-0_0
  6
CONTINUOUS
 62
    7
 10
-136.28321849999998
 20
751.16848800000002
 11
-136.28321849999998
 21
749.72695900000008
  0
LINE
  8
_0-0_0
  6
CONTINUOUS
 62
    7
 10
-136.28321849999998
 20
751.16848800000002
 11
-136.28321849999998
 21
751.64999399999999
  0
ARC
  8
_0-0_0
  6
CONTINUOUS
 62
    7
 10
-139.28321849999998
 20
751.64999399999999
 40
3
 50
0
 51
89.999995999999996
  0
ARC
  8
_0-0_0
  6
CONTINUOUS
 62
    7
 10
-135.78321849999998
 20
749.64999399999999
 40
0.5
 50
179.99999099999999
 51
269.99999700000001
  0
LINE
  8
_0-0_0
  6
CONTINUOUS
 62
    7
 10
-130.28321849999998
 20
770.17300399999999
 11
-130.28321849999998
 21
770.25
  0
LINE
  8
_0-0_0
  6
CONTINUOUS
 62
    7
 10
-130.28321849999998
 20
768.73147599999993
 11
-130.28321849999998
 21
770.17300399999999
  0
LINE
  8
_0-0_0
  6
CONTINUOUS
 62
    7
 10
-130.28321849999998
 20
768.25
 11
-130.28321849999998
 21
768.73147599999993
  0
ARC
  8
_0-0_0
  6
CONTINUOUS
 62
    7
 10
-127.28321849999998
 20
768.25
 40
3
 50
179.99999099999999
 51
269.99999700000001
  0
LINE
  8
_0-0_0
  6
CONTINUOUS
 62
    7
 10
-126.80171250000001
 20
765.25
 11
-127.28321849999998
 21
765.25
  0
LINE
  8
_0-0_0
  6
CONTINUOUS
 62
    7
 10
-126.80171250000001
 20
765.25
 11
-125.36019950000002
 21
765.25
  0
LINE
  8
_0-0_0
  6
CONTINUOUS
 62
    7
 10
-125.28321849999998
 20
765.25
 11
-125.36019950000002
 21
765.25
  0
ARC
  8
_0-0_0
  6
CONTINUOUS
 62
    7
 10
-125.28321849999998
 20
764.75
 40
0.5
 50
0
 51
90.000003000000007
  0
LINE
  8
_0-0_0
  6
CONTINUOUS
 62
    7
 10
-126.78321849999998
 20
749.25262500000008
 11
-126.76733450000006
 21
749.22537199999999
  0
LINE
  8
_0-0_0
  6
CONTINUOUS
 62
    7
 10
-126.76733450000006
 20
749.22537199999999
 11
-126.75149550000003
 21
749.20239300000003
  0
LINE
  8
_0-0_0
  6
CONTINUOUS
 62
    7
 10
-126.75149550000003
 20
749.20239300000003
 11
-126.73751850000008
 21
749.18563799999993
  0
LINE
  8
_0-0_0
  6
CONTINUOUS
 62
    7
 10
-126.73751850000008
 20
749.18563799999993
 11
-126.72361750000005
 21
749.17230199999995
  0
LINE
  8
_0-0_0
  6
CONTINUOUS
 62
    7
 10
-126.72361750000005
 20
749.17230199999995
 11
-126.71139549999998
 21
749.16339100000005
  0
LINE
  8
_0-0_0
  6
CONTINUOUS
 62
    7
 10
-126.71139549999998
 20
749.16339100000005
 11
-126.6992795000001
 21
749.15716599999996
  0
LINE
  8
_0-0_0
  6
CONTINUOUS
 62
    7
 10
-126.6992795000001
 20
749.15716599999996
 11
-126.68841550000002
 21
749.15390000000002
  0
LINE
  8
_0-0_0
  6
CONTINUOUS
 62
    7
 10
-126.68841550000002
 20
749.15390000000002
 11
-126.67765850000001
 21
749.15283199999999
  0
LINE
  8
_0-0_0
  6
CONTINUOUS
 62
    7
 10
-126.67765850000001
 20
749.15283199999999
 11
-126.67518650000011
 21
749.15289299999995
  0
ARC
  8
_0-0_0
  6
CONTINUOUS
 62
    7
 10
-136.51333650000004
 20
758.77673299999992
 40
3.063399
 50
199.82113599999997
 51
205.28948099999999
  0
ARC
  8
_0-0_0
  6
CONTINUOUS
 62
    7
 10
-136.51365650000002
 20
761.12335200000007
 40
3.0630549999999999
 50
154.710137
 51
160.17869999999999
  0
ARC
  8
_0-0_0
  6
CONTINUOUS
 62
    7
 10
-133.28321849999998
 20
759.94998199999998
 40
6.5
 50
160.10415599999999
 51
199.895612
  0
ARC
  8
_0-0_0
  6
CONTINUOUS
 62
    7
 10
-130.05310050000003
 20
761.12322999999992
 40
3.0633949999999999
 50
19.82113
 51
25.289566000000001
  0
ARC
  8
_0-0_0
  6
CONTINUOUS
 62
    7
 10
-130.05278050000004
 20
758.776611
 40
3.0630519999999999
 50
334.71006
 51
340.17869200000001
  0
LINE
  8
_0-0_0
  6
CONTINUOUS
 62
    7
 10
-132.54154949999997
 20
753.44998199999998
 11
-128.02488749999998
 21
756.05767800000001
  0
LINE
  8
_0-0_0
  6
CONTINUOUS
 62
    7
 10
-134.02488749999998
 20
753.44998199999998
 11
-132.54154949999997
 21
753.44998199999998
  0
LINE
  8
_0-0_0
  6
CONTINUOUS
 62
    7
 10
-138.54154949999997
 20
756.05767800000001
 11
-134.02488749999998
 21
753.44998199999998
  0
LINE
  8
_0-0_0
  6
CONTINUOUS
 62
    7
 10
-139.28321849999998
 20
762.55767800000001
 11
-139.28321849999998
 21
757.34228499999995
  0
LINE
  8
_0-0_0
  6
CONTINUOUS
 62
    7
 10
-138.54154949999997
 20
756.05767800000001
 11
-139.28321849999998
 21
757.34228499999995
  0
LINE
  8
_0-0_0
  6
CONTINUOUS
 62
    7
 10
-134.02488749999998
 20
766.44998199999998
 11
-138.54154949999997
 21
763.84228499999995
  0
LINE
  8
_0-0_0
  6
CONTINUOUS
 62
    7
 10
-138.83567850000009
 20
763.332855
 11
-139.28321849999998
 21
762.55767800000001
  0
LINE
  8
_0-0_0
  6
CONTINUOUS
 62
    7
 10
-138.83567850000009
 20
763.332855
 11
-138.54154949999997
 21
763.84228499999995
  0
LINE
  8
_0-0_0
  6
CONTINUOUS
 62
    7
 10
-132.54154949999997
 20
766.44998199999998
 11
-134.02488749999998
 21
766.44998199999998
  0
LINE
  8
_0-0_0
  6
CONTINUOUS
 62
    7
 10
-128.02488749999998
 20
763.84228499999995
 11
-132.54154949999997
 21
766.44998199999998
  0
ARC
  8
_0-0_0
  6
CONTINUOUS
 62
    7
 10
-133.28321849999998
 20
759.94998199999998
 40
6.5
 50
340.10416099999998
 51
19.895609999999952
  0
LINE
  8
_0-0_0
  6
CONTINUOUS
 62
    7
 10
-127.73075850000009
 20
756.56710799999996
 11
-127.28321849999998
 21
757.34228499999995
  0
LINE
  8
_0-0_0
  6
CONTINUOUS
 62
    7
 10
-127.73075850000009
 20
756.56710799999996
 11
-128.02488749999998
 21
756.05767800000001
  0
CIRCLE
  8
_0-0_0
  6
CONTINUOUS
 62
    7
 10
-133.28321849999998
 20
759.94998199999998
 40
5.25
  0
LINE
  8
_0-0_0
  6
CONTINUOUS
 62
    7
 10
-127.28321849999998
 20
762.55767800000001
 11
-127.28321849999998
 21
757.34228499999995
  0
LINE
  8
_0-0_0
  6
CONTINUOUS
 62
    7
 10
-128.02488749999998
 20
763.84228499999995
 11
-127.28321849999998
 21
762.55767800000001
  0
LINE
  8
_0-0_0
  6
CONTINUOUS
 62
    7
 10
-125.39620950000005
 20
769.47543300000007
 11
-125.11814850000007
 21
769.5
  0
LINE
  8
_0-0_0
  6
CONTINUOUS
 62
    7
 10
-125.27845750000006
 20
769.27145399999995
 11
-125.11814850000007
 21
769.5
  0
LINE
  8
_0-0_0
  6
CONTINUOUS
 62
    7
 10
-125.53463750000003
 20
769.66595499999994
 11
-125.26068150000003
 21
769.71945200000005
  0
LINE
  8
_0-0_0
  6
CONTINUOUS
 62
    7
 10
-125.39620950000005
 20
769.47543300000007
 11
-125.26068150000003
 21
769.71945200000005
  0
LINE
  8
_0-0_0
  6
CONTINUOUS
 62
    7
 10
-125.69223050000005
 20
769.84097300000008
 11
-125.42535450000003
 21
769.922821
  0
LINE
  8
_0-0_0
  6
CONTINUOUS
 62
    7
 10
-125.53463750000003
 20
769.66595499999994
 11
-125.42535450000003
 21
769.922821
  0
LINE
  8
_0-0_0
  6
CONTINUOUS
 62
    7
 10
-125.86724850000007
 20
769.99856599999998
 11
-125.61039750000009
 21
770.10784899999999
  0
LINE
  8
_0-0_0
  6
CONTINUOUS
 62
    7
 10
-125.69223050000005
 20
769.84097300000008
 11
-125.61039750000009
 21
770.10784899999999
  0
LINE
  8
_0-0_0
  6
CONTINUOUS
 62
    7
 10
-126.05778550000002
 20
770.13699300000007
 11
-125.81375150000008
 21
770.27252199999998
  0
LINE
  8
_0-0_0
  6
CONTINUOUS
 62
    7
 10
-125.86724850000007
 20
769.99856599999998
 11
-125.81375150000008
 21
770.27252199999998
  0
LINE
  8
_0-0_0
  6
CONTINUOUS
 62
    7
 10
-126.2617345000001
 20
770.25476099999992
 11
-126.03321849999998
 21
770.41503899999998
  0
LINE
  8
_0-0_0
  6
CONTINUOUS
 62
    7
 10
-126.05778550000002
 20
770.13699300000007
 11
-126.03321849999998
 21
770.41503899999998
  0
LINE
  8
_0-0_0
  6
CONTINUOUS
 62
    7
 10
-126.47689850000006
 20
770.35052500000006
 11
-126.26637249999999
 21
770.53384400000004
  0
LINE
  8
_0-0_0
  6
CONTINUOUS
 62
    7
 10
-126.2617345000001
 20
770.25476099999992
 11
-126.26637249999999
 21
770.53384400000004
  0
LINE
  8
_0-0_0
  6
CONTINUOUS
 62
    7
 10
-126.70088250000003
 20
770.42330900000002
 11
-126.51068150000003
 21
770.62762500000008
  0
LINE
  8
_0-0_0
  6
CONTINUOUS
 62
    7
 10
-126.47689850000006
 20
770.35052500000006
 11
-126.51068150000003
 21
770.62762500000008
  0
LINE
  8
_0-0_0
  6
CONTINUOUS
 62
    7
 10
-126.93124450000005
 20
770.47228999999993
 11
-126.76344349999999
 21
770.69534299999998
  0
LINE
  8
_0-0_0
  6
CONTINUOUS
 62
    7
 10
-126.70088250000003
 20
770.42330900000002
 11
-126.76344349999999
 21
770.69534299999998
  0
LINE
  8
_0-0_0
  6
CONTINUOUS
 62
    7
 10
-127.16546650000009
 20
770.49688700000002
 11
-127.02189650000003
 21
770.73629800000003
  0
LINE
  8
_0-0_0
  6
CONTINUOUS
 62
    7
 10
-126.93124450000005
 20
770.47228999999993
 11
-127.02189650000003
 21
770.73629800000003
  0
LINE
  8
_0-0_0
  6
CONTINUOUS
 62
    7
 10
-127.40097050000008
 20
770.49688700000002
 11
-127.28321849999998
 21
770.75
  0
LINE
  8
_0-0_0
  6
CONTINUOUS
 62
    7
 10
-127.16546650000009
 20
770.49688700000002
 11
-127.28321849999998
 21
770.75
  0
LINE
  8
_0-0_0
  6
CONTINUOUS
 62
    7
 10
-127.63519250000002
 20
770.47228999999993
 11
-127.54454050000004
 21
770.73629800000003
  0
LINE
  8
_0-0_0
  6
CONTINUOUS
 62
    7
 10
-127.40097050000008
 20
770.49688700000002
 11
-127.54454050000004
 21
770.73629800000003
  0
LINE
  8
_0-0_0
  6
CONTINUOUS
 62
    7
 10
-127.86555450000003
 20
770.42330900000002
 11
-127.80299350000007
 21
770.69534299999998
  0
LINE
  8
_0-0_0
  6
CONTINUOUS
 62
    7
 10
-127.63519250000002
 20
770.47228999999993
 11
-127.80299350000007
 21
770.69534299999998
  0
LINE
  8
_0-0_0
  6
CONTINUOUS
 62
    7
 10
-128.0895385
 20
770.35052500000006
 11
-128.05575550000003
 21
770.62762500000008
  0
LINE
  8
_0-0_0
  6
CONTINUOUS
 62
    7
 10
-127.86555450000003
 20
770.42330900000002
 11
-128.05575550000003
 21
770.62762500000008
  0
LINE
  8
_0-0_0
  6
CONTINUOUS
 62
    7
 10
-128.30470250000008
 20
770.25476099999992
 11
-128.30006450000008
 21
770.53384400000004
  0
LINE
  8
_0-0_0
  6
CONTINUOUS
 62
    7
 10
-128.0895385
 20
770.35052500000006
 11
-128.30006450000008
 21
770.53384400000004
  0
LINE
  8
_0-0_0
  6
CONTINUOUS
 62
    7
 10
-128.4242405
 20
770.33859299999995
 11
-128.53321849999998
 21
770.41503899999998
  0
LINE
  8
_0-0_0
  6
CONTINUOUS
 62
    7
 10
-128.30470250000008
 20
770.25476099999992
 11
-128.4242405
 21
770.33859299999995
  0
LINE
  8
_0-0_0
  6
CONTINUOUS
 62
    7
 10
-128.50865150000004
 20
770.13699300000007
 11
-128.53321849999998
 21
770.41503899999998
  0
LINE
  8
_0-0_0
  6
CONTINUOUS
 62
    7
 10
-128.69918849999999
 20
769.99856599999998
 11
-128.7526855000001
 21
770.27252199999998
  0
LINE
  8
_0-0_0
  6
CONTINUOUS
 62
    7
 10
-128.50865150000004
 20
770.13699300000007
 11
-128.7526855000001
 21
770.27252199999998
  0
LINE
  8
_0-0_0
  6
CONTINUOUS
 62
    7
 10
-128.87420650000001
 20
769.84097300000008
 11
-128.95603950000009
 21
770.10784899999999
  0
LINE
  8
_0-0_0
  6
CONTINUOUS
 62
    7
 10
-128.69918849999999
 20
769.99856599999998
 11
-128.95603950000009
 21
770.10784899999999
  0
LINE
  8
_0-0_0
  6
CONTINUOUS
 62
    7
 10
-129.03179950000003
 20
769.66595499999994
 11
-129.14108250000004
 21
769.922821
  0
LINE
  8
_0-0_0
  6
CONTINUOUS
 62
    7
 10
-128.87420650000001
 20
769.84097300000008
 11
-129.14108250000004
 21
769.922821
  0
LINE
  8
_0-0_0
  6
CONTINUOUS
 62
    7
 10
-129.17022750000001
 20
769.47543300000007
 11
-129.30575550000003
 21
769.71945200000005
  0
LINE
  8
_0-0_0
  6
CONTINUOUS
 62
    7
 10
-129.03179950000003
 20
769.66595499999994
 11
-129.30575550000003
 21
769.71945200000005
  0
LINE
  8
_0-0_0
  6
CONTINUOUS
 62
    7
 10
-129.28797950000001
 20
769.27145399999995
 11
-129.44828849999999
 21
769.5
  0
LINE
  8
_0-0_0
  6
CONTINUOUS
 62
    7
 10
-129.17022750000001
 20
769.47543300000007
 11
-129.44828849999999
 21
769.5
  0
LINE
  8
_0-0_0
  6
CONTINUOUS
 62
    7
 10
-129.38377350000007
 20
769.05630500000007
 11
-129.5670775000001
 21
769.26681499999995
  0
LINE
  8
_0-0_0
  6
CONTINUOUS
 62
    7
 10
-129.28797950000001
 20
769.27145399999995
 11
-129.5670775000001
 21
769.26681499999995
  0
LINE
  8
_0-0_0
  6
CONTINUOUS
 62
    7
 10
-129.45654350000007
 20
768.83233599999994
 11
-129.66085850000002
 21
769.02252199999998
  0
LINE
  8
_0-0_0
  6
CONTINUOUS
 62
    7
 10
-129.38377350000007
 20
769.05630500000007
 11
-129.66085850000002
 21
769.02252199999998
  0
LINE
  8
_0-0_0
  6
CONTINUOUS
 62
    7
 10
-129.50552349999998
 20
768.60195900000008
 11
-129.7285925000001
 21
768.76977499999998
  0
LINE
  8
_0-0_0
  6
CONTINUOUS
 62
    7
 10
-129.45654350000007
 20
768.83233599999994
 11
-129.7285925000001
 21
768.76977499999998
  0
LINE
  8
_0-0_0
  6
CONTINUOUS
 62
    7
 10
-129.50552349999998
 20
768.60195900000008
 11
-129.76953150000008
 21
768.51129200000003
  0
LINE
  8
_0-0_0
  6
CONTINUOUS
 62
    7
 10
-129.53013650000003
 20
768.36773700000003
 11
-129.76953150000008
 21
768.51129200000003
  0
LINE
  8
_0-0_0
  6
CONTINUOUS
 62
    7
 10
-129.53013650000003
 20
768.13223300000004
 11
-129.78321849999998
 21
768.25
  0
LINE
  8
_0-0_0
  6
CONTINUOUS
 62
    7
 10
-129.53013650000003
 20
768.36773700000003
 11
-129.78321849999998
 21
768.25
  0
LINE
  8
_0-0_0
  6
CONTINUOUS
 62
    7
 10
-129.50552349999998
 20
767.89801
 11
-129.76953150000008
 21
767.98864700000001
  0
LINE
  8
_0-0_0
  6
CONTINUOUS
 62
    7
 10
-129.53013650000003
 20
768.13223300000004
 11
-129.76953150000008
 21
767.98864700000001
  0
LINE
  8
_0-0_0
  6
CONTINUOUS
 62
    7
 10
-129.45654350000007
 20
767.66763300000002
 11
-129.7285925000001
 21
767.73019399999998
  0
LINE
  8
_0-0_0
  6
CONTINUOUS
 62
    7
 10
-129.50552349999998
 20
767.89801
 11
-129.7285925000001
 21
767.73019399999998
  0
LINE
  8
_0-0_0
  6
CONTINUOUS
 62
    7
 10
-129.38377350000007
 20
767.44366500000001
 11
-129.66085850000002
 21
767.47744799999998
  0
LINE
  8
_0-0_0
  6
CONTINUOUS
 62
    7
 10
-129.45654350000007
 20
767.66763300000002
 11
-129.66085850000002
 21
767.47744799999998
  0
LINE
  8
_0-0_0
  6
CONTINUOUS
 62
    7
 10
-129.28797950000001
 20
767.22851600000001
 11
-129.5670775000001
 21
767.23315400000001
  0
LINE
  8
_0-0_0
  6
CONTINUOUS
 62
    7
 10
-129.38377350000007
 20
767.44366500000001
 11
-129.5670775000001
 21
767.23315400000001
  0
LINE
  8
_0-0_0
  6
CONTINUOUS
 62
    7
 10
-129.17022750000001
 20
767.02453600000001
 11
-129.44828849999999
 21
767
  0
LINE
  8
_0-0_0
  6
CONTINUOUS
 62
    7
 10
-129.28797950000001
 20
767.22851600000001
 11
-129.44828849999999
 21
767
  0
LINE
  8
_0-0_0
  6
CONTINUOUS
 62
    7
 10
-129.03179950000003
 20
766.83401500000002
 11
-129.30575550000003
 21
766.78051800000003
  0
LINE
  8
_0-0_0
  6
CONTINUOUS
 62
    7
 10
-129.17022750000001
 20
767.02453600000001
 11
-129.30575550000003
 21
766.78051800000003
  0
LINE
  8
_0-0_0
  6
CONTINUOUS
 62
    7
 10
-128.87420650000001
 20
766.658997
 11
-129.14108250000004
 21
766.57714800000008
  0
LINE
  8
_0-0_0
  6
CONTINUOUS
 62
    7
 10
-129.03179950000003
 20
766.83401500000002
 11
-129.14108250000004
 21
766.57714800000008
  0
LINE
  8
_0-0_0
  6
CONTINUOUS
 62
    7
 10
-128.69918849999999
 20
766.50140399999998
 11
-128.95603950000009
 21
766.39211999999998
  0
LINE
  8
_0-0_0
  6
CONTINUOUS
 62
    7
 10
-128.87420650000001
 20
766.658997
 11
-128.95603950000009
 21
766.39211999999998
  0
LINE
  8
_0-0_0
  6
CONTINUOUS
 62
    7
 10
-128.50865150000004
 20
766.362976
 11
-128.7526855000001
 21
766.22744799999998
  0
LINE
  8
_0-0_0
  6
CONTINUOUS
 62
    7
 10
-128.69918849999999
 20
766.50140399999998
 11
-128.7526855000001
 21
766.22744799999998
  0
LINE
  8
_0-0_0
  6
CONTINUOUS
 62
    7
 10
-128.30470250000008
 20
766.24520899999993
 11
-128.53321849999998
 21
766.08492999999999
  0
LINE
  8
_0-0_0
  6
CONTINUOUS
 62
    7
 10
-128.50865150000004
 20
766.362976
 11
-128.53321849999998
 21
766.08492999999999
  0
LINE
  8
_0-0_0
  6
CONTINUOUS
 62
    7
 10
-128.0895385
 20
766.14941399999998
 11
-128.30006450000008
 21
765.96612499999992
  0
LINE
  8
_0-0_0
  6
CONTINUOUS
 62
    7
 10
-128.30470250000008
 20
766.24520899999993
 11
-128.30006450000008
 21
765.96612499999992
  0
LINE
  8
_0-0_0
  6
CONTINUOUS
 62
    7
 10
-127.86555450000003
 20
766.07665999999995
 11
-128.05575550000003
 21
765.872345
  0
LINE
  8
_0-0_0
  6
CONTINUOUS
 62
    7
 10
-128.0895385
 20
766.14941399999998
 11
-128.05575550000003
 21
765.872345
  0
LINE
  8
_0-0_0
  6
CONTINUOUS
 62
    7
 10
-127.63519250000002
 20
766.02767900000003
 11
-127.80299350000007
 21
765.80462599999998
  0
LINE
  8
_0-0_0
  6
CONTINUOUS
 62
    7
 10
-127.86555450000003
 20
766.07665999999995
 11
-127.80299350000007
 21
765.80462599999998
  0
LINE
  8
_0-0_0
  6
CONTINUOUS
 62
    7
 10
-127.40097050000008
 20
766.00305200000003
 11
-127.54454050000004
 21
765.76367200000004
  0
LINE
  8
_0-0_0
  6
CONTINUOUS
 62
    7
 10
-127.63519250000002
 20
766.02767900000003
 11
-127.54454050000004
 21
765.76367200000004
  0
LINE
  8
_0-0_0
  6
CONTINUOUS
 62
    7
 10
-127.16546650000009
 20
766.00305200000003
 11
-127.28321849999998
 21
765.75
  0
LINE
  8
_0-0_0
  6
CONTINUOUS
 62
    7
 10
-127.40097050000008
 20
766.00305200000003
 11
-127.28321849999998
 21
765.75
  0
LINE
  8
_0-0_0
  6
CONTINUOUS
 62
    7
 10
-126.93124450000005
 20
766.02767900000003
 11
-127.02189650000003
 21
765.76367200000004
  0
LINE
  8
_0-0_0
  6
CONTINUOUS
 62
    7
 10
-127.16546650000009
 20
766.00305200000003
 11
-127.02189650000003
 21
765.76367200000004
  0
LINE
  8
_0-0_0
  6
CONTINUOUS
 62
    7
 10
-126.70088250000003
 20
766.07665999999995
 11
-126.76344349999999
 21
765.80462599999998
  0
LINE
  8
_0-0_0
  6
CONTINUOUS
 62
    7
 10
-126.93124450000005
 20
766.02767900000003
 11
-126.76344349999999
 21
765.80462599999998
  0
LINE
  8
_0-0_0
  6
CONTINUOUS
 62
    7
 10
-126.47689850000006
 20
766.14941399999998
 11
-126.51068150000003
 21
765.872345
  0
LINE
  8
_0-0_0
  6
CONTINUOUS
 62
    7
 10
-126.70088250000003
 20
766.07665999999995
 11
-126.51068150000003
 21
765.872345
  0
LINE
  8
_0-0_0
  6
CONTINUOUS
 62
    7
 10
-126.2617345000001
 20
766.24520899999993
 11
-126.26637249999999
 21
765.96612499999992
  0
LINE
  8
_0-0_0
  6
CONTINUOUS
 62
    7
 10
-126.47689850000006
 20
766.14941399999998
 11
-126.26637249999999
 21
765.96612499999992
  0
LINE
  8
_0-0_0
  6
CONTINUOUS
 62
    7
 10
-126.14219650000007
 20
766.16137700000002
 11
-126.03321849999998
 21
766.08492999999999
  0
LINE
  8
_0-0_0
  6
CONTINUOUS
 62
    7
 10
-126.2617345000001
 20
766.24520899999993
 11
-126.14219650000007
 21
766.16137700000002
  0
LINE
  8
_0-0_0
  6
CONTINUOUS
 62
    7
 10
-126.05778550000002
 20
766.362976
 11
-126.03321849999998
 21
766.08492999999999
  0
LINE
  8
_0-0_0
  6
CONTINUOUS
 62
    7
 10
-125.86724850000007
 20
766.50140399999998
 11
-125.81375150000008
 21
766.22744799999998
  0
LINE
  8
_0-0_0
  6
CONTINUOUS
 62
    7
 10
-126.05778550000002
 20
766.362976
 11
-125.81375150000008
 21
766.22744799999998
  0
LINE
  8
_0-0_0
  6
CONTINUOUS
 62
    7
 10
-125.69223050000005
 20
766.658997
 11
-125.61039750000009
 21
766.39211999999998
  0
LINE
  8
_0-0_0
  6
CONTINUOUS
 62
    7
 10
-125.86724850000007
 20
766.50140399999998
 11
-125.61039750000009
 21
766.39211999999998
  0
LINE
  8
_0-0_0
  6
CONTINUOUS
 62
    7
 10
-125.53463750000003
 20
766.83401500000002
 11
-125.42535450000003
 21
766.57714800000008
  0
LINE
  8
_0-0_0
  6
CONTINUOUS
 62
    7
 10
-125.69223050000005
 20
766.658997
 11
-125.42535450000003
 21
766.57714800000008
  0
LINE
  8
_0-0_0
  6
CONTINUOUS
 62
    7
 10
-125.39620950000005
 20
767.02453600000001
 11
-125.26068150000003
 21
766.78051800000003
  0
LINE
  8
_0-0_0
  6
CONTINUOUS
 62
    7
 10
-125.53463750000003
 20
766.83401500000002
 11
-125.26068150000003
 21
766.78051800000003
  0
LINE
  8
_0-0_0
  6
CONTINUOUS
 62
    7
 10
-125.27845750000006
 20
767.22851600000001
 11
-125.11814850000007
 21
767
  0
LINE
  8
_0-0_0
  6
CONTINUOUS
 62
    7
 10
-125.39620950000005
 20
767.02453600000001
 11
-125.11814850000007
 21
767
  0
LINE
  8
_0-0_0
  6
CONTINUOUS
 62
    7
 10
-125.18266349999999
 20
767.44366500000001
 11
-124.99935950000008
 21
767.23315400000001
  0
LINE
  8
_0-0_0
  6
CONTINUOUS
 62
    7
 10
-125.27845750000006
 20
767.22851600000001
 11
-124.99935950000008
 21
767.23315400000001
  0
LINE
  8
_0-0_0
  6
CONTINUOUS
 62
    7
 10
-125.1098935
 20
767.66763300000002
 11
-124.90557850000005
 21
767.47744799999998
  0
LINE
  8
_0-0_0
  6
CONTINUOUS
 62
    7
 10
-125.18266349999999
 20
767.44366500000001
 11
-124.90557850000005
 21
767.47744799999998
  0
LINE
  8
_0-0_0
  6
CONTINUOUS
 62
    7
 10
-125.06091350000008
 20
767.89801
 11
-124.83784450000007
 21
767.73019399999998
  0
LINE
  8
_0-0_0
  6
CONTINUOUS
 62
    7
 10
-125.1098935
 20
767.66763300000002
 11
-124.83784450000007
 21
767.73019399999998
  0
LINE
  8
_0-0_0
  6
CONTINUOUS
 62
    7
 10
-125.03630050000004
 20
768.13223300000004
 11
-124.79690550000009
 21
767.98864700000001
  0
LINE
  8
_0-0_0
  6
CONTINUOUS
 62
    7
 10
-125.06091350000008
 20
767.89801
 11
-124.79690550000009
 21
767.98864700000001
  0
LINE
  8
_0-0_0
  6
CONTINUOUS
 62
    7
 10
-125.03630050000004
 20
768.36773700000003
 11
-124.78321849999998
 21
768.25
  0
LINE
  8
_0-0_0
  6
CONTINUOUS
 62
    7
 10
-125.03630050000004
 20
768.13223300000004
 11
-124.78321849999998
 21
768.25
  0
LINE
  8
_0-0_0
  6
CONTINUOUS
 62
    7
 10
-125.06091350000008
 20
768.60195900000008
 11
-124.79690550000009
 21
768.51129200000003
  0
LINE
  8
_0-0_0
  6
CONTINUOUS
 62
    7
 10
-125.03630050000004
 20
768.36773700000003
 11
-124.79690550000009
 21
768.51129200000003
  0
LINE
  8
_0-0_0
  6
CONTINUOUS
 62
    7
 10
-125.1098935
 20
768.83233599999994
 11
-124.83784450000007
 21
768.76977499999998
  0
LINE
  8
_0-0_0
  6
CONTINUOUS
 62
    7
 10
-125.06091350000008
 20
768.60195900000008
 11
-124.83784450000007
 21
768.76977499999998
  0
LINE
  8
_0-0_0
  6
CONTINUOUS
 62
    7
 10
-125.18266349999999
 20
769.05630500000007
 11
-124.90557850000005
 21
769.02252199999998
  0
LINE
  8
_0-0_0
  6
CONTINUOUS
 62
    7
 10
-125.1098935
 20
768.83233599999994
 11
-124.90557850000005
 21
769.02252199999998
  0
LINE
  8
_0-0_0
  6
CONTINUOUS
 62
    7
 10
-125.27845750000006
 20
769.27145399999995
 11
-124.99935950000008
 21
769.26681499999995
  0
LINE
  8
_0-0_0
  6
CONTINUOUS
 62
    7
 10
-125.18266349999999
 20
769.05630500000007
 11
-124.99935950000008
 21
769.26681499999995
  0
CIRCLE
  8
_0-0_0
  6
CONTINUOUS
 62
    7
 10
-127.28321849999998
 20
768.25
 40
2
  0
CIRCLE
  8
_0-0_0
  6
CONTINUOUS
 62
    7
 10
-133.28321849999998
 20
759.94998199999998
 40
5
  0
LINE
  8
_0-0_0
  6
CONTINUOUS
 62
    7
 10
-126.70111050000003
 20
767.25
 11
-127.86532650000004
 21
767.25
  0
LINE
  8
_0-0_0
  6
CONTINUOUS
 62
    7
 10
-127.86532650000004
 20
767.25
 11
-128.43321250000008
 21
768.25
  0
LINE
  8
_0-0_0
  6
CONTINUOUS
 62
    7
 10
-128.43321250000008
 20
768.25
 11
-127.86532650000004
 21
769.25
  0
LINE
  8
_0-0_0
  6
CONTINUOUS
 62
    7
 10
-127.86532650000004
 20
769.25
 11
-126.70111050000003
 21
769.25
  0
LINE
  8
_0-0_0
  6
CONTINUOUS
 62
    7
 10
-126.70111050000003
 20
769.25
 11
-126.1332245000001
 21
768.25
  0
LINE
  8
_0-0_0
  6
CONTINUOUS
 62
    7
 10
-126.1332245000001
 20
768.25
 11
-126.70111050000003
 21
767.25
  0
CIRCLE
  8
_0-0_0
  6
CONTINUOUS
 62
    7
 10
-133.28321849999998
 20
759.94998199999998
 40
4.5381200000000002
  0
CIRCLE
  8
_0-0_0
  6
CONTINUOUS
 62
    7
 10
-133.28321849999998
 20
759.94998199999998
 40
4
  0
LINE
  8
_0-0_0
  6
CONTINUOUS
 62
    7
 10
-141.17022750000001
 20
750.42453
 11
-141.44827250000003
 21
750.39999399999999
  0
LINE
  8
_0-0_0
  6
CONTINUOUS
 62
    7
 10
-141.28799449999997
 20
750.62851000000001
 11
-141.44827250000003
 21
750.39999399999999
  0
LINE
  8
_0-0_0
  6
CONTINUOUS
 62
    7
 10
-141.03179950000003
 20
750.23400900000001
 11
-141.30575550000003
 21
750.18051100000002
  0
LINE
  8
_0-0_0
  6
CONTINUOUS
 62
    7
 10
-141.17022750000001
 20
750.42453
 11
-141.30575550000003
 21
750.18051100000002
  0
LINE
  8
_0-0_0
  6
CONTINUOUS
 62
    7
 10
-140.87420650000001
 20
750.05898999999999
 11
-141.14108250000004
 21
749.97717299999999
  0
LINE
  8
_0-0_0
  6
CONTINUOUS
 62
    7
 10
-141.03179950000003
 20
750.23400900000001
 11
-141.14108250000004
 21
749.97717299999999
  0
LINE
  8
_0-0_0
  6
CONTINUOUS
 62
    7
 10
-140.69918849999999
 20
749.90139799999997
 11
-140.95605450000005
 21
749.79211400000008
  0
LINE
  8
_0-0_0
  6
CONTINUOUS
 62
    7
 10
-140.87420650000001
 20
750.05898999999999
 11
-140.95605450000005
 21
749.79211400000008
  0
LINE
  8
_0-0_0
  6
CONTINUOUS
 62
    7
 10
-140.50865150000004
 20
749.76297
 11
-140.7526855000001
 21
749.62744099999998
  0
LINE
  8
_0-0_0
  6
CONTINUOUS
 62
    7
 10
-140.69918849999999
 20
749.90139799999997
 11
-140.7526855000001
 21
749.62744099999998
  0
LINE
  8
_0-0_0
  6
CONTINUOUS
 62
    7
 10
-140.30470250000008
 20
749.64520300000004
 11
-140.53321849999998
 21
749.48492399999998
  0
LINE
  8
_0-0_0
  6
CONTINUOUS
 62
    7
 10
-140.50865150000004
 20
749.76297
 11
-140.53321849999998
 21
749.48492399999998
  0
LINE
  8
_0-0_0
  6
CONTINUOUS
 62
    7
 10
-140.0895385
 20
749.54943800000001
 11
-140.30006450000008
 21
749.36611900000003
  0
LINE
  8
_0-0_0
  6
CONTINUOUS
 62
    7
 10
-140.30470250000008
 20
749.64520300000004
 11
-140.30006450000008
 21
749.36611900000003
  0
LINE
  8
_0-0_0
  6
CONTINUOUS
 62
    7
 10
-139.86555450000003
 20
749.47665400000005
 11
-140.05575550000003
 21
749.27233899999999
  0
LINE
  8
_0-0_0
  6
CONTINUOUS
 62
    7
 10
-140.0895385
 20
749.54943800000001
 11
-140.05575550000003
 21
749.27233899999999
  0
LINE
  8
_0-0_0
  6
CONTINUOUS
 62
    7
 10
-139.63519250000002
 20
749.42770399999995
 11
-139.80299350000007
 21
749.20461999999998
  0
LINE
  8
_0-0_0
  6
CONTINUOUS
 62
    7
 10
-139.86555450000003
 20
749.47665400000005
 11
-139.80299350000007
 21
749.20461999999998
  0
LINE
  8
_0-0_0
  6
CONTINUOUS
 62
    7
 10
-139.40097050000008
 20
749.40307600000006
 11
-139.54454050000004
 21
749.16369600000007
  0
LINE
  8
_0-0_0
  6
CONTINUOUS
 62
    7
 10
-139.63519250000002
 20
749.42770399999995
 11
-139.54454050000004
 21
749.16369600000007
  0
LINE
  8
_0-0_0
  6
CONTINUOUS
 62
    7
 10
-139.16546650000009
 20
749.40307600000006
 11
-139.28321849999998
 21
749.14999399999999
  0
LINE
  8
_0-0_0
  6
CONTINUOUS
 62
    7
 10
-139.40097050000008
 20
749.40307600000006
 11
-139.28321849999998
 21
749.14999399999999
  0
LINE
  8
_0-0_0
  6
CONTINUOUS
 62
    7
 10
-138.93124450000005
 20
749.42770399999995
 11
-139.02189650000003
 21
749.16369600000007
  0
LINE
  8
_0-0_0
  6
CONTINUOUS
 62
    7
 10
-139.16546650000009
 20
749.40307600000006
 11
-139.02189650000003
 21
749.16369600000007
  0
LINE
  8
_0-0_0
  6
CONTINUOUS
 62
    7
 10
-138.70088250000003
 20
749.47665400000005
 11
-138.76344349999999
 21
749.20461999999998
  0
LINE
  8
_0-0_0
  6
CONTINUOUS
 62
    7
 10
-138.93124450000005
 20
749.42770399999995
 11
-138.76344349999999
 21
749.20461999999998
  0
LINE
  8
_0-0_0
  6
CONTINUOUS
 62
    7
 10
-138.47689850000006
 20
749.54943800000001
 11
-138.51068150000003
 21
749.27233899999999
  0
LINE
  8
_0-0_0
  6
CONTINUOUS
 62
    7
 10
-138.70088250000003
 20
749.47665400000005
 11
-138.51068150000003
 21
749.27233899999999
  0
LINE
  8
_0-0_0
  6
CONTINUOUS
 62
    7
 10
-138.2617345000001
 20
749.64520300000004
 11
-138.26637249999999
 21
749.36611900000003
  0
LINE
  8
_0-0_0
  6
CONTINUOUS
 62
    7
 10
-138.47689850000006
 20
749.54943800000001
 11
-138.26637249999999
 21
749.36611900000003
  0
LINE
  8
_0-0_0
  6
CONTINUOUS
 62
    7
 10
-138.14219650000007
 20
749.56137100000001
 11
-138.03321849999998
 21
749.48492399999998
  0
LINE
  8
_0-0_0
  6
CONTINUOUS
 62
    7
 10
-138.2617345000001
 20
749.64520300000004
 11
-138.14219650000007
 21
749.56137100000001
  0
LINE
  8
_0-0_0
  6
CONTINUOUS
 62
    7
 10
-138.05778550000002
 20
749.76297
 11
-138.03321849999998
 21
749.48492399999998
  0
LINE
  8
_0-0_0
  6
CONTINUOUS
 62
    7
 10
-137.86724850000007
 20
749.90139799999997
 11
-137.81375150000008
 21
749.62744099999998
  0
LINE
  8
_0-0_0
  6
CONTINUOUS
 62
    7
 10
-138.05778550000002
 20
749.76297
 11
-137.81375150000008
 21
749.62744099999998
  0
LINE
  8
_0-0_0
  6
CONTINUOUS
 62
    7
 10
-137.69223050000005
 20
750.05898999999999
 11
-137.61039750000009
 21
749.79211400000008
  0
LINE
  8
_0-0_0
  6
CONTINUOUS
 62
    7
 10
-137.86724850000007
 20
749.90139799999997
 11
-137.61039750000009
 21
749.79211400000008
  0
LINE
  8
_0-0_0
  6
CONTINUOUS
 62
    7
 10
-137.53463750000003
 20
750.23400900000001
 11
-137.42535450000003
 21
749.97717299999999
  0
LINE
  8
_0-0_0
  6
CONTINUOUS
 62
    7
 10
-137.69223050000005
 20
750.05898999999999
 11
-137.42535450000003
 21
749.97717299999999
  0
LINE
  8
_0-0_0
  6
CONTINUOUS
 62
    7
 10
-137.39620950000005
 20
750.42453
 11
-137.26068150000003
 21
750.18051100000002
  0
LINE
  8
_0-0_0
  6
CONTINUOUS
 62
    7
 10
-137.53463750000003
 20
750.23400900000001
 11
-137.26068150000003
 21
750.18051100000002
  0
LINE
  8
_0-0_0
  6
CONTINUOUS
 62
    7
 10
-137.27845750000006
 20
750.62851000000001
 11
-137.11814850000007
 21
750.39999399999999
  0
LINE
  8
_0-0_0
  6
CONTINUOUS
 62
    7
 10
-137.39620950000005
 20
750.42453
 11
-137.11814850000007
 21
750.39999399999999
  0
LINE
  8
_0-0_0
  6
CONTINUOUS
 62
    7
 10
-137.18266349999999
 20
750.843658
 11
-136.99935950000008
 21
750.63314800000001
  0
LINE
  8
_0-0_0
  6
CONTINUOUS
 62
    7
 10
-137.27845750000006
 20
750.62851000000001
 11
-136.99935950000008
 21
750.63314800000001
  0
LINE
  8
_0-0_0
  6
CONTINUOUS
 62
    7
 10
-137.1098935
 20
751.06762700000002
 11
-136.90557850000005
 21
750.87744099999998
  0
LINE
  8
_0-0_0
  6
CONTINUOUS
 62
    7
 10
-137.18266349999999
 20
750.843658
 11
-136.90557850000005
 21
750.87744099999998
  0
LINE
  8
_0-0_0
  6
CONTINUOUS
 62
    7
 10
-137.06091350000008
 20
751.29800399999999
 11
-136.83784450000007
 21
751.13018799999998
  0
LINE
  8
_0-0_0
  6
CONTINUOUS
 62
    7
 10
-137.1098935
 20
751.06762700000002
 11
-136.83784450000007
 21
751.13018799999998
  0
LINE
  8
_0-0_0
  6
CONTINUOUS
 62
    7
 10
-137.03630050000004
 20
751.53222699999992
 11
-136.79692050000006
 21
751.38867200000004
  0
LINE
  8
_0-0_0
  6
CONTINUOUS
 62
    7
 10
-137.06091350000008
 20
751.29800399999999
 11
-136.79692050000006
 21
751.38867200000004
  0
LINE
  8
_0-0_0
  6
CONTINUOUS
 62
    7
 10
-137.03630050000004
 20
751.76773100000003
 11
-136.78321849999998
 21
751.64999399999999
  0
LINE
  8
_0-0_0
  6
CONTINUOUS
 62
    7
 10
-137.03630050000004
 20
751.53222699999992
 11
-136.78321849999998
 21
751.64999399999999
  0
LINE
  8
_0-0_0
  6
CONTINUOUS
 62
    7
 10
-137.06091350000008
 20
752.00195299999996
 11
-136.79692050000006
 21
751.91131599999994
  0
LINE
  8
_0-0_0
  6
CONTINUOUS
 62
    7
 10
-137.03630050000004
 20
751.76773100000003
 11
-136.79692050000006
 21
751.91131599999994
  0
LINE
  8
_0-0_0
  6
CONTINUOUS
 62
    7
 10
-137.1098935
 20
752.23233000000005
 11
-136.83784450000007
 21
752.16976899999997
  0
LINE
  8
_0-0_0
  6
CONTINUOUS
 62
    7
 10
-137.06091350000008
 20
752.00195299999996
 11
-136.83784450000007
 21
752.16976899999997
  0
LINE
  8
_0-0_0
  6
CONTINUOUS
 62
    7
 10
-137.18266349999999
 20
752.45629899999994
 11
-136.90557850000005
 21
752.42251599999997
  0
LINE
  8
_0-0_0
  6
CONTINUOUS
 62
    7
 10
-137.1098935
 20
752.23233000000005
 11
-136.90557850000005
 21
752.42251599999997
  0
LINE
  8
_0-0_0
  6
CONTINUOUS
 62
    7
 10
-137.27845750000006
 20
752.67144800000005
 11
-136.99935950000008
 21
752.66680900000006
  0
LINE
  8
_0-0_0
  6
CONTINUOUS
 62
    7
 10
-137.18266349999999
 20
752.45629899999994
 11
-136.99935950000008
 21
752.66680900000006
  0
LINE
  8
_0-0_0
  6
CONTINUOUS
 62
    7
 10
-137.39620950000005
 20
752.87542699999995
 11
-137.11814850000007
 21
752.89999399999999
  0
LINE
  8
_0-0_0
  6
CONTINUOUS
 62
    7
 10
-137.27845750000006
 20
752.67144800000005
 11
-137.11814850000007
 21
752.89999399999999
  0
LINE
  8
_0-0_0
  6
CONTINUOUS
 62
    7
 10
-140.69918849999999
 20
753.39855999999997
 11
-140.7526855000001
 21
753.67251599999997
  0
LINE
  8
_0-0_0
  6
CONTINUOUS
 62
    7
 10
-140.69918849999999
 20
753.39855999999997
 11
-140.95605450000005
 21
753.50784299999998
  0
LINE
  8
_0-0_0
  6
CONTINUOUS
 62
    7
 10
-140.87420650000001
 20
753.24096699999996
 11
-140.95605450000005
 21
753.50784299999998
  0
LINE
  8
_0-0_0
  6
CONTINUOUS
 62
    7
 10
-140.87420650000001
 20
753.24096699999996
 11
-141.14108250000004
 21
753.32281499999999
  0
LINE
  8
_0-0_0
  6
CONTINUOUS
 62
    7
 10
-141.03179950000003
 20
753.06594799999993
 11
-141.14108250000004
 21
753.32281499999999
  0
LINE
  8
_0-0_0
  6
CONTINUOUS
 62
    7
 10
-141.03179950000003
 20
753.06594799999993
 11
-141.30575550000003
 21
753.11944599999993
  0
LINE
  8
_0-0_0
  6
CONTINUOUS
 62
    7
 10
-141.17022750000001
 20
752.87542699999995
 11
-141.30575550000003
 21
753.11944599999993
  0
LINE
  8
_0-0_0
  6
CONTINUOUS
 62
    7
 10
-141.17022750000001
 20
752.87542699999995
 11
-141.44827250000003
 21
752.89999399999999
  0
LINE
  8
_0-0_0
  6
CONTINUOUS
 62
    7
 10
-141.28799449999997
 20
752.67144800000005
 11
-141.44827250000003
 21
752.89999399999999
  0
LINE
  8
_0-0_0
  6
CONTINUOUS
 62
    7
 10
-141.28799449999997
 20
752.67144800000005
 11
-141.5670775000001
 21
752.66680900000006
  0
LINE
  8
_0-0_0
  6
CONTINUOUS
 62
    7
 10
-141.38378950000003
 20
752.45629899999994
 11
-141.5670775000001
 21
752.66680900000006
  0
LINE
  8
_0-0_0
  6
CONTINUOUS
 62
    7
 10
-141.38378950000003
 20
752.45629899999994
 11
-141.66085850000002
 21
752.42251599999997
  0
LINE
  8
_0-0_0
  6
CONTINUOUS
 62
    7
 10
-141.45654350000007
 20
752.23233000000005
 11
-141.66085850000002
 21
752.42251599999997
  0
LINE
  8
_0-0_0
  6
CONTINUOUS
 62
    7
 10
-141.45654350000007
 20
752.23233000000005
 11
-141.72857650000003
 21
752.16976899999997
  0
LINE
  8
_0-0_0
  6
CONTINUOUS
 62
    7
 10
-141.50552349999998
 20
752.00195299999996
 11
-141.72857650000003
 21
752.16976899999997
  0
LINE
  8
_0-0_0
  6
CONTINUOUS
 62
    7
 10
-141.50552349999998
 20
752.00195299999996
 11
-141.76953150000008
 21
751.91131599999994
  0
LINE
  8
_0-0_0
  6
CONTINUOUS
 62
    7
 10
-141.53012050000007
 20
751.76773100000003
 11
-141.76953150000008
 21
751.91131599999994
  0
LINE
  8
_0-0_0
  6
CONTINUOUS
 62
    7
 10
-141.53012050000007
 20
751.76773100000003
 11
-141.78323350000005
 21
751.64999399999999
  0
LINE
  8
_0-0_0
  6
CONTINUOUS
 62
    7
 10
-141.53012050000007
 20
751.53222699999992
 11
-141.78323350000005
 21
751.64999399999999
  0
LINE
  8
_0-0_0
  6
CONTINUOUS
 62
    7
 10
-141.53012050000007
 20
751.53222699999992
 11
-141.76953150000008
 21
751.38867200000004
  0
LINE
  8
_0-0_0
  6
CONTINUOUS
 62
    7
 10
-141.50552349999998
 20
751.29800399999999
 11
-141.76953150000008
 21
751.38867200000004
  0
LINE
  8
_0-0_0
  6
CONTINUOUS
 62
    7
 10
-141.50552349999998
 20
751.29800399999999
 11
-141.72857650000003
 21
751.13018799999998
  0
LINE
  8
_0-0_0
  6
CONTINUOUS
 62
    7
 10
-141.45654350000007
 20
751.06762700000002
 11
-141.72857650000003
 21
751.13018799999998
  0
LINE
  8
_0-0_0
  6
CONTINUOUS
 62
    7
 10
-141.45654350000007
 20
751.06762700000002
 11
-141.66085850000002
 21
750.87744099999998
  0
LINE
  8
_0-0_0
  6
CONTINUOUS
 62
    7
 10
-141.38378950000003
 20
750.843658
 11
-141.66085850000002
 21
750.87744099999998
  0
LINE
  8
_0-0_0
  6
CONTINUOUS
 62
    7
 10
-141.38378950000003
 20
750.843658
 11
-141.5670775000001
 21
750.63314800000001
  0
LINE
  8
_0-0_0
  6
CONTINUOUS
 62
    7
 10
-141.28799449999997
 20
750.62851000000001
 11
-141.5670775000001
 21
750.63314800000001
  0
CIRCLE
  8
_0-0_0
  6
CONTINUOUS
 62
    7
 10
-139.28321849999998
 20
751.64999399999999
 40
2
  0
LINE
  8
_0-0_0
  6
CONTINUOUS
 62
    7
 10
-140.4242405
 20
753.73858599999994
 11
-140.53321849999998
 21
753.81506300000001
  0
LINE
  8
_0-0_0
  6
CONTINUOUS
 62
    7
 10
-140.50865150000004
 20
753.53698699999995
 11
-140.53321849999998
 21
753.81506300000001
  0
LINE
  8
_0-0_0
  6
CONTINUOUS
 62
    7
 10
-140.50865150000004
 20
753.53698699999995
 11
-140.7526855000001
 21
753.67251599999997
  0
LINE
  8
_0-0_0
  6
CONTINUOUS
 62
    7
 10
-137.39620950000005
 20
752.87542699999995
 11
-137.26068150000003
 21
753.11944599999993
  0
LINE
  8
_0-0_0
  6
CONTINUOUS
 62
    7
 10
-137.53463750000003
 20
753.06594799999993
 11
-137.26068150000003
 21
753.11944599999993
  0
LINE
  8
_0-0_0
  6
CONTINUOUS
 62
    7
 10
-137.53463750000003
 20
753.06594799999993
 11
-137.42535450000003
 21
753.32281499999999
  0
LINE
  8
_0-0_0
  6
CONTINUOUS
 62
    7
 10
-137.69223050000005
 20
753.24096699999996
 11
-137.42535450000003
 21
753.32281499999999
  0
LINE
  8
_0-0_0
  6
CONTINUOUS
 62
    7
 10
-137.69223050000005
 20
753.24096699999996
 11
-137.61039750000009
 21
753.50784299999998
  0
LINE
  8
_0-0_0
  6
CONTINUOUS
 62
    7
 10
-137.86724850000007
 20
753.39855999999997
 11
-137.61039750000009
 21
753.50784299999998
  0
LINE
  8
_0-0_0
  6
CONTINUOUS
 62
    7
 10
-137.86724850000007
 20
753.39855999999997
 11
-137.81375150000008
 21
753.67251599999997
  0
LINE
  8
_0-0_0
  6
CONTINUOUS
 62
    7
 10
-138.05778550000002
 20
753.53698699999995
 11
-137.81375150000008
 21
753.67251599999997
  0
LINE
  8
_0-0_0
  6
CONTINUOUS
 62
    7
 10
-138.05778550000002
 20
753.53698699999995
 11
-138.03321849999998
 21
753.81506300000001
  0
LINE
  8
_0-0_0
  6
CONTINUOUS
 62
    7
 10
-138.2617345000001
 20
753.65475500000002
 11
-138.03321849999998
 21
753.81506300000001
  0
LINE
  8
_0-0_0
  6
CONTINUOUS
 62
    7
 10
-138.2617345000001
 20
753.65475500000002
 11
-138.26637249999999
 21
753.93383799999992
  0
LINE
  8
_0-0_0
  6
CONTINUOUS
 62
    7
 10
-138.47689850000006
 20
753.75054899999998
 11
-138.26637249999999
 21
753.93383799999992
  0
LINE
  8
_0-0_0
  6
CONTINUOUS
 62
    7
 10
-138.47689850000006
 20
753.75054899999998
 11
-138.51068150000003
 21
754.02761800000007
  0
LINE
  8
_0-0_0
  6
CONTINUOUS
 62
    7
 10
-138.70088250000003
 20
753.82330300000001
 11
-138.51068150000003
 21
754.02761800000007
  0
LINE
  8
_0-0_0
  6
CONTINUOUS
 62
    7
 10
-138.70088250000003
 20
753.82330300000001
 11
-138.76344349999999
 21
754.09533699999997
  0
LINE
  8
_0-0_0
  6
CONTINUOUS
 62
    7
 10
-138.93124450000005
 20
753.87228400000004
 11
-138.76344349999999
 21
754.09533699999997
  0
LINE
  8
_0-0_0
  6
CONTINUOUS
 62
    7
 10
-138.93124450000005
 20
753.87228400000004
 11
-139.02189650000003
 21
754.13629200000003
  0
LINE
  8
_0-0_0
  6
CONTINUOUS
 62
    7
 10
-139.16546650000009
 20
753.89691199999993
 11
-139.02189650000003
 21
754.13629200000003
  0
LINE
  8
_0-0_0
  6
CONTINUOUS
 62
    7
 10
-139.16546650000009
 20
753.89691199999993
 11
-139.28321849999998
 21
754.14999399999999
  0
LINE
  8
_0-0_0
  6
CONTINUOUS
 62
    7
 10
-139.40097050000008
 20
753.89691199999993
 11
-139.28321849999998
 21
754.14999399999999
  0
LINE
  8
_0-0_0
  6
CONTINUOUS
 62
    7
 10
-139.40097050000008
 20
753.89691199999993
 11
-139.54454050000004
 21
754.13629200000003
  0
LINE
  8
_0-0_0
  6
CONTINUOUS
 62
    7
 10
-139.63519250000002
 20
753.87228400000004
 11
-139.54454050000004
 21
754.13629200000003
  0
LINE
  8
_0-0_0
  6
CONTINUOUS
 62
    7
 10
-139.63519250000002
 20
753.87228400000004
 11
-139.80299350000007
 21
754.09533699999997
  0
LINE
  8
_0-0_0
  6
CONTINUOUS
 62
    7
 10
-139.86555450000003
 20
753.82330300000001
 11
-139.80299350000007
 21
754.09533699999997
  0
LINE
  8
_0-0_0
  6
CONTINUOUS
 62
    7
 10
-139.86555450000003
 20
753.82330300000001
 11
-140.05575550000003
 21
754.02761800000007
  0
LINE
  8
_0-0_0
  6
CONTINUOUS
 62
    7
 10
-140.0895385
 20
753.75054899999998
 11
-140.05575550000003
 21
754.02761800000007
  0
LINE
  8
_0-0_0
  6
CONTINUOUS
 62
    7
 10
-140.0895385
 20
753.75054899999998
 11
-140.30006450000008
 21
753.93383799999992
  0
LINE
  8
_0-0_0
  6
CONTINUOUS
 62
    7
 10
-140.30470250000008
 20
753.65475500000002
 11
-140.30006450000008
 21
753.93383799999992
  0
LINE
  8
_0-0_0
  6
CONTINUOUS
 62
    7
 10
-140.30470250000008
 20
753.65475500000002
 11
-140.4242405
 21
753.73858599999994
  0
LINE
  8
_0-0_0
  6
CONTINUOUS
 62
    7
 10
-138.70111050000003
 20
750.64999399999999
 11
-139.86532650000004
 21
750.64999399999999
  0
LINE
  8
_0-0_0
  6
CONTINUOUS
 62
    7
 10
-139.86532650000004
 20
750.64999399999999
 11
-140.43321250000008
 21
751.64999399999999
  0
LINE
  8
_0-0_0
  6
CONTINUOUS
 62
    7
 10
-140.43321250000008
 20
751.64999399999999
 11
-139.86532650000004
 21
752.64999399999999
  0
LINE
  8
_0-0_0
  6
CONTINUOUS
 62
    7
 10
-139.86532650000004
 20
752.64999399999999
 11
-138.70111050000003
 21
752.64999399999999
  0
LINE
  8
_0-0_0
  6
CONTINUOUS
 62
    7
 10
-138.70111050000003
 20
752.64999399999999
 11
-138.1332245000001
 21
751.64999399999999
  0
LINE
  8
_0-0_0
  6
CONTINUOUS
 62
    7
 10
-138.1332245000001
 20
751.64999399999999
 11
-138.70111050000003
 21
750.64999399999999
  0
LINE
  8
_0-0_0
  6
CONTINUOUS
 62
    7
 10
-124.58322150000004
 20
769.05029300000001
 11
-124.58322150000004
 21
769.05627400000003
  0
LINE
  8
_0-0_0
  6
CONTINUOUS
 62
    7
 10
-124.58322150000004
 20
770.25
 11
-124.58358750000002
 21
770.23788500000001
  0
LINE
  8
_0-0_0
  6
CONTINUOUS
 62
    7
 10
-124.58358750000002
 20
749.66210899999999
 11
-124.58322150000004
 21
749.64999399999999
  0
ARC
  8
_0-0_0
  6
CONTINUOUS
 62
    7
 10
-139.78321849999998
 20
768.75
 40
2
 50
90.000003000000007
 51
93.840255999999997
  0
ARC
  8
_0-0_0
  6
CONTINUOUS
 62
    7
 10
-126.78321849999998
 20
751.14999399999999
 40
2
 50
269.99999700000001
 51
273.84026499999999
  0
ENDSEC
  0
EOF
