  0
SECTION
  2
HEADER
  9
$ACADVER
  1
AC1009
  9
$INSBASE
 10
0
 20
0
 30
0
  9
$EXTMIN
 10
0
 20
0
  9
$EXTMAX
 10
841
 20
594
  9
$LIMMIN
 10
0
 20
0
  9
$LIMMAX
 10
841
 20
594
  9
$LTSCALE
 40
1
  0
ENDSEC
  0
SECTION
  2
TABLES
  0
TABLE
  2
LTYPE
 70
     9
  0
LTYPE
  2
CONTINUOUS
 70
    64
  3
実線
 72
    65
 73
     0
 40
0.0
  0
LTYPE
  2
DASHED1
 70
    64
  3
--  --  --  --  --  --  --  --  
 72
    65
 73
     2
 40
2.5
 49
1.25
 49
-1.25
  0
LTYPE
  2
DASHED2
 70
    64
  3
----    ----    ----    ----    
 72
    65
 73
     2
 40
5.0
 49
2.5
 49
-2.5
  0
LTYPE
  2
DASHED3
 70
    64
  3
------  ------  ------  ------  
 72
    65
 73
     2
 40
5.0
 49
3.75
 49
-1.25
  0
LTYPE
  2
CENTER1
 70
    64
  3
----- - ----- - ----- - ----- - 
 72
    65
 73
     4
 40
10.0
 49
6.25
 49
-1.25
 49
1.25
 49
-1.25
  0
LTYPE
  2
CENTER2
 70
    64
  3
----------  --  ----------  --  
 72
    65
 73
     4
 40
20.0
 49
12.5
 49
-2.5
 49
2.5
 49
-2.5
  0
LTYPE
  2
PHANTOM1
 70
    64
  3
--- - - --- - - --- - - --- - - 
 72
    65
 73
     6
 40
10.0
 49
3.25
 49
-1.25
 49
1.25
 49
-1.25
 49
1.25
 49
-1.25
  0
LTYPE
  2
PHANTOM2
 70
    64
  3
--------  -  -  --------  -  -  
 72
    65
 73
     6
 40
20.0
 49
10.0
 49
-2.5
 49
1.25
 49
-2.5
 49
1.25
 49
-2.5
  0
LTYPE
  2
DOT
 70
    64
  3
-   -   -   -   -   -   -   -   
 72
    65
 73
     2
 40
2.5
 49
0.625
 49
-1.875
  0
LTYPE
  2
DUMMY
 70
    64
  3
ダミー
 72
    65
 73
     0
 40
0.0
  0
LTYPE
  2
RAND1
 70
    64
  3
ランダム線1
 72
    65
 73
     4
 40
10.0
 49
1.0
 49
-2.0
 49
3.0
 49
-4.0
  0
LTYPE
  2
RAND2
 70
    64
  3
ランダム線2
 72
    65
 73
     4
 40
14.0
 49
2.0
 49
-3.0
 49
4.0
 49
-5.0
  0
LTYPE
  2
RAND3
 70
    64
  3
ランダム線3
 72
    65
 73
     4
 40
18.0
 49
3.0
 49
-4.0
 49
5.0
 49
-6.0
  0
LTYPE
  2
RAND4
 70
    64
  3
ランダム線4
 72
    65
 73
     4
 40
22.0
 49
4.0
 49
-5.0
 49
6.0
 49
-7.0
  0
LTYPE
  2
RAND5
 70
    64
  3
ランダム線5
 72
    65
 73
     4
 40
26.0
 49
5.0
 49
-6.0
 49
7.0
 49
-8.0
  0
LTYPE
  2
LONG1
 70
    64
  3
----------  --  ----------  --  
 72
    65
 73
     4
 40
40.0
 49
32.5
 49
-2.5
 49
2.5
 49
-2.5
  0
LTYPE
  2
LONG2
 70
    64
  3
--------  -  -  --------  -  -  
 72
    65
 73
     6
 40
40.0
 49
30.0
 49
-2.5
 49
1.25
 49
-2.5
 49
1.25
 49
-2.5
  0
LTYPE
  2
LONG3
 70
    64
  3
+++++++++++++++..+++++++++++++++
 72
    65
 73
     2
 40
40.0
 49
37.5
 49
-2.5
  0
LTYPE
  2
LONG4
 70
    64
  3
+++++++++++++++..+++++++++++++++
 72
    65
 73
     2
 40
80.0
 49
75.0
 49
-5.0
  0
LTYPE
  2
LONG5
 70
    64
  3
----------  --  ----------  --  
 72
    65
 73
     4
 40
60.0
 49
37.5
 49
-7.5
 49
7.5
 49
-7.5
  0
LTYPE
  2
dashed
 70
   64
  3
-------   -------------   ------
 72
   65
 73
    2
 40
7.5
 49
6
 49
-1.5
  0
LTYPE
  2
dashed_spaced
 70
   64
  3
----        --------        ----
 72
   65
 73
    2
 40
12
 49
6
 49
-6
  0
LTYPE
  2
long_dashed_dotted
 70
   64
  3
------------- --- --------------
 72
   65
 73
    4
 40
15.25
 49
12
 49
-1.5
 49
0.25
 49
-1.5
  0
LTYPE
  2
long_dashed_double-dotted
 70
   64
  3
----------- --- --- ------------
 72
   65
 73
    6
 40
17
 49
12
 49
-1.5
 49
0.25
 49
-1.5
 49
0.25
 49
-1.5
  0
LTYPE
  2
long_dashed_triplicate-dotted
 70
   64
  3
--------- --- --- --- ----------
 72
   65
 73
    8
 40
18.75
 49
12
 49
-1.5
 49
0.25
 49
-1.5
 49
0.25
 49
-1.5
 49
0.25
 49
-1.5
  0
LTYPE
  2
dotted
 70
   64
  3
   -       -       -       -    
 72
   65
 73
    2
 40
1.75
 49
0.25
 49
-1.5
  0
LTYPE
  2
chain
 70
   64
  3
-------------- -- --------------
 72
   65
 73
    4
 40
18.5
 49
12
 49
-1.5
 49
3.5
 49
-1.5
  0
LTYPE
  2
chain_double_dash
 70
   64
  3
------------ -- -- -------------
 72
   65
 73
    6
 40
23.5
 49
12
 49
-1.5
 49
3.5
 49
-1.5
 49
3.5
 49
-1.5
  0
LTYPE
  2
dashed_dotted
 70
   64
  3
-----------     -     ----------
 72
   65
 73
    4
 40
9.25
 49
6
 49
-1.5
 49
0.25
 49
-1.5
  0
LTYPE
  2
double-dashed_dotted
 70
   64
  3
------   -----------   -   -----
 72
   65
 73
    6
 40
16.75
 49
6
 49
-1.5
 49
6
 49
-1.5
 49
0.25
 49
-1.5
  0
LTYPE
  2
dashed_double-dotted
 70
   64
  3
---------    -    -    ---------
 72
   65
 73
    6
 40
11
 49
6
 49
-1.5
 49
0.25
 49
-1.5
 49
0.25
 49
-1.5
  0
LTYPE
  2
double-dashed_double-dotted
 70
   64
  3
-----   ---------   -   -   ----
 72
   65
 73
    8
 40
18.5
 49
6
 49
-1.5
 49
6
 49
-1.5
 49
0.25
 49
-1.5
 49
0.25
 49
-1.5
  0
LTYPE
  2
dashed_triplicate-dotted
 70
   64
  3
-------    -    -    -    ------
 72
   65
 73
    8
 40
12.75
 49
6
 49
-1.5
 49
0.25
 49
-1.5
 49
0.25
 49
-1.5
 49
0.25
 49
-1.5
  0
LTYPE
  2
double-dashed_triplicate-dotted
 70
   64
  3
-----  ---------  -  -  -  -----
 72
   65
 73
   10
 40
20.25
 49
6
 49
-1.5
 49
6
 49
-1.5
 49
0.25
 49
-1.5
 49
0.25
 49
-1.5
 49
0.25
 49
-1.5
  0
LTYPE
  2
undefined
 70
   64
  3
--------------------------------
 72
   65
 73
    0
 40
0
  0
ENDTAB
  0
TABLE
  2
STYLE
  5
3
100
AcDbSymbolTable
 70
     1
  0
STYLE
  5
10
100
AcDbSymbolTableRecord
100
AcDbTextStyleTableRecord
  2
STANDARD
 70
     0
 40
0.0
 41
1.0
 50
0.0
 71
     0
 42
0.2
  3
txt
  4
bigfont.shx
  0
STYLE
  5
26
100
AcDbSymbolTableRecord
100
AcDbTextStyleTableRecord
  2
TATEGAKI
 70
    68
 40
0.0
 41
1.0
 50
0.0
 71
     0
 42
1.0
  3
txt
  4
bigfont.shx
  0
ENDTAB
  0
TABLE
  2
LAYER
 70
    2
  0
LAYER
  2
_0-0_0
 70
   64
 62
    7
  6
CONTINUOUS
  0
LAYER
  2
ADD_LINE
 70
   64
 62
    7
  6
CONTINUOUS
  0
ENDTAB
  0
ENDSEC
  0
SECTION
  2
BLOCKS
  0
ENDSEC
  0
SECTION
  2
ENTITIES
  0
ARC
  8
_0-0_0
  6
CONTINUOUS
 62
    7
 10
226.22778349999993
 20
468.34997600000003
 40
0.2
 50
269.99999700000001
 51
20.376440000000013
  0
LINE
  8
_0-0_0
  6
CONTINUOUS
 62
    7
 10
226.41528349999993
 20
468.41961700000002
 11
225.11523449999999
 21
471.91961700000002
  0
ARC
  8
_0-0_0
  6
CONTINUOUS
 62
    7
 10
224.92779549999995
 20
471.84997600000003
 40
0.2
 50
20.376439999999999
 51
159.62355600000001
  0
LINE
  8
_0-0_0
  6
CONTINUOUS
 62
    7
 10
223.44030749999996
 20
468.41961700000002
 11
224.74029549999995
 21
471.91961700000002
  0
ARC
  8
_0-0_0
  6
CONTINUOUS
 62
    7
 10
223.62774649999994
 20
468.34997600000003
 40
0.2
 50
159.62355600000001
 51
269.99999700000001
  0
LINE
  8
_0-0_0
  6
CONTINUOUS
 62
    7
 10
223.62774649999994
 20
468.14999399999999
 11
226.22778349999993
 21
468.14999399999999
  0
LINE
  8
_0-0_0
  6
CONTINUOUS
 62
    7
 10
60.994964499999924
 20
516.75271599999996
 11
60.994964499999924
 21
516.75170900000001
  0
LINE
  8
_0-0_0
  6
CONTINUOUS
 62
    7
 10
943.92773450000004
 20
505.14999399999999
 11
943.92773450000004
 21
492.14999399999999
  0
LINE
  8
_0-0_0
  6
CONTINUOUS
 62
    7
 10
170.92779549999995
 20
505.14999399999999
 11
170.92779549999995
 21
492.14999399999999
  0
LINE
  8
_0-0_0
  6
CONTINUOUS
 62
    7
 10
170.92779549999995
 20
505.14999399999999
 11
943.92773450000004
 21
505.14999399999999
  0
LINE
  8
_0-0_0
  6
CONTINUOUS
 62
    7
 10
170.92779549999995
 20
505.14999399999999
 11
170.92779549999995
 21
523.75
  0
LINE
  8
_0-0_0
  6
CONTINUOUS
 62
    7
 10
170.92779549999995
 20
526.25
 11
170.92779549999995
 21
523.75
  0
LINE
  8
_0-0_0
  6
CONTINUOUS
 62
    7
 10
170.92779549999995
 20
526.75
 11
170.92779549999995
 21
526.25
  0
LINE
  8
_0-0_0
  6
CONTINUOUS
 62
    7
 10
170.92779549999995
 20
478.75
 11
170.92779549999995
 21
478.25
  0
LINE
  8
_0-0_0
  6
CONTINUOUS
 62
    7
 10
170.92779549999995
 20
483.75
 11
170.92779549999995
 21
478.75
  0
LINE
  8
_0-0_0
  6
CONTINUOUS
 62
    7
 10
170.92779549999995
 20
484.25
 11
170.92779549999995
 21
483.75
  0
LINE
  8
_0-0_0
  6
CONTINUOUS
 62
    7
 10
170.92779549999995
 20
484.75
 11
170.92779549999995
 21
484.25
  0
LINE
  8
_0-0_0
  6
CONTINUOUS
 62
    7
 10
170.92779549999995
 20
487.94998199999998
 11
170.92779549999995
 21
484.75
  0
LINE
  8
_0-0_0
  6
CONTINUOUS
 62
    7
 10
170.92779549999995
 20
487.94998199999998
 11
170.92779549999995
 21
492.14999399999999
  0
LINE
  8
_0-0_0
  6
CONTINUOUS
 62
    7
 10
170.92779549999995
 20
492.14999399999999
 11
943.92773450000004
 21
492.14999399999999
  0
LINE
  8
_0-0_0
  6
CONTINUOUS
 62
    7
 10
943.92773450000004
 20
487.94998199999998
 11
943.92773450000004
 21
492.14999399999999
  0
LINE
  8
_0-0_0
  6
CONTINUOUS
 62
    7
 10
943.92773450000004
 20
484.75
 11
943.92773450000004
 21
487.94998199999998
  0
LINE
  8
_0-0_0
  6
CONTINUOUS
 62
    7
 10
943.92773450000004
 20
484.75
 11
943.92773450000004
 21
484.25
  0
LINE
  8
_0-0_0
  6
CONTINUOUS
 62
    7
 10
943.92773450000004
 20
484.25
 11
943.92773450000004
 21
483.75
  0
LINE
  8
_0-0_0
  6
CONTINUOUS
 62
    7
 10
943.92773450000004
 20
483.75
 11
943.92773450000004
 21
478.75
  0
LINE
  8
_0-0_0
  6
CONTINUOUS
 62
    7
 10
943.92773450000004
 20
478.75
 11
943.92773450000004
 21
478.25
  0
LINE
  8
_0-0_0
  6
CONTINUOUS
 62
    7
 10
943.92773450000004
 20
526.75
 11
943.92773450000004
 21
526.25
  0
LINE
  8
_0-0_0
  6
CONTINUOUS
 62
    7
 10
943.92773450000004
 20
523.75
 11
943.92773450000004
 21
526.25
  0
LINE
  8
_0-0_0
  6
CONTINUOUS
 62
    7
 10
943.92773450000004
 20
505.14999399999999
 11
943.92773450000004
 21
523.75
  0
CIRCLE
  8
_0-0_0
  6
CONTINUOUS
 62
    7
 10
907.4277955
 20
514.25
 40
6
  0
CIRCLE
  8
_0-0_0
  6
CONTINUOUS
 62
    7
 10
807.4277955
 20
514.25
 40
6
  0
CIRCLE
  8
_0-0_0
  6
CONTINUOUS
 62
    7
 10
707.4277955
 20
514.25
 40
6
  0
CIRCLE
  8
_0-0_0
  6
CONTINUOUS
 62
    7
 10
607.4277955
 20
514.25
 40
6
  0
CIRCLE
  8
_0-0_0
  6
CONTINUOUS
 62
    7
 10
507.4277955
 20
514.25
 40
6
  0
CIRCLE
  8
_0-0_0
  6
CONTINUOUS
 62
    7
 10
407.4277955
 20
514.25
 40
6
  0
CIRCLE
  8
_0-0_0
  6
CONTINUOUS
 62
    7
 10
307.42779549999995
 20
514.25
 40
6
  0
CIRCLE
  8
_0-0_0
  6
CONTINUOUS
 62
    7
 10
207.42779549999995
 20
514.25
 40
6
  0
LINE
  8
_0-0_0
  6
CONTINUOUS
 62
    7
 10
170.92779549999995
 20
523.75
 11
943.92773450000004
 21
523.75
  0
LINE
  8
_0-0_0
  6
CONTINUOUS
 62
    7
 10
170.92779549999995
 20
526.75
 11
943.92773450000004
 21
526.75
  0
LINE
  8
_0-0_0
  6
CONTINUOUS
 62
    7
 10
170.92779549999995
 20
526.25
 11
168.42779549999995
 21
526.25
  0
LINE
  8
_0-0_0
  6
CONTINUOUS
 62
    7
 10
168.42779549999995
 20
526.25
 11
168.42779549999995
 21
525.75
  0
LINE
  8
_0-0_0
  6
CONTINUOUS
 62
    7
 10
168.42779549999995
 20
525.75
 11
168.42779549999995
 21
485.25
  0
LINE
  8
_0-0_0
  6
CONTINUOUS
 62
    7
 10
170.92779549999995
 20
484.75
 11
168.42779549999995
 21
484.75
  0
LINE
  8
_0-0_0
  6
CONTINUOUS
 62
    7
 10
168.42779549999995
 20
485.25
 11
168.42779549999995
 21
484.75
  0
LINE
  8
_0-0_0
  6
CONTINUOUS
 62
    7
 10
168.42779549999995
 20
484.75
 11
168.42779549999995
 21
483.75
  0
LINE
  8
_0-0_0
  6
CONTINUOUS
 62
    7
 10
168.42779549999995
 20
483.75
 11
168.42779549999995
 21
479.25
  0
LINE
  8
_0-0_0
  6
CONTINUOUS
 62
    7
 10
170.92779549999995
 20
478.75
 11
168.42779549999995
 21
478.75
  0
LINE
  8
_0-0_0
  6
CONTINUOUS
 62
    7
 10
168.42779549999995
 20
479.25
 11
168.42779549999995
 21
478.75
  0
LINE
  8
_0-0_0
  6
CONTINUOUS
 62
    7
 10
170.92779549999995
 20
478.25
 11
943.92773450000004
 21
478.25
  0
LINE
  8
_0-0_0
  6
CONTINUOUS
 62
    7
 10
170.92779549999995
 20
484.25
 11
943.92773450000004
 21
484.25
  0
LINE
  8
_0-0_0
  6
CONTINUOUS
 62
    7
 10
170.92779549999995
 20
487.94998199999998
 11
943.92773450000004
 21
487.94998199999998
  0
LINE
  8
_0-0_0
  6
CONTINUOUS
 62
    7
 10
943.92773450000004
 20
526.25
 11
946.42773450000004
 21
526.25
  0
LINE
  8
_0-0_0
  6
CONTINUOUS
 62
    7
 10
946.42773450000004
 20
526.25
 11
946.42773450000004
 21
525.75
  0
LINE
  8
_0-0_0
  6
CONTINUOUS
 62
    7
 10
946.42773450000004
 20
525.75
 11
946.42773450000004
 21
485.25
  0
LINE
  8
_0-0_0
  6
CONTINUOUS
 62
    7
 10
943.92773450000004
 20
484.75
 11
946.42773450000004
 21
484.75
  0
LINE
  8
_0-0_0
  6
CONTINUOUS
 62
    7
 10
946.42773450000004
 20
485.25
 11
946.42773450000004
 21
484.75
  0
LINE
  8
_0-0_0
  6
CONTINUOUS
 62
    7
 10
946.42773450000004
 20
484.75
 11
946.42773450000004
 21
483.75
  0
LINE
  8
_0-0_0
  6
CONTINUOUS
 62
    7
 10
946.42773450000004
 20
483.75
 11
946.42773450000004
 21
479.25
  0
LINE
  8
_0-0_0
  6
CONTINUOUS
 62
    7
 10
943.92773450000004
 20
478.75
 11
946.42773450000004
 21
478.75
  0
LINE
  8
_0-0_0
  6
CONTINUOUS
 62
    7
 10
946.42773450000004
 20
479.25
 11
946.42773450000004
 21
478.75
  0
ARC
  8
_0-0_0
  6
CONTINUOUS
 62
    7
 10
228.42779549999995
 20
479.25
 40
0.5
 50
269.99999700000001
 51
0
  0
LINE
  8
_0-0_0
  6
CONTINUOUS
 62
    7
 10
228.42779549999995
 20
478.75
 11
221.42779549999995
 21
478.75
  0
ARC
  8
_0-0_0
  6
CONTINUOUS
 62
    7
 10
221.42779549999995
 20
479.25
 40
0.5
 50
179.99999099999999
 51
269.99999700000001
  0
LINE
  8
_0-0_0
  6
CONTINUOUS
 62
    7
 10
220.92779549999995
 20
483.25
 11
220.92779549999995
 21
479.25
  0
ARC
  8
_0-0_0
  6
CONTINUOUS
 62
    7
 10
221.42779549999995
 20
483.25
 40
0.5
 50
90.000003000000007
 51
179.99999099999999
  0
ARC
  8
_0-0_0
  6
CONTINUOUS
 62
    7
 10
228.42779549999995
 20
483.25
 40
0.5
 50
0
 51
90.000003000000007
  0
LINE
  8
_0-0_0
  6
CONTINUOUS
 62
    7
 10
221.42779549999995
 20
483.75
 11
228.42779549999995
 21
483.75
  0
LINE
  8
_0-0_0
  6
CONTINUOUS
 62
    7
 10
943.92773450000004
 20
526.75
 11
943.92773450000004
 21
526.44998199999998
  0
LINE
  8
_0-0_0
  6
CONTINUOUS
 62
    7
 10
943.92773450000004
 20
526.44998199999998
 11
943.92773450000004
 21
526.25
  0
CIRCLE
  8
_0-0_0
  6
CONTINUOUS
 62
    7
 10
907.4277955
 20
514.25
 40
5.5
  0
CIRCLE
  8
_0-0_0
  6
CONTINUOUS
 62
    7
 10
807.4277955
 20
514.25
 40
5.5
  0
CIRCLE
  8
_0-0_0
  6
CONTINUOUS
 62
    7
 10
707.4277955
 20
514.25
 40
5.5
  0
CIRCLE
  8
_0-0_0
  6
CONTINUOUS
 62
    7
 10
607.4277955
 20
514.25
 40
5.5
  0
CIRCLE
  8
_0-0_0
  6
CONTINUOUS
 62
    7
 10
507.4277955
 20
514.25
 40
5.5
  0
CIRCLE
  8
_0-0_0
  6
CONTINUOUS
 62
    7
 10
407.4277955
 20
514.25
 40
5.5
  0
CIRCLE
  8
_0-0_0
  6
CONTINUOUS
 62
    7
 10
307.42779549999995
 20
514.25
 40
5.5
  0
CIRCLE
  8
_0-0_0
  6
CONTINUOUS
 62
    7
 10
207.42779549999995
 20
514.25
 40
5.5
  0
LINE
  8
_0-0_0
  6
CONTINUOUS
 62
    7
 10
228.92779549999995
 20
479.25
 11
228.92779549999995
 21
483.25
  0
CIRCLE
  8
_0-0_0
  6
CONTINUOUS
 62
    7
 10
907.4277955
 20
514.25
 40
3.5
  0
CIRCLE
  8
_0-0_0
  6
CONTINUOUS
 62
    7
 10
807.4277955
 20
514.25
 40
3.5
  0
CIRCLE
  8
_0-0_0
  6
CONTINUOUS
 62
    7
 10
707.4277955
 20
514.25
 40
3.5
  0
CIRCLE
  8
_0-0_0
  6
CONTINUOUS
 62
    7
 10
607.4277955
 20
514.25
 40
3.5
  0
CIRCLE
  8
_0-0_0
  6
CONTINUOUS
 62
    7
 10
507.4277955
 20
514.25
 40
3.5
  0
CIRCLE
  8
_0-0_0
  6
CONTINUOUS
 62
    7
 10
407.4277955
 20
514.25
 40
3.5
  0
CIRCLE
  8
_0-0_0
  6
CONTINUOUS
 62
    7
 10
307.42779549999995
 20
514.25
 40
3.5
  0
CIRCLE
  8
_0-0_0
  6
CONTINUOUS
 62
    7
 10
207.42779549999995
 20
514.25
 40
3.5
  0
ARC
  8
_0-0_0
  6
CONTINUOUS
 62
    7
 10
226.22778349999993
 20
482.94998199999998
 40
0.2
 50
339.62356199999999
 51
90.000002999999978
  0
LINE
  8
_0-0_0
  6
CONTINUOUS
 62
    7
 10
226.41528349999993
 20
482.88034099999999
 11
225.11523449999999
 21
479.38034099999999
  0
ARC
  8
_0-0_0
  6
CONTINUOUS
 62
    7
 10
224.92779549999995
 20
479.44998199999998
 40
0.2
 50
200.37643
 51
339.62356199999999
  0
LINE
  8
_0-0_0
  6
CONTINUOUS
 62
    7
 10
223.44030749999996
 20
482.88034099999999
 11
224.74029549999995
 21
479.38034099999999
  0
ARC
  8
_0-0_0
  6
CONTINUOUS
 62
    7
 10
223.62774649999994
 20
482.94998199999998
 40
0.2
 50
90.000003000000007
 51
200.37643
  0
LINE
  8
_0-0_0
  6
CONTINUOUS
 62
    7
 10
223.62774649999994
 20
483.14999399999999
 11
226.22778349999993
 21
483.14999399999999
  0
ARC
  8
_0-0_0
  6
CONTINUOUS
 62
    7
 10
863.6278074999999
 20
482.94998199999998
 40
0.2
 50
90.000003000000007
 51
200.37643
  0
LINE
  8
_0-0_0
  6
CONTINUOUS
 62
    7
 10
863.6278074999999
 20
483.14999399999999
 11
866.22778349999999
 21
483.14999399999999
  0
ARC
  8
_0-0_0
  6
CONTINUOUS
 62
    7
 10
861.4277955
 20
483.25
 40
0.5
 50
90.000003000000007
 51
179.99999099999999
  0
LINE
  8
_0-0_0
  6
CONTINUOUS
 62
    7
 10
860.9277955
 20
483.25
 11
860.9277955
 21
479.25
  0
ARC
  8
_0-0_0
  6
CONTINUOUS
 62
    7
 10
861.4277955
 20
479.25
 40
0.5
 50
179.99999099999999
 51
269.99999700000001
  0
LINE
  8
_0-0_0
  6
CONTINUOUS
 62
    7
 10
868.4277955
 20
478.75
 11
861.4277955
 21
478.75
  0
ARC
  8
_0-0_0
  6
CONTINUOUS
 62
    7
 10
868.4277955
 20
479.25
 40
0.5
 50
269.99999700000001
 51
0
  0
LINE
  8
_0-0_0
  6
CONTINUOUS
 62
    7
 10
868.9277955
 20
479.25
 11
868.9277955
 21
483.25
  0
ARC
  8
_0-0_0
  6
CONTINUOUS
 62
    7
 10
868.4277955
 20
483.25
 40
0.5
 50
0
 51
90.000003000000007
  0
LINE
  8
_0-0_0
  6
CONTINUOUS
 62
    7
 10
861.4277955
 20
483.75
 11
868.4277955
 21
483.75
  0
LINE
  8
_0-0_0
  6
CONTINUOUS
 62
    7
 10
863.4403074999999
 20
482.88034099999999
 11
864.7402955
 21
479.38034099999999
  0
ARC
  8
_0-0_0
  6
CONTINUOUS
 62
    7
 10
864.9277955
 20
479.44998199999998
 40
0.2
 50
200.37643
 51
339.62356199999999
  0
LINE
  8
_0-0_0
  6
CONTINUOUS
 62
    7
 10
866.41528349999999
 20
482.88034099999999
 11
865.1152955
 21
479.38034099999999
  0
ARC
  8
_0-0_0
  6
CONTINUOUS
 62
    7
 10
866.22778349999999
 20
482.94998199999998
 40
0.2
 50
339.62356199999999
 51
90.000002999999978
  0
LINE
  8
_0-0_0
  6
CONTINUOUS
 62
    7
 10
177.42779549999995
 20
476.25
 11
182.42779549999995
 21
476.25
  0
LINE
  8
_0-0_0
  6
CONTINUOUS
 62
    7
 10
182.42779549999995
 20
476.25
 11
184.22778349999993
 21
476.25
  0
LINE
  8
_0-0_0
  6
CONTINUOUS
 62
    7
 10
184.22778349999993
 20
476.25
 11
184.92779549999995
 21
476.25
  0
ARC
  8
_0-0_0
  6
CONTINUOUS
 62
    7
 10
184.22778349999993
 20
475.75
 40
0.5
 50
0
 51
90.000003000000007
  0
ARC
  8
_0-0_0
  6
CONTINUOUS
 62
    7
 10
177.42779549999995
 20
475.75
 40
0.5
 50
90.000003000000007
 51
179.99999099999999
  0
ARC
  8
_0-0_0
  6
CONTINUOUS
 62
    7
 10
280.92779549999995
 20
475.75
 40
0.5
 50
0
 51
90.000003000000007
  0
LINE
  8
_0-0_0
  6
CONTINUOUS
 62
    7
 10
184.92779549999995
 20
476.25
 11
184.92779549999995
 21
474.75
  0
LINE
  8
_0-0_0
  6
CONTINUOUS
 62
    7
 10
184.92779549999995
 20
476.75
 11
184.92779549999995
 21
476.25
  0
LINE
  8
_0-0_0
  6
CONTINUOUS
 62
    7
 10
184.92779549999995
 20
477.25
 11
184.92779549999995
 21
476.75
  0
LINE
  8
_0-0_0
  6
CONTINUOUS
 62
    7
 10
184.92779549999995
 20
478.25
 11
184.92779549999995
 21
477.25
  0
LINE
  8
_0-0_0
  6
CONTINUOUS
 62
    7
 10
188.92779549999995
 20
476.25
 11
189.62774649999994
 21
476.25
  0
LINE
  8
_0-0_0
  6
CONTINUOUS
 62
    7
 10
184.72778349999993
 20
475.75
 11
184.72778349999993
 21
474.75
  0
LINE
  8
_0-0_0
  6
CONTINUOUS
 62
    7
 10
187.92779549999995
 20
449.25
 11
187.92779549999995
 21
450.84997600000003
  0
LINE
  8
_0-0_0
  6
CONTINUOUS
 62
    7
 10
187.92779549999995
 20
449.25
 11
182.42779549999995
 21
449.25
  0
LINE
  8
_0-0_0
  6
CONTINUOUS
 62
    7
 10
203.92779549999995
 20
455.94998199999998
 11
245.92779549999995
 21
455.94998199999998
  0
LINE
  8
_0-0_0
  6
CONTINUOUS
 62
    7
 10
203.92779549999995
 20
475.54998799999998
 11
245.92779549999995
 21
475.54998799999998
  0
LINE
  8
_0-0_0
  6
CONTINUOUS
 62
    7
 10
267.42779549999995
 20
449.25
 11
257.92779549999995
 21
449.25
  0
LINE
  8
_0-0_0
  6
CONTINUOUS
 62
    7
 10
257.92779549999995
 20
449.25
 11
257.92779549999995
 21
450.84997600000003
  0
ARC
  8
_0-0_0
  6
CONTINUOUS
 62
    7
 10
257.62774649999994
 20
450.84997600000003
 40
0.2999999999999999
 50
0
 51
90.000003000000007
  0
LINE
  8
_0-0_0
  6
CONTINUOUS
 62
    7
 10
256.92779549999995
 20
451.14999399999999
 11
257.62774649999994
 21
451.14999399999999
  0
LINE
  8
_0-0_0
  6
CONTINUOUS
 62
    7
 10
256.42779549999995
 20
451.54998799999998
 11
256.92779549999995
 21
451.54998799999998
  0
LINE
  8
_0-0_0
  6
CONTINUOUS
 62
    7
 10
242.92779549999995
 20
451.54998799999998
 11
256.42779549999995
 21
451.54998799999998
  0
ARC
  8
_0-0_0
  6
CONTINUOUS
 62
    7
 10
240.42779549999995
 20
451.54998799999998
 40
2.5
 50
0
 51
90.000003000000007
  0
LINE
  8
_0-0_0
  6
CONTINUOUS
 62
    7
 10
209.42779549999995
 20
454.04998799999998
 11
240.42779549999995
 21
454.04998799999998
  0
ARC
  8
_0-0_0
  6
CONTINUOUS
 62
    7
 10
209.42779549999995
 20
451.54998799999998
 40
2.5
 50
90.000003000000007
 51
179.99999099999999
  0
LINE
  8
_0-0_0
  6
CONTINUOUS
 62
    7
 10
189.42779549999995
 20
451.54998799999998
 11
206.92779549999995
 21
451.54998799999998
  0
LINE
  8
_0-0_0
  6
CONTINUOUS
 62
    7
 10
188.92779549999995
 20
451.54998799999998
 11
189.42779549999995
 21
451.54998799999998
  0
LINE
  8
_0-0_0
  6
CONTINUOUS
 62
    7
 10
188.22778349999993
 20
451.14999399999999
 11
188.92779549999995
 21
451.14999399999999
  0
ARC
  8
_0-0_0
  6
CONTINUOUS
 62
    7
 10
188.22778349999993
 20
450.84997600000003
 40
0.2999999999999999
 50
90.000003000000007
 51
179.99999099999999
  0
LINE
  8
_0-0_0
  6
CONTINUOUS
 62
    7
 10
176.92779549999995
 20
473.97485399999999
 11
176.92779549999995
 21
475.75
  0
LINE
  8
_0-0_0
  6
CONTINUOUS
 62
    7
 10
181.92779549999995
 20
476.75
 11
181.92779549999995
 21
476.25
  0
LINE
  8
_0-0_0
  6
CONTINUOUS
 62
    7
 10
181.92779549999995
 20
472.80355800000001
 11
181.92779549999995
 21
472.90853900000002
  0
LINE
  8
_0-0_0
  6
CONTINUOUS
 62
    7
 10
181.92779549999995
 20
476.75
 11
181.92779549999995
 21
478.24996900000002
  0
LINE
  8
_0-0_0
  6
CONTINUOUS
 62
    7
 10
281.42779549999995
 20
478.24996900000002
 11
281.42779549999995
 21
476.75
  0
LINE
  8
_0-0_0
  6
CONTINUOUS
 62
    7
 10
281.42779549999995
 20
476.75
 11
281.42779549999995
 21
475.75
  0
LINE
  8
_0-0_0
  6
CONTINUOUS
 62
    7
 10
281.42779549999995
 20
474.94998199999998
 11
281.42779549999995
 21
475.75
  0
LINE
  8
_0-0_0
  6
CONTINUOUS
 62
    7
 10
280.92779549999995
 20
476.25
 11
281.42779549999995
 21
476.25
  0
LINE
  8
_0-0_0
  6
CONTINUOUS
 62
    7
 10
268.42779549999995
 20
476.25
 11
280.92779549999995
 21
476.25
  0
LINE
  8
_0-0_0
  6
CONTINUOUS
 62
    7
 10
281.42779549999995
 20
478.25
 11
281.42779549999995
 21
477.25
  0
LINE
  8
_0-0_0
  6
CONTINUOUS
 62
    7
 10
281.42779549999995
 20
476.75
 11
281.42779549999995
 21
476.25
  0
LINE
  8
_0-0_0
  6
CONTINUOUS
 62
    7
 10
281.42779549999995
 20
477.25
 11
281.42779549999995
 21
476.75
  0
ARC
  8
_0-0_0
  6
CONTINUOUS
 62
    7
 10
186.92779549999995
 20
474.75
 40
2
 50
179.99999099999999
 51
0
  0
LINE
  8
_0-0_0
  6
CONTINUOUS
 62
    7
 10
267.92779549999995
 20
476.25
 11
268.42779549999995
 21
476.25
  0
LINE
  8
_0-0_0
  6
CONTINUOUS
 62
    7
 10
267.92779549999995
 20
475.75
 11
267.92779549999995
 21
476.25
  0
LINE
  8
_0-0_0
  6
CONTINUOUS
 62
    7
 10
267.92779549999995
 20
474.75
 11
267.92779549999995
 21
474.94998199999998
  0
ARC
  8
_0-0_0
  6
CONTINUOUS
 62
    7
 10
265.92779549999995
 20
474.75
 40
2
 50
179.99999099999999
 51
0
  0
LINE
  8
_0-0_0
  6
CONTINUOUS
 62
    7
 10
263.92779549999995
 20
476.25
 11
263.92779549999995
 21
474.75
  0
LINE
  8
_0-0_0
  6
CONTINUOUS
 62
    7
 10
263.22778349999993
 20
476.25
 11
263.92779549999995
 21
476.25
  0
LINE
  8
_0-0_0
  6
CONTINUOUS
 62
    7
 10
188.92779549999995
 20
474.75
 11
188.92779549999995
 21
476.25
  0
LINE
  8
_0-0_0
  6
CONTINUOUS
 62
    7
 10
184.92779549999995
 20
477.25
 11
281.42779549999995
 21
477.25
  0
ARC
  8
_0-0_0
  6
CONTINUOUS
 62
    7
 10
189.62774649999994
 20
475.75
 40
0.5
 50
90.000003000000007
 51
179.99999099999999
  0
ARC
  8
_0-0_0
  6
CONTINUOUS
 62
    7
 10
186.92779549999995
 20
474.75
 40
2.2000000000000002
 50
179.99999099999999
 51
0
  0
LINE
  8
_0-0_0
  6
CONTINUOUS
 62
    7
 10
188.92779549999995
 20
451.14999399999999
 11
189.42779549999995
 21
451.14999399999999
  0
LINE
  8
_0-0_0
  6
CONTINUOUS
 62
    7
 10
189.42779549999995
 20
451.54998799999998
 11
189.42779549999995
 21
451.14999399999999
  0
LINE
  8
_0-0_0
  6
CONTINUOUS
 62
    7
 10
206.92779549999995
 20
451.54998799999998
 11
242.92779549999995
 21
451.54998799999998
  0
LINE
  8
_0-0_0
  6
CONTINUOUS
 62
    7
 10
256.42779549999995
 20
451.14999399999999
 11
256.92779549999995
 21
451.14999399999999
  0
LINE
  8
_0-0_0
  6
CONTINUOUS
 62
    7
 10
256.42779549999995
 20
451.54998799999998
 11
256.42779549999995
 21
451.14999399999999
  0
LINE
  8
_0-0_0
  6
CONTINUOUS
 62
    7
 10
267.42779549999995
 20
448.75
 11
258.42779549999995
 21
448.75
  0
ARC
  8
_0-0_0
  6
CONTINUOUS
 62
    7
 10
258.42779549999995
 20
449.25
 40
0.5
 50
179.99999099999999
 51
269.99999700000001
  0
LINE
  8
_0-0_0
  6
CONTINUOUS
 62
    7
 10
267.42779549999995
 20
449.25
 11
267.92779549999995
 21
449.25
  0
LINE
  8
_0-0_0
  6
CONTINUOUS
 62
    7
 10
267.92779549999995
 20
449.25
 11
267.92779549999995
 21
449.44998199999998
  0
LINE
  8
_0-0_0
  6
CONTINUOUS
 62
    7
 10
272.42779549999995
 20
449.64999399999999
 11
268.12774649999994
 21
449.64999399999999
  0
LINE
  8
_0-0_0
  6
CONTINUOUS
 62
    7
 10
272.92779549999995
 20
450.14999399999999
 11
272.92779549999995
 21
451.92511000000002
  0
ARC
  8
_0-0_0
  6
CONTINUOUS
 62
    7
 10
269.87982149999993
 20
451.868988
 40
3.0490550000000001
 50
1.0548960000000001
 51
14.838094000000002
  0
LINE
  8
_0-0_0
  6
CONTINUOUS
 62
    7
 10
272.42779549999995
 20
452.84997600000003
 11
268.06024149999996
 21
452.84997600000003
  0
LINE
  8
_0-0_0
  6
CONTINUOUS
 62
    7
 10
267.92779549999995
 20
452.99142499999999
 11
267.92779549999995
 21
453.33367900000002
  0
ARC
  8
_0-0_0
  6
CONTINUOUS
 62
    7
 10
265.92779549999995
 20
474.75
 40
2.2000000000000002
 50
179.99999099999999
 51
303.74900400000001
  0
LINE
  8
_0-0_0
  6
CONTINUOUS
 62
    7
 10
263.72778349999993
 20
475.75
 11
263.72778349999993
 21
474.75
  0
LINE
  8
_0-0_0
  6
CONTINUOUS
 62
    7
 10
263.22778349999993
 20
476.25
 11
189.62774649999994
 21
476.25
  0
LINE
  8
_0-0_0
  6
CONTINUOUS
 62
    7
 10
189.12774649999994
 20
474.75
 11
189.12774649999994
 21
475.75
  0
LINE
  8
_0-0_0
  6
CONTINUOUS
 62
    7
 10
189.62774649999994
 20
474.54998799999998
 11
189.62774649999994
 21
474.75
  0
ARC
  8
_0-0_0
  6
CONTINUOUS
 62
    7
 10
190.62774649999994
 20
474.54998799999998
 40
1
 50
90.000003000000007
 51
179.99999099999999
  0
LINE
  8
_0-0_0
  6
CONTINUOUS
 62
    7
 10
190.62774649999994
 20
475.54998799999998
 11
203.92779549999995
 21
475.54998799999998
  0
LINE
  8
_0-0_0
  6
CONTINUOUS
 62
    7
 10
245.92779549999995
 20
475.54998799999998
 11
259.92779549999995
 21
475.54998799999998
  0
ARC
  8
_0-0_0
  6
CONTINUOUS
 62
    7
 10
259.92779549999995
 20
472.54998799999998
 40
3
 50
0
 51
90.000003000000007
  0
LINE
  8
_0-0_0
  6
CONTINUOUS
 62
    7
 10
262.92779549999995
 20
458.94998199999998
 11
262.92779549999995
 21
472.54998799999998
  0
ARC
  8
_0-0_0
  6
CONTINUOUS
 62
    7
 10
259.92779549999995
 20
458.94998199999998
 40
3
 50
269.99999700000001
 51
0
  0
LINE
  8
_0-0_0
  6
CONTINUOUS
 62
    7
 10
259.92779549999995
 20
455.94998199999998
 11
245.92779549999995
 21
455.94998199999998
  0
LINE
  8
_0-0_0
  6
CONTINUOUS
 62
    7
 10
203.92779549999995
 20
455.94998199999998
 11
189.92779549999995
 21
455.94998199999998
  0
ARC
  8
_0-0_0
  6
CONTINUOUS
 62
    7
 10
189.92779549999995
 20
458.94998199999998
 40
3
 50
179.99999099999999
 51
269.99999700000001
  0
LINE
  8
_0-0_0
  6
CONTINUOUS
 62
    7
 10
186.92779549999995
 20
471.18768299999999
 11
186.92779549999995
 21
458.94998199999998
  0
ARC
  8
_0-0_0
  6
CONTINUOUS
 62
    7
 10
187.92779549999995
 20
471.18768299999999
 40
1
 50
105.68034800000001
 51
179.99999100000002
  0
ARC
  8
_0-0_0
  6
CONTINUOUS
 62
    7
 10
179.97576849999996
 20
474.03097500000001
 40
3.0490550000000001
 50
181.05489
 51
194.838089
  0
LINE
  8
_0-0_0
  6
CONTINUOUS
 62
    7
 10
181.79528749999997
 20
473.04998799999998
 11
177.42779549999995
 21
473.04998799999998
  0
LINE
  8
_0-0_0
  6
CONTINUOUS
 62
    7
 10
181.92779549999995
 20
452.99142499999999
 11
181.92779549999995
 21
453.096405
  0
LINE
  8
_0-0_0
  6
CONTINUOUS
 62
    7
 10
181.79528749999997
 20
452.84997600000003
 11
177.42779549999995
 21
452.84997600000003
  0
ARC
  8
_0-0_0
  6
CONTINUOUS
 62
    7
 10
179.97692849999999
 20
451.86834700000003
 40
3.050319
 50
165.15540799999999
 51
178.932897
  0
LINE
  8
_0-0_0
  6
CONTINUOUS
 62
    7
 10
176.92779549999995
 20
450.14999399999999
 11
176.92779549999995
 21
451.92511000000002
  0
LINE
  8
_0-0_0
  6
CONTINUOUS
 62
    7
 10
181.72778349999993
 20
449.64999399999999
 11
177.42779549999995
 21
449.64999399999999
  0
LINE
  8
_0-0_0
  6
CONTINUOUS
 62
    7
 10
181.92779549999995
 20
449.25
 11
181.92779549999995
 21
449.44998199999998
  0
LINE
  8
_0-0_0
  6
CONTINUOUS
 62
    7
 10
181.92779549999995
 20
449.25
 11
182.42779549999995
 21
449.25
  0
LINE
  8
_0-0_0
  6
CONTINUOUS
 62
    7
 10
187.42779549999995
 20
448.75
 11
182.42779549999995
 21
448.75
  0
ARC
  8
_0-0_0
  6
CONTINUOUS
 62
    7
 10
187.42779549999995
 20
449.25
 40
0.5
 50
269.99999700000001
 51
0
  0
LINE
  8
_0-0_0
  6
CONTINUOUS
 62
    7
 10
177.24603249999996
 20
473.04998799999998
 11
177.22570749999994
 21
473.050995
  0
LINE
  8
_0-0_0
  6
CONTINUOUS
 62
    7
 10
177.22570749999994
 20
473.050995
 11
177.20526149999995
 21
473.05413800000002
  0
LINE
  8
_0-0_0
  6
CONTINUOUS
 62
    7
 10
177.20526149999995
 20
473.05413800000002
 11
177.17846649999996
 21
473.06173699999999
  0
LINE
  8
_0-0_0
  6
CONTINUOUS
 62
    7
 10
177.17846649999996
 20
473.06173699999999
 11
177.15283149999993
 21
473.07312000000002
  0
LINE
  8
_0-0_0
  6
CONTINUOUS
 62
    7
 10
177.15283149999993
 20
473.07312000000002
 11
177.12902849999995
 21
473.08798200000001
  0
LINE
  8
_0-0_0
  6
CONTINUOUS
 62
    7
 10
177.12902849999995
 20
473.08798200000001
 11
177.11224349999998
 21
473.10150099999998
  0
LINE
  8
_0-0_0
  6
CONTINUOUS
 62
    7
 10
177.11224349999998
 20
473.10150099999998
 11
177.09674049999995
 21
473.11673000000002
  0
LINE
  8
_0-0_0
  6
CONTINUOUS
 62
    7
 10
177.09674049999995
 20
473.11673000000002
 11
177.06982449999998
 21
473.15136699999999
  0
LINE
  8
_0-0_0
  6
CONTINUOUS
 62
    7
 10
177.06982449999998
 20
473.15136699999999
 11
177.04882849999996
 21
473.18969700000002
  0
LINE
  8
_0-0_0
  6
CONTINUOUS
 62
    7
 10
177.04882849999996
 20
473.18969700000002
 11
177.03680449999996
 21
473.21963499999998
  0
LINE
  8
_0-0_0
  6
CONTINUOUS
 62
    7
 10
177.03680449999996
 20
473.21963499999998
 11
177.02777049999997
 21
473.25
  0
LINE
  8
_0-0_0
  6
CONTINUOUS
 62
    7
 10
176.93896449999994
 20
473.75
 11
169.92779549999995
 21
473.75
  0
LINE
  8
_0-0_0
  6
CONTINUOUS
 62
    7
 10
169.92779549999995
 20
473.75
 11
165.25231949999994
 21
473.75
  0
LINE
  8
_0-0_0
  6
CONTINUOUS
 62
    7
 10
169.92779549999995
 20
473.75
 11
169.92779549999995
 21
471.75
  0
LINE
  8
_0-0_0
  6
CONTINUOUS
 62
    7
 10
181.92779549999995
 20
471.75
 11
181.92779549999995
 21
472.80355800000001
  0
ARC
  8
_0-0_0
  6
CONTINUOUS
 62
    7
 10
280.92779549999995
 20
474.94998199999998
 40
0.5
 50
269.99999700000001
 51
0
  0
ARC
  8
_0-0_0
  6
CONTINUOUS
 62
    7
 10
268.42779549999995
 20
475.75
 40
0.5
 50
90.000003000000007
 51
179.99999099999999
  0
LINE
  8
_0-0_0
  6
CONTINUOUS
 62
    7
 10
267.92779549999995
 20
474.94998199999998
 11
267.92779549999995
 21
475.75
  0
LINE
  8
_0-0_0
  6
CONTINUOUS
 62
    7
 10
188.12774649999994
 20
451.13284299999998
 11
188.12774649999994
 21
449.14999399999999
  0
LINE
  8
_0-0_0
  6
CONTINUOUS
 62
    7
 10
188.12774649999994
 20
449.14999399999999
 11
189.12774649999994
 21
449.14999399999999
  0
LINE
  8
_0-0_0
  6
CONTINUOUS
 62
    7
 10
189.42779549999995
 20
451.14999399999999
 11
256.42779549999995
 21
451.14999399999999
  0
LINE
  8
_0-0_0
  6
CONTINUOUS
 62
    7
 10
189.12774649999994
 20
449.14999399999999
 11
256.72778349999993
 21
449.14999399999999
  0
LINE
  8
_0-0_0
  6
CONTINUOUS
 62
    7
 10
256.72778349999993
 20
449.14999399999999
 11
257.72778349999993
 21
449.14999399999999
  0
LINE
  8
_0-0_0
  6
CONTINUOUS
 62
    7
 10
257.72778349999993
 20
451.13284299999998
 11
257.72778349999993
 21
449.14999399999999
  0
LINE
  8
_0-0_0
  6
CONTINUOUS
 62
    7
 10
267.92779549999995
 20
449.25
 11
267.42779549999995
 21
448.75
  0
ARC
  8
_0-0_0
  6
CONTINUOUS
 62
    7
 10
268.12774649999994
 20
449.44998199999998
 40
0.2
 50
90.000003000000007
 51
179.99999099999999
  0
ARC
  8
_0-0_0
  6
CONTINUOUS
 62
    7
 10
272.42779549999995
 20
450.14999399999999
 40
0.5
 50
269.99999700000001
 51
0
  0
LINE
  8
_0-0_0
  6
CONTINUOUS
 62
    7
 10
272.60949649999998
 20
452.84997600000003
 11
272.62988249999995
 21
452.84896900000001
  0
LINE
  8
_0-0_0
  6
CONTINUOUS
 62
    7
 10
272.62988249999995
 20
452.84896900000001
 11
272.65026849999998
 21
452.84582499999999
  0
LINE
  8
_0-0_0
  6
CONTINUOUS
 62
    7
 10
272.65026849999998
 20
452.84582499999999
 11
272.67712349999994
 21
452.83822600000002
  0
LINE
  8
_0-0_0
  6
CONTINUOUS
 62
    7
 10
272.67712349999994
 20
452.83822600000002
 11
272.70275849999996
 21
452.82687399999998
  0
LINE
  8
_0-0_0
  6
CONTINUOUS
 62
    7
 10
272.70275849999996
 20
452.82687399999998
 11
272.72656249999994
 21
452.811981
  0
LINE
  8
_0-0_0
  6
CONTINUOUS
 62
    7
 10
272.72656249999994
 20
452.811981
 11
272.74328649999995
 21
452.79846199999997
  0
LINE
  8
_0-0_0
  6
CONTINUOUS
 62
    7
 10
272.74328649999995
 20
452.79846199999997
 11
272.75878849999998
 21
452.78326399999997
  0
LINE
  8
_0-0_0
  6
CONTINUOUS
 62
    7
 10
272.75878849999998
 20
452.78326399999997
 11
272.78570549999995
 21
452.74859600000002
  0
LINE
  8
_0-0_0
  6
CONTINUOUS
 62
    7
 10
272.78570549999995
 20
452.74859600000002
 11
272.80676249999993
 21
452.71026599999999
  0
LINE
  8
_0-0_0
  6
CONTINUOUS
 62
    7
 10
272.80676249999993
 20
452.71026599999999
 11
272.81872549999997
 21
452.68035900000001
  0
LINE
  8
_0-0_0
  6
CONTINUOUS
 62
    7
 10
272.81872549999997
 20
452.68035900000001
 11
272.82775849999996
 21
452.64999399999999
  0
LINE
  8
_0-0_0
  6
CONTINUOUS
 62
    7
 10
272.60949649999998
 20
452.84997600000003
 11
272.42779549999995
 21
452.84997600000003
  0
LINE
  8
_0-0_0
  6
CONTINUOUS
 62
    7
 10
267.92779549999995
 20
471.29998799999998
 11
267.92779549999995
 21
473.79998799999998
  0
LINE
  8
_0-0_0
  6
CONTINUOUS
 62
    7
 10
267.92779549999995
 20
471.29998799999998
 11
267.92779549999995
 21
454.79998799999998
  0
LINE
  8
_0-0_0
  6
CONTINUOUS
 62
    7
 10
267.92779549999995
 20
453.33367900000002
 11
267.92779549999995
 21
454.79998799999998
  0
ARC
  8
_0-0_0
  6
CONTINUOUS
 62
    7
 10
267.42779549999995
 20
472.50500499999998
 40
0.5
 50
0
 51
123.74898500000002
  0
ARC
  8
_0-0_0
  6
CONTINUOUS
 62
    7
 10
268.09808349999997
 20
453.02328499999999
 40
0.1734229999999999
 50
181.12417600000003
 51
270.64883800000007
  0
LINE
  8
_0-0_0
  6
CONTINUOUS
 62
    7
 10
267.92370549999998
 20
453.04998799999998
 11
267.92382849999996
 21
453.01986699999998
  0
ARC
  8
_0-0_0
  6
CONTINUOUS
 62
    7
 10
263.22778349999993
 20
475.75
 40
0.5
 50
0
 51
90.000003000000007
  0
ARC
  8
_0-0_0
  6
CONTINUOUS
 62
    7
 10
186.92779549999995
 20
474.75
 40
2.7000000000000002
 50
285.68033600000007
 51
0.0000000000000381
  0
ARC
  8
_0-0_0
  6
CONTINUOUS
 62
    7
 10
203.92779549999995
 20
458.94998199999998
 40
3
 50
269.99999700000001
 51
0
  0
LINE
  8
_0-0_0
  6
CONTINUOUS
 62
    7
 10
206.92779549999995
 20
458.94998199999998
 11
206.92779549999995
 21
472.54998799999998
  0
ARC
  8
_0-0_0
  6
CONTINUOUS
 62
    7
 10
203.92779549999995
 20
472.54998799999998
 40
3
 50
0
 51
90.000003000000007
  0
ARC
  8
_0-0_0
  6
CONTINUOUS
 62
    7
 10
199.42779549999995
 20
468.25
 40
4.5
 50
269.99999700000001
 51
90.000002999999992
  0
LINE
  8
_0-0_0
  6
CONTINUOUS
 62
    7
 10
199.42779549999995
 20
463.75
 11
194.42779549999995
 21
463.75
  0
ARC
  8
_0-0_0
  6
CONTINUOUS
 62
    7
 10
194.42779549999995
 20
468.25
 40
4.5
 50
90.000003000000007
 51
269.99999700000006
  0
LINE
  8
_0-0_0
  6
CONTINUOUS
 62
    7
 10
194.42779549999995
 20
472.75
 11
199.42779549999995
 21
472.75
  0
ARC
  8
_0-0_0
  6
CONTINUOUS
 62
    7
 10
245.92779549999995
 20
458.94998199999998
 40
3
 50
179.99999099999999
 51
269.99999700000001
  0
LINE
  8
_0-0_0
  6
CONTINUOUS
 62
    7
 10
242.92779549999995
 20
472.54998799999998
 11
242.92779549999995
 21
458.94998199999998
  0
ARC
  8
_0-0_0
  6
CONTINUOUS
 62
    7
 10
245.92779549999995
 20
472.54998799999998
 40
3
 50
90.000003000000007
 51
179.99999099999999
  0
ARC
  8
_0-0_0
  6
CONTINUOUS
 62
    7
 10
255.42779549999995
 20
468.25
 40
4.5
 50
269.99999700000001
 51
90.000002999999992
  0
LINE
  8
_0-0_0
  6
CONTINUOUS
 62
    7
 10
255.42779549999995
 20
463.75
 11
250.42779549999995
 21
463.75
  0
ARC
  8
_0-0_0
  6
CONTINUOUS
 62
    7
 10
250.42779549999995
 20
468.25
 40
4.5
 50
90.000003000000007
 51
269.99999700000006
  0
LINE
  8
_0-0_0
  6
CONTINUOUS
 62
    7
 10
250.42779549999995
 20
472.75
 11
255.42779549999995
 21
472.75
  0
LINE
  8
_0-0_0
  6
CONTINUOUS
 62
    7
 10
177.42779549999995
 20
473.04998799999998
 11
177.24603249999996
 21
473.04998799999998
  0
LINE
  8
_0-0_0
  6
CONTINUOUS
 62
    7
 10
181.92779549999995
 20
471.75
 11
181.92779549999995
 21
454.14999399999999
  0
LINE
  8
_0-0_0
  6
CONTINUOUS
 62
    7
 10
181.92779549999995
 20
453.096405
 11
181.92779549999995
 21
454.14999399999999
  0
ARC
  8
_0-0_0
  6
CONTINUOUS
 62
    7
 10
181.75750749999997
 20
453.02328499999999
 40
0.1734209999999999
 50
269.35085600000002
 51
358.87625300000002
  0
LINE
  8
_0-0_0
  6
CONTINUOUS
 62
    7
 10
181.93182349999995
 20
453.04998799999998
 11
181.93176249999993
 21
453.01986699999998
  0
LINE
  8
_0-0_0
  6
CONTINUOUS
 62
    7
 10
181.93182349999995
 20
472.84997600000003
 11
181.93176249999993
 21
472.88012700000002
  0
ARC
  8
_0-0_0
  6
CONTINUOUS
 62
    7
 10
181.75750749999997
 20
472.87670900000001
 40
0.1734219999999999
 50
1.1236539999999999
 51
90.649110000000007
  0
LINE
  8
_0-0_0
  6
CONTINUOUS
 62
    7
 10
177.42779549999995
 20
452.84997600000003
 11
177.24603249999996
 21
452.84997600000003
  0
LINE
  8
_0-0_0
  6
CONTINUOUS
 62
    7
 10
177.24603249999996
 20
452.84997600000003
 11
177.22570749999994
 21
452.84896900000001
  0
LINE
  8
_0-0_0
  6
CONTINUOUS
 62
    7
 10
177.22570749999994
 20
452.84896900000001
 11
177.20526149999995
 21
452.84582499999999
  0
LINE
  8
_0-0_0
  6
CONTINUOUS
 62
    7
 10
177.20526149999995
 20
452.84582499999999
 11
177.17846649999996
 21
452.83822600000002
  0
LINE
  8
_0-0_0
  6
CONTINUOUS
 62
    7
 10
177.17846649999996
 20
452.83822600000002
 11
177.15283149999993
 21
452.82687399999998
  0
LINE
  8
_0-0_0
  6
CONTINUOUS
 62
    7
 10
177.15283149999993
 20
452.82687399999998
 11
177.12902849999995
 21
452.811981
  0
LINE
  8
_0-0_0
  6
CONTINUOUS
 62
    7
 10
177.12902849999995
 20
452.811981
 11
177.11224349999998
 21
452.79846199999997
  0
LINE
  8
_0-0_0
  6
CONTINUOUS
 62
    7
 10
177.11224349999998
 20
452.79846199999997
 11
177.09674049999995
 21
452.78326399999997
  0
LINE
  8
_0-0_0
  6
CONTINUOUS
 62
    7
 10
177.09674049999995
 20
452.78326399999997
 11
177.06982449999998
 21
452.74859600000002
  0
LINE
  8
_0-0_0
  6
CONTINUOUS
 62
    7
 10
177.06982449999998
 20
452.74859600000002
 11
177.04882849999996
 21
452.71026599999999
  0
LINE
  8
_0-0_0
  6
CONTINUOUS
 62
    7
 10
177.04882849999996
 20
452.71026599999999
 11
177.03680449999996
 21
452.68035900000001
  0
LINE
  8
_0-0_0
  6
CONTINUOUS
 62
    7
 10
177.03680449999996
 20
452.68035900000001
 11
177.02777049999997
 21
452.64999399999999
  0
ARC
  8
_0-0_0
  6
CONTINUOUS
 62
    7
 10
177.42779549999995
 20
450.14999399999999
 40
0.5
 50
179.99999099999999
 51
269.99999700000001
  0
ARC
  8
_0-0_0
  6
CONTINUOUS
 62
    7
 10
181.72778349999993
 20
449.44998199999998
 40
0.2
 50
0
 51
90.000003000000007
  0
LINE
  8
_0-0_0
  6
CONTINUOUS
 62
    7
 10
181.92779549999995
 20
449.25
 11
182.42779549999995
 21
448.75
  0
ARC
  8
_0-0_0
  6
CONTINUOUS
 62
    7
 10
165.25231949999994
 20
471.75
 40
2
 50
90.000003000000007
 51
108.434997
  0
LINE
  8
_0-0_0
  6
CONTINUOUS
 62
    7
 10
169.92779549999995
 20
471.25
 11
169.92779549999995
 21
471.75
  0
LINE
  8
_0-0_0
  6
CONTINUOUS
 62
    7
 10
169.92779549999995
 20
468.25
 11
169.92779549999995
 21
467.75
  0
LINE
  8
_0-0_0
  6
CONTINUOUS
 62
    7
 10
169.92779549999995
 20
468.25
 11
169.92779549999995
 21
471.25
  0
ARC
  8
_0-0_0
  6
CONTINUOUS
 62
    7
 10
175.92779549999995
 20
468.44998199999998
 40
0.500016
 50
0.001164
 51
179.99560600000004
  0
LINE
  8
_0-0_0
  6
CONTINUOUS
 62
    7
 10
175.42779549999995
 20
468.44998199999998
 11
175.42779549999995
 21
456.44998199999998
  0
ARC
  8
_0-0_0
  6
CONTINUOUS
 62
    7
 10
175.92779549999995
 20
456.45001200000002
 40
0.500016
 50
180.00117
 51
359.995611
  0
LINE
  8
_0-0_0
  6
CONTINUOUS
 62
    7
 10
176.42779549999995
 20
468.44998199999998
 11
176.42779549999995
 21
456.44998199999998
  0
ARC
  8
_0-0_0
  6
CONTINUOUS
 62
    7
 10
174.42779549999995
 20
468.44998199999998
 40
0.500016
 50
0.001164
 51
179.99560600000004
  0
LINE
  8
_0-0_0
  6
CONTINUOUS
 62
    7
 10
173.92779549999995
 20
468.44998199999998
 11
173.92779549999995
 21
456.44998199999998
  0
ARC
  8
_0-0_0
  6
CONTINUOUS
 62
    7
 10
174.42779549999995
 20
456.45001200000002
 40
0.500016
 50
180.00117
 51
359.995611
  0
LINE
  8
_0-0_0
  6
CONTINUOUS
 62
    7
 10
174.92779549999995
 20
468.44998199999998
 11
174.92779549999995
 21
456.44998199999998
  0
ARC
  8
_0-0_0
  6
CONTINUOUS
 62
    7
 10
172.92779549999995
 20
468.44998199999998
 40
0.500016
 50
0.001164
 51
179.99560600000004
  0
LINE
  8
_0-0_0
  6
CONTINUOUS
 62
    7
 10
172.42779549999995
 20
468.44998199999998
 11
172.42779549999995
 21
456.44998199999998
  0
ARC
  8
_0-0_0
  6
CONTINUOUS
 62
    7
 10
172.92779549999995
 20
456.45001200000002
 40
0.500016
 50
180.00117
 51
359.995611
  0
LINE
  8
_0-0_0
  6
CONTINUOUS
 62
    7
 10
173.42779549999995
 20
468.44998199999998
 11
173.42779549999995
 21
456.44998199999998
  0
ARC
  8
_0-0_0
  6
CONTINUOUS
 62
    7
 10
171.42779549999995
 20
468.44998199999998
 40
0.500016
 50
0.001164
 51
179.99560600000004
  0
LINE
  8
_0-0_0
  6
CONTINUOUS
 62
    7
 10
170.92779549999995
 20
468.44998199999998
 11
170.92779549999995
 21
456.44998199999998
  0
ARC
  8
_0-0_0
  6
CONTINUOUS
 62
    7
 10
171.42779549999995
 20
456.45001200000002
 40
0.500016
 50
180.00117
 51
359.995611
  0
LINE
  8
_0-0_0
  6
CONTINUOUS
 62
    7
 10
171.92779549999995
 20
468.44998199999998
 11
171.92779549999995
 21
456.44998199999998
  0
LINE
  8
_0-0_0
  6
CONTINUOUS
 62
    7
 10
267.92779549999995
 20
474.44998199999998
 11
268.42779549999995
 21
474.44998199999998
  0
LINE
  8
_0-0_0
  6
CONTINUOUS
 62
    7
 10
268.42779549999995
 20
474.44998199999998
 11
280.92779549999995
 21
474.44998199999998
  0
ARC
  8
_0-0_0
  6
CONTINUOUS
 62
    7
 10
268.42779549999995
 20
474.94998199999998
 40
0.5
 50
179.99999099999999
 51
269.99999700000001
  0
LINE
  8
_0-0_0
  6
CONTINUOUS
 62
    7
 10
267.92779549999995
 20
474.08395400000001
 11
267.92779549999995
 21
474.44998199999998
  0
LINE
  8
_0-0_0
  6
CONTINUOUS
 62
    7
 10
267.92779549999995
 20
473.83346599999999
 11
267.92779549999995
 21
473.79998799999998
  0
LINE
  8
_0-0_0
  6
CONTINUOUS
 62
    7
 10
267.92779549999995
 20
474.08395400000001
 11
267.92779549999995
 21
473.83346599999999
  0
CIRCLE
  8
_0-0_0
  6
CONTINUOUS
 62
    7
 10
186.92779549999995
 20
474.75
 40
1.4750000000000001
  0
CIRCLE
  8
_0-0_0
  6
CONTINUOUS
 62
    7
 10
265.92779549999995
 20
474.75
 40
1.4750000000000001
  0
LINE
  8
_0-0_0
  6
CONTINUOUS
 62
    7
 10
267.92779549999995
 20
449.09997600000003
 11
267.92779549999995
 21
449.25
  0
LINE
  8
_0-0_0
  6
CONTINUOUS
 62
    7
 10
273.42779549999995
 20
449.09997600000003
 11
267.92779549999995
 21
449.09997600000003
  0
LINE
  8
_0-0_0
  6
CONTINUOUS
 62
    7
 10
273.42779549999995
 20
451.64999399999999
 11
272.92779549999995
 21
451.64999399999999
  0
LINE
  8
_0-0_0
  6
CONTINUOUS
 62
    7
 10
268.42779549999995
 20
474.29998799999998
 11
267.92779549999995
 21
473.79998799999998
  0
LINE
  8
_0-0_0
  6
CONTINUOUS
 62
    7
 10
268.42779549999995
 20
474.29998799999998
 11
273.42779549999995
 21
474.29998799999998
  0
LINE
  8
_0-0_0
  6
CONTINUOUS
 62
    7
 10
176.93896449999994
 20
452.14999399999999
 11
165.25231949999994
 21
452.14999399999999
  0
LINE
  8
_0-0_0
  6
CONTINUOUS
 62
    7
 10
164.17779549999995
 20
473.49996900000002
 11
164.61987249999999
 21
473.64733899999999
  0
LINE
  8
_0-0_0
  6
CONTINUOUS
 62
    7
 10
160.45343049999997
 20
468.25
 11
159.76007049999998
 21
468.25
  0
LINE
  8
_0-0_0
  6
CONTINUOUS
 62
    7
 10
160.45343049999997
 20
468.25
 11
164.77801549999998
 21
468.25
  0
LINE
  8
_0-0_0
  6
CONTINUOUS
 62
    7
 10
165.25231949999994
 20
468.25
 11
164.77801549999998
 21
468.25
  0
LINE
  8
_0-0_0
  6
CONTINUOUS
 62
    7
 10
169.92779549999995
 20
468.25
 11
165.25231949999994
 21
468.25
  0
LINE
  8
_0-0_0
  6
CONTINUOUS
 62
    7
 10
267.92779549999995
 20
448.953552
 11
267.92779549999995
 21
449.09997600000003
  0
LINE
  8
_0-0_0
  6
CONTINUOUS
 62
    7
 10
267.92779549999995
 20
448.89642300000003
 11
267.92779549999995
 21
448.953552
  0
LINE
  8
_0-0_0
  6
CONTINUOUS
 62
    7
 10
267.92779549999995
 20
448.75
 11
267.92779549999995
 21
448.89642300000003
  0
ARC
  8
_0-0_0
  6
CONTINUOUS
 62
    7
 10
273.42779549999995
 20
449.59997600000003
 40
0.5
 50
269.99999700000001
 51
0
  0
LINE
  8
_0-0_0
  6
CONTINUOUS
 62
    7
 10
273.92779549999995
 20
451.15570100000002
 11
273.92779549999995
 21
449.59997600000003
  0
ARC
  8
_0-0_0
  6
CONTINUOUS
 62
    7
 10
273.44085649999994
 20
451.15234400000003
 40
0.4869939999999999
 50
0.394923
 51
23.93947
  0
ARC
  8
_0-0_0
  6
CONTINUOUS
 62
    7
 10
273.42779549999995
 20
451.14999399999999
 40
0.5
 50
23.578231000000002
 51
90.000002999999992
  0
LINE
  8
_0-0_0
  6
CONTINUOUS
 62
    7
 10
273.92779549999995
 20
471.29998799999998
 11
273.92779549999995
 21
473.79998799999998
  0
ARC
  8
_0-0_0
  6
CONTINUOUS
 62
    7
 10
273.42779549999995
 20
473.79998799999998
 40
0.5
 50
0
 51
90.000003000000007
  0
LINE
  8
_0-0_0
  6
CONTINUOUS
 62
    7
 10
273.42779549999995
 20
458
 11
271.22778349999993
 21
458
  0
LINE
  8
_0-0_0
  6
CONTINUOUS
 62
    7
 10
273.92779549999995
 20
471.29998799999998
 11
273.92779549999995
 21
458.5
  0
LINE
  8
_0-0_0
  6
CONTINUOUS
 62
    7
 10
270.92779549999995
 20
457.69998199999998
 11
270.92779549999995
 21
455.12167399999998
  0
LINE
  8
_0-0_0
  6
CONTINUOUS
 62
    7
 10
200.89929149999995
 20
464.14999399999999
 11
192.95623749999999
 21
464.14999399999999
  0
ARC
  8
_0-0_0
  6
CONTINUOUS
 62
    7
 10
192.95623749999999
 20
464.64999399999999
 40
0.5
 50
210.00000299999999
 51
269.99999700000001
  0
LINE
  8
_0-0_0
  6
CONTINUOUS
 62
    7
 10
192.52319349999993
 20
464.39999399999999
 11
190.44476349999997
 21
468
  0
ARC
  8
_0-0_0
  6
CONTINUOUS
 62
    7
 10
190.87774649999994
 20
468.25
 40
0.5
 50
149.99999700000001
 51
210.00000299999996
  0
LINE
  8
_0-0_0
  6
CONTINUOUS
 62
    7
 10
190.44476349999997
 20
468.5
 11
192.52319349999993
 21
472.09997600000003
  0
ARC
  8
_0-0_0
  6
CONTINUOUS
 62
    7
 10
192.95623749999999
 20
471.84997600000003
 40
0.5
 50
90.000003000000007
 51
149.99999700000001
  0
LINE
  8
_0-0_0
  6
CONTINUOUS
 62
    7
 10
192.95623749999999
 20
472.34997600000003
 11
200.89929149999995
 21
472.34997600000003
  0
ARC
  8
_0-0_0
  6
CONTINUOUS
 62
    7
 10
200.89929149999995
 20
471.84997600000003
 40
0.5
 50
30.000001000000001
 51
90.000003000000007
  0
LINE
  8
_0-0_0
  6
CONTINUOUS
 62
    7
 10
201.33233649999994
 20
472.09997600000003
 11
203.41076649999997
 21
468.5
  0
ARC
  8
_0-0_0
  6
CONTINUOUS
 62
    7
 10
202.97778349999993
 20
468.25
 40
0.5
 50
329.99998900000003
 51
30.000000999999983
  0
LINE
  8
_0-0_0
  6
CONTINUOUS
 62
    7
 10
203.41076649999997
 20
468
 11
201.33233649999994
 21
464.39999399999999
  0
ARC
  8
_0-0_0
  6
CONTINUOUS
 62
    7
 10
200.89929149999995
 20
464.64999399999999
 40
0.5
 50
269.99999700000001
 51
329.99998900000003
  0
ARC
  8
_0-0_0
  6
CONTINUOUS
 62
    7
 10
248.89849849999996
 20
464.75
 40
0.5
 50
210.00000299999999
 51
269.99999700000001
  0
LINE
  8
_0-0_0
  6
CONTINUOUS
 62
    7
 10
248.46551549999998
 20
464.5
 11
246.44476349999997
 21
468
  0
ARC
  8
_0-0_0
  6
CONTINUOUS
 62
    7
 10
246.87774649999994
 20
468.25
 40
0.5
 50
149.99999700000001
 51
210.00000299999996
  0
LINE
  8
_0-0_0
  6
CONTINUOUS
 62
    7
 10
246.44476349999997
 20
468.5
 11
248.46551549999998
 21
472
  0
ARC
  8
_0-0_0
  6
CONTINUOUS
 62
    7
 10
248.89849849999996
 20
471.75
 40
0.5
 50
90.000003000000007
 51
149.99999700000001
  0
LINE
  8
_0-0_0
  6
CONTINUOUS
 62
    7
 10
248.89849849999996
 20
472.25
 11
256.95703149999997
 21
472.25
  0
ARC
  8
_0-0_0
  6
CONTINUOUS
 62
    7
 10
256.95703149999997
 20
471.75
 40
0.5
 50
30.000001000000001
 51
90.000003000000007
  0
LINE
  8
_0-0_0
  6
CONTINUOUS
 62
    7
 10
257.39007549999997
 20
472
 11
259.41076649999997
 21
468.5
  0
ARC
  8
_0-0_0
  6
CONTINUOUS
 62
    7
 10
258.97778349999993
 20
468.25
 40
0.5
 50
329.99998900000003
 51
30.000000999999983
  0
LINE
  8
_0-0_0
  6
CONTINUOUS
 62
    7
 10
259.41076649999997
 20
468
 11
257.39007549999997
 21
464.5
  0
ARC
  8
_0-0_0
  6
CONTINUOUS
 62
    7
 10
256.95703149999997
 20
464.75
 40
0.5
 50
269.99999700000001
 51
329.99998900000003
  0
LINE
  8
_0-0_0
  6
CONTINUOUS
 62
    7
 10
256.95703149999997
 20
464.25
 11
248.89849849999996
 21
464.25
  0
LINE
  8
_0-0_0
  6
CONTINUOUS
 62
    7
 10
164.61987249999999
 20
452.25262500000002
 11
164.73937949999998
 21
452.21701000000002
  0
LINE
  8
_0-0_0
  6
CONTINUOUS
 62
    7
 10
164.73937949999998
 20
452.21701000000002
 11
164.86090049999996
 21
452.18911700000001
  0
LINE
  8
_0-0_0
  6
CONTINUOUS
 62
    7
 10
164.86090049999996
 20
452.18911700000001
 11
164.98406949999998
 21
452.16906699999998
  0
LINE
  8
_0-0_0
  6
CONTINUOUS
 62
    7
 10
164.98406949999998
 20
452.16906699999998
 11
165.10827649999993
 21
452.15695199999999
  0
LINE
  8
_0-0_0
  6
CONTINUOUS
 62
    7
 10
165.10827649999993
 20
452.15695199999999
 11
165.23309349999994
 21
452.15283199999999
  0
LINE
  8
_0-0_0
  6
CONTINUOUS
 62
    7
 10
165.23309349999994
 20
452.15283199999999
 11
165.25231949999994
 21
452.15289300000001
  0
ARC
  8
_0-0_0
  6
CONTINUOUS
 62
    7
 10
165.25231949999994
 20
454.14999399999999
 40
2
 50
251.56498899999997
 51
269.99999700000001
  0
LINE
  8
_0-0_0
  6
CONTINUOUS
 62
    7
 10
158.92779549999995
 20
469.00003099999998
 11
158.92779549999995
 21
467.87899800000002
  0
LINE
  8
_0-0_0
  6
CONTINUOUS
 62
    7
 10
187.12774649999994
 20
473.64999399999999
 11
186.72778349999993
 21
473.64999399999999
  0
LINE
  8
_0-0_0
  6
CONTINUOUS
 62
    7
 10
187.12774649999994
 20
473.64999399999999
 11
187.12774649999994
 21
474.29998799999998
  0
ARC
  8
_0-0_0
  6
CONTINUOUS
 62
    7
 10
187.37774649999994
 20
474.29998799999998
 40
0.25
 50
90.000003000000007
 51
179.99999099999999
  0
LINE
  8
_0-0_0
  6
CONTINUOUS
 62
    7
 10
187.37774649999994
 20
474.54998799999998
 11
188.02777049999997
 21
474.54998799999998
  0
LINE
  8
_0-0_0
  6
CONTINUOUS
 62
    7
 10
188.02777049999997
 20
474.54998799999998
 11
188.02777049999997
 21
474.94998199999998
  0
LINE
  8
_0-0_0
  6
CONTINUOUS
 62
    7
 10
187.37774649999994
 20
474.94998199999998
 11
188.02777049999997
 21
474.94998199999998
  0
ARC
  8
_0-0_0
  6
CONTINUOUS
 62
    7
 10
187.37774649999994
 20
475.19998199999998
 40
0.25
 50
179.99999099999999
 51
269.99999700000001
  0
LINE
  8
_0-0_0
  6
CONTINUOUS
 62
    7
 10
187.12774649999994
 20
475.84997600000003
 11
187.12774649999994
 21
475.19998199999998
  0
LINE
  8
_0-0_0
  6
CONTINUOUS
 62
    7
 10
187.12774649999994
 20
475.84997600000003
 11
186.72778349999993
 21
475.84997600000003
  0
LINE
  8
_0-0_0
  6
CONTINUOUS
 62
    7
 10
186.72778349999993
 20
475.84997600000003
 11
186.72778349999993
 21
475.19998199999998
  0
ARC
  8
_0-0_0
  6
CONTINUOUS
 62
    7
 10
186.47778349999993
 20
475.19998199999998
 40
0.25
 50
269.99999700000001
 51
0
  0
LINE
  8
_0-0_0
  6
CONTINUOUS
 62
    7
 10
186.47778349999993
 20
474.94998199999998
 11
185.82775849999996
 21
474.94998199999998
  0
LINE
  8
_0-0_0
  6
CONTINUOUS
 62
    7
 10
185.82775849999996
 20
474.54998799999998
 11
185.82775849999996
 21
474.94998199999998
  0
LINE
  8
_0-0_0
  6
CONTINUOUS
 62
    7
 10
186.47778349999993
 20
474.54998799999998
 11
185.82775849999996
 21
474.54998799999998
  0
ARC
  8
_0-0_0
  6
CONTINUOUS
 62
    7
 10
186.47778349999993
 20
474.29998799999998
 40
0.25
 50
0
 51
90.000003000000007
  0
LINE
  8
_0-0_0
  6
CONTINUOUS
 62
    7
 10
186.72778349999993
 20
473.64999399999999
 11
186.72778349999993
 21
474.29998799999998
  0
LINE
  8
_0-0_0
  6
CONTINUOUS
 62
    7
 10
266.12774649999994
 20
473.64999399999999
 11
265.72778349999993
 21
473.64999399999999
  0
LINE
  8
_0-0_0
  6
CONTINUOUS
 62
    7
 10
266.12774649999994
 20
473.64999399999999
 11
266.12774649999994
 21
474.29998799999998
  0
ARC
  8
_0-0_0
  6
CONTINUOUS
 62
    7
 10
266.37774649999994
 20
474.29998799999998
 40
0.25
 50
90.000003000000007
 51
179.99999099999999
  0
LINE
  8
_0-0_0
  6
CONTINUOUS
 62
    7
 10
266.37774649999994
 20
474.54998799999998
 11
267.02777049999997
 21
474.54998799999998
  0
LINE
  8
_0-0_0
  6
CONTINUOUS
 62
    7
 10
267.02777049999997
 20
474.54998799999998
 11
267.02777049999997
 21
474.94998199999998
  0
LINE
  8
_0-0_0
  6
CONTINUOUS
 62
    7
 10
266.37774649999994
 20
474.94998199999998
 11
267.02777049999997
 21
474.94998199999998
  0
ARC
  8
_0-0_0
  6
CONTINUOUS
 62
    7
 10
266.37774649999994
 20
475.19998199999998
 40
0.25
 50
179.99999099999999
 51
269.99999700000001
  0
LINE
  8
_0-0_0
  6
CONTINUOUS
 62
    7
 10
266.12774649999994
 20
475.84997600000003
 11
266.12774649999994
 21
475.19998199999998
  0
LINE
  8
_0-0_0
  6
CONTINUOUS
 62
    7
 10
266.12774649999994
 20
475.84997600000003
 11
265.72778349999993
 21
475.84997600000003
  0
LINE
  8
_0-0_0
  6
CONTINUOUS
 62
    7
 10
265.72778349999993
 20
475.84997600000003
 11
265.72778349999993
 21
475.19998199999998
  0
ARC
  8
_0-0_0
  6
CONTINUOUS
 62
    7
 10
265.47778349999993
 20
475.19998199999998
 40
0.25
 50
269.99999700000001
 51
0
  0
LINE
  8
_0-0_0
  6
CONTINUOUS
 62
    7
 10
265.47778349999993
 20
474.94998199999998
 11
264.82775849999996
 21
474.94998199999998
  0
LINE
  8
_0-0_0
  6
CONTINUOUS
 62
    7
 10
264.82775849999996
 20
474.54998799999998
 11
264.82775849999996
 21
474.94998199999998
  0
LINE
  8
_0-0_0
  6
CONTINUOUS
 62
    7
 10
265.47778349999993
 20
474.54998799999998
 11
264.82775849999996
 21
474.54998799999998
  0
ARC
  8
_0-0_0
  6
CONTINUOUS
 62
    7
 10
265.47778349999993
 20
474.29998799999998
 40
0.25
 50
0
 51
90.000003000000007
  0
LINE
  8
_0-0_0
  6
CONTINUOUS
 62
    7
 10
265.72778349999993
 20
473.64999399999999
 11
265.72778349999993
 21
474.29998799999998
  0
LINE
  8
_0-0_0
  6
CONTINUOUS
 62
    7
 10
273.42779549999995
 20
448.75
 11
267.92779549999995
 21
448.75
  0
LINE
  8
_0-0_0
  6
CONTINUOUS
 62
    7
 10
273.92779549999995
 20
455
 11
273.92779549999995
 21
458.5
  0
LINE
  8
_0-0_0
  6
CONTINUOUS
 62
    7
 10
273.92779549999995
 20
455
 11
273.92779549999995
 21
454.64999399999999
  0
LINE
  8
_0-0_0
  6
CONTINUOUS
 62
    7
 10
273.92779549999995
 20
451.15570100000002
 11
273.92779549999995
 21
454.64999399999999
  0
LINE
  8
_0-0_0
  6
CONTINUOUS
 62
    7
 10
273.92779549999995
 20
449.307098
 11
273.92779549999995
 21
449.59997600000003
  0
LINE
  8
_0-0_0
  6
CONTINUOUS
 62
    7
 10
273.92779549999995
 20
449.307098
 11
273.92779549999995
 21
449.25
  0
LINE
  8
_0-0_0
  6
CONTINUOUS
 62
    7
 10
270.92779549999995
 20
453.57128899999998
 11
270.92779549999995
 21
455.12167399999998
  0
LINE
  8
_0-0_0
  6
CONTINUOUS
 62
    7
 10
270.92779549999995
 20
452.85012799999998
 11
270.92779549999995
 21
453.57128899999998
  0
ARC
  8
_0-0_0
  6
CONTINUOUS
 62
    7
 10
273.42779549999995
 20
458.5
 40
0.5
 50
269.99999700000001
 51
0
  0
ARC
  8
_0-0_0
  6
CONTINUOUS
 62
    7
 10
271.22778349999993
 20
457.69998199999998
 40
0.2999999999999999
 50
90.000003000000007
 51
179.99999099999999
  0
LINE
  8
_0-0_0
  6
CONTINUOUS
 62
    7
 10
160.29528749999997
 20
453.69415299999997
 11
164.61987249999999
 21
452.25262500000002
  0
LINE
  8
_0-0_0
  6
CONTINUOUS
 62
    7
 10
158.92779549999995
 20
455.59149200000002
 11
158.92779549999995
 21
458.94229100000001
  0
LINE
  8
_0-0_0
  6
CONTINUOUS
 62
    7
 10
158.92779549999995
 20
466.957672
 11
158.92779549999995
 21
467.87899800000002
  0
ARC
  8
_0-0_0
  6
CONTINUOUS
 62
    7
 10
160.92779549999995
 20
455.59149200000002
 40
2
 50
179.99999099999999
 51
251.56498899999997
  0
LINE
  8
_0-0_0
  6
CONTINUOUS
 62
    7
 10
143.92778049999993
 20
472.47543300000001
 11
143.92778049999993
 21
472.32870500000001
  0
LINE
  8
_0-0_0
  6
CONTINUOUS
 62
    7
 10
143.92778049999993
 20
472.665955
 11
143.92778049999993
 21
472.47543300000001
  0
LINE
  8
_0-0_0
  6
CONTINUOUS
 62
    7
 10
143.92778049999993
 20
472.84097300000002
 11
143.92778049999993
 21
472.665955
  0
LINE
  8
_0-0_0
  6
CONTINUOUS
 62
    7
 10
143.92778049999993
 20
472.99856599999998
 11
143.92778049999993
 21
472.84097300000002
  0
LINE
  8
_0-0_0
  6
CONTINUOUS
 62
    7
 10
143.92778049999993
 20
473.13699300000002
 11
143.92778049999993
 21
472.99856599999998
  0
LINE
  8
_0-0_0
  6
CONTINUOUS
 62
    7
 10
143.92778049999993
 20
473.25476099999997
 11
143.92778049999993
 21
473.13699300000002
  0
LINE
  8
_0-0_0
  6
CONTINUOUS
 62
    7
 10
143.92778049999993
 20
473.350525
 11
143.92778049999993
 21
473.25476099999997
  0
LINE
  8
_0-0_0
  6
CONTINUOUS
 62
    7
 10
143.92778049999993
 20
473.42330900000002
 11
143.92778049999993
 21
473.350525
  0
LINE
  8
_0-0_0
  6
CONTINUOUS
 62
    7
 10
143.92778049999993
 20
473.47228999999999
 11
143.92778049999993
 21
473.42330900000002
  0
LINE
  8
_0-0_0
  6
CONTINUOUS
 62
    7
 10
143.92778049999993
 20
473.5
 11
143.92778049999993
 21
473.47228999999999
  0
LINE
  8
_0-0_0
  6
CONTINUOUS
 62
    7
 10
143.92778049999993
 20
473.5
 11
143.92778049999993
 21
473.49688700000002
  0
LINE
  8
_0-0_0
  6
CONTINUOUS
 62
    7
 10
143.92778049999993
 20
469.00305200000003
 11
143.92778049999993
 21
469
  0
LINE
  8
_0-0_0
  6
CONTINUOUS
 62
    7
 10
143.92778049999993
 20
469.02767899999998
 11
143.92778049999993
 21
469.00305200000003
  0
LINE
  8
_0-0_0
  6
CONTINUOUS
 62
    7
 10
143.92778049999993
 20
469.07666
 11
143.92778049999993
 21
469
  0
LINE
  8
_0-0_0
  6
CONTINUOUS
 62
    7
 10
143.92778049999993
 20
469.14941399999998
 11
143.92778049999993
 21
469.07666
  0
LINE
  8
_0-0_0
  6
CONTINUOUS
 62
    7
 10
143.92778049999993
 20
469.24520899999999
 11
143.92778049999993
 21
469.14941399999998
  0
LINE
  8
_0-0_0
  6
CONTINUOUS
 62
    7
 10
143.92778049999993
 20
469.27542099999999
 11
143.92778049999993
 21
469.24520899999999
  0
LINE
  8
_0-0_0
  6
CONTINUOUS
 62
    7
 10
143.92778049999993
 20
469.362976
 11
143.92778049999993
 21
469.27542099999999
  0
LINE
  8
_0-0_0
  6
CONTINUOUS
 62
    7
 10
143.92778049999993
 20
469.50140399999998
 11
143.92778049999993
 21
469.362976
  0
LINE
  8
_0-0_0
  6
CONTINUOUS
 62
    7
 10
143.92778049999993
 20
469.658997
 11
143.92778049999993
 21
469.50140399999998
  0
LINE
  8
_0-0_0
  6
CONTINUOUS
 62
    7
 10
143.92778049999993
 20
469.83401500000002
 11
143.92778049999993
 21
469.658997
  0
LINE
  8
_0-0_0
  6
CONTINUOUS
 62
    7
 10
143.92778049999993
 20
470.02453600000001
 11
143.92778049999993
 21
469.83401500000002
  0
LINE
  8
_0-0_0
  6
CONTINUOUS
 62
    7
 10
143.92778049999993
 20
470.22851600000001
 11
143.92778049999993
 21
470.02453600000001
  0
LINE
  8
_0-0_0
  6
CONTINUOUS
 62
    7
 10
143.92778049999993
 20
470.44366500000001
 11
143.92778049999993
 21
470.22851600000001
  0
LINE
  8
_0-0_0
  6
CONTINUOUS
 62
    7
 10
143.92778049999993
 20
470.66763300000002
 11
143.92778049999993
 21
470.44366500000001
  0
LINE
  8
_0-0_0
  6
CONTINUOUS
 62
    7
 10
143.92778049999993
 20
470.89801
 11
143.92778049999993
 21
470.66763300000002
  0
LINE
  8
_0-0_0
  6
CONTINUOUS
 62
    7
 10
143.92778049999993
 20
471.13223299999999
 11
143.92778049999993
 21
470.89801
  0
LINE
  8
_0-0_0
  6
CONTINUOUS
 62
    7
 10
143.92778049999993
 20
471.36773699999998
 11
143.92778049999993
 21
471.13223299999999
  0
LINE
  8
_0-0_0
  6
CONTINUOUS
 62
    7
 10
143.92778049999993
 20
471.60195900000002
 11
143.92778049999993
 21
471.36773699999998
  0
LINE
  8
_0-0_0
  6
CONTINUOUS
 62
    7
 10
143.92778049999993
 20
471.832336
 11
143.92778049999993
 21
471.60195900000002
  0
LINE
  8
_0-0_0
  6
CONTINUOUS
 62
    7
 10
143.92778049999993
 20
472.05630500000001
 11
143.92778049999993
 21
471.832336
  0
LINE
  8
_0-0_0
  6
CONTINUOUS
 62
    7
 10
143.92778049999993
 20
472.27145400000001
 11
143.92778049999993
 21
472.05630500000001
  0
LINE
  8
_0-0_0
  6
CONTINUOUS
 62
    7
 10
143.92778049999993
 20
472.32870500000001
 11
143.92778049999993
 21
472.27145400000001
  0
LINE
  8
_0-0_0
  6
CONTINUOUS
 62
    7
 10
159.22778349999993
 20
465.16198700000001
 11
159.16900649999997
 21
465.40881300000001
  0
LINE
  8
_0-0_0
  6
CONTINUOUS
 62
    7
 10
159.16900649999997
 20
465.40881300000001
 11
159.11920149999997
 21
465.601135
  0
LINE
  8
_0-0_0
  6
CONTINUOUS
 62
    7
 10
159.11920149999997
 20
465.601135
 11
159.04809549999993
 21
465.86694299999999
  0
LINE
  8
_0-0_0
  6
CONTINUOUS
 62
    7
 10
159.04809549999993
 20
465.86694299999999
 11
159.01513649999998
 21
465.993652
  0
LINE
  8
_0-0_0
  6
CONTINUOUS
 62
    7
 10
159.01513649999998
 20
465.993652
 11
158.98986849999994
 21
466.09707600000002
  0
LINE
  8
_0-0_0
  6
CONTINUOUS
 62
    7
 10
158.98986849999994
 20
466.09707600000002
 11
158.96783449999998
 21
466.19702100000001
  0
LINE
  8
_0-0_0
  6
CONTINUOUS
 62
    7
 10
158.96783449999998
 20
466.19702100000001
 11
158.94647249999997
 21
466.314728
  0
LINE
  8
_0-0_0
  6
CONTINUOUS
 62
    7
 10
158.94647249999997
 20
466.314728
 11
158.93786649999998
 21
466.37686200000002
  0
LINE
  8
_0-0_0
  6
CONTINUOUS
 62
    7
 10
158.93786649999998
 20
466.37686200000002
 11
158.93182349999995
 21
466.43746900000002
  0
LINE
  8
_0-0_0
  6
CONTINUOUS
 62
    7
 10
158.93182349999995
 20
466.43746900000002
 11
158.92877149999998
 21
466.486694
  0
LINE
  8
_0-0_0
  6
CONTINUOUS
 62
    7
 10
158.92877149999998
 20
466.486694
 11
158.92779549999995
 21
466.53491200000002
  0
LINE
  8
_0-0_0
  6
CONTINUOUS
 62
    7
 10
159.22778349999993
 20
460.737976
 11
159.31121849999994
 21
461.11663800000002
  0
LINE
  8
_0-0_0
  6
CONTINUOUS
 62
    7
 10
159.31121849999994
 20
461.11663800000002
 11
159.35131849999993
 21
461.30816700000003
  0
LINE
  8
_0-0_0
  6
CONTINUOUS
 62
    7
 10
159.35131849999993
 20
461.30816700000003
 11
159.40740949999997
 21
461.598206
  0
LINE
  8
_0-0_0
  6
CONTINUOUS
 62
    7
 10
159.40740949999997
 20
461.598206
 11
159.44500749999997
 21
461.81778000000003
  0
LINE
  8
_0-0_0
  6
CONTINUOUS
 62
    7
 10
159.44500749999997
 20
461.81778000000003
 11
159.47766149999995
 21
462.03903200000002
  0
LINE
  8
_0-0_0
  6
CONTINUOUS
 62
    7
 10
159.47766149999995
 20
462.03903200000002
 11
159.50482149999993
 21
462.26583900000003
  0
LINE
  8
_0-0_0
  6
CONTINUOUS
 62
    7
 10
159.50482149999993
 20
462.26583900000003
 11
159.52490249999994
 21
462.493225
  0
LINE
  8
_0-0_0
  6
CONTINUOUS
 62
    7
 10
159.52490249999994
 20
462.493225
 11
159.53204349999993
 21
462.606964
  0
LINE
  8
_0-0_0
  6
CONTINUOUS
 62
    7
 10
159.53204349999993
 20
462.606964
 11
159.53717049999995
 21
462.720642
  0
LINE
  8
_0-0_0
  6
CONTINUOUS
 62
    7
 10
159.53717049999995
 20
462.720642
 11
159.54089349999998
 21
462.87207000000001
  0
LINE
  8
_0-0_0
  6
CONTINUOUS
 62
    7
 10
159.54089349999998
 20
462.87207000000001
 11
159.54095449999994
 21
463.02331500000003
  0
LINE
  8
_0-0_0
  6
CONTINUOUS
 62
    7
 10
159.54095449999994
 20
463.02331500000003
 11
159.53741449999995
 21
463.17437699999999
  0
LINE
  8
_0-0_0
  6
CONTINUOUS
 62
    7
 10
159.53741449999995
 20
463.17437699999999
 11
159.52789249999995
 21
463.36291499999999
  0
LINE
  8
_0-0_0
  6
CONTINUOUS
 62
    7
 10
159.52789249999995
 20
463.36291499999999
 11
159.51300049999998
 21
463.55117799999999
  0
LINE
  8
_0-0_0
  6
CONTINUOUS
 62
    7
 10
159.51300049999998
 20
463.55117799999999
 11
159.49310249999996
 21
463.739105
  0
LINE
  8
_0-0_0
  6
CONTINUOUS
 62
    7
 10
159.49310249999996
 20
463.739105
 11
159.47668449999998
 21
463.86798099999999
  0
LINE
  8
_0-0_0
  6
CONTINUOUS
 62
    7
 10
159.47668449999998
 20
463.86798099999999
 11
159.45831249999998
 21
463.99664300000001
  0
LINE
  8
_0-0_0
  6
CONTINUOUS
 62
    7
 10
159.45831249999998
 20
463.99664300000001
 11
159.43414249999995
 21
464.14855999999997
  0
LINE
  8
_0-0_0
  6
CONTINUOUS
 62
    7
 10
159.43414249999995
 20
464.14855999999997
 11
159.40771449999994
 21
464.29992700000003
  0
LINE
  8
_0-0_0
  6
CONTINUOUS
 62
    7
 10
159.40771449999994
 20
464.29992700000003
 11
159.35156249999994
 21
464.59054600000002
  0
LINE
  8
_0-0_0
  6
CONTINUOUS
 62
    7
 10
159.35156249999994
 20
464.59054600000002
 11
159.31140149999993
 21
464.78250100000002
  0
LINE
  8
_0-0_0
  6
CONTINUOUS
 62
    7
 10
159.31140149999993
 20
464.78250100000002
 11
159.22778349999993
 21
465.16198700000001
  0
LINE
  8
_0-0_0
  6
CONTINUOUS
 62
    7
 10
159.22778349999993
 20
460.737976
 11
159.16894549999995
 21
460.49111900000003
  0
LINE
  8
_0-0_0
  6
CONTINUOUS
 62
    7
 10
159.16894549999995
 20
460.49111900000003
 11
159.11920149999997
 21
460.29879799999998
  0
LINE
  8
_0-0_0
  6
CONTINUOUS
 62
    7
 10
159.11920149999997
 20
460.29879799999998
 11
159.04809549999993
 21
460.033051
  0
LINE
  8
_0-0_0
  6
CONTINUOUS
 62
    7
 10
159.04809549999993
 20
460.033051
 11
159.01513649999998
 21
459.906342
  0
LINE
  8
_0-0_0
  6
CONTINUOUS
 62
    7
 10
159.01513649999998
 20
459.906342
 11
158.98986849999994
 21
459.80291699999998
  0
LINE
  8
_0-0_0
  6
CONTINUOUS
 62
    7
 10
158.98986849999994
 20
459.80291699999998
 11
158.96783449999998
 21
459.70294200000001
  0
LINE
  8
_0-0_0
  6
CONTINUOUS
 62
    7
 10
158.96783449999998
 20
459.70294200000001
 11
158.94647249999997
 21
459.58523600000001
  0
LINE
  8
_0-0_0
  6
CONTINUOUS
 62
    7
 10
158.94647249999997
 20
459.58523600000001
 11
158.93786649999998
 21
459.52310199999999
  0
LINE
  8
_0-0_0
  6
CONTINUOUS
 62
    7
 10
158.93786649999998
 20
459.52310199999999
 11
158.93182349999995
 21
459.46249399999999
  0
LINE
  8
_0-0_0
  6
CONTINUOUS
 62
    7
 10
158.93182349999995
 20
459.46249399999999
 11
158.92877149999998
 21
459.41326900000001
  0
LINE
  8
_0-0_0
  6
CONTINUOUS
 62
    7
 10
158.92877149999998
 20
459.41326900000001
 11
158.92779549999995
 21
459.36505099999999
  0
ARC
  8
_0-0_0
  6
CONTINUOUS
 62
    7
 10
273.42779549999995
 20
449.25
 40
0.5
 50
269.99999700000001
 51
0
  0
LINE
  8
_0-0_0
  6
CONTINUOUS
 62
    7
 10
273.38342249999994
 20
453.57128899999998
 11
273.38342249999994
 21
456.89999399999999
  0
LINE
  8
_0-0_0
  6
CONTINUOUS
 62
    7
 10
273.38342249999994
 20
452.39999399999999
 11
273.38342249999994
 21
453.57128899999998
  0
CIRCLE
  8
_0-0_0
  6
CONTINUOUS
 62
    7
 10
196.92779549999995
 20
468.25
 40
2.5
  0
CIRCLE
  8
_0-0_0
  6
CONTINUOUS
 62
    7
 10
252.92779549999995
 20
468.25
 40
2.5
  0
LINE
  8
_0-0_0
  6
CONTINUOUS
 62
    7
 10
158.92779549999995
 20
459.05767800000001
 11
149.21995549999997
 21
459.05767800000001
  0
LINE
  8
_0-0_0
  6
CONTINUOUS
 62
    7
 10
149.21995549999997
 20
456.44998199999998
 11
149.16548149999994
 21
456.51992799999999
  0
LINE
  8
_0-0_0
  6
CONTINUOUS
 62
    7
 10
149.16548149999994
 20
456.51992799999999
 11
149.11436449999997
 21
456.58874500000002
  0
LINE
  8
_0-0_0
  6
CONTINUOUS
 62
    7
 10
149.11436449999997
 20
456.58874500000002
 11
149.06672649999996
 21
456.65625
  0
LINE
  8
_0-0_0
  6
CONTINUOUS
 62
    7
 10
149.06672649999996
 20
456.65625
 11
149.02223149999998
 21
456.72280899999998
  0
LINE
  8
_0-0_0
  6
CONTINUOUS
 62
    7
 10
149.02223149999998
 20
456.72280899999998
 11
148.9675135
 21
456.81033300000001
  0
LINE
  8
_0-0_0
  6
CONTINUOUS
 62
    7
 10
148.9675135
 20
456.81033300000001
 11
148.91801449999997
 21
456.89645400000001
  0
LINE
  8
_0-0_0
  6
CONTINUOUS
 62
    7
 10
148.91801449999997
 20
456.89645400000001
 11
148.87353549999995
 21
456.98126200000002
  0
LINE
  8
_0-0_0
  6
CONTINUOUS
 62
    7
 10
148.87353549999995
 20
456.98126200000002
 11
148.82656849999995
 21
457.08160400000003
  0
LINE
  8
_0-0_0
  6
CONTINUOUS
 62
    7
 10
148.82656849999995
 20
457.08160400000003
 11
148.7863615
 21
457.18051100000002
  0
LINE
  8
_0-0_0
  6
CONTINUOUS
 62
    7
 10
148.7863615
 20
457.18051100000002
 11
148.75270049999995
 21
457.27825899999999
  0
LINE
  8
_0-0_0
  6
CONTINUOUS
 62
    7
 10
148.75270049999995
 20
457.27825899999999
 11
148.72541749999993
 21
457.375092
  0
LINE
  8
_0-0_0
  6
CONTINUOUS
 62
    7
 10
148.72541749999993
 20
457.375092
 11
148.70436049999995
 21
457.47113000000002
  0
LINE
  8
_0-0_0
  6
CONTINUOUS
 62
    7
 10
148.70436049999995
 20
457.47113000000002
 11
148.68843049999998
 21
457.57498199999998
  0
LINE
  8
_0-0_0
  6
CONTINUOUS
 62
    7
 10
148.68843049999998
 20
457.57498199999998
 11
148.67967249999992
 21
457.678406
  0
LINE
  8
_0-0_0
  6
CONTINUOUS
 62
    7
 10
148.67967249999992
 20
457.678406
 11
148.67803949999995
 21
457.78164700000002
  0
LINE
  8
_0-0_0
  6
CONTINUOUS
 62
    7
 10
148.67803949999995
 20
457.78164700000002
 11
148.68351749999999
 21
457.88494900000001
  0
LINE
  8
_0-0_0
  6
CONTINUOUS
 62
    7
 10
148.68351749999999
 20
457.88494900000001
 11
148.69612149999995
 21
457.98852499999998
  0
LINE
  8
_0-0_0
  6
CONTINUOUS
 62
    7
 10
148.69612149999995
 20
457.98852499999998
 11
148.71592649999997
 21
458.09268200000002
  0
LINE
  8
_0-0_0
  6
CONTINUOUS
 62
    7
 10
148.71592649999997
 20
458.09268200000002
 11
148.74308749999994
 21
458.197632
  0
LINE
  8
_0-0_0
  6
CONTINUOUS
 62
    7
 10
148.74308749999994
 20
458.197632
 11
148.77772549999997
 21
458.30367999999999
  0
LINE
  8
_0-0_0
  6
CONTINUOUS
 62
    7
 10
148.77772549999997
 20
458.30367999999999
 11
148.82008349999995
 21
458.41104100000001
  0
LINE
  8
_0-0_0
  6
CONTINUOUS
 62
    7
 10
148.82008349999995
 20
458.41104100000001
 11
148.87039149999998
 21
458.52005000000003
  0
LINE
  8
_0-0_0
  6
CONTINUOUS
 62
    7
 10
148.87039149999998
 20
458.52005000000003
 11
148.92463649999996
 21
458.623199
  0
LINE
  8
_0-0_0
  6
CONTINUOUS
 62
    7
 10
148.92463649999996
 20
458.623199
 11
148.98634349999998
 21
458.72824100000003
  0
LINE
  8
_0-0_0
  6
CONTINUOUS
 62
    7
 10
148.98634349999998
 20
458.72824100000003
 11
149.05586249999999
 21
458.83548000000002
  0
LINE
  8
_0-0_0
  6
CONTINUOUS
 62
    7
 10
149.05586249999999
 20
458.83548000000002
 11
149.13359049999997
 21
458.94519000000003
  0
LINE
  8
_0-0_0
  6
CONTINUOUS
 62
    7
 10
149.13359049999997
 20
458.94519000000003
 11
149.21995549999997
 21
459.05767800000001
  0
LINE
  8
_0-0_0
  6
CONTINUOUS
 62
    7
 10
158.92779549999995
 20
456.44998199999998
 11
149.21995549999997
 21
456.44998199999998
  0
LINE
  8
_0-0_0
  6
CONTINUOUS
 62
    7
 10
158.92779549999995
 20
458.94229100000001
 11
158.92779549999995
 21
459.05767800000001
  0
LINE
  8
_0-0_0
  6
CONTINUOUS
 62
    7
 10
149.17778049999993
 20
456.44998199999998
 11
149.21995549999997
 21
456.44998199999998
  0
LINE
  8
_0-0_0
  6
CONTINUOUS
 62
    7
 10
158.92779549999995
 20
466.842285
 11
149.21995549999997
 21
466.842285
  0
LINE
  8
_0-0_0
  6
CONTINUOUS
 62
    7
 10
158.92779549999995
 20
466.957672
 11
158.92779549999995
 21
466.842285
  0
LINE
  8
_0-0_0
  6
CONTINUOUS
 62
    7
 10
149.21995549999997
 20
466.842285
 11
149.16548149999994
 21
466.91223100000002
  0
LINE
  8
_0-0_0
  6
CONTINUOUS
 62
    7
 10
149.16548149999994
 20
466.91223100000002
 11
149.11436449999997
 21
466.98104899999998
  0
LINE
  8
_0-0_0
  6
CONTINUOUS
 62
    7
 10
149.11436449999997
 20
466.98104899999998
 11
149.06672649999996
 21
467.04855300000003
  0
LINE
  8
_0-0_0
  6
CONTINUOUS
 62
    7
 10
149.06672649999996
 20
467.04855300000003
 11
149.02223149999998
 21
467.11511200000001
  0
LINE
  8
_0-0_0
  6
CONTINUOUS
 62
    7
 10
149.02223149999998
 20
467.11511200000001
 11
148.9675135
 21
467.20263699999998
  0
LINE
  8
_0-0_0
  6
CONTINUOUS
 62
    7
 10
148.9675135
 20
467.20263699999998
 11
148.91801449999997
 21
467.28875699999998
  0
LINE
  8
_0-0_0
  6
CONTINUOUS
 62
    7
 10
148.91801449999997
 20
467.28875699999998
 11
148.87353549999995
 21
467.37359600000002
  0
LINE
  8
_0-0_0
  6
CONTINUOUS
 62
    7
 10
148.87353549999995
 20
467.37359600000002
 11
148.82656849999995
 21
467.473907
  0
LINE
  8
_0-0_0
  6
CONTINUOUS
 62
    7
 10
148.82656849999995
 20
467.473907
 11
148.7863615
 21
467.57281499999999
  0
LINE
  8
_0-0_0
  6
CONTINUOUS
 62
    7
 10
148.7863615
 20
467.57281499999999
 11
148.75270049999995
 21
467.670593
  0
LINE
  8
_0-0_0
  6
CONTINUOUS
 62
    7
 10
148.75270049999995
 20
467.670593
 11
148.72541749999993
 21
467.76739500000002
  0
LINE
  8
_0-0_0
  6
CONTINUOUS
 62
    7
 10
148.72541749999993
 20
467.76739500000002
 11
148.70436049999995
 21
467.86343399999998
  0
LINE
  8
_0-0_0
  6
CONTINUOUS
 62
    7
 10
148.70436049999995
 20
467.86343399999998
 11
148.68843049999998
 21
467.967285
  0
LINE
  8
_0-0_0
  6
CONTINUOUS
 62
    7
 10
148.68843049999998
 20
467.967285
 11
148.67967249999992
 21
468.07070900000002
  0
LINE
  8
_0-0_0
  6
CONTINUOUS
 62
    7
 10
148.67967249999992
 20
468.07070900000002
 11
148.67803949999995
 21
468.17394999999999
  0
LINE
  8
_0-0_0
  6
CONTINUOUS
 62
    7
 10
148.67803949999995
 20
468.17394999999999
 11
148.68351749999999
 21
468.27725199999998
  0
LINE
  8
_0-0_0
  6
CONTINUOUS
 62
    7
 10
148.68351749999999
 20
468.27725199999998
 11
148.69612149999995
 21
468.38082900000001
  0
LINE
  8
_0-0_0
  6
CONTINUOUS
 62
    7
 10
148.69612149999995
 20
468.38082900000001
 11
148.71592649999997
 21
468.48498499999999
  0
LINE
  8
_0-0_0
  6
CONTINUOUS
 62
    7
 10
148.71592649999997
 20
468.48498499999999
 11
148.74308749999994
 21
468.58993500000003
  0
LINE
  8
_0-0_0
  6
CONTINUOUS
 62
    7
 10
148.74308749999994
 20
468.58993500000003
 11
148.77772549999997
 21
468.69598400000001
  0
LINE
  8
_0-0_0
  6
CONTINUOUS
 62
    7
 10
148.77772549999997
 20
468.69598400000001
 11
148.82008349999995
 21
468.80334499999998
  0
LINE
  8
_0-0_0
  6
CONTINUOUS
 62
    7
 10
148.82008349999995
 20
468.80334499999998
 11
148.87039149999998
 21
468.91235399999999
  0
LINE
  8
_0-0_0
  6
CONTINUOUS
 62
    7
 10
148.87039149999998
 20
468.91235399999999
 11
148.91609149999999
 21
469
  0
LINE
  8
_0-0_0
  6
CONTINUOUS
 62
    7
 10
143.92778049999993
 20
472.47543300000001
 11
143.67778049999993
 21
472.5
  0
LINE
  8
_0-0_0
  6
CONTINUOUS
 62
    7
 10
143.92778049999993
 20
472.27145400000001
 11
143.67778049999993
 21
472.5
  0
LINE
  8
_0-0_0
  6
CONTINUOUS
 62
    7
 10
143.92778049999993
 20
472.665955
 11
143.67778049999993
 21
472.71945199999999
  0
LINE
  8
_0-0_0
  6
CONTINUOUS
 62
    7
 10
143.92778049999993
 20
472.47543300000001
 11
143.67778049999993
 21
472.71945199999999
  0
LINE
  8
_0-0_0
  6
CONTINUOUS
 62
    7
 10
143.92778049999993
 20
472.84097300000002
 11
143.67778049999993
 21
472.922821
  0
LINE
  8
_0-0_0
  6
CONTINUOUS
 62
    7
 10
143.92778049999993
 20
472.665955
 11
143.67778049999993
 21
472.922821
  0
LINE
  8
_0-0_0
  6
CONTINUOUS
 62
    7
 10
143.92778049999993
 20
472.99856599999998
 11
143.67778049999993
 21
473.10784899999999
  0
LINE
  8
_0-0_0
  6
CONTINUOUS
 62
    7
 10
143.92778049999993
 20
472.84097300000002
 11
143.67778049999993
 21
473.10784899999999
  0
LINE
  8
_0-0_0
  6
CONTINUOUS
 62
    7
 10
143.92778049999993
 20
473.13699300000002
 11
143.67778049999993
 21
473.27252199999998
  0
LINE
  8
_0-0_0
  6
CONTINUOUS
 62
    7
 10
143.92778049999993
 20
472.99856599999998
 11
143.67778049999993
 21
473.27252199999998
  0
LINE
  8
_0-0_0
  6
CONTINUOUS
 62
    7
 10
143.92778049999993
 20
473.25476099999997
 11
143.67778049999993
 21
473.41503899999998
  0
LINE
  8
_0-0_0
  6
CONTINUOUS
 62
    7
 10
143.92778049999993
 20
473.13699300000002
 11
143.67778049999993
 21
473.41503899999998
  0
LINE
  8
_0-0_0
  6
CONTINUOUS
 62
    7
 10
143.92778049999993
 20
473.350525
 11
143.67778049999993
 21
473.53384399999999
  0
LINE
  8
_0-0_0
  6
CONTINUOUS
 62
    7
 10
143.92778049999993
 20
473.25476099999997
 11
143.67778049999993
 21
473.53384399999999
  0
LINE
  8
_0-0_0
  6
CONTINUOUS
 62
    7
 10
143.92778049999993
 20
473.42330900000002
 11
143.67778049999993
 21
473.62762500000002
  0
LINE
  8
_0-0_0
  6
CONTINUOUS
 62
    7
 10
143.92778049999993
 20
473.350525
 11
143.67778049999993
 21
473.62762500000002
  0
LINE
  8
_0-0_0
  6
CONTINUOUS
 62
    7
 10
143.92778049999993
 20
473.47228999999999
 11
143.67778049999993
 21
473.69534299999998
  0
LINE
  8
_0-0_0
  6
CONTINUOUS
 62
    7
 10
143.92778049999993
 20
473.42330900000002
 11
143.67778049999993
 21
473.69534299999998
  0
LINE
  8
_0-0_0
  6
CONTINUOUS
 62
    7
 10
143.92778049999993
 20
473.49688700000002
 11
143.67778049999993
 21
473.73629799999998
  0
LINE
  8
_0-0_0
  6
CONTINUOUS
 62
    7
 10
143.92778049999993
 20
473.47228999999999
 11
143.67778049999993
 21
473.73629799999998
  0
LINE
  8
_0-0_0
  6
CONTINUOUS
 62
    7
 10
143.92778049999993
 20
473.49688700000002
 11
143.67778049999993
 21
473.75
  0
LINE
  8
_0-0_0
  6
CONTINUOUS
 62
    7
 10
143.92778049999993
 20
469.00305200000003
 11
143.67778049999993
 21
468.75
  0
LINE
  8
_0-0_0
  6
CONTINUOUS
 62
    7
 10
143.92778049999993
 20
469.02767899999998
 11
143.67778049999993
 21
468.76367199999999
  0
LINE
  8
_0-0_0
  6
CONTINUOUS
 62
    7
 10
143.92778049999993
 20
469.00305200000003
 11
143.67778049999993
 21
468.76367199999999
  0
LINE
  8
_0-0_0
  6
CONTINUOUS
 62
    7
 10
143.92778049999993
 20
469.07666
 11
143.67778049999993
 21
468.80462599999998
  0
LINE
  8
_0-0_0
  6
CONTINUOUS
 62
    7
 10
143.92778049999993
 20
469.02767899999998
 11
143.67778049999993
 21
468.80462599999998
  0
LINE
  8
_0-0_0
  6
CONTINUOUS
 62
    7
 10
143.92778049999993
 20
469.14941399999998
 11
143.67778049999993
 21
468.872345
  0
LINE
  8
_0-0_0
  6
CONTINUOUS
 62
    7
 10
143.92778049999993
 20
469.07666
 11
143.67778049999993
 21
468.872345
  0
LINE
  8
_0-0_0
  6
CONTINUOUS
 62
    7
 10
143.92778049999993
 20
469.24520899999999
 11
143.67778049999993
 21
468.96612499999998
  0
LINE
  8
_0-0_0
  6
CONTINUOUS
 62
    7
 10
143.92778049999993
 20
469.14941399999998
 11
143.67778049999993
 21
468.96612499999998
  0
LINE
  8
_0-0_0
  6
CONTINUOUS
 62
    7
 10
143.92778049999993
 20
469.24520899999999
 11
143.79782049999994
 21
469.16137700000002
  0
LINE
  8
_0-0_0
  6
CONTINUOUS
 62
    7
 10
143.92778049999993
 20
469.362976
 11
143.67778049999993
 21
469.08492999999999
  0
LINE
  8
_0-0_0
  6
CONTINUOUS
 62
    7
 10
143.79782049999994
 20
469.16137700000002
 11
143.67778049999993
 21
469.08492999999999
  0
LINE
  8
_0-0_0
  6
CONTINUOUS
 62
    7
 10
143.92778049999993
 20
469.50140399999998
 11
143.67778049999993
 21
469.22744799999998
  0
LINE
  8
_0-0_0
  6
CONTINUOUS
 62
    7
 10
143.92778049999993
 20
469.362976
 11
143.67778049999993
 21
469.22744799999998
  0
LINE
  8
_0-0_0
  6
CONTINUOUS
 62
    7
 10
143.92778049999993
 20
469.658997
 11
143.67778049999993
 21
469.39211999999998
  0
LINE
  8
_0-0_0
  6
CONTINUOUS
 62
    7
 10
143.92778049999993
 20
469.50140399999998
 11
143.67778049999993
 21
469.39211999999998
  0
LINE
  8
_0-0_0
  6
CONTINUOUS
 62
    7
 10
143.92778049999993
 20
469.83401500000002
 11
143.67778049999993
 21
469.57714800000002
  0
LINE
  8
_0-0_0
  6
CONTINUOUS
 62
    7
 10
143.92778049999993
 20
469.658997
 11
143.67778049999993
 21
469.57714800000002
  0
LINE
  8
_0-0_0
  6
CONTINUOUS
 62
    7
 10
143.92778049999993
 20
470.02453600000001
 11
143.67778049999993
 21
469.78051799999997
  0
LINE
  8
_0-0_0
  6
CONTINUOUS
 62
    7
 10
143.92778049999993
 20
469.83401500000002
 11
143.67778049999993
 21
469.78051799999997
  0
LINE
  8
_0-0_0
  6
CONTINUOUS
 62
    7
 10
143.92778049999993
 20
470.22851600000001
 11
143.67778049999993
 21
470
  0
LINE
  8
_0-0_0
  6
CONTINUOUS
 62
    7
 10
143.92778049999993
 20
470.02453600000001
 11
143.67778049999993
 21
470
  0
LINE
  8
_0-0_0
  6
CONTINUOUS
 62
    7
 10
143.92778049999993
 20
470.44366500000001
 11
143.67778049999993
 21
470.23315400000001
  0
LINE
  8
_0-0_0
  6
CONTINUOUS
 62
    7
 10
143.92778049999993
 20
470.22851600000001
 11
143.67778049999993
 21
470.23315400000001
  0
LINE
  8
_0-0_0
  6
CONTINUOUS
 62
    7
 10
143.92778049999993
 20
470.66763300000002
 11
143.67778049999993
 21
470.47744799999998
  0
LINE
  8
_0-0_0
  6
CONTINUOUS
 62
    7
 10
143.92778049999993
 20
470.44366500000001
 11
143.67778049999993
 21
470.47744799999998
  0
LINE
  8
_0-0_0
  6
CONTINUOUS
 62
    7
 10
143.92778049999993
 20
470.89801
 11
143.67778049999993
 21
470.73019399999998
  0
LINE
  8
_0-0_0
  6
CONTINUOUS
 62
    7
 10
143.92778049999993
 20
470.66763300000002
 11
143.67778049999993
 21
470.73019399999998
  0
LINE
  8
_0-0_0
  6
CONTINUOUS
 62
    7
 10
143.92778049999993
 20
471.13223299999999
 11
143.67778049999993
 21
470.98864700000001
  0
LINE
  8
_0-0_0
  6
CONTINUOUS
 62
    7
 10
143.92778049999993
 20
470.89801
 11
143.67778049999993
 21
470.98864700000001
  0
LINE
  8
_0-0_0
  6
CONTINUOUS
 62
    7
 10
143.92778049999993
 20
471.36773699999998
 11
143.67778049999993
 21
471.25
  0
LINE
  8
_0-0_0
  6
CONTINUOUS
 62
    7
 10
143.92778049999993
 20
471.13223299999999
 11
143.67778049999993
 21
471.25
  0
LINE
  8
_0-0_0
  6
CONTINUOUS
 62
    7
 10
143.92778049999993
 20
471.60195900000002
 11
143.67778049999993
 21
471.51129200000003
  0
LINE
  8
_0-0_0
  6
CONTINUOUS
 62
    7
 10
143.92778049999993
 20
471.36773699999998
 11
143.67778049999993
 21
471.51129200000003
  0
LINE
  8
_0-0_0
  6
CONTINUOUS
 62
    7
 10
143.92778049999993
 20
471.832336
 11
143.67778049999993
 21
471.76977499999998
  0
LINE
  8
_0-0_0
  6
CONTINUOUS
 62
    7
 10
143.92778049999993
 20
471.60195900000002
 11
143.67778049999993
 21
471.76977499999998
  0
LINE
  8
_0-0_0
  6
CONTINUOUS
 62
    7
 10
143.92778049999993
 20
472.05630500000001
 11
143.67778049999993
 21
472.02252199999998
  0
LINE
  8
_0-0_0
  6
CONTINUOUS
 62
    7
 10
143.92778049999993
 20
471.832336
 11
143.67778049999993
 21
472.02252199999998
  0
LINE
  8
_0-0_0
  6
CONTINUOUS
 62
    7
 10
143.92778049999993
 20
472.27145400000001
 11
143.67778049999993
 21
472.26681500000001
  0
LINE
  8
_0-0_0
  6
CONTINUOUS
 62
    7
 10
143.92778049999993
 20
472.05630500000001
 11
143.67778049999993
 21
472.26681500000001
  0
LINE
  8
_0-0_0
  6
CONTINUOUS
 62
    7
 10
158.92779549999995
 20
464.512024
 11
158.92779549999995
 21
465.55767800000001
  0
LINE
  8
_0-0_0
  6
CONTINUOUS
 62
    7
 10
158.92779549999995
 20
466.842285
 11
158.92779549999995
 21
465.55767800000001
  0
LINE
  8
_0-0_0
  6
CONTINUOUS
 62
    7
 10
158.92779549999995
 20
464.512024
 11
158.92779549999995
 21
461.38793900000002
  0
LINE
  8
_0-0_0
  6
CONTINUOUS
 62
    7
 10
158.92779549999995
 20
460.342285
 11
158.92779549999995
 21
459.05767800000001
  0
LINE
  8
_0-0_0
  6
CONTINUOUS
 62
    7
 10
158.92779549999995
 20
460.342285
 11
158.92779549999995
 21
461.38793900000002
  0
LINE
  8
_0-0_0
  6
CONTINUOUS
 62
    7
 10
273.52777049999997
 20
453.69113199999998
 11
273.52777049999997
 21
456.64999399999999
  0
LINE
  8
_0-0_0
  6
CONTINUOUS
 62
    7
 10
273.52777049999997
 20
452.64999399999999
 11
273.52777049999997
 21
453.69113199999998
  0
LINE
  8
_0-0_0
  6
CONTINUOUS
 62
    7
 10
158.92779549999995
 20
460.342285
 11
149.21995549999997
 21
460.342285
  0
ARC
  8
_0-0_0
  6
CONTINUOUS
 62
    7
 10
154.10168449999998
 20
459.69909699999999
 40
4.9238749999999998
 50
172.49424200000001
 51
181.535968
  0
ARC
  8
_0-0_0
  6
CONTINUOUS
 62
    7
 10
154.13970949999998
 20
459.70404100000002
 40
4.9620009999999999
 50
181.58130700000004
 51
187.48478900000003
  0
LINE
  8
_0-0_0
  6
CONTINUOUS
 62
    7
 10
147.92778049999993
 20
460.21844499999997
 11
147.92778049999993
 21
457.69998199999998
  0
LINE
  8
_0-0_0
  6
CONTINUOUS
 62
    7
 10
147.92778049999993
 20
468.19998199999998
 11
147.92778049999993
 21
460.21844499999997
  0
LINE
  8
_0-0_0
  6
CONTINUOUS
 62
    7
 10
149.21995549999997
 20
465.55767800000001
 11
149.12562549999996
 21
465.31106599999998
  0
LINE
  8
_0-0_0
  6
CONTINUOUS
 62
    7
 10
149.12562549999996
 20
465.31106599999998
 11
149.04167149999995
 21
465.07110599999999
  0
LINE
  8
_0-0_0
  6
CONTINUOUS
 62
    7
 10
149.04167149999995
 20
465.07110599999999
 11
148.9675135
 21
464.836975
  0
LINE
  8
_0-0_0
  6
CONTINUOUS
 62
    7
 10
148.9675135
 20
464.836975
 11
148.90263349999998
 21
464.60794099999998
  0
LINE
  8
_0-0_0
  6
CONTINUOUS
 62
    7
 10
148.90263349999998
 20
464.60794099999998
 11
148.84660349999996
 21
464.38326999999998
  0
LINE
  8
_0-0_0
  6
CONTINUOUS
 62
    7
 10
148.84660349999996
 20
464.38326999999998
 11
148.79902649999997
 21
464.16229199999998
  0
LINE
  8
_0-0_0
  6
CONTINUOUS
 62
    7
 10
148.79902649999997
 20
464.16229199999998
 11
148.75962849999996
 21
463.944366
  0
LINE
  8
_0-0_0
  6
CONTINUOUS
 62
    7
 10
148.75962849999996
 20
463.944366
 11
148.72813449999995
 21
463.72891199999998
  0
LINE
  8
_0-0_0
  6
CONTINUOUS
 62
    7
 10
148.72813449999995
 20
463.72891199999998
 11
148.70436049999995
 21
463.51538099999999
  0
LINE
  8
_0-0_0
  6
CONTINUOUS
 62
    7
 10
148.70436049999995
 20
463.51538099999999
 11
148.68843049999998
 21
463.30767800000001
  0
LINE
  8
_0-0_0
  6
CONTINUOUS
 62
    7
 10
148.68843049999998
 20
463.30767800000001
 11
148.67967249999992
 21
463.10082999999997
  0
LINE
  8
_0-0_0
  6
CONTINUOUS
 62
    7
 10
148.67967249999992
 20
463.10082999999997
 11
148.67803949999995
 21
462.89434799999998
  0
LINE
  8
_0-0_0
  6
CONTINUOUS
 62
    7
 10
148.67803949999995
 20
462.89434799999998
 11
148.68351749999999
 21
462.68777499999999
  0
LINE
  8
_0-0_0
  6
CONTINUOUS
 62
    7
 10
148.68351749999999
 20
462.68777499999999
 11
148.69612149999995
 21
462.480591
  0
LINE
  8
_0-0_0
  6
CONTINUOUS
 62
    7
 10
148.69612149999995
 20
462.480591
 11
148.71592649999997
 21
462.27227799999997
  0
LINE
  8
_0-0_0
  6
CONTINUOUS
 62
    7
 10
148.71592649999997
 20
462.27227799999997
 11
148.74308749999994
 21
462.06237800000002
  0
LINE
  8
_0-0_0
  6
CONTINUOUS
 62
    7
 10
148.74308749999994
 20
462.06237800000002
 11
148.77772549999997
 21
461.85031099999998
  0
LINE
  8
_0-0_0
  6
CONTINUOUS
 62
    7
 10
148.77772549999997
 20
461.85031099999998
 11
148.82008349999995
 21
461.635559
  0
LINE
  8
_0-0_0
  6
CONTINUOUS
 62
    7
 10
148.82008349999995
 20
461.635559
 11
148.87039149999998
 21
461.41754200000003
  0
LINE
  8
_0-0_0
  6
CONTINUOUS
 62
    7
 10
148.87039149999998
 20
461.41754200000003
 11
148.92463649999996
 21
461.21124300000002
  0
LINE
  8
_0-0_0
  6
CONTINUOUS
 62
    7
 10
148.92463649999996
 20
461.21124300000002
 11
148.98634349999998
 21
461.00116000000003
  0
LINE
  8
_0-0_0
  6
CONTINUOUS
 62
    7
 10
148.98634349999998
 20
461.00116000000003
 11
149.05586249999999
 21
460.78668199999998
  0
LINE
  8
_0-0_0
  6
CONTINUOUS
 62
    7
 10
149.05586249999999
 20
460.78668199999998
 11
149.13359049999997
 21
460.56726099999997
  0
LINE
  8
_0-0_0
  6
CONTINUOUS
 62
    7
 10
149.13359049999997
 20
460.56726099999997
 11
149.21995549999997
 21
460.342285
  0
ARC
  8
_0-0_0
  6
CONTINUOUS
 62
    7
 10
154.09149149999996
 20
466.19998199999998
 40
4.9136889999999998
 50
172.48898299999999
 51
187.51101699999998
  0
LINE
  8
_0-0_0
  6
CONTINUOUS
 62
    7
 10
158.92779549999995
 20
465.55767800000001
 11
149.21995549999997
 21
465.55767800000001
  0
LINE
  8
_0-0_0
  6
CONTINUOUS
 62
    7
 10
134.17778049999993
 20
472.47543300000001
 11
134.42778049999993
 21
472.5
  0
LINE
  8
_0-0_0
  6
CONTINUOUS
 62
    7
 10
134.42778049999993
 20
472.5
 11
143.67778049999993
 21
472.5
  0
LINE
  8
_0-0_0
  6
CONTINUOUS
 62
    7
 10
134.17778049999993
 20
472.27145400000001
 11
134.42778049999993
 21
472.5
  0
LINE
  8
_0-0_0
  6
CONTINUOUS
 62
    7
 10
134.17778049999993
 20
472.27145400000001
 11
143.92778049999993
 21
472.27145400000001
  0
LINE
  8
_0-0_0
  6
CONTINUOUS
 62
    7
 10
134.17778049999993
 20
472.665955
 11
134.42778049999993
 21
472.71945199999999
  0
LINE
  8
_0-0_0
  6
CONTINUOUS
 62
    7
 10
134.42778049999993
 20
472.71945199999999
 11
143.67778049999993
 21
472.71945199999999
  0
LINE
  8
_0-0_0
  6
CONTINUOUS
 62
    7
 10
134.17778049999993
 20
472.47543300000001
 11
134.42778049999993
 21
472.71945199999999
  0
LINE
  8
_0-0_0
  6
CONTINUOUS
 62
    7
 10
134.17778049999993
 20
472.84097300000002
 11
134.42778049999993
 21
472.922821
  0
LINE
  8
_0-0_0
  6
CONTINUOUS
 62
    7
 10
134.42778049999993
 20
472.922821
 11
143.67778049999993
 21
472.922821
  0
LINE
  8
_0-0_0
  6
CONTINUOUS
 62
    7
 10
134.17778049999993
 20
472.665955
 11
134.42778049999993
 21
472.922821
  0
LINE
  8
_0-0_0
  6
CONTINUOUS
 62
    7
 10
134.17778049999993
 20
472.99856599999998
 11
134.42778049999993
 21
473.10784899999999
  0
LINE
  8
_0-0_0
  6
CONTINUOUS
 62
    7
 10
134.42778049999993
 20
473.10784899999999
 11
143.67778049999993
 21
473.10784899999999
  0
LINE
  8
_0-0_0
  6
CONTINUOUS
 62
    7
 10
134.17778049999993
 20
472.84097300000002
 11
134.42778049999993
 21
473.10784899999999
  0
LINE
  8
_0-0_0
  6
CONTINUOUS
 62
    7
 10
134.17778049999993
 20
473.13699300000002
 11
134.42778049999993
 21
473.27252199999998
  0
LINE
  8
_0-0_0
  6
CONTINUOUS
 62
    7
 10
134.42778049999993
 20
473.27252199999998
 11
143.67778049999993
 21
473.27252199999998
  0
LINE
  8
_0-0_0
  6
CONTINUOUS
 62
    7
 10
134.17778049999993
 20
472.99856599999998
 11
134.42778049999993
 21
473.27252199999998
  0
LINE
  8
_0-0_0
  6
CONTINUOUS
 62
    7
 10
134.17778049999993
 20
473.25476099999997
 11
134.42778049999993
 21
473.41503899999998
  0
LINE
  8
_0-0_0
  6
CONTINUOUS
 62
    7
 10
134.42778049999993
 20
473.41503899999998
 11
143.67778049999993
 21
473.41503899999998
  0
LINE
  8
_0-0_0
  6
CONTINUOUS
 62
    7
 10
134.17778049999993
 20
473.13699300000002
 11
134.42778049999993
 21
473.41503899999998
  0
LINE
  8
_0-0_0
  6
CONTINUOUS
 62
    7
 10
134.17778049999993
 20
473.350525
 11
134.42778049999993
 21
473.53384399999999
  0
LINE
  8
_0-0_0
  6
CONTINUOUS
 62
    7
 10
134.42778049999993
 20
473.53384399999999
 11
143.67778049999993
 21
473.53384399999999
  0
LINE
  8
_0-0_0
  6
CONTINUOUS
 62
    7
 10
134.17778049999993
 20
473.25476099999997
 11
134.42778049999993
 21
473.53384399999999
  0
LINE
  8
_0-0_0
  6
CONTINUOUS
 62
    7
 10
134.17778049999993
 20
473.42330900000002
 11
134.42778049999993
 21
473.62762500000002
  0
LINE
  8
_0-0_0
  6
CONTINUOUS
 62
    7
 10
134.42778049999993
 20
473.62762500000002
 11
143.67778049999993
 21
473.62762500000002
  0
LINE
  8
_0-0_0
  6
CONTINUOUS
 62
    7
 10
134.17778049999993
 20
473.350525
 11
134.42778049999993
 21
473.62762500000002
  0
LINE
  8
_0-0_0
  6
CONTINUOUS
 62
    7
 10
134.17778049999993
 20
473.47228999999999
 11
134.42778049999993
 21
473.69534299999998
  0
LINE
  8
_0-0_0
  6
CONTINUOUS
 62
    7
 10
134.42778049999993
 20
473.69534299999998
 11
143.67778049999993
 21
473.69534299999998
  0
LINE
  8
_0-0_0
  6
CONTINUOUS
 62
    7
 10
134.17778049999993
 20
473.42330900000002
 11
134.42778049999993
 21
473.69534299999998
  0
LINE
  8
_0-0_0
  6
CONTINUOUS
 62
    7
 10
134.17778049999993
 20
473.49688700000002
 11
134.42778049999993
 21
473.73629799999998
  0
LINE
  8
_0-0_0
  6
CONTINUOUS
 62
    7
 10
134.42778049999993
 20
473.73629799999998
 11
143.67778049999993
 21
473.73629799999998
  0
LINE
  8
_0-0_0
  6
CONTINUOUS
 62
    7
 10
134.17778049999993
 20
473.47228999999999
 11
134.42778049999993
 21
473.73629799999998
  0
LINE
  8
_0-0_0
  6
CONTINUOUS
 62
    7
 10
134.42778049999993
 20
473.75
 11
143.67778049999993
 21
473.75
  0
LINE
  8
_0-0_0
  6
CONTINUOUS
 62
    7
 10
134.17778049999993
 20
473.49688700000002
 11
134.42778049999993
 21
473.75
  0
LINE
  8
_0-0_0
  6
CONTINUOUS
 62
    7
 10
134.17778049999993
 20
469.00305200000003
 11
134.42778049999993
 21
468.75
  0
LINE
  8
_0-0_0
  6
CONTINUOUS
 62
    7
 10
134.42778049999993
 20
468.75
 11
143.67778049999993
 21
468.75
  0
LINE
  8
_0-0_0
  6
CONTINUOUS
 62
    7
 10
134.17778049999993
 20
469.02767899999998
 11
134.42778049999993
 21
468.76367199999999
  0
LINE
  8
_0-0_0
  6
CONTINUOUS
 62
    7
 10
134.42778049999993
 20
468.76367199999999
 11
143.67778049999993
 21
468.76367199999999
  0
LINE
  8
_0-0_0
  6
CONTINUOUS
 62
    7
 10
134.17778049999993
 20
469.00305200000003
 11
134.42778049999993
 21
468.76367199999999
  0
LINE
  8
_0-0_0
  6
CONTINUOUS
 62
    7
 10
134.17778049999993
 20
469.07666
 11
134.42778049999993
 21
468.80462599999998
  0
LINE
  8
_0-0_0
  6
CONTINUOUS
 62
    7
 10
134.42778049999993
 20
468.80462599999998
 11
143.67778049999993
 21
468.80462599999998
  0
LINE
  8
_0-0_0
  6
CONTINUOUS
 62
    7
 10
134.17778049999993
 20
469.02767899999998
 11
134.42778049999993
 21
468.80462599999998
  0
LINE
  8
_0-0_0
  6
CONTINUOUS
 62
    7
 10
134.17778049999993
 20
469.14941399999998
 11
134.42778049999993
 21
468.872345
  0
LINE
  8
_0-0_0
  6
CONTINUOUS
 62
    7
 10
134.42778049999993
 20
468.872345
 11
143.67778049999993
 21
468.872345
  0
LINE
  8
_0-0_0
  6
CONTINUOUS
 62
    7
 10
134.17778049999993
 20
469.07666
 11
134.42778049999993
 21
468.872345
  0
LINE
  8
_0-0_0
  6
CONTINUOUS
 62
    7
 10
134.17778049999993
 20
469.24520899999999
 11
134.42778049999993
 21
468.96612499999998
  0
LINE
  8
_0-0_0
  6
CONTINUOUS
 62
    7
 10
134.42778049999993
 20
468.96612499999998
 11
143.67778049999993
 21
468.96612499999998
  0
LINE
  8
_0-0_0
  6
CONTINUOUS
 62
    7
 10
134.17778049999993
 20
469.14941399999998
 11
134.42778049999993
 21
468.96612499999998
  0
LINE
  8
_0-0_0
  6
CONTINUOUS
 62
    7
 10
134.42778049999993
 20
469.08492999999999
 11
143.67778049999993
 21
469.08492999999999
  0
LINE
  8
_0-0_0
  6
CONTINUOUS
 62
    7
 10
134.30775449999999
 20
469.16137700000002
 11
134.42778049999993
 21
469.08492999999999
  0
LINE
  8
_0-0_0
  6
CONTINUOUS
 62
    7
 10
134.17778049999993
 20
469.24520899999999
 11
134.30775449999999
 21
469.16137700000002
  0
LINE
  8
_0-0_0
  6
CONTINUOUS
 62
    7
 10
134.17778049999993
 20
469.362976
 11
134.42778049999993
 21
469.08492999999999
  0
LINE
  8
_0-0_0
  6
CONTINUOUS
 62
    7
 10
134.17778049999993
 20
469.50140399999998
 11
134.42778049999993
 21
469.22744799999998
  0
LINE
  8
_0-0_0
  6
CONTINUOUS
 62
    7
 10
134.42778049999993
 20
469.22744799999998
 11
143.67778049999993
 21
469.22744799999998
  0
LINE
  8
_0-0_0
  6
CONTINUOUS
 62
    7
 10
134.17778049999993
 20
469.362976
 11
134.42778049999993
 21
469.22744799999998
  0
LINE
  8
_0-0_0
  6
CONTINUOUS
 62
    7
 10
134.17778049999993
 20
469.658997
 11
134.42778049999993
 21
469.39211999999998
  0
LINE
  8
_0-0_0
  6
CONTINUOUS
 62
    7
 10
134.42778049999993
 20
469.39211999999998
 11
143.67778049999993
 21
469.39211999999998
  0
LINE
  8
_0-0_0
  6
CONTINUOUS
 62
    7
 10
134.17778049999993
 20
469.50140399999998
 11
134.42778049999993
 21
469.39211999999998
  0
LINE
  8
_0-0_0
  6
CONTINUOUS
 62
    7
 10
134.17778049999993
 20
469.83401500000002
 11
134.42778049999993
 21
469.57714800000002
  0
LINE
  8
_0-0_0
  6
CONTINUOUS
 62
    7
 10
134.42778049999993
 20
469.57714800000002
 11
143.67778049999993
 21
469.57714800000002
  0
LINE
  8
_0-0_0
  6
CONTINUOUS
 62
    7
 10
134.17778049999993
 20
469.658997
 11
134.42778049999993
 21
469.57714800000002
  0
LINE
  8
_0-0_0
  6
CONTINUOUS
 62
    7
 10
134.17778049999993
 20
470.02453600000001
 11
134.42778049999993
 21
469.78051799999997
  0
LINE
  8
_0-0_0
  6
CONTINUOUS
 62
    7
 10
134.42778049999993
 20
469.78051799999997
 11
143.67778049999993
 21
469.78051799999997
  0
LINE
  8
_0-0_0
  6
CONTINUOUS
 62
    7
 10
134.17778049999993
 20
469.83401500000002
 11
134.42778049999993
 21
469.78051799999997
  0
LINE
  8
_0-0_0
  6
CONTINUOUS
 62
    7
 10
134.17778049999993
 20
470.22851600000001
 11
134.42778049999993
 21
470
  0
LINE
  8
_0-0_0
  6
CONTINUOUS
 62
    7
 10
134.42778049999993
 20
470
 11
143.67778049999993
 21
470
  0
LINE
  8
_0-0_0
  6
CONTINUOUS
 62
    7
 10
134.17778049999993
 20
470.22851600000001
 11
143.92778049999993
 21
470.22851600000001
  0
LINE
  8
_0-0_0
  6
CONTINUOUS
 62
    7
 10
134.17778049999993
 20
470.02453600000001
 11
134.42778049999993
 21
470
  0
LINE
  8
_0-0_0
  6
CONTINUOUS
 62
    7
 10
134.17778049999993
 20
470.44366500000001
 11
134.42778049999993
 21
470.23315400000001
  0
LINE
  8
_0-0_0
  6
CONTINUOUS
 62
    7
 10
134.42778049999993
 20
470.23315400000001
 11
143.67778049999993
 21
470.23315400000001
  0
LINE
  8
_0-0_0
  6
CONTINUOUS
 62
    7
 10
134.17778049999993
 20
470.44366500000001
 11
143.92778049999993
 21
470.44366500000001
  0
LINE
  8
_0-0_0
  6
CONTINUOUS
 62
    7
 10
134.17778049999993
 20
470.22851600000001
 11
134.42778049999993
 21
470.23315400000001
  0
LINE
  8
_0-0_0
  6
CONTINUOUS
 62
    7
 10
134.17778049999993
 20
470.66763300000002
 11
134.42778049999993
 21
470.47744799999998
  0
LINE
  8
_0-0_0
  6
CONTINUOUS
 62
    7
 10
134.42778049999993
 20
470.47744799999998
 11
143.67778049999993
 21
470.47744799999998
  0
LINE
  8
_0-0_0
  6
CONTINUOUS
 62
    7
 10
134.17778049999993
 20
470.66763300000002
 11
143.92778049999993
 21
470.66763300000002
  0
LINE
  8
_0-0_0
  6
CONTINUOUS
 62
    7
 10
134.17778049999993
 20
470.44366500000001
 11
134.42778049999993
 21
470.47744799999998
  0
LINE
  8
_0-0_0
  6
CONTINUOUS
 62
    7
 10
134.17778049999993
 20
470.89801
 11
134.42778049999993
 21
470.73019399999998
  0
LINE
  8
_0-0_0
  6
CONTINUOUS
 62
    7
 10
134.42778049999993
 20
470.73019399999998
 11
143.67778049999993
 21
470.73019399999998
  0
LINE
  8
_0-0_0
  6
CONTINUOUS
 62
    7
 10
134.17778049999993
 20
470.89801
 11
143.92778049999993
 21
470.89801
  0
LINE
  8
_0-0_0
  6
CONTINUOUS
 62
    7
 10
134.17778049999993
 20
470.66763300000002
 11
134.42778049999993
 21
470.73019399999998
  0
LINE
  8
_0-0_0
  6
CONTINUOUS
 62
    7
 10
134.17778049999993
 20
471.13223299999999
 11
134.42778049999993
 21
470.98864700000001
  0
LINE
  8
_0-0_0
  6
CONTINUOUS
 62
    7
 10
134.42778049999993
 20
470.98864700000001
 11
143.67778049999993
 21
470.98864700000001
  0
LINE
  8
_0-0_0
  6
CONTINUOUS
 62
    7
 10
134.17778049999993
 20
471.13223299999999
 11
143.92778049999993
 21
471.13223299999999
  0
LINE
  8
_0-0_0
  6
CONTINUOUS
 62
    7
 10
134.17778049999993
 20
470.89801
 11
134.42778049999993
 21
470.98864700000001
  0
LINE
  8
_0-0_0
  6
CONTINUOUS
 62
    7
 10
134.17778049999993
 20
471.36773699999998
 11
134.42778049999993
 21
471.25
  0
LINE
  8
_0-0_0
  6
CONTINUOUS
 62
    7
 10
134.42778049999993
 20
471.25
 11
143.67778049999993
 21
471.25
  0
LINE
  8
_0-0_0
  6
CONTINUOUS
 62
    7
 10
134.17778049999993
 20
471.36773699999998
 11
143.92778049999993
 21
471.36773699999998
  0
LINE
  8
_0-0_0
  6
CONTINUOUS
 62
    7
 10
134.17778049999993
 20
471.13223299999999
 11
134.42778049999993
 21
471.25
  0
LINE
  8
_0-0_0
  6
CONTINUOUS
 62
    7
 10
134.17778049999993
 20
471.60195900000002
 11
134.42778049999993
 21
471.51129200000003
  0
LINE
  8
_0-0_0
  6
CONTINUOUS
 62
    7
 10
134.42778049999993
 20
471.51129200000003
 11
143.67778049999993
 21
471.51129200000003
  0
LINE
  8
_0-0_0
  6
CONTINUOUS
 62
    7
 10
134.17778049999993
 20
471.60195900000002
 11
143.92778049999993
 21
471.60195900000002
  0
LINE
  8
_0-0_0
  6
CONTINUOUS
 62
    7
 10
134.17778049999993
 20
471.36773699999998
 11
134.42778049999993
 21
471.51129200000003
  0
LINE
  8
_0-0_0
  6
CONTINUOUS
 62
    7
 10
134.17778049999993
 20
471.832336
 11
134.42778049999993
 21
471.76977499999998
  0
LINE
  8
_0-0_0
  6
CONTINUOUS
 62
    7
 10
134.42778049999993
 20
471.76977499999998
 11
143.67778049999993
 21
471.76977499999998
  0
LINE
  8
_0-0_0
  6
CONTINUOUS
 62
    7
 10
134.17778049999993
 20
471.832336
 11
143.92778049999993
 21
471.832336
  0
LINE
  8
_0-0_0
  6
CONTINUOUS
 62
    7
 10
134.17778049999993
 20
471.60195900000002
 11
134.42778049999993
 21
471.76977499999998
  0
LINE
  8
_0-0_0
  6
CONTINUOUS
 62
    7
 10
134.17778049999993
 20
472.05630500000001
 11
134.42778049999993
 21
472.02252199999998
  0
LINE
  8
_0-0_0
  6
CONTINUOUS
 62
    7
 10
134.42778049999993
 20
472.02252199999998
 11
143.67778049999993
 21
472.02252199999998
  0
LINE
  8
_0-0_0
  6
CONTINUOUS
 62
    7
 10
134.17778049999993
 20
472.05630500000001
 11
143.92778049999993
 21
472.05630500000001
  0
LINE
  8
_0-0_0
  6
CONTINUOUS
 62
    7
 10
134.17778049999993
 20
471.832336
 11
134.42778049999993
 21
472.02252199999998
  0
LINE
  8
_0-0_0
  6
CONTINUOUS
 62
    7
 10
134.17778049999993
 20
472.27145400000001
 11
134.42778049999993
 21
472.26681500000001
  0
LINE
  8
_0-0_0
  6
CONTINUOUS
 62
    7
 10
134.42778049999993
 20
472.26681500000001
 11
143.67778049999993
 21
472.26681500000001
  0
LINE
  8
_0-0_0
  6
CONTINUOUS
 62
    7
 10
134.17778049999993
 20
472.05630500000001
 11
134.42778049999993
 21
472.26681500000001
  0
LINE
  8
_0-0_0
  6
CONTINUOUS
 62
    7
 10
133.92778049999993
 20
473.25
 11
133.92778049999993
 21
469.49481200000002
  0
LINE
  8
_0-0_0
  6
CONTINUOUS
 62
    7
 10
133.92778049999993
 20
469.49481200000002
 11
133.92778049999993
 21
469.25
  0
LINE
  8
_0-0_0
  6
CONTINUOUS
 62
    7
 10
147.52778649999993
 20
467.94998199999998
 11
147.52778649999993
 21
465.44998199999998
  0
LINE
  8
_0-0_0
  6
CONTINUOUS
 62
    7
 10
147.52778649999993
 20
465.44998199999998
 11
147.52778649999993
 21
457.94998199999998
  0
LINE
  8
_0-0_0
  6
CONTINUOUS
 62
    7
 10
146.72778349999999
 20
467.48809799999998
 11
146.72778349999999
 21
465.21905500000003
  0
LINE
  8
_0-0_0
  6
CONTINUOUS
 62
    7
 10
146.72778349999999
 20
465.21905500000003
 11
146.72778349999999
 21
458.41186499999998
  0
LINE
  8
_0-0_0
  6
CONTINUOUS
 62
    7
 10
88.727783499999987
 20
466.94998199999998
 11
88.727783499999987
 21
466.94863900000001
  0
LINE
  8
_0-0_0
  6
CONTINUOUS
 62
    7
 10
88.727783499999987
 20
466.94863900000001
 11
88.727783499999987
 21
458.94998199999998
  0
LINE
  8
_0-0_0
  6
CONTINUOUS
 62
    7
 10
143.92778049999993
 20
452.403076
 11
143.92778049999993
 21
452.39999399999999
  0
LINE
  8
_0-0_0
  6
CONTINUOUS
 62
    7
 10
143.92778049999993
 20
452.42770400000001
 11
143.92778049999993
 21
452.403076
  0
LINE
  8
_0-0_0
  6
CONTINUOUS
 62
    7
 10
143.92778049999993
 20
452.476654
 11
143.92778049999993
 21
452.39999399999999
  0
LINE
  8
_0-0_0
  6
CONTINUOUS
 62
    7
 10
143.92778049999993
 20
452.54943800000001
 11
143.92778049999993
 21
452.476654
  0
LINE
  8
_0-0_0
  6
CONTINUOUS
 62
    7
 10
143.92778049999993
 20
452.64520299999998
 11
143.92778049999993
 21
452.54943800000001
  0
LINE
  8
_0-0_0
  6
CONTINUOUS
 62
    7
 10
143.92778049999993
 20
452.67541499999999
 11
143.92778049999993
 21
452.64520299999998
  0
LINE
  8
_0-0_0
  6
CONTINUOUS
 62
    7
 10
143.92778049999993
 20
452.76297
 11
143.92778049999993
 21
452.67541499999999
  0
LINE
  8
_0-0_0
  6
CONTINUOUS
 62
    7
 10
143.92778049999993
 20
452.90139799999997
 11
143.92778049999993
 21
452.76297
  0
LINE
  8
_0-0_0
  6
CONTINUOUS
 62
    7
 10
143.92778049999993
 20
453.05898999999999
 11
143.92778049999993
 21
452.90139799999997
  0
LINE
  8
_0-0_0
  6
CONTINUOUS
 62
    7
 10
143.92778049999993
 20
453.23400900000001
 11
143.92778049999993
 21
453.05898999999999
  0
LINE
  8
_0-0_0
  6
CONTINUOUS
 62
    7
 10
143.92778049999993
 20
453.42453
 11
143.92778049999993
 21
453.23400900000001
  0
LINE
  8
_0-0_0
  6
CONTINUOUS
 62
    7
 10
143.92778049999993
 20
453.62851000000001
 11
143.92778049999993
 21
453.42453
  0
LINE
  8
_0-0_0
  6
CONTINUOUS
 62
    7
 10
143.92778049999993
 20
453.843658
 11
143.92778049999993
 21
453.62851000000001
  0
LINE
  8
_0-0_0
  6
CONTINUOUS
 62
    7
 10
143.92778049999993
 20
454.06762700000002
 11
143.92778049999993
 21
453.843658
  0
LINE
  8
_0-0_0
  6
CONTINUOUS
 62
    7
 10
143.92778049999993
 20
454.29800399999999
 11
143.92778049999993
 21
454.06762700000002
  0
LINE
  8
_0-0_0
  6
CONTINUOUS
 62
    7
 10
143.92778049999993
 20
454.53222699999998
 11
143.92778049999993
 21
454.29800399999999
  0
LINE
  8
_0-0_0
  6
CONTINUOUS
 62
    7
 10
143.92778049999993
 20
454.76773100000003
 11
143.92778049999993
 21
454.53222699999998
  0
LINE
  8
_0-0_0
  6
CONTINUOUS
 62
    7
 10
143.92778049999993
 20
455.00195300000001
 11
143.92778049999993
 21
454.76773100000003
  0
LINE
  8
_0-0_0
  6
CONTINUOUS
 62
    7
 10
143.92778049999993
 20
455.23232999999999
 11
143.92778049999993
 21
455.00195300000001
  0
LINE
  8
_0-0_0
  6
CONTINUOUS
 62
    7
 10
143.92778049999993
 20
455.456299
 11
143.92778049999993
 21
455.23232999999999
  0
LINE
  8
_0-0_0
  6
CONTINUOUS
 62
    7
 10
143.92778049999993
 20
455.671448
 11
143.92778049999993
 21
455.456299
  0
LINE
  8
_0-0_0
  6
CONTINUOUS
 62
    7
 10
143.92778049999993
 20
455.72869900000001
 11
143.92778049999993
 21
455.671448
  0
LINE
  8
_0-0_0
  6
CONTINUOUS
 62
    7
 10
143.92778049999993
 20
452.403076
 11
143.67778049999993
 21
452.14999399999999
  0
LINE
  8
_0-0_0
  6
CONTINUOUS
 62
    7
 10
143.92778049999993
 20
452.42770400000001
 11
143.67778049999993
 21
452.16369600000002
  0
LINE
  8
_0-0_0
  6
CONTINUOUS
 62
    7
 10
143.92778049999993
 20
452.403076
 11
143.67778049999993
 21
452.16369600000002
  0
LINE
  8
_0-0_0
  6
CONTINUOUS
 62
    7
 10
143.92778049999993
 20
452.476654
 11
143.67778049999993
 21
452.20461999999998
  0
LINE
  8
_0-0_0
  6
CONTINUOUS
 62
    7
 10
143.92778049999993
 20
452.42770400000001
 11
143.67778049999993
 21
452.20461999999998
  0
LINE
  8
_0-0_0
  6
CONTINUOUS
 62
    7
 10
143.92778049999993
 20
452.54943800000001
 11
143.67778049999993
 21
452.27233899999999
  0
LINE
  8
_0-0_0
  6
CONTINUOUS
 62
    7
 10
143.92778049999993
 20
452.476654
 11
143.67778049999993
 21
452.27233899999999
  0
LINE
  8
_0-0_0
  6
CONTINUOUS
 62
    7
 10
143.92778049999993
 20
452.64520299999998
 11
143.67778049999993
 21
452.36611900000003
  0
LINE
  8
_0-0_0
  6
CONTINUOUS
 62
    7
 10
143.92778049999993
 20
452.54943800000001
 11
143.67778049999993
 21
452.36611900000003
  0
LINE
  8
_0-0_0
  6
CONTINUOUS
 62
    7
 10
143.92778049999993
 20
452.64520299999998
 11
143.79782049999994
 21
452.56137100000001
  0
LINE
  8
_0-0_0
  6
CONTINUOUS
 62
    7
 10
143.92778049999993
 20
452.76297
 11
143.67778049999993
 21
452.48492399999998
  0
LINE
  8
_0-0_0
  6
CONTINUOUS
 62
    7
 10
143.79782049999994
 20
452.56137100000001
 11
143.67778049999993
 21
452.48492399999998
  0
LINE
  8
_0-0_0
  6
CONTINUOUS
 62
    7
 10
143.92778049999993
 20
452.90139799999997
 11
143.67778049999993
 21
452.62744099999998
  0
LINE
  8
_0-0_0
  6
CONTINUOUS
 62
    7
 10
143.92778049999993
 20
452.76297
 11
143.67778049999993
 21
452.62744099999998
  0
LINE
  8
_0-0_0
  6
CONTINUOUS
 62
    7
 10
143.92778049999993
 20
453.05898999999999
 11
143.67778049999993
 21
452.79211400000003
  0
LINE
  8
_0-0_0
  6
CONTINUOUS
 62
    7
 10
143.92778049999993
 20
452.90139799999997
 11
143.67778049999993
 21
452.79211400000003
  0
LINE
  8
_0-0_0
  6
CONTINUOUS
 62
    7
 10
143.92778049999993
 20
453.23400900000001
 11
143.67778049999993
 21
452.97717299999999
  0
LINE
  8
_0-0_0
  6
CONTINUOUS
 62
    7
 10
143.92778049999993
 20
453.05898999999999
 11
143.67778049999993
 21
452.97717299999999
  0
LINE
  8
_0-0_0
  6
CONTINUOUS
 62
    7
 10
143.92778049999993
 20
453.42453
 11
143.67778049999993
 21
453.18051100000002
  0
LINE
  8
_0-0_0
  6
CONTINUOUS
 62
    7
 10
143.92778049999993
 20
453.23400900000001
 11
143.67778049999993
 21
453.18051100000002
  0
LINE
  8
_0-0_0
  6
CONTINUOUS
 62
    7
 10
143.92778049999993
 20
453.62851000000001
 11
143.67778049999993
 21
453.39999399999999
  0
LINE
  8
_0-0_0
  6
CONTINUOUS
 62
    7
 10
143.92778049999993
 20
453.42453
 11
143.67778049999993
 21
453.39999399999999
  0
LINE
  8
_0-0_0
  6
CONTINUOUS
 62
    7
 10
143.92778049999993
 20
453.843658
 11
143.67778049999993
 21
453.63314800000001
  0
LINE
  8
_0-0_0
  6
CONTINUOUS
 62
    7
 10
143.92778049999993
 20
453.62851000000001
 11
143.67778049999993
 21
453.63314800000001
  0
LINE
  8
_0-0_0
  6
CONTINUOUS
 62
    7
 10
143.92778049999993
 20
454.06762700000002
 11
143.67778049999993
 21
453.87744099999998
  0
LINE
  8
_0-0_0
  6
CONTINUOUS
 62
    7
 10
143.92778049999993
 20
453.843658
 11
143.67778049999993
 21
453.87744099999998
  0
LINE
  8
_0-0_0
  6
CONTINUOUS
 62
    7
 10
143.92778049999993
 20
454.29800399999999
 11
143.67778049999993
 21
454.13018799999998
  0
LINE
  8
_0-0_0
  6
CONTINUOUS
 62
    7
 10
143.92778049999993
 20
454.06762700000002
 11
143.67778049999993
 21
454.13018799999998
  0
LINE
  8
_0-0_0
  6
CONTINUOUS
 62
    7
 10
143.92778049999993
 20
454.53222699999998
 11
143.67778049999993
 21
454.38867199999999
  0
LINE
  8
_0-0_0
  6
CONTINUOUS
 62
    7
 10
143.92778049999993
 20
454.29800399999999
 11
143.67778049999993
 21
454.38867199999999
  0
LINE
  8
_0-0_0
  6
CONTINUOUS
 62
    7
 10
143.92778049999993
 20
454.76773100000003
 11
143.67778049999993
 21
454.64999399999999
  0
LINE
  8
_0-0_0
  6
CONTINUOUS
 62
    7
 10
143.92778049999993
 20
454.53222699999998
 11
143.67778049999993
 21
454.64999399999999
  0
LINE
  8
_0-0_0
  6
CONTINUOUS
 62
    7
 10
143.92778049999993
 20
455.00195300000001
 11
143.67778049999993
 21
454.911316
  0
LINE
  8
_0-0_0
  6
CONTINUOUS
 62
    7
 10
143.92778049999993
 20
454.76773100000003
 11
143.67778049999993
 21
454.911316
  0
LINE
  8
_0-0_0
  6
CONTINUOUS
 62
    7
 10
143.92778049999993
 20
455.23232999999999
 11
143.67778049999993
 21
455.16976899999997
  0
LINE
  8
_0-0_0
  6
CONTINUOUS
 62
    7
 10
143.92778049999993
 20
455.00195300000001
 11
143.67778049999993
 21
455.16976899999997
  0
LINE
  8
_0-0_0
  6
CONTINUOUS
 62
    7
 10
143.92778049999993
 20
455.456299
 11
143.67778049999993
 21
455.42251599999997
  0
LINE
  8
_0-0_0
  6
CONTINUOUS
 62
    7
 10
143.92778049999993
 20
455.23232999999999
 11
143.67778049999993
 21
455.42251599999997
  0
LINE
  8
_0-0_0
  6
CONTINUOUS
 62
    7
 10
143.92778049999993
 20
455.671448
 11
143.67778049999993
 21
455.666809
  0
LINE
  8
_0-0_0
  6
CONTINUOUS
 62
    7
 10
143.92778049999993
 20
455.456299
 11
143.67778049999993
 21
455.666809
  0
LINE
  8
_0-0_0
  6
CONTINUOUS
 62
    7
 10
143.92778049999993
 20
455.875427
 11
143.92778049999993
 21
455.72869900000001
  0
LINE
  8
_0-0_0
  6
CONTINUOUS
 62
    7
 10
143.92778049999993
 20
455.875427
 11
143.67778049999993
 21
455.89999399999999
  0
LINE
  8
_0-0_0
  6
CONTINUOUS
 62
    7
 10
143.92778049999993
 20
455.671448
 11
143.67778049999993
 21
455.89999399999999
  0
LINE
  8
_0-0_0
  6
CONTINUOUS
 62
    7
 10
143.92778049999993
 20
456.06594799999999
 11
143.92778049999993
 21
455.875427
  0
LINE
  8
_0-0_0
  6
CONTINUOUS
 62
    7
 10
143.92778049999993
 20
456.24096700000001
 11
143.92778049999993
 21
456.06594799999999
  0
LINE
  8
_0-0_0
  6
CONTINUOUS
 62
    7
 10
143.92778049999993
 20
456.39855999999997
 11
143.92778049999993
 21
456.24096700000001
  0
LINE
  8
_0-0_0
  6
CONTINUOUS
 62
    7
 10
143.92778049999993
 20
456.53698700000001
 11
143.92778049999993
 21
456.39855999999997
  0
LINE
  8
_0-0_0
  6
CONTINUOUS
 62
    7
 10
143.92778049999993
 20
456.65475500000002
 11
143.92778049999993
 21
456.53698700000001
  0
LINE
  8
_0-0_0
  6
CONTINUOUS
 62
    7
 10
143.92778049999993
 20
456.75054899999998
 11
143.92778049999993
 21
456.65475500000002
  0
LINE
  8
_0-0_0
  6
CONTINUOUS
 62
    7
 10
143.92778049999993
 20
456.82330300000001
 11
143.92778049999993
 21
456.75054899999998
  0
LINE
  8
_0-0_0
  6
CONTINUOUS
 62
    7
 10
143.92778049999993
 20
456.87228399999998
 11
143.92778049999993
 21
456.82330300000001
  0
LINE
  8
_0-0_0
  6
CONTINUOUS
 62
    7
 10
143.92778049999993
 20
456.89691199999999
 11
143.92778049999993
 21
456.87228399999998
  0
LINE
  8
_0-0_0
  6
CONTINUOUS
 62
    7
 10
143.92778049999993
 20
456.89999399999999
 11
143.92778049999993
 21
456.89691199999999
  0
LINE
  8
_0-0_0
  6
CONTINUOUS
 62
    7
 10
134.17778049999993
 20
452.403076
 11
134.42778049999993
 21
452.14999399999999
  0
LINE
  8
_0-0_0
  6
CONTINUOUS
 62
    7
 10
134.42778049999993
 20
452.14999399999999
 11
143.67778049999993
 21
452.14999399999999
  0
LINE
  8
_0-0_0
  6
CONTINUOUS
 62
    7
 10
134.17778049999993
 20
452.42770400000001
 11
134.42778049999993
 21
452.16369600000002
  0
LINE
  8
_0-0_0
  6
CONTINUOUS
 62
    7
 10
134.42778049999993
 20
452.16369600000002
 11
143.67778049999993
 21
452.16369600000002
  0
LINE
  8
_0-0_0
  6
CONTINUOUS
 62
    7
 10
134.17778049999993
 20
452.403076
 11
134.42778049999993
 21
452.16369600000002
  0
LINE
  8
_0-0_0
  6
CONTINUOUS
 62
    7
 10
134.17778049999993
 20
452.476654
 11
134.42778049999993
 21
452.20461999999998
  0
LINE
  8
_0-0_0
  6
CONTINUOUS
 62
    7
 10
134.42778049999993
 20
452.20461999999998
 11
143.67778049999993
 21
452.20461999999998
  0
LINE
  8
_0-0_0
  6
CONTINUOUS
 62
    7
 10
134.17778049999993
 20
452.42770400000001
 11
134.42778049999993
 21
452.20461999999998
  0
LINE
  8
_0-0_0
  6
CONTINUOUS
 62
    7
 10
134.17778049999993
 20
452.54943800000001
 11
134.42778049999993
 21
452.27233899999999
  0
LINE
  8
_0-0_0
  6
CONTINUOUS
 62
    7
 10
134.42778049999993
 20
452.27233899999999
 11
143.67778049999993
 21
452.27233899999999
  0
LINE
  8
_0-0_0
  6
CONTINUOUS
 62
    7
 10
134.17778049999993
 20
452.476654
 11
134.42778049999993
 21
452.27233899999999
  0
LINE
  8
_0-0_0
  6
CONTINUOUS
 62
    7
 10
134.17778049999993
 20
452.64520299999998
 11
134.42778049999993
 21
452.36611900000003
  0
LINE
  8
_0-0_0
  6
CONTINUOUS
 62
    7
 10
134.42778049999993
 20
452.36611900000003
 11
143.67778049999993
 21
452.36611900000003
  0
LINE
  8
_0-0_0
  6
CONTINUOUS
 62
    7
 10
134.17778049999993
 20
452.54943800000001
 11
134.42778049999993
 21
452.36611900000003
  0
LINE
  8
_0-0_0
  6
CONTINUOUS
 62
    7
 10
134.42778049999993
 20
452.48492399999998
 11
143.67778049999993
 21
452.48492399999998
  0
LINE
  8
_0-0_0
  6
CONTINUOUS
 62
    7
 10
134.30775449999999
 20
452.56137100000001
 11
134.42778049999993
 21
452.48492399999998
  0
LINE
  8
_0-0_0
  6
CONTINUOUS
 62
    7
 10
134.17778049999993
 20
452.64520299999998
 11
134.30775449999999
 21
452.56137100000001
  0
LINE
  8
_0-0_0
  6
CONTINUOUS
 62
    7
 10
134.17778049999993
 20
452.76297
 11
134.42778049999993
 21
452.48492399999998
  0
LINE
  8
_0-0_0
  6
CONTINUOUS
 62
    7
 10
134.17778049999993
 20
452.90139799999997
 11
134.42778049999993
 21
452.62744099999998
  0
LINE
  8
_0-0_0
  6
CONTINUOUS
 62
    7
 10
134.42778049999993
 20
452.62744099999998
 11
143.67778049999993
 21
452.62744099999998
  0
LINE
  8
_0-0_0
  6
CONTINUOUS
 62
    7
 10
134.17778049999993
 20
452.76297
 11
134.42778049999993
 21
452.62744099999998
  0
LINE
  8
_0-0_0
  6
CONTINUOUS
 62
    7
 10
134.17778049999993
 20
453.05898999999999
 11
134.42778049999993
 21
452.79211400000003
  0
LINE
  8
_0-0_0
  6
CONTINUOUS
 62
    7
 10
134.42778049999993
 20
452.79211400000003
 11
143.67778049999993
 21
452.79211400000003
  0
LINE
  8
_0-0_0
  6
CONTINUOUS
 62
    7
 10
134.17778049999993
 20
452.90139799999997
 11
134.42778049999993
 21
452.79211400000003
  0
LINE
  8
_0-0_0
  6
CONTINUOUS
 62
    7
 10
134.17778049999993
 20
453.23400900000001
 11
134.42778049999993
 21
452.97717299999999
  0
LINE
  8
_0-0_0
  6
CONTINUOUS
 62
    7
 10
134.42778049999993
 20
452.97717299999999
 11
143.67778049999993
 21
452.97717299999999
  0
LINE
  8
_0-0_0
  6
CONTINUOUS
 62
    7
 10
134.17778049999993
 20
453.05898999999999
 11
134.42778049999993
 21
452.97717299999999
  0
LINE
  8
_0-0_0
  6
CONTINUOUS
 62
    7
 10
134.17778049999993
 20
453.42453
 11
134.42778049999993
 21
453.18051100000002
  0
LINE
  8
_0-0_0
  6
CONTINUOUS
 62
    7
 10
134.42778049999993
 20
453.18051100000002
 11
143.67778049999993
 21
453.18051100000002
  0
LINE
  8
_0-0_0
  6
CONTINUOUS
 62
    7
 10
134.17778049999993
 20
453.23400900000001
 11
134.42778049999993
 21
453.18051100000002
  0
LINE
  8
_0-0_0
  6
CONTINUOUS
 62
    7
 10
134.17778049999993
 20
453.62851000000001
 11
134.42778049999993
 21
453.39999399999999
  0
LINE
  8
_0-0_0
  6
CONTINUOUS
 62
    7
 10
134.42778049999993
 20
453.39999399999999
 11
143.67778049999993
 21
453.39999399999999
  0
LINE
  8
_0-0_0
  6
CONTINUOUS
 62
    7
 10
134.17778049999993
 20
453.62851000000001
 11
143.92778049999993
 21
453.62851000000001
  0
LINE
  8
_0-0_0
  6
CONTINUOUS
 62
    7
 10
134.17778049999993
 20
453.42453
 11
134.42778049999993
 21
453.39999399999999
  0
LINE
  8
_0-0_0
  6
CONTINUOUS
 62
    7
 10
134.17778049999993
 20
453.843658
 11
134.42778049999993
 21
453.63314800000001
  0
LINE
  8
_0-0_0
  6
CONTINUOUS
 62
    7
 10
134.42778049999993
 20
453.63314800000001
 11
143.67778049999993
 21
453.63314800000001
  0
LINE
  8
_0-0_0
  6
CONTINUOUS
 62
    7
 10
134.17778049999993
 20
453.843658
 11
143.92778049999993
 21
453.843658
  0
LINE
  8
_0-0_0
  6
CONTINUOUS
 62
    7
 10
134.17778049999993
 20
453.62851000000001
 11
134.42778049999993
 21
453.63314800000001
  0
LINE
  8
_0-0_0
  6
CONTINUOUS
 62
    7
 10
134.17778049999993
 20
454.06762700000002
 11
134.42778049999993
 21
453.87744099999998
  0
LINE
  8
_0-0_0
  6
CONTINUOUS
 62
    7
 10
134.42778049999993
 20
453.87744099999998
 11
143.67778049999993
 21
453.87744099999998
  0
LINE
  8
_0-0_0
  6
CONTINUOUS
 62
    7
 10
134.17778049999993
 20
454.06762700000002
 11
143.92778049999993
 21
454.06762700000002
  0
LINE
  8
_0-0_0
  6
CONTINUOUS
 62
    7
 10
134.17778049999993
 20
453.843658
 11
134.42778049999993
 21
453.87744099999998
  0
LINE
  8
_0-0_0
  6
CONTINUOUS
 62
    7
 10
134.17778049999993
 20
454.29800399999999
 11
134.42778049999993
 21
454.13018799999998
  0
LINE
  8
_0-0_0
  6
CONTINUOUS
 62
    7
 10
134.42778049999993
 20
454.13018799999998
 11
143.67778049999993
 21
454.13018799999998
  0
LINE
  8
_0-0_0
  6
CONTINUOUS
 62
    7
 10
134.17778049999993
 20
454.29800399999999
 11
143.92778049999993
 21
454.29800399999999
  0
LINE
  8
_0-0_0
  6
CONTINUOUS
 62
    7
 10
134.17778049999993
 20
454.06762700000002
 11
134.42778049999993
 21
454.13018799999998
  0
LINE
  8
_0-0_0
  6
CONTINUOUS
 62
    7
 10
134.17778049999993
 20
454.53222699999998
 11
134.42778049999993
 21
454.38867199999999
  0
LINE
  8
_0-0_0
  6
CONTINUOUS
 62
    7
 10
134.42778049999993
 20
454.38867199999999
 11
143.67778049999993
 21
454.38867199999999
  0
LINE
  8
_0-0_0
  6
CONTINUOUS
 62
    7
 10
134.17778049999993
 20
454.53222699999998
 11
143.92778049999993
 21
454.53222699999998
  0
LINE
  8
_0-0_0
  6
CONTINUOUS
 62
    7
 10
134.17778049999993
 20
454.29800399999999
 11
134.42778049999993
 21
454.38867199999999
  0
LINE
  8
_0-0_0
  6
CONTINUOUS
 62
    7
 10
134.17778049999993
 20
454.76773100000003
 11
134.42778049999993
 21
454.64999399999999
  0
LINE
  8
_0-0_0
  6
CONTINUOUS
 62
    7
 10
134.42778049999993
 20
454.64999399999999
 11
143.67778049999993
 21
454.64999399999999
  0
LINE
  8
_0-0_0
  6
CONTINUOUS
 62
    7
 10
134.17778049999993
 20
454.76773100000003
 11
143.92778049999993
 21
454.76773100000003
  0
LINE
  8
_0-0_0
  6
CONTINUOUS
 62
    7
 10
134.17778049999993
 20
454.53222699999998
 11
134.42778049999993
 21
454.64999399999999
  0
LINE
  8
_0-0_0
  6
CONTINUOUS
 62
    7
 10
134.17778049999993
 20
455.00195300000001
 11
134.42778049999993
 21
454.911316
  0
LINE
  8
_0-0_0
  6
CONTINUOUS
 62
    7
 10
134.42778049999993
 20
454.911316
 11
143.67778049999993
 21
454.911316
  0
LINE
  8
_0-0_0
  6
CONTINUOUS
 62
    7
 10
134.17778049999993
 20
455.00195300000001
 11
143.92778049999993
 21
455.00195300000001
  0
LINE
  8
_0-0_0
  6
CONTINUOUS
 62
    7
 10
134.17778049999993
 20
454.76773100000003
 11
134.42778049999993
 21
454.911316
  0
LINE
  8
_0-0_0
  6
CONTINUOUS
 62
    7
 10
134.17778049999993
 20
455.23232999999999
 11
134.42778049999993
 21
455.16976899999997
  0
LINE
  8
_0-0_0
  6
CONTINUOUS
 62
    7
 10
134.42778049999993
 20
455.16976899999997
 11
143.67778049999993
 21
455.16976899999997
  0
LINE
  8
_0-0_0
  6
CONTINUOUS
 62
    7
 10
134.17778049999993
 20
455.23232999999999
 11
143.92778049999993
 21
455.23232999999999
  0
LINE
  8
_0-0_0
  6
CONTINUOUS
 62
    7
 10
134.17778049999993
 20
455.00195300000001
 11
134.42778049999993
 21
455.16976899999997
  0
LINE
  8
_0-0_0
  6
CONTINUOUS
 62
    7
 10
134.17778049999993
 20
455.456299
 11
134.42778049999993
 21
455.42251599999997
  0
LINE
  8
_0-0_0
  6
CONTINUOUS
 62
    7
 10
134.42778049999993
 20
455.42251599999997
 11
143.67778049999993
 21
455.42251599999997
  0
LINE
  8
_0-0_0
  6
CONTINUOUS
 62
    7
 10
134.17778049999993
 20
455.456299
 11
143.92778049999993
 21
455.456299
  0
LINE
  8
_0-0_0
  6
CONTINUOUS
 62
    7
 10
134.17778049999993
 20
455.23232999999999
 11
134.42778049999993
 21
455.42251599999997
  0
LINE
  8
_0-0_0
  6
CONTINUOUS
 62
    7
 10
134.17778049999993
 20
455.671448
 11
134.42778049999993
 21
455.666809
  0
LINE
  8
_0-0_0
  6
CONTINUOUS
 62
    7
 10
134.42778049999993
 20
455.666809
 11
143.67778049999993
 21
455.666809
  0
LINE
  8
_0-0_0
  6
CONTINUOUS
 62
    7
 10
134.17778049999993
 20
455.671448
 11
143.92778049999993
 21
455.671448
  0
LINE
  8
_0-0_0
  6
CONTINUOUS
 62
    7
 10
134.17778049999993
 20
455.456299
 11
134.42778049999993
 21
455.666809
  0
LINE
  8
_0-0_0
  6
CONTINUOUS
 62
    7
 10
134.17778049999993
 20
455.875427
 11
134.42778049999993
 21
455.89999399999999
  0
LINE
  8
_0-0_0
  6
CONTINUOUS
 62
    7
 10
134.42778049999993
 20
455.89999399999999
 11
143.67778049999993
 21
455.89999399999999
  0
LINE
  8
_0-0_0
  6
CONTINUOUS
 62
    7
 10
134.17778049999993
 20
455.671448
 11
134.42778049999993
 21
455.89999399999999
  0
LINE
  8
_0-0_0
  6
CONTINUOUS
 62
    7
 10
143.92778049999993
 20
456.06594799999999
 11
143.67778049999993
 21
456.11944599999998
  0
LINE
  8
_0-0_0
  6
CONTINUOUS
 62
    7
 10
143.92778049999993
 20
455.875427
 11
143.67778049999993
 21
456.11944599999998
  0
LINE
  8
_0-0_0
  6
CONTINUOUS
 62
    7
 10
143.92778049999993
 20
456.24096700000001
 11
143.67778049999993
 21
456.32281499999999
  0
LINE
  8
_0-0_0
  6
CONTINUOUS
 62
    7
 10
143.92778049999993
 20
456.06594799999999
 11
143.67778049999993
 21
456.32281499999999
  0
LINE
  8
_0-0_0
  6
CONTINUOUS
 62
    7
 10
143.92778049999993
 20
456.39855999999997
 11
143.67778049999993
 21
456.50784299999998
  0
LINE
  8
_0-0_0
  6
CONTINUOUS
 62
    7
 10
143.92778049999993
 20
456.24096700000001
 11
143.67778049999993
 21
456.50784299999998
  0
LINE
  8
_0-0_0
  6
CONTINUOUS
 62
    7
 10
143.92778049999993
 20
456.53698700000001
 11
143.67778049999993
 21
456.67251599999997
  0
LINE
  8
_0-0_0
  6
CONTINUOUS
 62
    7
 10
143.92778049999993
 20
456.39855999999997
 11
143.67778049999993
 21
456.67251599999997
  0
LINE
  8
_0-0_0
  6
CONTINUOUS
 62
    7
 10
143.92778049999993
 20
456.65475500000002
 11
143.67778049999993
 21
456.81506300000001
  0
LINE
  8
_0-0_0
  6
CONTINUOUS
 62
    7
 10
143.92778049999993
 20
456.53698700000001
 11
143.67778049999993
 21
456.81506300000001
  0
LINE
  8
_0-0_0
  6
CONTINUOUS
 62
    7
 10
143.92778049999993
 20
456.75054899999998
 11
143.67778049999993
 21
456.93383799999998
  0
LINE
  8
_0-0_0
  6
CONTINUOUS
 62
    7
 10
143.92778049999993
 20
456.65475500000002
 11
143.67778049999993
 21
456.93383799999998
  0
LINE
  8
_0-0_0
  6
CONTINUOUS
 62
    7
 10
143.92778049999993
 20
456.82330300000001
 11
143.67778049999993
 21
457.02761800000002
  0
LINE
  8
_0-0_0
  6
CONTINUOUS
 62
    7
 10
143.92778049999993
 20
456.75054899999998
 11
143.67778049999993
 21
457.02761800000002
  0
LINE
  8
_0-0_0
  6
CONTINUOUS
 62
    7
 10
143.92778049999993
 20
456.87228399999998
 11
143.67778049999993
 21
457.09533699999997
  0
LINE
  8
_0-0_0
  6
CONTINUOUS
 62
    7
 10
143.92778049999993
 20
456.82330300000001
 11
143.67778049999993
 21
457.09533699999997
  0
LINE
  8
_0-0_0
  6
CONTINUOUS
 62
    7
 10
143.92778049999993
 20
456.89691199999999
 11
143.67778049999993
 21
457.13629200000003
  0
LINE
  8
_0-0_0
  6
CONTINUOUS
 62
    7
 10
143.92778049999993
 20
456.87228399999998
 11
143.67778049999993
 21
457.13629200000003
  0
LINE
  8
_0-0_0
  6
CONTINUOUS
 62
    7
 10
143.92778049999993
 20
456.89691199999999
 11
143.67778049999993
 21
457.14999399999999
  0
LINE
  8
_0-0_0
  6
CONTINUOUS
 62
    7
 10
133.92778049999993
 20
452.894836
 11
133.92778049999993
 21
452.64999399999999
  0
LINE
  8
_0-0_0
  6
CONTINUOUS
 62
    7
 10
134.17778049999993
 20
455.875427
 11
134.42778049999993
 21
456.11944599999998
  0
LINE
  8
_0-0_0
  6
CONTINUOUS
 62
    7
 10
134.17778049999993
 20
456.06594799999999
 11
134.42778049999993
 21
456.11944599999998
  0
LINE
  8
_0-0_0
  6
CONTINUOUS
 62
    7
 10
134.17778049999993
 20
456.06594799999999
 11
134.42778049999993
 21
456.32281499999999
  0
LINE
  8
_0-0_0
  6
CONTINUOUS
 62
    7
 10
134.17778049999993
 20
456.24096700000001
 11
134.42778049999993
 21
456.32281499999999
  0
LINE
  8
_0-0_0
  6
CONTINUOUS
 62
    7
 10
134.17778049999993
 20
456.24096700000001
 11
134.42778049999993
 21
456.50784299999998
  0
LINE
  8
_0-0_0
  6
CONTINUOUS
 62
    7
 10
134.17778049999993
 20
456.39855999999997
 11
134.42778049999993
 21
456.50784299999998
  0
LINE
  8
_0-0_0
  6
CONTINUOUS
 62
    7
 10
134.17778049999993
 20
456.39855999999997
 11
134.42778049999993
 21
456.67251599999997
  0
LINE
  8
_0-0_0
  6
CONTINUOUS
 62
    7
 10
134.17778049999993
 20
456.53698700000001
 11
134.42778049999993
 21
456.67251599999997
  0
LINE
  8
_0-0_0
  6
CONTINUOUS
 62
    7
 10
134.17778049999993
 20
456.53698700000001
 11
134.42778049999993
 21
456.81506300000001
  0
LINE
  8
_0-0_0
  6
CONTINUOUS
 62
    7
 10
134.17778049999993
 20
456.65475500000002
 11
134.42778049999993
 21
456.81506300000001
  0
LINE
  8
_0-0_0
  6
CONTINUOUS
 62
    7
 10
134.17778049999993
 20
456.65475500000002
 11
134.42778049999993
 21
456.93383799999998
  0
LINE
  8
_0-0_0
  6
CONTINUOUS
 62
    7
 10
134.17778049999993
 20
456.75054899999998
 11
134.42778049999993
 21
456.93383799999998
  0
LINE
  8
_0-0_0
  6
CONTINUOUS
 62
    7
 10
134.17778049999993
 20
456.75054899999998
 11
134.42778049999993
 21
457.02761800000002
  0
LINE
  8
_0-0_0
  6
CONTINUOUS
 62
    7
 10
134.17778049999993
 20
456.82330300000001
 11
134.42778049999993
 21
457.02761800000002
  0
LINE
  8
_0-0_0
  6
CONTINUOUS
 62
    7
 10
134.17778049999993
 20
456.82330300000001
 11
134.42778049999993
 21
457.09533699999997
  0
LINE
  8
_0-0_0
  6
CONTINUOUS
 62
    7
 10
134.17778049999993
 20
456.87228399999998
 11
134.42778049999993
 21
457.09533699999997
  0
LINE
  8
_0-0_0
  6
CONTINUOUS
 62
    7
 10
134.17778049999993
 20
456.87228399999998
 11
134.42778049999993
 21
457.13629200000003
  0
LINE
  8
_0-0_0
  6
CONTINUOUS
 62
    7
 10
134.17778049999993
 20
456.89691199999999
 11
134.42778049999993
 21
457.13629200000003
  0
LINE
  8
_0-0_0
  6
CONTINUOUS
 62
    7
 10
134.17778049999993
 20
456.89691199999999
 11
134.42778049999993
 21
457.14999399999999
  0
LINE
  8
_0-0_0
  6
CONTINUOUS
 62
    7
 10
133.92778049999993
 20
456.64999399999999
 11
133.92778049999993
 21
452.894836
  0
LINE
  8
_0-0_0
  6
CONTINUOUS
 62
    7
 10
134.42778049999993
 20
456.11944599999998
 11
143.67778049999993
 21
456.11944599999998
  0
LINE
  8
_0-0_0
  6
CONTINUOUS
 62
    7
 10
134.42778049999993
 20
456.32281499999999
 11
143.67778049999993
 21
456.32281499999999
  0
LINE
  8
_0-0_0
  6
CONTINUOUS
 62
    7
 10
134.42778049999993
 20
456.50784299999998
 11
143.67778049999993
 21
456.50784299999998
  0
LINE
  8
_0-0_0
  6
CONTINUOUS
 62
    7
 10
134.42778049999993
 20
456.67251599999997
 11
143.67778049999993
 21
456.67251599999997
  0
LINE
  8
_0-0_0
  6
CONTINUOUS
 62
    7
 10
134.42778049999993
 20
456.81506300000001
 11
143.67778049999993
 21
456.81506300000001
  0
LINE
  8
_0-0_0
  6
CONTINUOUS
 62
    7
 10
134.42778049999993
 20
456.93383799999998
 11
143.67778049999993
 21
456.93383799999998
  0
LINE
  8
_0-0_0
  6
CONTINUOUS
 62
    7
 10
134.42778049999993
 20
457.02761800000002
 11
143.67778049999993
 21
457.02761800000002
  0
LINE
  8
_0-0_0
  6
CONTINUOUS
 62
    7
 10
134.42778049999993
 20
457.09533699999997
 11
143.67778049999993
 21
457.09533699999997
  0
LINE
  8
_0-0_0
  6
CONTINUOUS
 62
    7
 10
134.42778049999993
 20
457.13629200000003
 11
143.67778049999993
 21
457.13629200000003
  0
LINE
  8
_0-0_0
  6
CONTINUOUS
 62
    7
 10
134.42778049999993
 20
457.14999399999999
 11
143.67778049999993
 21
457.14999399999999
  0
LINE
  8
_0-0_0
  6
CONTINUOUS
 62
    7
 10
169.92779549999995
 20
473.5
 11
143.92778049999993
 21
473.5
  0
LINE
  8
_0-0_0
  6
CONTINUOUS
 62
    7
 10
169.92779549999995
 20
469
 11
143.92778049999993
 21
469
  0
LINE
  8
_0-0_0
  6
CONTINUOUS
 62
    7
 10
270.92779549999995
 20
456.89999399999999
 11
273.38342249999994
 21
456.89999399999999
  0
LINE
  8
_0-0_0
  6
CONTINUOUS
 62
    7
 10
272.88238549999994
 20
452.39999399999999
 11
273.38342249999994
 21
452.39999399999999
  0
LINE
  8
_0-0_0
  6
CONTINUOUS
 62
    7
 10
143.92778049999993
 20
473.5
 11
143.67778049999993
 21
473.75
  0
LINE
  8
_0-0_0
  6
CONTINUOUS
 62
    7
 10
143.92778049999993
 20
469
 11
143.67778049999993
 21
468.75
  0
LINE
  8
_0-0_0
  6
CONTINUOUS
 62
    7
 10
273.52777049999997
 20
456.64999399999999
 11
273.38342249999994
 21
456.89999399999999
  0
LINE
  8
_0-0_0
  6
CONTINUOUS
 62
    7
 10
273.52777049999997
 20
452.64999399999999
 11
273.38342249999994
 21
452.39999399999999
  0
LINE
  8
_0-0_0
  6
CONTINUOUS
 62
    7
 10
147.92778049999993
 20
457.69998199999998
 11
149.17778049999993
 21
456.44998199999998
  0
LINE
  8
_0-0_0
  6
CONTINUOUS
 62
    7
 10
147.92778049999993
 20
468.19998199999998
 11
148.72776749999997
 21
468.99996900000002
  0
LINE
  8
_0-0_0
  6
CONTINUOUS
 62
    7
 10
133.92778049999993
 20
473.25
 11
134.42762749999997
 21
473.74981700000001
  0
LINE
  8
_0-0_0
  6
CONTINUOUS
 62
    7
 10
133.92778049999993
 20
469.25
 11
134.42762749999997
 21
468.75015300000001
  0
LINE
  8
_0-0_0
  6
CONTINUOUS
 62
    7
 10
147.92778049999993
 20
467.94998199999998
 11
147.52778649999993
 21
467.94998199999998
  0
LINE
  8
_0-0_0
  6
CONTINUOUS
 62
    7
 10
147.92778049999993
 20
457.94998199999998
 11
147.52778649999993
 21
457.94998199999998
  0
LINE
  8
_0-0_0
  6
CONTINUOUS
 62
    7
 10
146.72778349999999
 20
467.48809799999998
 11
147.52778649999993
 21
467.94998199999998
  0
LINE
  8
_0-0_0
  6
CONTINUOUS
 62
    7
 10
146.72778349999999
 20
458.41186499999998
 11
147.52778649999993
 21
457.94998199999998
  0
LINE
  8
_0-0_0
  6
CONTINUOUS
 62
    7
 10
146.72778349999999
 20
466.94998199999998
 11
88.727783499999987
 21
466.94998199999998
  0
LINE
  8
_0-0_0
  6
CONTINUOUS
 62
    7
 10
146.72778349999999
 20
458.94998199999998
 11
88.727783499999987
 21
458.94998199999998
  0
LINE
  8
_0-0_0
  6
CONTINUOUS
 62
    7
 10
164.17773449999999
 20
452.39999399999999
 11
143.92778049999993
 21
452.39999399999999
  0
LINE
  8
_0-0_0
  6
CONTINUOUS
 62
    7
 10
143.92778049999993
 20
452.39999399999999
 11
143.67778049999993
 21
452.14999399999999
  0
LINE
  8
_0-0_0
  6
CONTINUOUS
 62
    7
 10
148.72776749999997
 20
456.89999399999999
 11
143.92778049999993
 21
456.89999399999999
  0
LINE
  8
_0-0_0
  6
CONTINUOUS
 62
    7
 10
143.92778049999993
 20
456.89999399999999
 11
143.67778049999993
 21
457.14999399999999
  0
LINE
  8
_0-0_0
  6
CONTINUOUS
 62
    7
 10
133.92778049999993
 20
452.64999399999999
 11
134.42762749999997
 21
452.15014600000001
  0
LINE
  8
_0-0_0
  6
CONTINUOUS
 62
    7
 10
133.92778049999993
 20
456.64999399999999
 11
134.42762749999997
 21
457.14984099999998
  0
LINE
  8
_0-0_0
  6
CONTINUOUS
 62
    7
 10
60.416778499999964
 20
505.14999399999999
 11
60.416778499999964
 21
492.14999399999999
  0
LINE
  8
_0-0_0
  6
CONTINUOUS
 62
    7
 10
60.61677549999996
 20
505.14999399999999
 11
60.416778499999964
 21
505.14999399999999
  0
LINE
  8
_0-0_0
  6
CONTINUOUS
 62
    7
 10
60.61677549999996
 20
492.14999399999999
 11
60.416778499999964
 21
492.14999399999999
  0
LINE
  8
_0-0_0
  6
CONTINUOUS
 62
    7
 10
60.61677549999996
 20
505.14999399999999
 11
60.61677549999996
 21
523.75
  0
LINE
  8
_0-0_0
  6
CONTINUOUS
 62
    7
 10
60.716781499999968
 20
523.75
 11
60.61677549999996
 21
523.75
  0
LINE
  8
_0-0_0
  6
CONTINUOUS
 62
    7
 10
60.716781499999968
 20
526.25
 11
60.716781499999968
 21
523.75
  0
ARC
  8
_0-0_0
  6
CONTINUOUS
 62
    7
 10
60.216781499999968
 20
526.25
 40
0.5
 50
0
 51
90.000003000000007
  0
LINE
  8
_0-0_0
  6
CONTINUOUS
 62
    7
 10
60.216781499999968
 20
526.75
 11
57.216781499999968
 21
526.75
  0
ARC
  8
_0-0_0
  6
CONTINUOUS
 62
    7
 10
57.216781499999968
 20
526.25
 40
0.5
 50
90.000003000000007
 51
179.99999099999999
  0
ARC
  8
_0-0_0
  6
CONTINUOUS
 62
    7
 10
52.716781499999968
 20
478.75
 40
0.5
 50
179.99999099999999
 51
269.99999700000001
  0
LINE
  8
_0-0_0
  6
CONTINUOUS
 62
    7
 10
55.216781499999968
 20
478.25
 11
52.716781499999968
 21
478.25
  0
ARC
  8
_0-0_0
  6
CONTINUOUS
 62
    7
 10
55.216781499999968
 20
478.75
 40
0.5
 50
269.99999700000001
 51
0
  0
LINE
  8
_0-0_0
  6
CONTINUOUS
 62
    7
 10
55.716781499999968
 20
483.75
 11
55.716781499999968
 21
478.75
  0
ARC
  8
_0-0_0
  6
CONTINUOUS
 62
    7
 10
56.216781499999968
 20
483.75
 40
0.5
 50
90.000003000000007
 51
179.99999099999999
  0
LINE
  8
_0-0_0
  6
CONTINUOUS
 62
    7
 10
60.216781499999968
 20
484.25
 11
56.216781499999968
 21
484.25
  0
ARC
  8
_0-0_0
  6
CONTINUOUS
 62
    7
 10
60.216781499999968
 20
484.75
 40
0.5
 50
269.99999700000001
 51
0
  0
LINE
  8
_0-0_0
  6
CONTINUOUS
 62
    7
 10
60.716781499999968
 20
487.94998199999998
 11
60.716781499999968
 21
484.75
  0
LINE
  8
_0-0_0
  6
CONTINUOUS
 62
    7
 10
60.61677549999996
 20
487.94998199999998
 11
60.716781499999968
 21
487.94998199999998
  0
LINE
  8
_0-0_0
  6
CONTINUOUS
 62
    7
 10
60.61677549999996
 20
487.94998199999998
 11
60.61677549999996
 21
492.14999399999999
  0
LINE
  8
_0-0_0
  6
CONTINUOUS
 62
    7
 10
59.716781499999968
 20
526.25
 11
41.916778499999964
 21
526.25
  0
ARC
  8
_0-0_0
  6
CONTINUOUS
 62
    7
 10
59.716781499999968
 20
525.75
 40
0.5
 50
0
 51
90.000003000000007
  0
LINE
  8
_0-0_0
  6
CONTINUOUS
 62
    7
 10
60.216781499999968
 20
525.75
 11
60.216781499999968
 21
485.25
  0
ARC
  8
_0-0_0
  6
CONTINUOUS
 62
    7
 10
59.716781499999968
 20
485.25
 40
0.5
 50
269.99999700000001
 51
0
  0
LINE
  8
_0-0_0
  6
CONTINUOUS
 62
    7
 10
56.216781499999968
 20
484.75
 11
59.716781499999968
 21
484.75
  0
ARC
  8
_0-0_0
  6
CONTINUOUS
 62
    7
 10
56.216781499999968
 20
483.75
 40
1
 50
90.000003000000007
 51
179.99999099999999
  0
LINE
  8
_0-0_0
  6
CONTINUOUS
 62
    7
 10
55.216781499999968
 20
483.75
 11
55.216781499999968
 21
479.25
  0
ARC
  8
_0-0_0
  6
CONTINUOUS
 62
    7
 10
54.716781499999968
 20
479.25
 40
0.5
 50
269.99999700000001
 51
0
  0
LINE
  8
_0-0_0
  6
CONTINUOUS
 62
    7
 10
37.716781499999968
 20
478.75
 11
54.716781499999968
 21
478.75
  0
LINE
  8
_0-0_0
  6
CONTINUOUS
 62
    7
 10
56.216781499999968
 20
526.44998199999998
 11
56.216781499999968
 21
526.25
  0
ARC
  8
_0-0_0
  6
CONTINUOUS
 62
    7
 10
55.916778499999964
 20
526.44998199999998
 40
0.2999999999999999
 50
0
 51
90.000003000000007
  0
LINE
  8
_0-0_0
  6
CONTINUOUS
 62
    7
 10
55.916778499999964
 20
526.75
 11
41.216781499999968
 21
526.75
  0
ARC
  8
_0-0_0
  6
CONTINUOUS
 62
    7
 10
41.216781499999968
 20
526.44998199999998
 40
0.2999999999999999
 50
90.000003000000007
 51
179.99999099999999
  0
LINE
  8
_0-0_0
  6
CONTINUOUS
 62
    7
 10
40.916778499999964
 20
526.44998199999998
 11
40.916778499999964
 21
523.25
  0
LINE
  8
_0-0_0
  6
CONTINUOUS
 62
    7
 10
40.916778499999964
 20
523.25
 11
35.216781499999968
 21
523.25
  0
LINE
  8
_0-0_0
  6
CONTINUOUS
 62
    7
 10
35.216781499999968
 20
523.25
 11
34.416778499999964
 21
522.44998199999998
  0
ARC
  8
_0-0_0
  6
CONTINUOUS
 62
    7
 10
41.916778499999964
 20
525.75
 40
0.5
 50
90.000003000000007
 51
179.99999099999999
  0
LINE
  8
_0-0_0
  6
CONTINUOUS
 62
    7
 10
41.416778499999964
 20
525.75
 11
41.416778499999964
 21
522.94998199999998
  0
ARC
  8
_0-0_0
  6
CONTINUOUS
 62
    7
 10
40.916778499999964
 20
522.94998199999998
 40
0.5
 50
269.99999700000001
 51
0
  0
LINE
  8
_0-0_0
  6
CONTINUOUS
 62
    7
 10
40.916778499999964
 20
522.44998199999998
 11
32.716781499999968
 21
522.44998199999998
  0
ARC
  8
_0-0_0
  6
CONTINUOUS
 62
    7
 10
32.716781499999968
 20
521.94998199999998
 40
0.5
 50
90.000003000000007
 51
179.99999099999999
  0
LINE
  8
_0-0_0
  6
CONTINUOUS
 62
    7
 10
32.216781499999968
 20
485.25
 11
32.216781499999968
 21
521.94998199999998
  0
ARC
  8
_0-0_0
  6
CONTINUOUS
 62
    7
 10
32.716781499999968
 20
485.25
 40
0.5
 50
179.99999099999999
 51
269.99999700000001
  0
LINE
  8
_0-0_0
  6
CONTINUOUS
 62
    7
 10
32.716781499999968
 20
484.75
 11
36.216781499999968
 21
484.75
  0
ARC
  8
_0-0_0
  6
CONTINUOUS
 62
    7
 10
36.216781499999968
 20
483.75
 40
1
 50
0
 51
90.000003000000007
  0
LINE
  8
_0-0_0
  6
CONTINUOUS
 62
    7
 10
37.216781499999968
 20
479.25
 11
37.216781499999968
 21
483.75
  0
ARC
  8
_0-0_0
  6
CONTINUOUS
 62
    7
 10
37.716781499999968
 20
479.25
 40
0.5
 50
179.99999099999999
 51
269.99999700000001
  0
CIRCLE
  8
_0-0_0
  6
CONTINUOUS
 62
    7
 10
46.216781499999968
 20
487.75
 40
2.0670000000000002
  0
LINE
  8
_0-0_0
  6
CONTINUOUS
 62
    7
 10
34.216781499999968
 20
522.75
 11
34.216781499999968
 21
522.44998199999998
  0
LINE
  8
_0-0_0
  6
CONTINUOUS
 62
    7
 10
34.216781499999968
 20
522.75
 11
32.216781499999968
 21
522.75
  0
ARC
  8
_0-0_0
  6
CONTINUOUS
 62
    7
 10
32.216781499999968
 20
522.25
 40
0.5
 50
90.000003000000007
 51
179.99999099999999
  0
LINE
  8
_0-0_0
  6
CONTINUOUS
 62
    7
 10
31.716781499999968
 20
522.25
 11
31.716781499999968
 21
484.75
  0
ARC
  8
_0-0_0
  6
CONTINUOUS
 62
    7
 10
32.216781499999968
 20
484.75
 40
0.5
 50
179.99999099999999
 51
269.99999700000001
  0
LINE
  8
_0-0_0
  6
CONTINUOUS
 62
    7
 10
36.216781499999968
 20
484.25
 11
32.216781499999968
 21
484.25
  0
ARC
  8
_0-0_0
  6
CONTINUOUS
 62
    7
 10
36.216781499999968
 20
483.75
 40
0.5
 50
0
 51
90.000003000000007
  0
LINE
  8
_0-0_0
  6
CONTINUOUS
 62
    7
 10
36.716781499999968
 20
478.75
 11
36.716781499999968
 21
483.75
  0
ARC
  8
_0-0_0
  6
CONTINUOUS
 62
    7
 10
37.216781499999968
 20
478.75
 40
0.5
 50
179.99999099999999
 51
269.99999700000001
  0
LINE
  8
_0-0_0
  6
CONTINUOUS
 62
    7
 10
37.216781499999968
 20
478.25
 11
39.716781499999968
 21
478.25
  0
ARC
  8
_0-0_0
  6
CONTINUOUS
 62
    7
 10
39.716781499999968
 20
478.75
 40
0.5
 50
269.99999700000001
 51
0
  0
LINE
  8
_0-0_0
  6
CONTINUOUS
 62
    7
 10
55.716781499999968
 20
478.75
 11
55.816787499999919
 21
478.75
  0
LINE
  8
_0-0_0
  6
CONTINUOUS
 62
    7
 10
55.816787499999919
 20
478.75
 11
55.816787499999919
 21
479.25
  0
LINE
  8
_0-0_0
  6
CONTINUOUS
 62
    7
 10
55.816787499999919
 20
483.25
 11
55.816787499999919
 21
479.25
  0
LINE
  8
_0-0_0
  6
CONTINUOUS
 62
    7
 10
55.716781499999968
 20
483.75
 11
55.816787499999919
 21
483.75
  0
LINE
  8
_0-0_0
  6
CONTINUOUS
 62
    7
 10
55.816787499999919
 20
483.25
 11
55.816787499999919
 21
483.75
  0
LINE
  8
_0-0_0
  6
CONTINUOUS
 62
    7
 10
55.916778499999964
 20
479.25
 11
55.916778499999964
 21
479.38034099999999
  0
LINE
  8
_0-0_0
  6
CONTINUOUS
 62
    7
 10
55.916778499999964
 20
482.88034099999999
 11
55.916778499999964
 21
479.38034099999999
  0
LINE
  8
_0-0_0
  6
CONTINUOUS
 62
    7
 10
55.816787499999919
 20
483.14999399999999
 11
55.916778499999964
 21
483.14999399999999
  0
LINE
  8
_0-0_0
  6
CONTINUOUS
 62
    7
 10
55.916778499999964
 20
482.88034099999999
 11
55.916778499999964
 21
483.14999399999999
  0
LINE
  8
_0-0_0
  6
CONTINUOUS
 62
    7
 10
55.816787499999919
 20
479.25
 11
55.916778499999964
 21
479.25
  0
LINE
  8
_0-0_0
  6
CONTINUOUS
 62
    7
 10
55.816787499999919
 20
479.25
 11
55.916778499999964
 21
479.25
  0
LINE
  8
_0-0_0
  6
CONTINUOUS
 62
    7
 10
37.416778499999964
 20
476.25
 11
41.61677549999996
 21
476.25
  0
LINE
  8
_0-0_0
  6
CONTINUOUS
 62
    7
 10
53.216781499999968
 20
476.25
 11
50.816787499999919
 21
476.25
  0
LINE
  8
_0-0_0
  6
CONTINUOUS
 62
    7
 10
53.216781499999968
 20
476.25
 11
54.416778499999964
 21
476.25
  0
ARC
  8
_0-0_0
  6
CONTINUOUS
 62
    7
 10
54.416778499999964
 20
475.75
 40
0.5
 50
0
 51
90.000003000000007
  0
ARC
  8
_0-0_0
  6
CONTINUOUS
 62
    7
 10
53.216781499999968
 20
475.75
 40
0.5
 50
90.000003000000007
 51
179.99999099999999
  0
ARC
  8
_0-0_0
  6
CONTINUOUS
 62
    7
 10
50.816787499999919
 20
476.75
 40
0.5
 50
179.99999099999999
 51
269.99999700000001
  0
ARC
  8
_0-0_0
  6
CONTINUOUS
 62
    7
 10
41.61677549999996
 20
476.75
 40
0.5
 50
269.99999700000001
 51
0
  0
ARC
  8
_0-0_0
  6
CONTINUOUS
 62
    7
 10
37.416778499999964
 20
475.75
 40
0.5
 50
90.000003000000007
 51
179.99999099999999
  0
LINE
  8
_0-0_0
  6
CONTINUOUS
 62
    7
 10
38.416778499999964
 20
476.75
 11
38.416778499999964
 21
476.25
  0
ARC
  8
_0-0_0
  6
CONTINUOUS
 62
    7
 10
38.916778499999964
 20
476.75
 40
0.5
 50
90.000003000000007
 51
179.99999099999999
  0
LINE
  8
_0-0_0
  6
CONTINUOUS
 62
    7
 10
40.416778499999964
 20
477.25
 11
38.916778499999964
 21
477.25
  0
ARC
  8
_0-0_0
  6
CONTINUOUS
 62
    7
 10
40.416778499999964
 20
478.25
 40
1
 50
269.99999700000001
 51
0
  0
LINE
  8
_0-0_0
  6
CONTINUOUS
 62
    7
 10
41.416778499999964
 20
478.75
 11
41.416778499999964
 21
478.25
  0
LINE
  8
_0-0_0
  6
CONTINUOUS
 62
    7
 10
41.916778499999964
 20
478.75
 11
41.916778499999964
 21
477.75
  0
ARC
  8
_0-0_0
  6
CONTINUOUS
 62
    7
 10
40.416778499999964
 20
477.75
 40
1.5
 50
269.99999700000001
 51
0
  0
ARC
  8
_0-0_0
  6
CONTINUOUS
 62
    7
 10
52.016784499999972
 20
477.75
 40
1.5
 50
179.99999099999999
 51
269.99999700000001
  0
LINE
  8
_0-0_0
  6
CONTINUOUS
 62
    7
 10
54.016784499999972
 20
476.75
 11
54.016784499999972
 21
476.25
  0
ARC
  8
_0-0_0
  6
CONTINUOUS
 62
    7
 10
53.516784499999972
 20
476.75
 40
0.5
 50
0
 51
90.000003000000007
  0
LINE
  8
_0-0_0
  6
CONTINUOUS
 62
    7
 10
52.016784499999972
 20
477.25
 11
53.516784499999972
 21
477.25
  0
ARC
  8
_0-0_0
  6
CONTINUOUS
 62
    7
 10
52.016784499999972
 20
478.25
 40
1
 50
179.99999099999999
 51
269.99999700000001
  0
LINE
  8
_0-0_0
  6
CONTINUOUS
 62
    7
 10
51.016784499999972
 20
478.75
 11
51.016784499999972
 21
478.25
  0
LINE
  8
_0-0_0
  6
CONTINUOUS
 62
    7
 10
50.516784499999972
 20
478.75
 11
50.516784499999972
 21
477.75
  0
LINE
  8
_0-0_0
  6
CONTINUOUS
 62
    7
 10
54.916778499999964
 20
449.25
 11
54.916778499999964
 21
450.14999399999999
  0
LINE
  8
_0-0_0
  6
CONTINUOUS
 62
    7
 10
54.916778499999964
 20
450.14999399999999
 11
54.916778499999964
 21
452.64999399999999
  0
LINE
  8
_0-0_0
  6
CONTINUOUS
 62
    7
 10
54.916778499999964
 20
452.64999399999999
 11
54.916778499999964
 21
473.25
  0
LINE
  8
_0-0_0
  6
CONTINUOUS
 62
    7
 10
54.916778499999964
 20
473.25
 11
54.916778499999964
 21
475.75
  0
LINE
  8
_0-0_0
  6
CONTINUOUS
 62
    7
 10
52.716781499999968
 20
475.75
 11
52.716781499999968
 21
474.504974
  0
LINE
  8
_0-0_0
  6
CONTINUOUS
 62
    7
 10
50.316787499999919
 20
476.75
 11
50.316787499999919
 21
478.54998799999998
  0
ARC
  8
_0-0_0
  6
CONTINUOUS
 62
    7
 10
49.816787499999919
 20
478.54998799999998
 40
0.5
 50
0
 51
23.579369
  0
LINE
  8
_0-0_0
  6
CONTINUOUS
 62
    7
 10
42.11677549999996
 20
476.75
 11
42.11677549999996
 21
478.54998799999998
  0
ARC
  8
_0-0_0
  6
CONTINUOUS
 62
    7
 10
42.61677549999996
 20
478.54998799999998
 40
0.5
 50
156.420635
 51
179.99999099999999
  0
LINE
  8
_0-0_0
  6
CONTINUOUS
 62
    7
 10
36.916778499999964
 20
449.25
 11
36.916778499999964
 21
459.44998199999998
  0
LINE
  8
_0-0_0
  6
CONTINUOUS
 62
    7
 10
36.916778499999964
 20
459.44998199999998
 11
36.916778499999964
 21
460.44998199999998
  0
LINE
  8
_0-0_0
  6
CONTINUOUS
 62
    7
 10
36.916778499999964
 20
460.44998199999998
 11
36.916778499999964
 21
465.44998199999998
  0
LINE
  8
_0-0_0
  6
CONTINUOUS
 62
    7
 10
36.916778499999964
 20
465.44998199999998
 11
36.916778499999964
 21
466.44998199999998
  0
LINE
  8
_0-0_0
  6
CONTINUOUS
 62
    7
 10
36.916778499999964
 20
475.75
 11
36.916778499999964
 21
466.44998199999998
  0
LINE
  8
_0-0_0
  6
CONTINUOUS
 62
    7
 10
55.716781499999968
 20
474.75
 11
54.916778499999964
 21
474.75
  0
LINE
  8
_0-0_0
  6
CONTINUOUS
 62
    7
 10
55.716781499999968
 20
475.54998799999998
 11
54.916778499999964
 21
475.54998799999998
  0
LINE
  8
_0-0_0
  6
CONTINUOUS
 62
    7
 10
55.716781499999968
 20
474.54998799999998
 11
55.716781499999968
 21
475.54998799999998
  0
LINE
  8
_0-0_0
  6
CONTINUOUS
 62
    7
 10
55.716781499999968
 20
455.94998199999998
 11
54.916778499999964
 21
455.94998199999998
  0
LINE
  8
_0-0_0
  6
CONTINUOUS
 62
    7
 10
55.716781499999968
 20
455.94998199999998
 11
55.716781499999968
 21
458.94998199999998
  0
LINE
  8
_0-0_0
  6
CONTINUOUS
 62
    7
 10
55.716781499999968
 20
471.18768299999999
 11
55.716781499999968
 21
458.94998199999998
  0
LINE
  8
_0-0_0
  6
CONTINUOUS
 62
    7
 10
55.716781499999968
 20
471.18768299999999
 11
55.716781499999968
 21
472.15045199999997
  0
LINE
  8
_0-0_0
  6
CONTINUOUS
 62
    7
 10
54.916778499999964
 20
472.15045199999997
 11
54.916778499999964
 21
474.75
  0
ARC
  8
_0-0_0
  6
CONTINUOUS
 62
    7
 10
49.301864499999965
 20
471.43203699999998
 40
5.7120379999999997
 50
18.558475999999999
 51
26.433648000000002
  0
ARC
  8
_0-0_0
  6
CONTINUOUS
 62
    7
 10
54.716781499999968
 20
473.25
 40
0.2
 50
269.99999700000001
 51
0
  0
ARC
  8
_0-0_0
  6
CONTINUOUS
 62
    7
 10
54.716781499999968
 20
452.64999399999999
 40
0.2
 50
0
 51
90.000003000000007
  0
ARC
  8
_0-0_0
  6
CONTINUOUS
 62
    7
 10
49.301971499999922
 20
454.46801799999997
 40
5.711964
 50
333.565022
 51
341.44031000000001
  0
ARC
  8
_0-0_0
  6
CONTINUOUS
 62
    7
 10
54.416778499999964
 20
450.14999399999999
 40
0.5
 50
269.99999700000001
 51
0
  0
LINE
  8
_0-0_0
  6
CONTINUOUS
 62
    7
 10
54.416778499999964
 20
449.25
 11
54.916778499999964
 21
449.25
  0
LINE
  8
_0-0_0
  6
CONTINUOUS
 62
    7
 10
54.916778499999964
 20
449.25
 11
54.416778499999964
 21
448.75
  0
ARC
  8
_0-0_0
  6
CONTINUOUS
 62
    7
 10
52.716781499999968
 20
471.75
 40
2.2999999999999998
 50
34.417387999999995
 51
79.713437000000013
  0
LINE
  8
_0-0_0
  6
CONTINUOUS
 62
    7
 10
54.655471499999976
 20
473.04998799999998
 11
54.614150499999937
 21
473.04998799999998
  0
LINE
  8
_0-0_0
  6
CONTINUOUS
 62
    7
 10
54.655471499999976
 20
473.04998799999998
 11
54.665023499999961
 21
473.05102499999998
  0
LINE
  8
_0-0_0
  6
CONTINUOUS
 62
    7
 10
54.665023499999961
 20
473.05102499999998
 11
54.674514499999987
 21
473.05419899999998
  0
LINE
  8
_0-0_0
  6
CONTINUOUS
 62
    7
 10
54.674514499999987
 20
473.05419899999998
 11
54.683761499999946
 21
473.05960099999999
  0
LINE
  8
_0-0_0
  6
CONTINUOUS
 62
    7
 10
54.683761499999946
 20
473.05960099999999
 11
54.692565499999944
 21
473.06710800000002
  0
LINE
  8
_0-0_0
  6
CONTINUOUS
 62
    7
 10
54.692565499999944
 20
473.06710800000002
 11
54.707961499999954
 21
473.08776899999998
  0
LINE
  8
_0-0_0
  6
CONTINUOUS
 62
    7
 10
54.707961499999954
 20
473.08776899999998
 11
54.719741499999941
 21
473.11502100000001
  0
LINE
  8
_0-0_0
  6
CONTINUOUS
 62
    7
 10
54.719741499999941
 20
473.11502100000001
 11
54.726928499999985
 21
473.147156
  0
LINE
  8
_0-0_0
  6
CONTINUOUS
 62
    7
 10
54.726928499999985
 20
473.147156
 11
54.728820499999983
 21
473.18221999999997
  0
LINE
  8
_0-0_0
  6
CONTINUOUS
 62
    7
 10
54.728820499999983
 20
473.18221999999997
 11
54.724960499999952
 21
473.21838400000001
  0
LINE
  8
_0-0_0
  6
CONTINUOUS
 62
    7
 10
54.724960499999952
 20
473.21838400000001
 11
54.716781499999968
 21
473.25
  0
ARC
  8
_0-0_0
  6
CONTINUOUS
 62
    7
 10
53.216781499999968
 20
474.504974
 40
0.5
 50
179.99999099999999
 51
259.71343899999994
  0
LINE
  8
_0-0_0
  6
CONTINUOUS
 62
    7
 10
37.716781499999968
 20
471.75
 11
37.716781499999968
 21
458.14999399999999
  0
LINE
  8
_0-0_0
  6
CONTINUOUS
 62
    7
 10
37.716781499999968
 20
457.64999399999999
 11
37.716781499999968
 21
458.14999399999999
  0
LINE
  8
_0-0_0
  6
CONTINUOUS
 62
    7
 10
37.716781499999968
 20
454.64999399999999
 11
37.716781499999968
 21
457.64999399999999
  0
LINE
  8
_0-0_0
  6
CONTINUOUS
 62
    7
 10
37.716781499999968
 20
454.14999399999999
 11
37.716781499999968
 21
454.64999399999999
  0
ARC
  8
_0-0_0
  6
CONTINUOUS
 62
    7
 10
39.716781499999968
 20
471.75
 40
2
 50
93.840255999999997
 51
179.99999099999999
  0
LINE
  8
_0-0_0
  6
CONTINUOUS
 62
    7
 10
39.716781499999968
 20
473.75
 11
48.716781499999968
 21
473.75
  0
LINE
  8
_0-0_0
  6
CONTINUOUS
 62
    7
 10
52.716781499999968
 20
473.75
 11
52.216781499999968
 21
473.75
  0
LINE
  8
_0-0_0
  6
CONTINUOUS
 62
    7
 10
52.216781499999968
 20
473.75
 11
49.216781499999968
 21
473.75
  0
LINE
  8
_0-0_0
  6
CONTINUOUS
 62
    7
 10
48.716781499999968
 20
473.75
 11
49.216781499999968
 21
473.75
  0
ARC
  8
_0-0_0
  6
CONTINUOUS
 62
    7
 10
52.716781499999968
 20
471.75
 40
2
 50
0
 51
90.000003000000007
  0
LINE
  8
_0-0_0
  6
CONTINUOUS
 62
    7
 10
36.716781499999968
 20
474.75
 11
36.916778499999964
 21
474.75
  0
LINE
  8
_0-0_0
  6
CONTINUOUS
 62
    7
 10
36.716781499999968
 20
475.54998799999998
 11
36.916778499999964
 21
475.54998799999998
  0
LINE
  8
_0-0_0
  6
CONTINUOUS
 62
    7
 10
36.716781499999968
 20
475.54998799999998
 11
36.716781499999968
 21
474.75012199999998
  0
LINE
  8
_0-0_0
  6
CONTINUOUS
 62
    7
 10
36.716781499999968
 20
455.94998199999998
 11
36.916778499999964
 21
455.94998199999998
  0
LINE
  8
_0-0_0
  6
CONTINUOUS
 62
    7
 10
36.716781499999968
 20
458.94998199999998
 11
36.716781499999968
 21
455.94998199999998
  0
LINE
  8
_0-0_0
  6
CONTINUOUS
 62
    7
 10
36.716781499999968
 20
471.18768299999999
 11
36.716781499999968
 21
458.94998199999998
  0
LINE
  8
_0-0_0
  6
CONTINUOUS
 62
    7
 10
36.716781499999968
 20
472.15045199999997
 11
36.716781499999968
 21
471.18768299999999
  0
ARC
  8
_0-0_0
  6
CONTINUOUS
 62
    7
 10
37.416778499999964
 20
465.44998199999998
 40
0.5
 50
90.000003000000007
 51
179.99999099999999
  0
ARC
  8
_0-0_0
  6
CONTINUOUS
 62
    7
 10
37.416778499999964
 20
460.44998199999998
 40
0.5
 50
179.99999099999999
 51
269.99999700000001
  0
LINE
  8
_0-0_0
  6
CONTINUOUS
 62
    7
 10
36.916778499999964
 20
449.25
 11
37.416778499999964
 21
449.25
  0
LINE
  8
_0-0_0
  6
CONTINUOUS
 62
    7
 10
36.916778499999964
 20
449.25
 11
37.416778499999964
 21
448.75
  0
LINE
  8
_0-0_0
  6
CONTINUOUS
 62
    7
 10
54.916778499999964
 20
455.95001200000002
 11
54.916778499999964
 21
454.79998799999998
  0
ARC
  8
_0-0_0
  6
CONTINUOUS
 62
    7
 10
52.516784499999972
 20
454.79998799999998
 40
2.3999999999999999
 50
359.58604600000001
 51
0.0000099999999787
  0
LINE
  8
_0-0_0
  6
CONTINUOUS
 62
    7
 10
55.716781499999968
 20
472.15045199999997
 11
55.716781499999968
 21
474.75
  0
LINE
  8
_0-0_0
  6
CONTINUOUS
 62
    7
 10
54.716781499999968
 20
473.04998799999998
 11
54.655471499999976
 21
473.04998799999998
  0
LINE
  8
_0-0_0
  6
CONTINUOUS
 62
    7
 10
54.614150499999937
 20
473.04998799999998
 11
54.611923499999989
 21
473.04998799999998
  0
LINE
  8
_0-0_0
  6
CONTINUOUS
 62
    7
 10
54.416778499999964
 20
449.25
 11
37.416778499999964
 21
449.25
  0
LINE
  8
_0-0_0
  6
CONTINUOUS
 62
    7
 10
54.480255499999998
 20
453.04998799999998
 11
54.517166499999917
 21
452.97976699999998
  0
LINE
  8
_0-0_0
  6
CONTINUOUS
 62
    7
 10
54.517166499999917
 20
452.97976699999998
 11
54.536773499999981
 21
452.94528200000002
  0
LINE
  8
_0-0_0
  6
CONTINUOUS
 62
    7
 10
54.536773499999981
 20
452.94528200000002
 11
54.562866499999927
 21
452.90344199999998
  0
LINE
  8
_0-0_0
  6
CONTINUOUS
 62
    7
 10
54.562866499999927
 20
452.90344199999998
 11
54.576171499999987
 21
452.88439899999997
  0
LINE
  8
_0-0_0
  6
CONTINUOUS
 62
    7
 10
54.576171499999987
 20
452.88439899999997
 11
54.594528499999967
 21
452.86200000000002
  0
LINE
  8
_0-0_0
  6
CONTINUOUS
 62
    7
 10
54.594528499999967
 20
452.86200000000002
 11
54.607314499999916
 21
452.85137900000001
  0
LINE
  8
_0-0_0
  6
CONTINUOUS
 62
    7
 10
54.607314499999916
 20
452.85137900000001
 11
54.611923499999989
 21
452.84997600000003
  0
LINE
  8
_0-0_0
  6
CONTINUOUS
 62
    7
 10
54.614150499999937
 20
452.84997600000003
 11
54.611923499999989
 21
452.84997600000003
  0
LINE
  8
_0-0_0
  6
CONTINUOUS
 62
    7
 10
54.480255499999998
 20
472.84997600000003
 11
54.517166499999917
 21
472.92022700000001
  0
LINE
  8
_0-0_0
  6
CONTINUOUS
 62
    7
 10
54.517166499999917
 20
472.92022700000001
 11
54.536773499999981
 21
472.95468099999999
  0
LINE
  8
_0-0_0
  6
CONTINUOUS
 62
    7
 10
54.536773499999981
 20
472.95468099999999
 11
54.562866499999927
 21
472.99652099999997
  0
LINE
  8
_0-0_0
  6
CONTINUOUS
 62
    7
 10
54.562866499999927
 20
472.99652099999997
 11
54.576171499999987
 21
473.01556399999998
  0
LINE
  8
_0-0_0
  6
CONTINUOUS
 62
    7
 10
54.576171499999987
 20
473.01556399999998
 11
54.594528499999967
 21
473.03796399999999
  0
LINE
  8
_0-0_0
  6
CONTINUOUS
 62
    7
 10
54.594528499999967
 20
473.03796399999999
 11
54.607314499999916
 21
473.04858400000001
  0
LINE
  8
_0-0_0
  6
CONTINUOUS
 62
    7
 10
54.607314499999916
 20
473.04858400000001
 11
54.611923499999989
 21
473.04998799999998
  0
LINE
  8
_0-0_0
  6
CONTINUOUS
 62
    7
 10
54.614150499999937
 20
452.84997600000003
 11
54.655471499999976
 21
452.84997600000003
  0
LINE
  8
_0-0_0
  6
CONTINUOUS
 62
    7
 10
54.716781499999968
 20
452.84997600000003
 11
54.655471499999976
 21
452.84997600000003
  0
LINE
  8
_0-0_0
  6
CONTINUOUS
 62
    7
 10
54.655471499999976
 20
452.84997600000003
 11
54.665023499999961
 21
452.84893799999998
  0
LINE
  8
_0-0_0
  6
CONTINUOUS
 62
    7
 10
54.665023499999961
 20
452.84893799999998
 11
54.674514499999987
 21
452.84576399999997
  0
LINE
  8
_0-0_0
  6
CONTINUOUS
 62
    7
 10
54.674514499999987
 20
452.84576399999997
 11
54.683761499999946
 21
452.84036300000002
  0
LINE
  8
_0-0_0
  6
CONTINUOUS
 62
    7
 10
54.683761499999946
 20
452.84036300000002
 11
54.692565499999944
 21
452.832855
  0
LINE
  8
_0-0_0
  6
CONTINUOUS
 62
    7
 10
54.692565499999944
 20
452.832855
 11
54.707961499999954
 21
452.81222500000001
  0
LINE
  8
_0-0_0
  6
CONTINUOUS
 62
    7
 10
54.707961499999954
 20
452.81222500000001
 11
54.719741499999941
 21
452.784943
  0
LINE
  8
_0-0_0
  6
CONTINUOUS
 62
    7
 10
54.719741499999941
 20
452.784943
 11
54.726928499999985
 21
452.75280800000002
  0
LINE
  8
_0-0_0
  6
CONTINUOUS
 62
    7
 10
54.726928499999985
 20
452.75280800000002
 11
54.728820499999983
 21
452.71774299999998
  0
LINE
  8
_0-0_0
  6
CONTINUOUS
 62
    7
 10
54.728820499999983
 20
452.71774299999998
 11
54.724960499999952
 21
452.68158
  0
LINE
  8
_0-0_0
  6
CONTINUOUS
 62
    7
 10
54.724960499999952
 20
452.68158
 11
54.716781499999968
 21
452.64999399999999
  0
ARC
  8
_0-0_0
  6
CONTINUOUS
 62
    7
 10
52.716781499999968
 20
454.14999399999999
 40
2.2999999999999998
 50
280.28656300000006
 51
325.58260500000006
  0
LINE
  8
_0-0_0
  6
CONTINUOUS
 62
    7
 10
54.416778499999964
 20
449.64999399999999
 11
53.216781499999968
 21
449.64999399999999
  0
LINE
  8
_0-0_0
  6
CONTINUOUS
 62
    7
 10
54.416778499999964
 20
448.75
 11
37.416778499999964
 21
448.75
  0
LINE
  8
_0-0_0
  6
CONTINUOUS
 62
    7
 10
37.716766499999949
 20
465.94998199999998
 11
37.416778499999964
 21
465.94998199999998
  0
ARC
  8
_0-0_0
  6
CONTINUOUS
 62
    7
 10
38.216781499999968
 20
458.14999399999999
 40
0.5
 50
179.99999099999999
 51
269.99999700000001
  0
CIRCLE
  8
_0-0_0
  6
CONTINUOUS
 62
    7
 10
40.216781499999968
 20
454.64999399999999
 40
2.5
  0
LINE
  8
_0-0_0
  6
CONTINUOUS
 62
    7
 10
43.216781499999968
 20
452.14999399999999
 11
40.216781499999968
 21
452.14999399999999
  0
LINE
  8
_0-0_0
  6
CONTINUOUS
 62
    7
 10
43.716781499999968
 20
452.14999399999999
 11
43.216781499999968
 21
452.14999399999999
  0
ARC
  8
_0-0_0
  6
CONTINUOUS
 62
    7
 10
39.716781499999968
 20
454.14999399999999
 40
2
 50
179.99999099999999
 51
269.99999700000001
  0
LINE
  8
_0-0_0
  6
CONTINUOUS
 62
    7
 10
40.216781499999968
 20
452.14999399999999
 11
39.716781499999968
 21
452.14999399999999
  0
LINE
  8
_0-0_0
  6
CONTINUOUS
 62
    7
 10
39.716781499999968
 20
473.64733899999999
 11
39.700897499999996
 21
473.67459100000002
  0
LINE
  8
_0-0_0
  6
CONTINUOUS
 62
    7
 10
39.700897499999996
 20
473.67459100000002
 11
39.685058499999968
 21
473.69757099999998
  0
LINE
  8
_0-0_0
  6
CONTINUOUS
 62
    7
 10
39.685058499999968
 20
473.69757099999998
 11
39.671081499999957
 21
473.71432499999997
  0
LINE
  8
_0-0_0
  6
CONTINUOUS
 62
    7
 10
39.671081499999957
 20
473.71432499999997
 11
39.657180499999981
 21
473.72766100000001
  0
LINE
  8
_0-0_0
  6
CONTINUOUS
 62
    7
 10
39.657180499999981
 20
473.72766100000001
 11
39.644958499999916
 21
473.736603
  0
LINE
  8
_0-0_0
  6
CONTINUOUS
 62
    7
 10
39.644958499999916
 20
473.736603
 11
39.632842499999924
 21
473.74279799999999
  0
LINE
  8
_0-0_0
  6
CONTINUOUS
 62
    7
 10
39.632842499999924
 20
473.74279799999999
 11
39.621978499999955
 21
473.74609400000003
  0
LINE
  8
_0-0_0
  6
CONTINUOUS
 62
    7
 10
39.621978499999955
 20
473.74609400000003
 11
39.611221499999942
 21
473.74713100000002
  0
LINE
  8
_0-0_0
  6
CONTINUOUS
 62
    7
 10
39.611221499999942
 20
473.74713100000002
 11
39.608749499999931
 21
473.74707000000001
  0
LINE
  8
_0-0_0
  6
CONTINUOUS
 62
    7
 10
54.716781499999968
 20
471.25
 11
54.716781499999968
 21
471.75
  0
CIRCLE
  8
_0-0_0
  6
CONTINUOUS
 62
    7
 10
52.216781499999968
 20
471.25
 40
2.5
  0
LINE
  8
_0-0_0
  6
CONTINUOUS
 62
    7
 10
54.716781499999968
 20
468.25
 11
54.716781499999968
 21
467.75
  0
LINE
  8
_0-0_0
  6
CONTINUOUS
 62
    7
 10
54.716781499999968
 20
468.25
 11
54.716781499999968
 21
471.25
  0
ARC
  8
_0-0_0
  6
CONTINUOUS
 62
    7
 10
48.716781499999968
 20
473.25
 40
0.5
 50
0
 51
90.000003000000007
  0
LINE
  8
_0-0_0
  6
CONTINUOUS
 62
    7
 10
54.716781499999968
 20
454.14999399999999
 11
54.716781499999968
 21
467.75
  0
LINE
  8
_0-0_0
  6
CONTINUOUS
 62
    7
 10
36.716781499999968
 20
474.75
 11
36.716781499999968
 21
472.15045199999997
  0
LINE
  8
_0-0_0
  6
CONTINUOUS
 62
    7
 10
37.416778499999964
 20
459.94998199999998
 11
37.716766499999949
 21
459.94998199999998
  0
LINE
  8
_0-0_0
  6
CONTINUOUS
 62
    7
 10
54.916778499999964
 20
475.550049
 11
54.916778499999964
 21
475.75
  0
ARC
  8
_0-0_0
  6
CONTINUOUS
 62
    7
 10
52.716781499999968
 20
454.14999399999999
 40
2
 50
273.84026500000004
 51
0.000010000000014
  0
LINE
  8
_0-0_0
  6
CONTINUOUS
 62
    7
 10
52.716781499999968
 20
452.14999399999999
 11
43.716781499999968
 21
452.14999399999999
  0
ARC
  8
_0-0_0
  6
CONTINUOUS
 62
    7
 10
53.216781499999968
 20
451.39498900000001
 40
0.5
 50
100.28656100000001
 51
179.99999099999999
  0
LINE
  8
_0-0_0
  6
CONTINUOUS
 62
    7
 10
52.716781499999968
 20
450.14999399999999
 11
52.716781499999968
 21
451.39498900000001
  0
ARC
  8
_0-0_0
  6
CONTINUOUS
 62
    7
 10
53.216781499999968
 20
450.14999399999999
 40
0.5
 50
179.99999099999999
 51
269.99999700000001
  0
LINE
  8
_0-0_0
  6
CONTINUOUS
 62
    7
 10
38.293762499999957
 20
457.64999399999999
 11
38.216781499999968
 21
457.64999399999999
  0
LINE
  8
_0-0_0
  6
CONTINUOUS
 62
    7
 10
40.216781499999968
 20
457.64999399999999
 11
39.735275499999943
 21
457.64999399999999
  0
LINE
  8
_0-0_0
  6
CONTINUOUS
 62
    7
 10
39.735275499999943
 20
457.64999399999999
 11
38.293762499999957
 21
457.64999399999999
  0
LINE
  8
_0-0_0
  6
CONTINUOUS
 62
    7
 10
43.216781499999968
 20
452.64999399999999
 11
43.216781499999968
 21
452.72695900000002
  0
LINE
  8
_0-0_0
  6
CONTINUOUS
 62
    7
 10
43.216781499999968
 20
454.16848800000002
 11
43.216781499999968
 21
452.72695900000002
  0
LINE
  8
_0-0_0
  6
CONTINUOUS
 62
    7
 10
43.216781499999968
 20
454.16848800000002
 11
43.216781499999968
 21
454.64999399999999
  0
ARC
  8
_0-0_0
  6
CONTINUOUS
 62
    7
 10
40.216781499999968
 20
454.64999399999999
 40
3
 50
0
 51
89.999995999999996
  0
ARC
  8
_0-0_0
  6
CONTINUOUS
 62
    7
 10
43.716781499999968
 20
452.64999399999999
 40
0.5
 50
179.99999099999999
 51
269.99999700000001
  0
LINE
  8
_0-0_0
  6
CONTINUOUS
 62
    7
 10
49.216781499999968
 20
473.17300399999999
 11
49.216781499999968
 21
473.25
  0
LINE
  8
_0-0_0
  6
CONTINUOUS
 62
    7
 10
49.216781499999968
 20
471.73147599999999
 11
49.216781499999968
 21
473.17300399999999
  0
LINE
  8
_0-0_0
  6
CONTINUOUS
 62
    7
 10
49.216781499999968
 20
471.25
 11
49.216781499999968
 21
471.73147599999999
  0
ARC
  8
_0-0_0
  6
CONTINUOUS
 62
    7
 10
52.216781499999968
 20
471.25
 40
3
 50
179.99999099999999
 51
269.99999700000001
  0
LINE
  8
_0-0_0
  6
CONTINUOUS
 62
    7
 10
52.698287499999992
 20
468.25
 11
52.216781499999968
 21
468.25
  0
LINE
  8
_0-0_0
  6
CONTINUOUS
 62
    7
 10
52.698287499999992
 20
468.25
 11
54.139800499999978
 21
468.25
  0
LINE
  8
_0-0_0
  6
CONTINUOUS
 62
    7
 10
54.216781499999968
 20
468.25
 11
54.139800499999978
 21
468.25
  0
ARC
  8
_0-0_0
  6
CONTINUOUS
 62
    7
 10
54.216781499999968
 20
467.75
 40
0.5
 50
0
 51
90.000003000000007
  0
LINE
  8
_0-0_0
  6
CONTINUOUS
 62
    7
 10
52.716781499999968
 20
452.25262500000002
 11
52.732665499999939
 21
452.22537199999999
  0
LINE
  8
_0-0_0
  6
CONTINUOUS
 62
    7
 10
52.732665499999939
 20
452.22537199999999
 11
52.748504499999967
 21
452.20239299999997
  0
LINE
  8
_0-0_0
  6
CONTINUOUS
 62
    7
 10
52.748504499999967
 20
452.20239299999997
 11
52.762481499999922
 21
452.18563799999998
  0
LINE
  8
_0-0_0
  6
CONTINUOUS
 62
    7
 10
52.762481499999922
 20
452.18563799999998
 11
52.776382499999954
 21
452.172302
  0
LINE
  8
_0-0_0
  6
CONTINUOUS
 62
    7
 10
52.776382499999954
 20
452.172302
 11
52.788604499999963
 21
452.16339099999999
  0
LINE
  8
_0-0_0
  6
CONTINUOUS
 62
    7
 10
52.788604499999963
 20
452.16339099999999
 11
52.800720499999954
 21
452.15716600000002
  0
LINE
  8
_0-0_0
  6
CONTINUOUS
 62
    7
 10
52.800720499999954
 20
452.15716600000002
 11
52.811584499999981
 21
452.15390000000002
  0
LINE
  8
_0-0_0
  6
CONTINUOUS
 62
    7
 10
52.811584499999981
 20
452.15390000000002
 11
52.822341499999993
 21
452.15283199999999
  0
LINE
  8
_0-0_0
  6
CONTINUOUS
 62
    7
 10
52.822341499999993
 20
452.15283199999999
 11
52.824813499999948
 21
452.15289300000001
  0
ARC
  8
_0-0_0
  6
CONTINUOUS
 62
    7
 10
42.986663499999963
 20
461.77673299999998
 40
3.063399
 50
199.82113599999997
 51
205.28948099999999
  0
ARC
  8
_0-0_0
  6
CONTINUOUS
 62
    7
 10
42.986343499999975
 20
464.12335200000001
 40
3.0630549999999999
 50
154.710137
 51
160.17869999999999
  0
ARC
  8
_0-0_0
  6
CONTINUOUS
 62
    7
 10
46.216781499999968
 20
462.94998199999998
 40
6.5
 50
160.10415599999999
 51
199.895612
  0
ARC
  8
_0-0_0
  6
CONTINUOUS
 62
    7
 10
49.446899499999972
 20
464.12322999999998
 40
3.0633949999999999
 50
19.82113
 51
25.289566000000001
  0
ARC
  8
_0-0_0
  6
CONTINUOUS
 62
    7
 10
49.44721949999996
 20
461.776611
 40
3.0630519999999999
 50
334.71006
 51
340.17869200000001
  0
LINE
  8
_0-0_0
  6
CONTINUOUS
 62
    7
 10
46.958450499999969
 20
456.44998199999998
 11
51.475112499999966
 21
459.05767800000001
  0
LINE
  8
_0-0_0
  6
CONTINUOUS
 62
    7
 10
45.475112499999966
 20
456.44998199999998
 11
46.958450499999969
 21
456.44998199999998
  0
LINE
  8
_0-0_0
  6
CONTINUOUS
 62
    7
 10
40.958450499999969
 20
459.05767800000001
 11
45.475112499999966
 21
456.44998199999998
  0
LINE
  8
_0-0_0
  6
CONTINUOUS
 62
    7
 10
40.216781499999968
 20
465.55767800000001
 11
40.216781499999968
 21
460.342285
  0
LINE
  8
_0-0_0
  6
CONTINUOUS
 62
    7
 10
40.958450499999969
 20
459.05767800000001
 11
40.216781499999968
 21
460.342285
  0
LINE
  8
_0-0_0
  6
CONTINUOUS
 62
    7
 10
45.475112499999966
 20
469.44998199999998
 11
40.958450499999969
 21
466.842285
  0
LINE
  8
_0-0_0
  6
CONTINUOUS
 62
    7
 10
40.664321499999971
 20
466.332855
 11
40.216781499999968
 21
465.55767800000001
  0
LINE
  8
_0-0_0
  6
CONTINUOUS
 62
    7
 10
40.664321499999971
 20
466.332855
 11
40.958450499999969
 21
466.842285
  0
LINE
  8
_0-0_0
  6
CONTINUOUS
 62
    7
 10
46.958450499999969
 20
469.44998199999998
 11
45.475112499999966
 21
469.44998199999998
  0
LINE
  8
_0-0_0
  6
CONTINUOUS
 62
    7
 10
51.475112499999966
 20
466.842285
 11
46.958450499999969
 21
469.44998199999998
  0
ARC
  8
_0-0_0
  6
CONTINUOUS
 62
    7
 10
46.216781499999968
 20
462.94998199999998
 40
6.5
 50
340.10416099999998
 51
19.895609999999952
  0
LINE
  8
_0-0_0
  6
CONTINUOUS
 62
    7
 10
51.769241499999964
 20
459.56710800000002
 11
52.216781499999968
 21
460.342285
  0
LINE
  8
_0-0_0
  6
CONTINUOUS
 62
    7
 10
51.769241499999964
 20
459.56710800000002
 11
51.475112499999966
 21
459.05767800000001
  0
CIRCLE
  8
_0-0_0
  6
CONTINUOUS
 62
    7
 10
46.216781499999968
 20
462.94998199999998
 40
5.25
  0
LINE
  8
_0-0_0
  6
CONTINUOUS
 62
    7
 10
52.216781499999968
 20
465.55767800000001
 11
52.216781499999968
 21
460.342285
  0
LINE
  8
_0-0_0
  6
CONTINUOUS
 62
    7
 10
51.475112499999966
 20
466.842285
 11
52.216781499999968
 21
465.55767800000001
  0
LINE
  8
_0-0_0
  6
CONTINUOUS
 62
    7
 10
54.103790499999945
 20
472.47543300000001
 11
54.381851499999925
 21
472.5
  0
LINE
  8
_0-0_0
  6
CONTINUOUS
 62
    7
 10
54.221542499999941
 20
472.27145400000001
 11
54.381851499999925
 21
472.5
  0
LINE
  8
_0-0_0
  6
CONTINUOUS
 62
    7
 10
53.965362499999969
 20
472.665955
 11
54.239318499999968
 21
472.71945199999999
  0
LINE
  8
_0-0_0
  6
CONTINUOUS
 62
    7
 10
54.103790499999945
 20
472.47543300000001
 11
54.239318499999968
 21
472.71945199999999
  0
LINE
  8
_0-0_0
  6
CONTINUOUS
 62
    7
 10
53.807769499999949
 20
472.84097300000002
 11
54.074645499999974
 21
472.922821
  0
LINE
  8
_0-0_0
  6
CONTINUOUS
 62
    7
 10
53.965362499999969
 20
472.665955
 11
54.074645499999974
 21
472.922821
  0
LINE
  8
_0-0_0
  6
CONTINUOUS
 62
    7
 10
53.632751499999927
 20
472.99856599999998
 11
53.889602499999967
 21
473.10784899999999
  0
LINE
  8
_0-0_0
  6
CONTINUOUS
 62
    7
 10
53.807769499999949
 20
472.84097300000002
 11
53.889602499999967
 21
473.10784899999999
  0
LINE
  8
_0-0_0
  6
CONTINUOUS
 62
    7
 10
53.442214499999977
 20
473.13699300000002
 11
53.68624849999992
 21
473.27252199999998
  0
LINE
  8
_0-0_0
  6
CONTINUOUS
 62
    7
 10
53.632751499999927
 20
472.99856599999998
 11
53.68624849999992
 21
473.27252199999998
  0
LINE
  8
_0-0_0
  6
CONTINUOUS
 62
    7
 10
53.238265499999954
 20
473.25476099999997
 11
53.466781499999968
 21
473.41503899999998
  0
LINE
  8
_0-0_0
  6
CONTINUOUS
 62
    7
 10
53.442214499999977
 20
473.13699300000002
 11
53.466781499999968
 21
473.41503899999998
  0
LINE
  8
_0-0_0
  6
CONTINUOUS
 62
    7
 10
53.023116499999958
 20
473.350525
 11
53.233627499999955
 21
473.53384399999999
  0
LINE
  8
_0-0_0
  6
CONTINUOUS
 62
    7
 10
53.238265499999954
 20
473.25476099999997
 11
53.233627499999955
 21
473.53384399999999
  0
LINE
  8
_0-0_0
  6
CONTINUOUS
 62
    7
 10
52.799117499999966
 20
473.42330900000002
 11
52.989318499999968
 21
473.62762500000002
  0
LINE
  8
_0-0_0
  6
CONTINUOUS
 62
    7
 10
53.023116499999958
 20
473.350525
 11
52.989318499999968
 21
473.62762500000002
  0
LINE
  8
_0-0_0
  6
CONTINUOUS
 62
    7
 10
52.568755499999952
 20
473.47228999999999
 11
52.736556499999949
 21
473.69534299999998
  0
LINE
  8
_0-0_0
  6
CONTINUOUS
 62
    7
 10
52.799117499999966
 20
473.42330900000002
 11
52.736556499999949
 21
473.69534299999998
  0
LINE
  8
_0-0_0
  6
CONTINUOUS
 62
    7
 10
52.334533499999964
 20
473.49688700000002
 11
52.478103499999975
 21
473.73629799999998
  0
LINE
  8
_0-0_0
  6
CONTINUOUS
 62
    7
 10
52.568755499999952
 20
473.47228999999999
 11
52.478103499999975
 21
473.73629799999998
  0
LINE
  8
_0-0_0
  6
CONTINUOUS
 62
    7
 10
52.099029499999915
 20
473.49688700000002
 11
52.216781499999968
 21
473.75
  0
LINE
  8
_0-0_0
  6
CONTINUOUS
 62
    7
 10
52.334533499999964
 20
473.49688700000002
 11
52.216781499999968
 21
473.75
  0
LINE
  8
_0-0_0
  6
CONTINUOUS
 62
    7
 10
51.864807499999984
 20
473.47228999999999
 11
51.955459499999961
 21
473.73629799999998
  0
LINE
  8
_0-0_0
  6
CONTINUOUS
 62
    7
 10
52.099029499999915
 20
473.49688700000002
 11
51.955459499999961
 21
473.73629799999998
  0
LINE
  8
_0-0_0
  6
CONTINUOUS
 62
    7
 10
51.63444549999997
 20
473.42330900000002
 11
51.697006499999929
 21
473.69534299999998
  0
LINE
  8
_0-0_0
  6
CONTINUOUS
 62
    7
 10
51.864807499999984
 20
473.47228999999999
 11
51.697006499999929
 21
473.69534299999998
  0
LINE
  8
_0-0_0
  6
CONTINUOUS
 62
    7
 10
51.410446499999921
 20
473.350525
 11
51.444244499999968
 21
473.62762500000002
  0
LINE
  8
_0-0_0
  6
CONTINUOUS
 62
    7
 10
51.63444549999997
 20
473.42330900000002
 11
51.444244499999968
 21
473.62762500000002
  0
LINE
  8
_0-0_0
  6
CONTINUOUS
 62
    7
 10
51.195297499999924
 20
473.25476099999997
 11
51.199935499999924
 21
473.53384399999999
  0
LINE
  8
_0-0_0
  6
CONTINUOUS
 62
    7
 10
51.410446499999921
 20
473.350525
 11
51.199935499999924
 21
473.53384399999999
  0
LINE
  8
_0-0_0
  6
CONTINUOUS
 62
    7
 10
51.075759499999947
 20
473.338593
 11
50.966781499999968
 21
473.41503899999998
  0
LINE
  8
_0-0_0
  6
CONTINUOUS
 62
    7
 10
51.195297499999924
 20
473.25476099999997
 11
51.075759499999947
 21
473.338593
  0
LINE
  8
_0-0_0
  6
CONTINUOUS
 62
    7
 10
50.991348499999958
 20
473.13699300000002
 11
50.966781499999968
 21
473.41503899999998
  0
LINE
  8
_0-0_0
  6
CONTINUOUS
 62
    7
 10
50.800811499999952
 20
472.99856599999998
 11
50.747314499999959
 21
473.27252199999998
  0
LINE
  8
_0-0_0
  6
CONTINUOUS
 62
    7
 10
50.991348499999958
 20
473.13699300000002
 11
50.747314499999959
 21
473.27252199999998
  0
LINE
  8
_0-0_0
  6
CONTINUOUS
 62
    7
 10
50.625793499999986
 20
472.84097300000002
 11
50.543960499999969
 21
473.10784899999999
  0
LINE
  8
_0-0_0
  6
CONTINUOUS
 62
    7
 10
50.800811499999952
 20
472.99856599999998
 11
50.543960499999969
 21
473.10784899999999
  0
LINE
  8
_0-0_0
  6
CONTINUOUS
 62
    7
 10
50.468200499999966
 20
472.665955
 11
50.358917499999961
 21
472.922821
  0
LINE
  8
_0-0_0
  6
CONTINUOUS
 62
    7
 10
50.625793499999986
 20
472.84097300000002
 11
50.358917499999961
 21
472.922821
  0
LINE
  8
_0-0_0
  6
CONTINUOUS
 62
    7
 10
50.32977249999999
 20
472.47543300000001
 11
50.194244499999968
 21
472.71945199999999
  0
LINE
  8
_0-0_0
  6
CONTINUOUS
 62
    7
 10
50.468200499999966
 20
472.665955
 11
50.194244499999968
 21
472.71945199999999
  0
LINE
  8
_0-0_0
  6
CONTINUOUS
 62
    7
 10
50.212020499999994
 20
472.27145400000001
 11
50.051711499999954
 21
472.5
  0
LINE
  8
_0-0_0
  6
CONTINUOUS
 62
    7
 10
50.32977249999999
 20
472.47543300000001
 11
50.051711499999954
 21
472.5
  0
LINE
  8
_0-0_0
  6
CONTINUOUS
 62
    7
 10
50.116226499999925
 20
472.05630500000001
 11
49.932922499999961
 21
472.26681500000001
  0
LINE
  8
_0-0_0
  6
CONTINUOUS
 62
    7
 10
50.212020499999994
 20
472.27145400000001
 11
49.932922499999961
 21
472.26681500000001
  0
LINE
  8
_0-0_0
  6
CONTINUOUS
 62
    7
 10
50.043441499999972
 20
471.832336
 11
49.839141499999982
 21
472.02252199999998
  0
LINE
  8
_0-0_0
  6
CONTINUOUS
 62
    7
 10
50.116226499999925
 20
472.05630500000001
 11
49.839141499999982
 21
472.02252199999998
  0
LINE
  8
_0-0_0
  6
CONTINUOUS
 62
    7
 10
49.994476499999962
 20
471.60195900000002
 11
49.771407499999953
 21
471.76977499999998
  0
LINE
  8
_0-0_0
  6
CONTINUOUS
 62
    7
 10
50.043441499999972
 20
471.832336
 11
49.771407499999953
 21
471.76977499999998
  0
LINE
  8
_0-0_0
  6
CONTINUOUS
 62
    7
 10
49.994476499999962
 20
471.60195900000002
 11
49.730483499999991
 21
471.51129200000003
  0
LINE
  8
_0-0_0
  6
CONTINUOUS
 62
    7
 10
49.969863499999974
 20
471.36773699999998
 11
49.730483499999991
 21
471.51129200000003
  0
LINE
  8
_0-0_0
  6
CONTINUOUS
 62
    7
 10
49.969863499999974
 20
471.13223299999999
 11
49.716781499999968
 21
471.25
  0
LINE
  8
_0-0_0
  6
CONTINUOUS
 62
    7
 10
49.969863499999974
 20
471.36773699999998
 11
49.716781499999968
 21
471.25
  0
LINE
  8
_0-0_0
  6
CONTINUOUS
 62
    7
 10
49.994476499999962
 20
470.89801
 11
49.730483499999991
 21
470.98864700000001
  0
LINE
  8
_0-0_0
  6
CONTINUOUS
 62
    7
 10
49.969863499999974
 20
471.13223299999999
 11
49.730483499999991
 21
470.98864700000001
  0
LINE
  8
_0-0_0
  6
CONTINUOUS
 62
    7
 10
50.043441499999972
 20
470.66763300000002
 11
49.771407499999953
 21
470.73019399999998
  0
LINE
  8
_0-0_0
  6
CONTINUOUS
 62
    7
 10
49.994476499999962
 20
470.89801
 11
49.771407499999953
 21
470.73019399999998
  0
LINE
  8
_0-0_0
  6
CONTINUOUS
 62
    7
 10
50.116226499999925
 20
470.44366500000001
 11
49.839141499999982
 21
470.47744799999998
  0
LINE
  8
_0-0_0
  6
CONTINUOUS
 62
    7
 10
50.043441499999972
 20
470.66763300000002
 11
49.839141499999982
 21
470.47744799999998
  0
LINE
  8
_0-0_0
  6
CONTINUOUS
 62
    7
 10
50.212020499999994
 20
470.22851600000001
 11
49.932922499999961
 21
470.23315400000001
  0
LINE
  8
_0-0_0
  6
CONTINUOUS
 62
    7
 10
50.116226499999925
 20
470.44366500000001
 11
49.932922499999961
 21
470.23315400000001
  0
LINE
  8
_0-0_0
  6
CONTINUOUS
 62
    7
 10
50.32977249999999
 20
470.02453600000001
 11
50.051711499999954
 21
470
  0
LINE
  8
_0-0_0
  6
CONTINUOUS
 62
    7
 10
50.212020499999994
 20
470.22851600000001
 11
50.051711499999954
 21
470
  0
LINE
  8
_0-0_0
  6
CONTINUOUS
 62
    7
 10
50.468200499999966
 20
469.83401500000002
 11
50.194244499999968
 21
469.78051799999997
  0
LINE
  8
_0-0_0
  6
CONTINUOUS
 62
    7
 10
50.32977249999999
 20
470.02453600000001
 11
50.194244499999968
 21
469.78051799999997
  0
LINE
  8
_0-0_0
  6
CONTINUOUS
 62
    7
 10
50.625793499999986
 20
469.658997
 11
50.358917499999961
 21
469.57714800000002
  0
LINE
  8
_0-0_0
  6
CONTINUOUS
 62
    7
 10
50.468200499999966
 20
469.83401500000002
 11
50.358917499999961
 21
469.57714800000002
  0
LINE
  8
_0-0_0
  6
CONTINUOUS
 62
    7
 10
50.800811499999952
 20
469.50140399999998
 11
50.543960499999969
 21
469.39211999999998
  0
LINE
  8
_0-0_0
  6
CONTINUOUS
 62
    7
 10
50.625793499999986
 20
469.658997
 11
50.543960499999969
 21
469.39211999999998
  0
LINE
  8
_0-0_0
  6
CONTINUOUS
 62
    7
 10
50.991348499999958
 20
469.362976
 11
50.747314499999959
 21
469.22744799999998
  0
LINE
  8
_0-0_0
  6
CONTINUOUS
 62
    7
 10
50.800811499999952
 20
469.50140399999998
 11
50.747314499999959
 21
469.22744799999998
  0
LINE
  8
_0-0_0
  6
CONTINUOUS
 62
    7
 10
51.195297499999924
 20
469.24520899999999
 11
50.966781499999968
 21
469.08492999999999
  0
LINE
  8
_0-0_0
  6
CONTINUOUS
 62
    7
 10
50.991348499999958
 20
469.362976
 11
50.966781499999968
 21
469.08492999999999
  0
LINE
  8
_0-0_0
  6
CONTINUOUS
 62
    7
 10
51.410446499999921
 20
469.14941399999998
 11
51.199935499999924
 21
468.96612499999998
  0
LINE
  8
_0-0_0
  6
CONTINUOUS
 62
    7
 10
51.195297499999924
 20
469.24520899999999
 11
51.199935499999924
 21
468.96612499999998
  0
LINE
  8
_0-0_0
  6
CONTINUOUS
 62
    7
 10
51.63444549999997
 20
469.07666
 11
51.444244499999968
 21
468.872345
  0
LINE
  8
_0-0_0
  6
CONTINUOUS
 62
    7
 10
51.410446499999921
 20
469.14941399999998
 11
51.444244499999968
 21
468.872345
  0
LINE
  8
_0-0_0
  6
CONTINUOUS
 62
    7
 10
51.864807499999984
 20
469.02767899999998
 11
51.697006499999929
 21
468.80462599999998
  0
LINE
  8
_0-0_0
  6
CONTINUOUS
 62
    7
 10
51.63444549999997
 20
469.07666
 11
51.697006499999929
 21
468.80462599999998
  0
LINE
  8
_0-0_0
  6
CONTINUOUS
 62
    7
 10
52.099029499999915
 20
469.00305200000003
 11
51.955459499999961
 21
468.76367199999999
  0
LINE
  8
_0-0_0
  6
CONTINUOUS
 62
    7
 10
51.864807499999984
 20
469.02767899999998
 11
51.955459499999961
 21
468.76367199999999
  0
LINE
  8
_0-0_0
  6
CONTINUOUS
 62
    7
 10
52.334533499999964
 20
469.00305200000003
 11
52.216781499999968
 21
468.75
  0
LINE
  8
_0-0_0
  6
CONTINUOUS
 62
    7
 10
52.099029499999915
 20
469.00305200000003
 11
52.216781499999968
 21
468.75
  0
LINE
  8
_0-0_0
  6
CONTINUOUS
 62
    7
 10
52.568755499999952
 20
469.02767899999998
 11
52.478103499999975
 21
468.76367199999999
  0
LINE
  8
_0-0_0
  6
CONTINUOUS
 62
    7
 10
52.334533499999964
 20
469.00305200000003
 11
52.478103499999975
 21
468.76367199999999
  0
LINE
  8
_0-0_0
  6
CONTINUOUS
 62
    7
 10
52.799117499999966
 20
469.07666
 11
52.736556499999949
 21
468.80462599999998
  0
LINE
  8
_0-0_0
  6
CONTINUOUS
 62
    7
 10
52.568755499999952
 20
469.02767899999998
 11
52.736556499999949
 21
468.80462599999998
  0
LINE
  8
_0-0_0
  6
CONTINUOUS
 62
    7
 10
53.023116499999958
 20
469.14941399999998
 11
52.989318499999968
 21
468.872345
  0
LINE
  8
_0-0_0
  6
CONTINUOUS
 62
    7
 10
52.799117499999966
 20
469.07666
 11
52.989318499999968
 21
468.872345
  0
LINE
  8
_0-0_0
  6
CONTINUOUS
 62
    7
 10
53.238265499999954
 20
469.24520899999999
 11
53.233627499999955
 21
468.96612499999998
  0
LINE
  8
_0-0_0
  6
CONTINUOUS
 62
    7
 10
53.023116499999958
 20
469.14941399999998
 11
53.233627499999955
 21
468.96612499999998
  0
LINE
  8
_0-0_0
  6
CONTINUOUS
 62
    7
 10
53.357803499999932
 20
469.16137700000002
 11
53.466781499999968
 21
469.08492999999999
  0
LINE
  8
_0-0_0
  6
CONTINUOUS
 62
    7
 10
53.238265499999954
 20
469.24520899999999
 11
53.357803499999932
 21
469.16137700000002
  0
LINE
  8
_0-0_0
  6
CONTINUOUS
 62
    7
 10
53.442214499999977
 20
469.362976
 11
53.466781499999968
 21
469.08492999999999
  0
LINE
  8
_0-0_0
  6
CONTINUOUS
 62
    7
 10
53.632751499999927
 20
469.50140399999998
 11
53.68624849999992
 21
469.22744799999998
  0
LINE
  8
_0-0_0
  6
CONTINUOUS
 62
    7
 10
53.442214499999977
 20
469.362976
 11
53.68624849999992
 21
469.22744799999998
  0
LINE
  8
_0-0_0
  6
CONTINUOUS
 62
    7
 10
53.807769499999949
 20
469.658997
 11
53.889602499999967
 21
469.39211999999998
  0
LINE
  8
_0-0_0
  6
CONTINUOUS
 62
    7
 10
53.632751499999927
 20
469.50140399999998
 11
53.889602499999967
 21
469.39211999999998
  0
LINE
  8
_0-0_0
  6
CONTINUOUS
 62
    7
 10
53.965362499999969
 20
469.83401500000002
 11
54.074645499999974
 21
469.57714800000002
  0
LINE
  8
_0-0_0
  6
CONTINUOUS
 62
    7
 10
53.807769499999949
 20
469.658997
 11
54.074645499999974
 21
469.57714800000002
  0
LINE
  8
_0-0_0
  6
CONTINUOUS
 62
    7
 10
54.103790499999945
 20
470.02453600000001
 11
54.239318499999968
 21
469.78051799999997
  0
LINE
  8
_0-0_0
  6
CONTINUOUS
 62
    7
 10
53.965362499999969
 20
469.83401500000002
 11
54.239318499999968
 21
469.78051799999997
  0
LINE
  8
_0-0_0
  6
CONTINUOUS
 62
    7
 10
54.221542499999941
 20
470.22851600000001
 11
54.381851499999925
 21
470
  0
LINE
  8
_0-0_0
  6
CONTINUOUS
 62
    7
 10
54.103790499999945
 20
470.02453600000001
 11
54.381851499999925
 21
470
  0
LINE
  8
_0-0_0
  6
CONTINUOUS
 62
    7
 10
54.317336499999954
 20
470.44366500000001
 11
54.500640499999918
 21
470.23315400000001
  0
LINE
  8
_0-0_0
  6
CONTINUOUS
 62
    7
 10
54.221542499999941
 20
470.22851600000001
 11
54.500640499999918
 21
470.23315400000001
  0
LINE
  8
_0-0_0
  6
CONTINUOUS
 62
    7
 10
54.390121499999964
 20
470.66763300000002
 11
54.594421499999953
 21
470.47744799999998
  0
LINE
  8
_0-0_0
  6
CONTINUOUS
 62
    7
 10
54.317336499999954
 20
470.44366500000001
 11
54.594421499999953
 21
470.47744799999998
  0
LINE
  8
_0-0_0
  6
CONTINUOUS
 62
    7
 10
54.439086499999917
 20
470.89801
 11
54.662155499999926
 21
470.73019399999998
  0
LINE
  8
_0-0_0
  6
CONTINUOUS
 62
    7
 10
54.390121499999964
 20
470.66763300000002
 11
54.662155499999926
 21
470.73019399999998
  0
LINE
  8
_0-0_0
  6
CONTINUOUS
 62
    7
 10
54.463699499999962
 20
471.13223299999999
 11
54.703079499999944
 21
470.98864700000001
  0
LINE
  8
_0-0_0
  6
CONTINUOUS
 62
    7
 10
54.439086499999917
 20
470.89801
 11
54.703079499999944
 21
470.98864700000001
  0
LINE
  8
_0-0_0
  6
CONTINUOUS
 62
    7
 10
54.463699499999962
 20
471.36773699999998
 11
54.716781499999968
 21
471.25
  0
LINE
  8
_0-0_0
  6
CONTINUOUS
 62
    7
 10
54.463699499999962
 20
471.13223299999999
 11
54.716781499999968
 21
471.25
  0
LINE
  8
_0-0_0
  6
CONTINUOUS
 62
    7
 10
54.439086499999917
 20
471.60195900000002
 11
54.703079499999944
 21
471.51129200000003
  0
LINE
  8
_0-0_0
  6
CONTINUOUS
 62
    7
 10
54.463699499999962
 20
471.36773699999998
 11
54.703079499999944
 21
471.51129200000003
  0
LINE
  8
_0-0_0
  6
CONTINUOUS
 62
    7
 10
54.390121499999964
 20
471.832336
 11
54.662155499999926
 21
471.76977499999998
  0
LINE
  8
_0-0_0
  6
CONTINUOUS
 62
    7
 10
54.439086499999917
 20
471.60195900000002
 11
54.662155499999926
 21
471.76977499999998
  0
LINE
  8
_0-0_0
  6
CONTINUOUS
 62
    7
 10
54.317336499999954
 20
472.05630500000001
 11
54.594421499999953
 21
472.02252199999998
  0
LINE
  8
_0-0_0
  6
CONTINUOUS
 62
    7
 10
54.390121499999964
 20
471.832336
 11
54.594421499999953
 21
472.02252199999998
  0
LINE
  8
_0-0_0
  6
CONTINUOUS
 62
    7
 10
54.221542499999941
 20
472.27145400000001
 11
54.500640499999918
 21
472.26681500000001
  0
LINE
  8
_0-0_0
  6
CONTINUOUS
 62
    7
 10
54.317336499999954
 20
472.05630500000001
 11
54.500640499999918
 21
472.26681500000001
  0
CIRCLE
  8
_0-0_0
  6
CONTINUOUS
 62
    7
 10
52.216781499999968
 20
471.25
 40
2
  0
CIRCLE
  8
_0-0_0
  6
CONTINUOUS
 62
    7
 10
46.216781499999968
 20
462.94998199999998
 40
5
  0
LINE
  8
_0-0_0
  6
CONTINUOUS
 62
    7
 10
52.798889499999973
 20
470.25
 11
51.634673499999963
 21
470.25
  0
LINE
  8
_0-0_0
  6
CONTINUOUS
 62
    7
 10
51.634673499999963
 20
470.25
 11
51.066787499999919
 21
471.25
  0
LINE
  8
_0-0_0
  6
CONTINUOUS
 62
    7
 10
51.066787499999919
 20
471.25
 11
51.634673499999963
 21
472.25
  0
LINE
  8
_0-0_0
  6
CONTINUOUS
 62
    7
 10
51.634673499999963
 20
472.25
 11
52.798889499999973
 21
472.25
  0
LINE
  8
_0-0_0
  6
CONTINUOUS
 62
    7
 10
52.798889499999973
 20
472.25
 11
53.36677549999996
 21
471.25
  0
LINE
  8
_0-0_0
  6
CONTINUOUS
 62
    7
 10
53.36677549999996
 20
471.25
 11
52.798889499999973
 21
470.25
  0
CIRCLE
  8
_0-0_0
  6
CONTINUOUS
 62
    7
 10
46.216781499999968
 20
462.94998199999998
 40
4.5381200000000002
  0
CIRCLE
  8
_0-0_0
  6
CONTINUOUS
 62
    7
 10
46.216781499999968
 20
462.94998199999998
 40
4
  0
LINE
  8
_0-0_0
  6
CONTINUOUS
 62
    7
 10
38.32977249999999
 20
453.42453
 11
38.051711499999954
 21
453.39999399999999
  0
LINE
  8
_0-0_0
  6
CONTINUOUS
 62
    7
 10
38.212020499999994
 20
453.62851000000001
 11
38.051711499999954
 21
453.39999399999999
  0
LINE
  8
_0-0_0
  6
CONTINUOUS
 62
    7
 10
38.468200499999966
 20
453.23400900000001
 11
38.194244499999968
 21
453.18051100000002
  0
LINE
  8
_0-0_0
  6
CONTINUOUS
 62
    7
 10
38.32977249999999
 20
453.42453
 11
38.194244499999968
 21
453.18051100000002
  0
LINE
  8
_0-0_0
  6
CONTINUOUS
 62
    7
 10
38.625793499999986
 20
453.05898999999999
 11
38.358917499999961
 21
452.97717299999999
  0
LINE
  8
_0-0_0
  6
CONTINUOUS
 62
    7
 10
38.468200499999966
 20
453.23400900000001
 11
38.358917499999961
 21
452.97717299999999
  0
LINE
  8
_0-0_0
  6
CONTINUOUS
 62
    7
 10
38.800811499999952
 20
452.90139799999997
 11
38.543960499999969
 21
452.79211400000003
  0
LINE
  8
_0-0_0
  6
CONTINUOUS
 62
    7
 10
38.625793499999986
 20
453.05898999999999
 11
38.543960499999969
 21
452.79211400000003
  0
LINE
  8
_0-0_0
  6
CONTINUOUS
 62
    7
 10
38.991348499999958
 20
452.76297
 11
38.747314499999959
 21
452.62744099999998
  0
LINE
  8
_0-0_0
  6
CONTINUOUS
 62
    7
 10
38.800811499999952
 20
452.90139799999997
 11
38.747314499999959
 21
452.62744099999998
  0
LINE
  8
_0-0_0
  6
CONTINUOUS
 62
    7
 10
39.195297499999924
 20
452.64520299999998
 11
38.966781499999968
 21
452.48492399999998
  0
LINE
  8
_0-0_0
  6
CONTINUOUS
 62
    7
 10
38.991348499999958
 20
452.76297
 11
38.966781499999968
 21
452.48492399999998
  0
LINE
  8
_0-0_0
  6
CONTINUOUS
 62
    7
 10
39.410461499999997
 20
452.54943800000001
 11
39.199935499999924
 21
452.36611900000003
  0
LINE
  8
_0-0_0
  6
CONTINUOUS
 62
    7
 10
39.195297499999924
 20
452.64520299999998
 11
39.199935499999924
 21
452.36611900000003
  0
LINE
  8
_0-0_0
  6
CONTINUOUS
 62
    7
 10
39.63444549999997
 20
452.476654
 11
39.444244499999968
 21
452.27233899999999
  0
LINE
  8
_0-0_0
  6
CONTINUOUS
 62
    7
 10
39.410461499999997
 20
452.54943800000001
 11
39.444244499999968
 21
452.27233899999999
  0
LINE
  8
_0-0_0
  6
CONTINUOUS
 62
    7
 10
39.864807499999984
 20
452.42770400000001
 11
39.697006499999929
 21
452.20461999999998
  0
LINE
  8
_0-0_0
  6
CONTINUOUS
 62
    7
 10
39.63444549999997
 20
452.476654
 11
39.697006499999929
 21
452.20461999999998
  0
LINE
  8
_0-0_0
  6
CONTINUOUS
 62
    7
 10
40.099029499999915
 20
452.403076
 11
39.955459499999961
 21
452.16369600000002
  0
LINE
  8
_0-0_0
  6
CONTINUOUS
 62
    7
 10
39.864807499999984
 20
452.42770400000001
 11
39.955459499999961
 21
452.16369600000002
  0
LINE
  8
_0-0_0
  6
CONTINUOUS
 62
    7
 10
40.334533499999964
 20
452.403076
 11
40.216781499999968
 21
452.14999399999999
  0
LINE
  8
_0-0_0
  6
CONTINUOUS
 62
    7
 10
40.099029499999915
 20
452.403076
 11
40.216781499999968
 21
452.14999399999999
  0
LINE
  8
_0-0_0
  6
CONTINUOUS
 62
    7
 10
40.568755499999952
 20
452.42770400000001
 11
40.478103499999975
 21
452.16369600000002
  0
LINE
  8
_0-0_0
  6
CONTINUOUS
 62
    7
 10
40.334533499999964
 20
452.403076
 11
40.478103499999975
 21
452.16369600000002
  0
LINE
  8
_0-0_0
  6
CONTINUOUS
 62
    7
 10
40.799117499999966
 20
452.476654
 11
40.736556499999949
 21
452.20461999999998
  0
LINE
  8
_0-0_0
  6
CONTINUOUS
 62
    7
 10
40.568755499999952
 20
452.42770400000001
 11
40.736556499999949
 21
452.20461999999998
  0
LINE
  8
_0-0_0
  6
CONTINUOUS
 62
    7
 10
41.023116499999958
 20
452.54943800000001
 11
40.989318499999968
 21
452.27233899999999
  0
LINE
  8
_0-0_0
  6
CONTINUOUS
 62
    7
 10
40.799117499999966
 20
452.476654
 11
40.989318499999968
 21
452.27233899999999
  0
LINE
  8
_0-0_0
  6
CONTINUOUS
 62
    7
 10
41.238265499999954
 20
452.64520299999998
 11
41.233627499999955
 21
452.36611900000003
  0
LINE
  8
_0-0_0
  6
CONTINUOUS
 62
    7
 10
41.023116499999958
 20
452.54943800000001
 11
41.233627499999955
 21
452.36611900000003
  0
LINE
  8
_0-0_0
  6
CONTINUOUS
 62
    7
 10
41.357803499999932
 20
452.56137100000001
 11
41.466781499999968
 21
452.48492399999998
  0
LINE
  8
_0-0_0
  6
CONTINUOUS
 62
    7
 10
41.238265499999954
 20
452.64520299999998
 11
41.357803499999932
 21
452.56137100000001
  0
LINE
  8
_0-0_0
  6
CONTINUOUS
 62
    7
 10
41.442214499999977
 20
452.76297
 11
41.466781499999968
 21
452.48492399999998
  0
LINE
  8
_0-0_0
  6
CONTINUOUS
 62
    7
 10
41.632751499999927
 20
452.90139799999997
 11
41.68624849999992
 21
452.62744099999998
  0
LINE
  8
_0-0_0
  6
CONTINUOUS
 62
    7
 10
41.442214499999977
 20
452.76297
 11
41.68624849999992
 21
452.62744099999998
  0
LINE
  8
_0-0_0
  6
CONTINUOUS
 62
    7
 10
41.807769499999949
 20
453.05898999999999
 11
41.889602499999967
 21
452.79211400000003
  0
LINE
  8
_0-0_0
  6
CONTINUOUS
 62
    7
 10
41.632751499999927
 20
452.90139799999997
 11
41.889602499999967
 21
452.79211400000003
  0
LINE
  8
_0-0_0
  6
CONTINUOUS
 62
    7
 10
41.965362499999969
 20
453.23400900000001
 11
42.074645499999974
 21
452.97717299999999
  0
LINE
  8
_0-0_0
  6
CONTINUOUS
 62
    7
 10
41.807769499999949
 20
453.05898999999999
 11
42.074645499999974
 21
452.97717299999999
  0
LINE
  8
_0-0_0
  6
CONTINUOUS
 62
    7
 10
42.103790499999945
 20
453.42453
 11
42.239318499999968
 21
453.18051100000002
  0
LINE
  8
_0-0_0
  6
CONTINUOUS
 62
    7
 10
41.965362499999969
 20
453.23400900000001
 11
42.239318499999968
 21
453.18051100000002
  0
LINE
  8
_0-0_0
  6
CONTINUOUS
 62
    7
 10
42.221542499999941
 20
453.62851000000001
 11
42.381851499999925
 21
453.39999399999999
  0
LINE
  8
_0-0_0
  6
CONTINUOUS
 62
    7
 10
42.103790499999945
 20
453.42453
 11
42.381851499999925
 21
453.39999399999999
  0
LINE
  8
_0-0_0
  6
CONTINUOUS
 62
    7
 10
42.317336499999954
 20
453.843658
 11
42.500640499999918
 21
453.63314800000001
  0
LINE
  8
_0-0_0
  6
CONTINUOUS
 62
    7
 10
42.221542499999941
 20
453.62851000000001
 11
42.500640499999918
 21
453.63314800000001
  0
LINE
  8
_0-0_0
  6
CONTINUOUS
 62
    7
 10
42.390121499999964
 20
454.06762700000002
 11
42.594421499999953
 21
453.87744099999998
  0
LINE
  8
_0-0_0
  6
CONTINUOUS
 62
    7
 10
42.317336499999954
 20
453.843658
 11
42.594421499999953
 21
453.87744099999998
  0
LINE
  8
_0-0_0
  6
CONTINUOUS
 62
    7
 10
42.439086499999917
 20
454.29800399999999
 11
42.662155499999926
 21
454.13018799999998
  0
LINE
  8
_0-0_0
  6
CONTINUOUS
 62
    7
 10
42.390121499999964
 20
454.06762700000002
 11
42.662155499999926
 21
454.13018799999998
  0
LINE
  8
_0-0_0
  6
CONTINUOUS
 62
    7
 10
42.463699499999962
 20
454.53222699999998
 11
42.703079499999944
 21
454.38867199999999
  0
LINE
  8
_0-0_0
  6
CONTINUOUS
 62
    7
 10
42.439086499999917
 20
454.29800399999999
 11
42.703079499999944
 21
454.38867199999999
  0
LINE
  8
_0-0_0
  6
CONTINUOUS
 62
    7
 10
42.463699499999962
 20
454.76773100000003
 11
42.716781499999968
 21
454.64999399999999
  0
LINE
  8
_0-0_0
  6
CONTINUOUS
 62
    7
 10
42.463699499999962
 20
454.53222699999998
 11
42.716781499999968
 21
454.64999399999999
  0
LINE
  8
_0-0_0
  6
CONTINUOUS
 62
    7
 10
42.439086499999917
 20
455.00195300000001
 11
42.703079499999944
 21
454.911316
  0
LINE
  8
_0-0_0
  6
CONTINUOUS
 62
    7
 10
42.463699499999962
 20
454.76773100000003
 11
42.703079499999944
 21
454.911316
  0
LINE
  8
_0-0_0
  6
CONTINUOUS
 62
    7
 10
42.390121499999964
 20
455.23232999999999
 11
42.662155499999926
 21
455.16976899999997
  0
LINE
  8
_0-0_0
  6
CONTINUOUS
 62
    7
 10
42.439086499999917
 20
455.00195300000001
 11
42.662155499999926
 21
455.16976899999997
  0
LINE
  8
_0-0_0
  6
CONTINUOUS
 62
    7
 10
42.317336499999954
 20
455.456299
 11
42.594421499999953
 21
455.42251599999997
  0
LINE
  8
_0-0_0
  6
CONTINUOUS
 62
    7
 10
42.390121499999964
 20
455.23232999999999
 11
42.594421499999953
 21
455.42251599999997
  0
LINE
  8
_0-0_0
  6
CONTINUOUS
 62
    7
 10
42.221542499999941
 20
455.671448
 11
42.500640499999918
 21
455.666809
  0
LINE
  8
_0-0_0
  6
CONTINUOUS
 62
    7
 10
42.317336499999954
 20
455.456299
 11
42.500640499999918
 21
455.666809
  0
LINE
  8
_0-0_0
  6
CONTINUOUS
 62
    7
 10
42.103790499999945
 20
455.875427
 11
42.381851499999925
 21
455.89999399999999
  0
LINE
  8
_0-0_0
  6
CONTINUOUS
 62
    7
 10
42.221542499999941
 20
455.671448
 11
42.381851499999925
 21
455.89999399999999
  0
LINE
  8
_0-0_0
  6
CONTINUOUS
 62
    7
 10
38.800811499999952
 20
456.39855999999997
 11
38.747314499999959
 21
456.67251599999997
  0
LINE
  8
_0-0_0
  6
CONTINUOUS
 62
    7
 10
38.800811499999952
 20
456.39855999999997
 11
38.543960499999969
 21
456.50784299999998
  0
LINE
  8
_0-0_0
  6
CONTINUOUS
 62
    7
 10
38.625793499999986
 20
456.24096700000001
 11
38.543960499999969
 21
456.50784299999998
  0
LINE
  8
_0-0_0
  6
CONTINUOUS
 62
    7
 10
38.625793499999986
 20
456.24096700000001
 11
38.358917499999961
 21
456.32281499999999
  0
LINE
  8
_0-0_0
  6
CONTINUOUS
 62
    7
 10
38.468200499999966
 20
456.06594799999999
 11
38.358917499999961
 21
456.32281499999999
  0
LINE
  8
_0-0_0
  6
CONTINUOUS
 62
    7
 10
38.468200499999966
 20
456.06594799999999
 11
38.194244499999968
 21
456.11944599999998
  0
LINE
  8
_0-0_0
  6
CONTINUOUS
 62
    7
 10
38.32977249999999
 20
455.875427
 11
38.194244499999968
 21
456.11944599999998
  0
LINE
  8
_0-0_0
  6
CONTINUOUS
 62
    7
 10
38.32977249999999
 20
455.875427
 11
38.051711499999954
 21
455.89999399999999
  0
LINE
  8
_0-0_0
  6
CONTINUOUS
 62
    7
 10
38.212020499999994
 20
455.671448
 11
38.051711499999954
 21
455.89999399999999
  0
LINE
  8
_0-0_0
  6
CONTINUOUS
 62
    7
 10
38.212020499999994
 20
455.671448
 11
37.932922499999961
 21
455.666809
  0
LINE
  8
_0-0_0
  6
CONTINUOUS
 62
    7
 10
38.116226499999925
 20
455.456299
 11
37.932922499999961
 21
455.666809
  0
LINE
  8
_0-0_0
  6
CONTINUOUS
 62
    7
 10
38.116226499999925
 20
455.456299
 11
37.839141499999982
 21
455.42251599999997
  0
LINE
  8
_0-0_0
  6
CONTINUOUS
 62
    7
 10
38.043441499999972
 20
455.23232999999999
 11
37.839141499999982
 21
455.42251599999997
  0
LINE
  8
_0-0_0
  6
CONTINUOUS
 62
    7
 10
38.043441499999972
 20
455.23232999999999
 11
37.771407499999953
 21
455.16976899999997
  0
LINE
  8
_0-0_0
  6
CONTINUOUS
 62
    7
 10
37.994476499999962
 20
455.00195300000001
 11
37.771407499999953
 21
455.16976899999997
  0
LINE
  8
_0-0_0
  6
CONTINUOUS
 62
    7
 10
37.994476499999962
 20
455.00195300000001
 11
37.730483499999991
 21
454.911316
  0
LINE
  8
_0-0_0
  6
CONTINUOUS
 62
    7
 10
37.969863499999974
 20
454.76773100000003
 11
37.730483499999991
 21
454.911316
  0
LINE
  8
_0-0_0
  6
CONTINUOUS
 62
    7
 10
37.969863499999974
 20
454.76773100000003
 11
37.716781499999968
 21
454.64999399999999
  0
LINE
  8
_0-0_0
  6
CONTINUOUS
 62
    7
 10
37.969863499999974
 20
454.53222699999998
 11
37.716781499999968
 21
454.64999399999999
  0
LINE
  8
_0-0_0
  6
CONTINUOUS
 62
    7
 10
37.969863499999974
 20
454.53222699999998
 11
37.730483499999991
 21
454.38867199999999
  0
LINE
  8
_0-0_0
  6
CONTINUOUS
 62
    7
 10
37.994476499999962
 20
454.29800399999999
 11
37.730483499999991
 21
454.38867199999999
  0
LINE
  8
_0-0_0
  6
CONTINUOUS
 62
    7
 10
37.994476499999962
 20
454.29800399999999
 11
37.771407499999953
 21
454.13018799999998
  0
LINE
  8
_0-0_0
  6
CONTINUOUS
 62
    7
 10
38.043441499999972
 20
454.06762700000002
 11
37.771407499999953
 21
454.13018799999998
  0
LINE
  8
_0-0_0
  6
CONTINUOUS
 62
    7
 10
38.043441499999972
 20
454.06762700000002
 11
37.839141499999982
 21
453.87744099999998
  0
LINE
  8
_0-0_0
  6
CONTINUOUS
 62
    7
 10
38.116226499999925
 20
453.843658
 11
37.839141499999982
 21
453.87744099999998
  0
LINE
  8
_0-0_0
  6
CONTINUOUS
 62
    7
 10
38.116226499999925
 20
453.843658
 11
37.932922499999961
 21
453.63314800000001
  0
LINE
  8
_0-0_0
  6
CONTINUOUS
 62
    7
 10
38.212020499999994
 20
453.62851000000001
 11
37.932922499999961
 21
453.63314800000001
  0
CIRCLE
  8
_0-0_0
  6
CONTINUOUS
 62
    7
 10
40.216781499999968
 20
454.64999399999999
 40
2
  0
LINE
  8
_0-0_0
  6
CONTINUOUS
 62
    7
 10
39.075759499999947
 20
456.738586
 11
38.966781499999968
 21
456.81506300000001
  0
LINE
  8
_0-0_0
  6
CONTINUOUS
 62
    7
 10
38.991348499999958
 20
456.53698700000001
 11
38.966781499999968
 21
456.81506300000001
  0
LINE
  8
_0-0_0
  6
CONTINUOUS
 62
    7
 10
38.991348499999958
 20
456.53698700000001
 11
38.747314499999959
 21
456.67251599999997
  0
LINE
  8
_0-0_0
  6
CONTINUOUS
 62
    7
 10
42.103790499999945
 20
455.875427
 11
42.239318499999968
 21
456.11944599999998
  0
LINE
  8
_0-0_0
  6
CONTINUOUS
 62
    7
 10
41.965362499999969
 20
456.06594799999999
 11
42.239318499999968
 21
456.11944599999998
  0
LINE
  8
_0-0_0
  6
CONTINUOUS
 62
    7
 10
41.965362499999969
 20
456.06594799999999
 11
42.074645499999974
 21
456.32281499999999
  0
LINE
  8
_0-0_0
  6
CONTINUOUS
 62
    7
 10
41.807769499999949
 20
456.24096700000001
 11
42.074645499999974
 21
456.32281499999999
  0
LINE
  8
_0-0_0
  6
CONTINUOUS
 62
    7
 10
41.807769499999949
 20
456.24096700000001
 11
41.889602499999967
 21
456.50784299999998
  0
LINE
  8
_0-0_0
  6
CONTINUOUS
 62
    7
 10
41.632751499999927
 20
456.39855999999997
 11
41.889602499999967
 21
456.50784299999998
  0
LINE
  8
_0-0_0
  6
CONTINUOUS
 62
    7
 10
41.632751499999927
 20
456.39855999999997
 11
41.68624849999992
 21
456.67251599999997
  0
LINE
  8
_0-0_0
  6
CONTINUOUS
 62
    7
 10
41.442214499999977
 20
456.53698700000001
 11
41.68624849999992
 21
456.67251599999997
  0
LINE
  8
_0-0_0
  6
CONTINUOUS
 62
    7
 10
41.442214499999977
 20
456.53698700000001
 11
41.466781499999968
 21
456.81506300000001
  0
LINE
  8
_0-0_0
  6
CONTINUOUS
 62
    7
 10
41.238265499999954
 20
456.65475500000002
 11
41.466781499999968
 21
456.81506300000001
  0
LINE
  8
_0-0_0
  6
CONTINUOUS
 62
    7
 10
41.238265499999954
 20
456.65475500000002
 11
41.233627499999955
 21
456.93383799999998
  0
LINE
  8
_0-0_0
  6
CONTINUOUS
 62
    7
 10
41.023116499999958
 20
456.75054899999998
 11
41.233627499999955
 21
456.93383799999998
  0
LINE
  8
_0-0_0
  6
CONTINUOUS
 62
    7
 10
41.023116499999958
 20
456.75054899999998
 11
40.989318499999968
 21
457.02761800000002
  0
LINE
  8
_0-0_0
  6
CONTINUOUS
 62
    7
 10
40.799117499999966
 20
456.82330300000001
 11
40.989318499999968
 21
457.02761800000002
  0
LINE
  8
_0-0_0
  6
CONTINUOUS
 62
    7
 10
40.799117499999966
 20
456.82330300000001
 11
40.736556499999949
 21
457.09533699999997
  0
LINE
  8
_0-0_0
  6
CONTINUOUS
 62
    7
 10
40.568755499999952
 20
456.87228399999998
 11
40.736556499999949
 21
457.09533699999997
  0
LINE
  8
_0-0_0
  6
CONTINUOUS
 62
    7
 10
40.568755499999952
 20
456.87228399999998
 11
40.478103499999975
 21
457.13629200000003
  0
LINE
  8
_0-0_0
  6
CONTINUOUS
 62
    7
 10
40.334533499999964
 20
456.89691199999999
 11
40.478103499999975
 21
457.13629200000003
  0
LINE
  8
_0-0_0
  6
CONTINUOUS
 62
    7
 10
40.334533499999964
 20
456.89691199999999
 11
40.216781499999968
 21
457.14999399999999
  0
LINE
  8
_0-0_0
  6
CONTINUOUS
 62
    7
 10
40.099029499999915
 20
456.89691199999999
 11
40.216781499999968
 21
457.14999399999999
  0
LINE
  8
_0-0_0
  6
CONTINUOUS
 62
    7
 10
40.099029499999915
 20
456.89691199999999
 11
39.955459499999961
 21
457.13629200000003
  0
LINE
  8
_0-0_0
  6
CONTINUOUS
 62
    7
 10
39.864807499999984
 20
456.87228399999998
 11
39.955459499999961
 21
457.13629200000003
  0
LINE
  8
_0-0_0
  6
CONTINUOUS
 62
    7
 10
39.864807499999984
 20
456.87228399999998
 11
39.697006499999929
 21
457.09533699999997
  0
LINE
  8
_0-0_0
  6
CONTINUOUS
 62
    7
 10
39.63444549999997
 20
456.82330300000001
 11
39.697006499999929
 21
457.09533699999997
  0
LINE
  8
_0-0_0
  6
CONTINUOUS
 62
    7
 10
39.63444549999997
 20
456.82330300000001
 11
39.444244499999968
 21
457.02761800000002
  0
LINE
  8
_0-0_0
  6
CONTINUOUS
 62
    7
 10
39.410461499999997
 20
456.75054899999998
 11
39.444244499999968
 21
457.02761800000002
  0
LINE
  8
_0-0_0
  6
CONTINUOUS
 62
    7
 10
39.410461499999997
 20
456.75054899999998
 11
39.199935499999924
 21
456.93383799999998
  0
LINE
  8
_0-0_0
  6
CONTINUOUS
 62
    7
 10
39.195297499999924
 20
456.65475500000002
 11
39.199935499999924
 21
456.93383799999998
  0
LINE
  8
_0-0_0
  6
CONTINUOUS
 62
    7
 10
39.195297499999924
 20
456.65475500000002
 11
39.075759499999947
 21
456.738586
  0
LINE
  8
_0-0_0
  6
CONTINUOUS
 62
    7
 10
40.798889499999973
 20
453.64999399999999
 11
39.634673499999963
 21
453.64999399999999
  0
LINE
  8
_0-0_0
  6
CONTINUOUS
 62
    7
 10
39.634673499999963
 20
453.64999399999999
 11
39.066787499999919
 21
454.64999399999999
  0
LINE
  8
_0-0_0
  6
CONTINUOUS
 62
    7
 10
39.066787499999919
 20
454.64999399999999
 11
39.634673499999963
 21
455.64999399999999
  0
LINE
  8
_0-0_0
  6
CONTINUOUS
 62
    7
 10
39.634673499999963
 20
455.64999399999999
 11
40.798889499999973
 21
455.64999399999999
  0
LINE
  8
_0-0_0
  6
CONTINUOUS
 62
    7
 10
40.798889499999973
 20
455.64999399999999
 11
41.36677549999996
 21
454.64999399999999
  0
LINE
  8
_0-0_0
  6
CONTINUOUS
 62
    7
 10
41.36677549999996
 20
454.64999399999999
 11
40.798889499999973
 21
453.64999399999999
  0
LINE
  8
_0-0_0
  6
CONTINUOUS
 62
    7
 10
54.916778499999964
 20
472.05029300000001
 11
54.916778499999964
 21
472.05627399999997
  0
LINE
  8
_0-0_0
  6
CONTINUOUS
 62
    7
 10
54.916778499999964
 20
473.25
 11
54.916412499999979
 21
473.23788500000001
  0
LINE
  8
_0-0_0
  6
CONTINUOUS
 62
    7
 10
54.916412499999979
 20
452.66210899999999
 11
54.916778499999964
 21
452.64999399999999
  0
ARC
  8
_0-0_0
  6
CONTINUOUS
 62
    7
 10
39.716781499999968
 20
471.75
 40
2
 50
90.000003000000007
 51
93.840255999999997
  0
ARC
  8
_0-0_0
  6
CONTINUOUS
 62
    7
 10
52.716781499999968
 20
454.14999399999999
 40
2
 50
269.99999700000001
 51
273.84026499999999
  0
ENDSEC
  0
EOF
