  0
SECTION
  2
HEADER
  9
$ACADVER
  1
AC1009
  9
$INSBASE
 10
0
 20
0
 30
0
  9
$EXTMIN
 10
0
 20
0
  9
$EXTMAX
 10
1682
 20
1188
  9
$LIMMIN
 10
0
 20
0
  9
$LIMMAX
 10
1682
 20
1188
  9
$LTSCALE
 40
2
  0
ENDSEC
  0
SECTION
  2
TABLES
  0
TABLE
  2
LTYPE
 70
     9
  0
LTYPE
  2
CONTINUOUS
 70
    64
  3
実線
 72
    65
 73
     0
 40
0.0
  0
LTYPE
  2
DASHED1
 70
    64
  3
--  --  --  --  --  --  --  --  
 72
    65
 73
     2
 40
2.5
 49
1.25
 49
-1.25
  0
LTYPE
  2
DASHED2
 70
    64
  3
----    ----    ----    ----    
 72
    65
 73
     2
 40
5.0
 49
2.5
 49
-2.5
  0
LTYPE
  2
DASHED3
 70
    64
  3
------  ------  ------  ------  
 72
    65
 73
     2
 40
5.0
 49
3.75
 49
-1.25
  0
LTYPE
  2
CENTER1
 70
    64
  3
----- - ----- - ----- - ----- - 
 72
    65
 73
     4
 40
10.0
 49
6.25
 49
-1.25
 49
1.25
 49
-1.25
  0
LTYPE
  2
CENTER2
 70
    64
  3
----------  --  ----------  --  
 72
    65
 73
     4
 40
20.0
 49
12.5
 49
-2.5
 49
2.5
 49
-2.5
  0
LTYPE
  2
PHANTOM1
 70
    64
  3
--- - - --- - - --- - - --- - - 
 72
    65
 73
     6
 40
10.0
 49
3.25
 49
-1.25
 49
1.25
 49
-1.25
 49
1.25
 49
-1.25
  0
LTYPE
  2
PHANTOM2
 70
    64
  3
--------  -  -  --------  -  -  
 72
    65
 73
     6
 40
20.0
 49
10.0
 49
-2.5
 49
1.25
 49
-2.5
 49
1.25
 49
-2.5
  0
LTYPE
  2
DOT
 70
    64
  3
-   -   -   -   -   -   -   -   
 72
    65
 73
     2
 40
2.5
 49
0.625
 49
-1.875
  0
LTYPE
  2
DUMMY
 70
    64
  3
ダミー
 72
    65
 73
     0
 40
0.0
  0
LTYPE
  2
RAND1
 70
    64
  3
ランダム線1
 72
    65
 73
     4
 40
10.0
 49
1.0
 49
-2.0
 49
3.0
 49
-4.0
  0
LTYPE
  2
RAND2
 70
    64
  3
ランダム線2
 72
    65
 73
     4
 40
14.0
 49
2.0
 49
-3.0
 49
4.0
 49
-5.0
  0
LTYPE
  2
RAND3
 70
    64
  3
ランダム線3
 72
    65
 73
     4
 40
18.0
 49
3.0
 49
-4.0
 49
5.0
 49
-6.0
  0
LTYPE
  2
RAND4
 70
    64
  3
ランダム線4
 72
    65
 73
     4
 40
22.0
 49
4.0
 49
-5.0
 49
6.0
 49
-7.0
  0
LTYPE
  2
RAND5
 70
    64
  3
ランダム線5
 72
    65
 73
     4
 40
26.0
 49
5.0
 49
-6.0
 49
7.0
 49
-8.0
  0
LTYPE
  2
LONG1
 70
    64
  3
----------  --  ----------  --  
 72
    65
 73
     4
 40
40.0
 49
32.5
 49
-2.5
 49
2.5
 49
-2.5
  0
LTYPE
  2
LONG2
 70
    64
  3
--------  -  -  --------  -  -  
 72
    65
 73
     6
 40
40.0
 49
30.0
 49
-2.5
 49
1.25
 49
-2.5
 49
1.25
 49
-2.5
  0
LTYPE
  2
LONG3
 70
    64
  3
+++++++++++++++..+++++++++++++++
 72
    65
 73
     2
 40
40.0
 49
37.5
 49
-2.5
  0
LTYPE
  2
LONG4
 70
    64
  3
+++++++++++++++..+++++++++++++++
 72
    65
 73
     2
 40
80.0
 49
75.0
 49
-5.0
  0
LTYPE
  2
LONG5
 70
    64
  3
----------  --  ----------  --  
 72
    65
 73
     4
 40
60.0
 49
37.5
 49
-7.5
 49
7.5
 49
-7.5
  0
LTYPE
  2
dashed
 70
   64
  3
-------   -------------   ------
 72
   65
 73
    2
 40
7.5
 49
6
 49
-1.5
  0
LTYPE
  2
dashed_spaced
 70
   64
  3
----        --------        ----
 72
   65
 73
    2
 40
12
 49
6
 49
-6
  0
LTYPE
  2
long_dashed_dotted
 70
   64
  3
------------- --- --------------
 72
   65
 73
    4
 40
15.25
 49
12
 49
-1.5
 49
0.25
 49
-1.5
  0
LTYPE
  2
long_dashed_double-dotted
 70
   64
  3
----------- --- --- ------------
 72
   65
 73
    6
 40
17
 49
12
 49
-1.5
 49
0.25
 49
-1.5
 49
0.25
 49
-1.5
  0
LTYPE
  2
long_dashed_triplicate-dotted
 70
   64
  3
--------- --- --- --- ----------
 72
   65
 73
    8
 40
18.75
 49
12
 49
-1.5
 49
0.25
 49
-1.5
 49
0.25
 49
-1.5
 49
0.25
 49
-1.5
  0
LTYPE
  2
dotted
 70
   64
  3
   -       -       -       -    
 72
   65
 73
    2
 40
1.75
 49
0.25
 49
-1.5
  0
LTYPE
  2
chain
 70
   64
  3
-------------- -- --------------
 72
   65
 73
    4
 40
18.5
 49
12
 49
-1.5
 49
3.5
 49
-1.5
  0
LTYPE
  2
chain_double_dash
 70
   64
  3
------------ -- -- -------------
 72
   65
 73
    6
 40
23.5
 49
12
 49
-1.5
 49
3.5
 49
-1.5
 49
3.5
 49
-1.5
  0
LTYPE
  2
dashed_dotted
 70
   64
  3
-----------     -     ----------
 72
   65
 73
    4
 40
9.25
 49
6
 49
-1.5
 49
0.25
 49
-1.5
  0
LTYPE
  2
double-dashed_dotted
 70
   64
  3
------   -----------   -   -----
 72
   65
 73
    6
 40
16.75
 49
6
 49
-1.5
 49
6
 49
-1.5
 49
0.25
 49
-1.5
  0
LTYPE
  2
dashed_double-dotted
 70
   64
  3
---------    -    -    ---------
 72
   65
 73
    6
 40
11
 49
6
 49
-1.5
 49
0.25
 49
-1.5
 49
0.25
 49
-1.5
  0
LTYPE
  2
double-dashed_double-dotted
 70
   64
  3
-----   ---------   -   -   ----
 72
   65
 73
    8
 40
18.5
 49
6
 49
-1.5
 49
6
 49
-1.5
 49
0.25
 49
-1.5
 49
0.25
 49
-1.5
  0
LTYPE
  2
dashed_triplicate-dotted
 70
   64
  3
-------    -    -    -    ------
 72
   65
 73
    8
 40
12.75
 49
6
 49
-1.5
 49
0.25
 49
-1.5
 49
0.25
 49
-1.5
 49
0.25
 49
-1.5
  0
LTYPE
  2
double-dashed_triplicate-dotted
 70
   64
  3
-----  ---------  -  -  -  -----
 72
   65
 73
   10
 40
20.25
 49
6
 49
-1.5
 49
6
 49
-1.5
 49
0.25
 49
-1.5
 49
0.25
 49
-1.5
 49
0.25
 49
-1.5
  0
LTYPE
  2
undefined
 70
   64
  3
--------------------------------
 72
   65
 73
    0
 40
0
  0
ENDTAB
  0
TABLE
  2
STYLE
  5
3
100
AcDbSymbolTable
 70
     1
  0
STYLE
  5
10
100
AcDbSymbolTableRecord
100
AcDbTextStyleTableRecord
  2
STANDARD
 70
     0
 40
0.0
 41
1.0
 50
0.0
 71
     0
 42
0.2
  3
txt
  4
bigfont.shx
  0
STYLE
  5
26
100
AcDbSymbolTableRecord
100
AcDbTextStyleTableRecord
  2
TATEGAKI
 70
    68
 40
0.0
 41
1.0
 50
0.0
 71
     0
 42
1.0
  3
txt
  4
bigfont.shx
  0
ENDTAB
  0
TABLE
  2
LAYER
 70
    2
  0
LAYER
  2
_0-0_0
 70
   64
 62
    7
  6
CONTINUOUS
  0
LAYER
  2
ADD_LINE
 70
   64
 62
    7
  6
CONTINUOUS
  0
ENDTAB
  0
ENDSEC
  0
SECTION
  2
BLOCKS
  0
ENDSEC
  0
SECTION
  2
ENTITIES
  0
ARC
  8
_0-0_0
  6
CONTINUOUS
 62
    7
 10
-272.16888400000016
 20
765.35000600000001
 40
0.2
 50
269.99999700000001
 51
20.376440000000013
  0
LINE
  8
_0-0_0
  6
CONTINUOUS
 62
    7
 10
-271.98138400000016
 20
765.41964699999994
 11
-273.28143300000011
 21
768.91964699999994
  0
ARC
  8
_0-0_0
  6
CONTINUOUS
 62
    7
 10
-273.46887199999992
 20
768.85000600000001
 40
0.2
 50
20.376439999999999
 51
159.62355600000001
  0
LINE
  8
_0-0_0
  6
CONTINUOUS
 62
    7
 10
-274.95636000000013
 20
765.41964699999994
 11
-273.65637199999992
 21
768.91964699999994
  0
ARC
  8
_0-0_0
  6
CONTINUOUS
 62
    7
 10
-274.76892100000009
 20
765.35000600000001
 40
0.2
 50
159.62355600000001
 51
269.99999700000001
  0
LINE
  8
_0-0_0
  6
CONTINUOUS
 62
    7
 10
-274.76892100000009
 20
765.15002400000003
 11
-272.16888400000016
 21
765.15002400000003
  0
LINE
  8
_0-0_0
  6
CONTINUOUS
 62
    7
 10
-350.28234900000007
 20
819.75051899999994
 11
-350.28234900000007
 21
819.74951199999998
  0
LINE
  8
_0-0_0
  6
CONTINUOUS
 62
    7
 10
-320.96887199999992
 20
773.25
 11
-315.96887199999992
 21
773.25
  0
LINE
  8
_0-0_0
  6
CONTINUOUS
 62
    7
 10
-315.96887199999992
 20
773.25
 11
-314.16888400000016
 21
773.25
  0
LINE
  8
_0-0_0
  6
CONTINUOUS
 62
    7
 10
-314.16888400000016
 20
773.25
 11
-313.46887199999992
 21
773.25
  0
ARC
  8
_0-0_0
  6
CONTINUOUS
 62
    7
 10
-314.16888400000016
 20
772.75
 40
0.5
 50
0
 51
90.000003000000007
  0
ARC
  8
_0-0_0
  6
CONTINUOUS
 62
    7
 10
-320.96887199999992
 20
772.75
 40
0.5
 50
90.000003000000007
 51
179.99999099999999
  0
ARC
  8
_0-0_0
  6
CONTINUOUS
 62
    7
 10
-217.46890299999995
 20
772.75
 40
0.5
 50
0
 51
90.000003000000007
  0
LINE
  8
_0-0_0
  6
CONTINUOUS
 62
    7
 10
-313.46887199999992
 20
773.25
 11
-313.46887199999992
 21
771.75
  0
LINE
  8
_0-0_0
  6
CONTINUOUS
 62
    7
 10
-313.46887199999992
 20
773.75
 11
-313.46887199999992
 21
773.25
  0
LINE
  8
_0-0_0
  6
CONTINUOUS
 62
    7
 10
-313.46887199999992
 20
774.25
 11
-313.46887199999992
 21
773.75
  0
LINE
  8
_0-0_0
  6
CONTINUOUS
 62
    7
 10
-313.46887199999992
 20
775.25
 11
-313.46887199999992
 21
774.25
  0
LINE
  8
_0-0_0
  6
CONTINUOUS
 62
    7
 10
-309.46887199999992
 20
773.25
 11
-308.76892100000009
 21
773.25
  0
LINE
  8
_0-0_0
  6
CONTINUOUS
 62
    7
 10
-313.66888400000016
 20
772.75
 11
-313.66888400000016
 21
771.75
  0
LINE
  8
_0-0_0
  6
CONTINUOUS
 62
    7
 10
-310.46887199999992
 20
746.25
 11
-310.46887199999992
 21
747.85000600000001
  0
LINE
  8
_0-0_0
  6
CONTINUOUS
 62
    7
 10
-310.46887199999992
 20
746.25
 11
-315.96887199999992
 21
746.25
  0
LINE
  8
_0-0_0
  6
CONTINUOUS
 62
    7
 10
-294.46887199999992
 20
752.95001200000002
 11
-252.46887199999992
 21
752.95001200000002
  0
LINE
  8
_0-0_0
  6
CONTINUOUS
 62
    7
 10
-294.46887199999992
 20
772.55001800000002
 11
-252.46887199999992
 21
772.55001800000002
  0
LINE
  8
_0-0_0
  6
CONTINUOUS
 62
    7
 10
-230.96887199999992
 20
746.25
 11
-240.46887199999992
 21
746.25
  0
LINE
  8
_0-0_0
  6
CONTINUOUS
 62
    7
 10
-240.46887199999992
 20
746.25
 11
-240.46887199999992
 21
747.85000600000001
  0
ARC
  8
_0-0_0
  6
CONTINUOUS
 62
    7
 10
-240.76892100000009
 20
747.85000600000001
 40
0.2999999999999999
 50
0
 51
90.000003000000007
  0
LINE
  8
_0-0_0
  6
CONTINUOUS
 62
    7
 10
-241.46887199999992
 20
748.15002400000003
 11
-240.76892100000009
 21
748.15002400000003
  0
LINE
  8
_0-0_0
  6
CONTINUOUS
 62
    7
 10
-241.96887199999992
 20
748.55001800000002
 11
-241.46887199999992
 21
748.55001800000002
  0
LINE
  8
_0-0_0
  6
CONTINUOUS
 62
    7
 10
-255.46887199999992
 20
748.55001800000002
 11
-241.96887199999992
 21
748.55001800000002
  0
ARC
  8
_0-0_0
  6
CONTINUOUS
 62
    7
 10
-257.96887199999992
 20
748.55001800000002
 40
2.5
 50
0
 51
90.000003000000007
  0
LINE
  8
_0-0_0
  6
CONTINUOUS
 62
    7
 10
-288.96887199999992
 20
751.05001800000002
 11
-257.96887199999992
 21
751.05001800000002
  0
ARC
  8
_0-0_0
  6
CONTINUOUS
 62
    7
 10
-288.96887199999992
 20
748.55001800000002
 40
2.5
 50
90.000003000000007
 51
179.99999099999999
  0
LINE
  8
_0-0_0
  6
CONTINUOUS
 62
    7
 10
-308.96887199999992
 20
748.55001800000002
 11
-291.46887199999992
 21
748.55001800000002
  0
LINE
  8
_0-0_0
  6
CONTINUOUS
 62
    7
 10
-309.46887199999992
 20
748.55001800000002
 11
-308.96887199999992
 21
748.55001800000002
  0
LINE
  8
_0-0_0
  6
CONTINUOUS
 62
    7
 10
-310.16888400000016
 20
748.15002400000003
 11
-309.46887199999992
 21
748.15002400000003
  0
ARC
  8
_0-0_0
  6
CONTINUOUS
 62
    7
 10
-310.16888400000016
 20
747.85000600000001
 40
0.2999999999999999
 50
90.000003000000007
 51
179.99999099999999
  0
LINE
  8
_0-0_0
  6
CONTINUOUS
 62
    7
 10
-321.46887199999992
 20
770.97485400000005
 11
-321.46887199999992
 21
772.75
  0
LINE
  8
_0-0_0
  6
CONTINUOUS
 62
    7
 10
-316.46887199999992
 20
773.25
 11
-316.46887199999992
 21
773.65002400000003
  0
LINE
  8
_0-0_0
  6
CONTINUOUS
 62
    7
 10
-316.46887199999992
 20
774.15002400000003
 11
-316.46887199999992
 21
773.65002400000003
  0
LINE
  8
_0-0_0
  6
CONTINUOUS
 62
    7
 10
-216.96890299999995
 20
775.25
 11
-216.96890299999995
 21
773.75
  0
LINE
  8
_0-0_0
  6
CONTINUOUS
 62
    7
 10
-216.96890299999995
 20
773.75
 11
-216.96890299999995
 21
772.75
  0
LINE
  8
_0-0_0
  6
CONTINUOUS
 62
    7
 10
-216.96890299999995
 20
771.95001200000002
 11
-216.96890299999995
 21
772.75
  0
LINE
  8
_0-0_0
  6
CONTINUOUS
 62
    7
 10
-217.46890299999995
 20
773.25
 11
-216.96890299999995
 21
773.25
  0
LINE
  8
_0-0_0
  6
CONTINUOUS
 62
    7
 10
-229.96887199999992
 20
773.25
 11
-217.46890299999995
 21
773.25
  0
LINE
  8
_0-0_0
  6
CONTINUOUS
 62
    7
 10
-216.96890299999995
 20
775.25
 11
-216.96890299999995
 21
774.25
  0
LINE
  8
_0-0_0
  6
CONTINUOUS
 62
    7
 10
-216.96890299999995
 20
773.75
 11
-216.96890299999995
 21
773.25
  0
LINE
  8
_0-0_0
  6
CONTINUOUS
 62
    7
 10
-216.96890299999995
 20
774.25
 11
-216.96890299999995
 21
773.75
  0
ARC
  8
_0-0_0
  6
CONTINUOUS
 62
    7
 10
-311.46887199999992
 20
771.75
 40
2
 50
179.99999099999999
 51
0
  0
LINE
  8
_0-0_0
  6
CONTINUOUS
 62
    7
 10
-230.46887199999992
 20
773.25
 11
-229.96887199999992
 21
773.25
  0
LINE
  8
_0-0_0
  6
CONTINUOUS
 62
    7
 10
-230.46887199999992
 20
772.75
 11
-230.46887199999992
 21
773.25
  0
LINE
  8
_0-0_0
  6
CONTINUOUS
 62
    7
 10
-230.46887199999992
 20
771.75
 11
-230.46887199999992
 21
771.95001200000002
  0
ARC
  8
_0-0_0
  6
CONTINUOUS
 62
    7
 10
-232.46887199999992
 20
771.75
 40
2
 50
179.99999099999999
 51
0
  0
LINE
  8
_0-0_0
  6
CONTINUOUS
 62
    7
 10
-234.46887199999992
 20
773.25
 11
-234.46887199999992
 21
771.75
  0
LINE
  8
_0-0_0
  6
CONTINUOUS
 62
    7
 10
-235.16888400000016
 20
773.25
 11
-234.46887199999992
 21
773.25
  0
LINE
  8
_0-0_0
  6
CONTINUOUS
 62
    7
 10
-309.46887199999992
 20
771.75
 11
-309.46887199999992
 21
773.25
  0
LINE
  8
_0-0_0
  6
CONTINUOUS
 62
    7
 10
-313.46887199999992
 20
774.25
 11
-216.96890299999995
 21
774.25
  0
ARC
  8
_0-0_0
  6
CONTINUOUS
 62
    7
 10
-308.76892100000009
 20
772.75
 40
0.5
 50
90.000003000000007
 51
179.99999099999999
  0
ARC
  8
_0-0_0
  6
CONTINUOUS
 62
    7
 10
-311.46887199999992
 20
771.75
 40
2.2000000000000002
 50
179.99999099999999
 51
0
  0
LINE
  8
_0-0_0
  6
CONTINUOUS
 62
    7
 10
-309.46887199999992
 20
748.15002400000003
 11
-308.96887199999992
 21
748.15002400000003
  0
LINE
  8
_0-0_0
  6
CONTINUOUS
 62
    7
 10
-308.96887199999992
 20
748.55001800000002
 11
-308.96887199999992
 21
748.15002400000003
  0
LINE
  8
_0-0_0
  6
CONTINUOUS
 62
    7
 10
-291.46887199999992
 20
748.55001800000002
 11
-255.46887199999992
 21
748.55001800000002
  0
LINE
  8
_0-0_0
  6
CONTINUOUS
 62
    7
 10
-241.96887199999992
 20
748.15002400000003
 11
-241.46887199999992
 21
748.15002400000003
  0
LINE
  8
_0-0_0
  6
CONTINUOUS
 62
    7
 10
-241.96887199999992
 20
748.55001800000002
 11
-241.96887199999992
 21
748.15002400000003
  0
LINE
  8
_0-0_0
  6
CONTINUOUS
 62
    7
 10
-230.96887199999992
 20
745.75
 11
-239.96887199999992
 21
745.75
  0
ARC
  8
_0-0_0
  6
CONTINUOUS
 62
    7
 10
-239.96887199999992
 20
746.25
 40
0.5
 50
179.99999099999999
 51
269.99999700000001
  0
LINE
  8
_0-0_0
  6
CONTINUOUS
 62
    7
 10
-230.96887199999992
 20
746.25
 11
-230.46887199999992
 21
746.25
  0
LINE
  8
_0-0_0
  6
CONTINUOUS
 62
    7
 10
-230.46887199999992
 20
746.25
 11
-230.46887199999992
 21
746.45001200000002
  0
LINE
  8
_0-0_0
  6
CONTINUOUS
 62
    7
 10
-225.96887199999992
 20
746.65002400000003
 11
-230.26892100000009
 21
746.65002400000003
  0
LINE
  8
_0-0_0
  6
CONTINUOUS
 62
    7
 10
-225.46887199999992
 20
747.15002400000003
 11
-225.46887199999992
 21
748.92514000000006
  0
ARC
  8
_0-0_0
  6
CONTINUOUS
 62
    7
 10
-228.51684599999999
 20
748.86901899999998
 40
3.0490550000000001
 50
1.0548960000000001
 51
14.838094000000002
  0
LINE
  8
_0-0_0
  6
CONTINUOUS
 62
    7
 10
-225.96887199999992
 20
749.85000600000001
 11
-230.33642600000007
 21
749.85000600000001
  0
LINE
  8
_0-0_0
  6
CONTINUOUS
 62
    7
 10
-230.46887199999992
 20
749.99145499999997
 11
-230.46887199999992
 21
750.09643600000004
  0
ARC
  8
_0-0_0
  6
CONTINUOUS
 62
    7
 10
-232.46887199999992
 20
771.75
 40
2.2000000000000002
 50
179.99999099999999
 51
303.74900400000001
  0
LINE
  8
_0-0_0
  6
CONTINUOUS
 62
    7
 10
-234.66888400000016
 20
772.75
 11
-234.66888400000016
 21
771.75
  0
LINE
  8
_0-0_0
  6
CONTINUOUS
 62
    7
 10
-235.16888400000016
 20
773.25
 11
-308.76892100000009
 21
773.25
  0
LINE
  8
_0-0_0
  6
CONTINUOUS
 62
    7
 10
-309.26892100000009
 20
771.75
 11
-309.26892100000009
 21
772.75
  0
LINE
  8
_0-0_0
  6
CONTINUOUS
 62
    7
 10
-308.76892100000009
 20
771.55001800000002
 11
-308.76892100000009
 21
771.75
  0
ARC
  8
_0-0_0
  6
CONTINUOUS
 62
    7
 10
-307.76892100000009
 20
771.55001800000002
 40
1
 50
90.000003000000007
 51
179.99999099999999
  0
LINE
  8
_0-0_0
  6
CONTINUOUS
 62
    7
 10
-307.76892100000009
 20
772.55001800000002
 11
-294.46887199999992
 21
772.55001800000002
  0
LINE
  8
_0-0_0
  6
CONTINUOUS
 62
    7
 10
-252.46887199999992
 20
772.55001800000002
 11
-238.46887199999992
 21
772.55001800000002
  0
ARC
  8
_0-0_0
  6
CONTINUOUS
 62
    7
 10
-238.46887199999992
 20
769.55001800000002
 40
3
 50
0
 51
90.000003000000007
  0
LINE
  8
_0-0_0
  6
CONTINUOUS
 62
    7
 10
-235.46887199999992
 20
755.95001200000002
 11
-235.46887199999992
 21
769.55001800000002
  0
ARC
  8
_0-0_0
  6
CONTINUOUS
 62
    7
 10
-238.46887199999992
 20
755.95001200000002
 40
3
 50
269.99999700000001
 51
0
  0
LINE
  8
_0-0_0
  6
CONTINUOUS
 62
    7
 10
-238.46887199999992
 20
752.95001200000002
 11
-252.46887199999992
 21
752.95001200000002
  0
LINE
  8
_0-0_0
  6
CONTINUOUS
 62
    7
 10
-294.46887199999992
 20
752.95001200000002
 11
-308.46887199999992
 21
752.95001200000002
  0
ARC
  8
_0-0_0
  6
CONTINUOUS
 62
    7
 10
-308.46887199999992
 20
755.95001200000002
 40
3
 50
179.99999099999999
 51
269.99999700000001
  0
LINE
  8
_0-0_0
  6
CONTINUOUS
 62
    7
 10
-311.46887199999992
 20
768.18771400000003
 11
-311.46887199999992
 21
755.95001200000002
  0
ARC
  8
_0-0_0
  6
CONTINUOUS
 62
    7
 10
-310.46887199999992
 20
768.18771400000003
 40
1
 50
105.68034800000001
 51
179.99999100000002
  0
ARC
  8
_0-0_0
  6
CONTINUOUS
 62
    7
 10
-318.42095999999992
 20
771.03100599999993
 40
3.0490550000000001
 50
181.05489
 51
194.838089
  0
LINE
  8
_0-0_0
  6
CONTINUOUS
 62
    7
 10
-316.60137900000018
 20
770.05001800000002
 11
-320.96887199999992
 21
770.05001800000002
  0
LINE
  8
_0-0_0
  6
CONTINUOUS
 62
    7
 10
-316.46887199999992
 20
749.99145499999997
 11
-316.46887199999992
 21
750.29168700000002
  0
LINE
  8
_0-0_0
  6
CONTINUOUS
 62
    7
 10
-316.60137900000018
 20
749.85000600000001
 11
-320.96887199999992
 21
749.85000600000001
  0
ARC
  8
_0-0_0
  6
CONTINUOUS
 62
    7
 10
-318.41973899999994
 20
748.86834700000009
 40
3.050319
 50
165.15540799999999
 51
178.932897
  0
LINE
  8
_0-0_0
  6
CONTINUOUS
 62
    7
 10
-321.46887199999992
 20
747.15002400000003
 11
-321.46887199999992
 21
748.92514000000006
  0
LINE
  8
_0-0_0
  6
CONTINUOUS
 62
    7
 10
-316.66888400000016
 20
746.65002400000003
 11
-320.96887199999992
 21
746.65002400000003
  0
LINE
  8
_0-0_0
  6
CONTINUOUS
 62
    7
 10
-316.46887199999992
 20
746.25
 11
-316.46887199999992
 21
746.45001200000002
  0
LINE
  8
_0-0_0
  6
CONTINUOUS
 62
    7
 10
-316.46887199999992
 20
746.25
 11
-315.96887199999992
 21
746.25
  0
LINE
  8
_0-0_0
  6
CONTINUOUS
 62
    7
 10
-310.96887199999992
 20
745.75
 11
-315.96887199999992
 21
745.75
  0
ARC
  8
_0-0_0
  6
CONTINUOUS
 62
    7
 10
-310.96887199999992
 20
746.25
 40
0.5
 50
269.99999700000001
 51
0
  0
LINE
  8
_0-0_0
  6
CONTINUOUS
 62
    7
 10
-321.15063499999997
 20
770.05001800000002
 11
-321.17102100000011
 21
770.05102499999998
  0
LINE
  8
_0-0_0
  6
CONTINUOUS
 62
    7
 10
-321.17102100000011
 20
770.05102499999998
 11
-321.19140599999992
 21
770.054169
  0
LINE
  8
_0-0_0
  6
CONTINUOUS
 62
    7
 10
-321.19140599999992
 20
770.054169
 11
-321.21820100000014
 21
770.06176800000003
  0
LINE
  8
_0-0_0
  6
CONTINUOUS
 62
    7
 10
-321.21820100000014
 20
770.06176800000003
 11
-321.24383499999999
 21
770.07312000000002
  0
LINE
  8
_0-0_0
  6
CONTINUOUS
 62
    7
 10
-321.24383499999999
 20
770.07312000000002
 11
-321.26763900000014
 21
770.08801300000005
  0
LINE
  8
_0-0_0
  6
CONTINUOUS
 62
    7
 10
-321.26763900000014
 20
770.08801300000005
 11
-321.28442399999994
 21
770.10150099999998
  0
LINE
  8
_0-0_0
  6
CONTINUOUS
 62
    7
 10
-321.28442399999994
 20
770.10150099999998
 11
-321.29992700000003
 21
770.11676
  0
LINE
  8
_0-0_0
  6
CONTINUOUS
 62
    7
 10
-321.29992700000003
 20
770.11676
 11
-321.32684300000005
 21
770.15139799999997
  0
LINE
  8
_0-0_0
  6
CONTINUOUS
 62
    7
 10
-321.32684300000005
 20
770.15139799999997
 11
-321.34783900000002
 21
770.18972800000006
  0
LINE
  8
_0-0_0
  6
CONTINUOUS
 62
    7
 10
-321.34783900000002
 20
770.18972800000006
 11
-321.35986300000013
 21
770.21963499999993
  0
LINE
  8
_0-0_0
  6
CONTINUOUS
 62
    7
 10
-321.35986300000013
 20
770.21963499999993
 11
-321.36889700000006
 21
770.25
  0
LINE
  8
_0-0_0
  6
CONTINUOUS
 62
    7
 10
-316.46887199999992
 20
774.15002400000003
 11
-316.46887199999992
 21
775.25
  0
LINE
  8
_0-0_0
  6
CONTINUOUS
 62
    7
 10
-321.96887199999992
 20
771.60000600000001
 11
-321.46887199999992
 21
771.60000600000001
  0
LINE
  8
_0-0_0
  6
CONTINUOUS
 62
    7
 10
-321.96887199999992
 20
774.15002400000003
 11
-316.46887199999992
 21
774.15002400000003
  0
ARC
  8
_0-0_0
  6
CONTINUOUS
 62
    7
 10
-217.46890299999995
 20
771.95001200000002
 40
0.5
 50
269.99999700000001
 51
0
  0
ARC
  8
_0-0_0
  6
CONTINUOUS
 62
    7
 10
-229.96887199999992
 20
772.75
 40
0.5
 50
90.000003000000007
 51
179.99999099999999
  0
LINE
  8
_0-0_0
  6
CONTINUOUS
 62
    7
 10
-230.46887199999992
 20
771.95001200000002
 11
-230.46887199999992
 21
772.75
  0
LINE
  8
_0-0_0
  6
CONTINUOUS
 62
    7
 10
-310.26892100000009
 20
748.13284299999998
 11
-310.26892100000009
 21
746.15002400000003
  0
LINE
  8
_0-0_0
  6
CONTINUOUS
 62
    7
 10
-310.26892100000009
 20
746.15002400000003
 11
-309.26892100000009
 21
746.15002400000003
  0
LINE
  8
_0-0_0
  6
CONTINUOUS
 62
    7
 10
-308.96887199999992
 20
748.15002400000003
 11
-241.96887199999992
 21
748.15002400000003
  0
LINE
  8
_0-0_0
  6
CONTINUOUS
 62
    7
 10
-309.26892100000009
 20
746.15002400000003
 11
-241.66888400000016
 21
746.15002400000003
  0
LINE
  8
_0-0_0
  6
CONTINUOUS
 62
    7
 10
-241.66888400000016
 20
746.15002400000003
 11
-240.66888400000016
 21
746.15002400000003
  0
LINE
  8
_0-0_0
  6
CONTINUOUS
 62
    7
 10
-240.66888400000016
 20
748.13284299999998
 11
-240.66888400000016
 21
746.15002400000003
  0
LINE
  8
_0-0_0
  6
CONTINUOUS
 62
    7
 10
-230.46887199999992
 20
746.25
 11
-230.96887199999992
 21
745.75
  0
ARC
  8
_0-0_0
  6
CONTINUOUS
 62
    7
 10
-230.26892100000009
 20
746.45001200000002
 40
0.2
 50
90.000003000000007
 51
179.99999099999999
  0
ARC
  8
_0-0_0
  6
CONTINUOUS
 62
    7
 10
-225.96887199999992
 20
747.15002400000003
 40
0.5
 50
269.99999700000001
 51
0
  0
LINE
  8
_0-0_0
  6
CONTINUOUS
 62
    7
 10
-225.78717000000006
 20
749.85000600000001
 11
-225.76678500000003
 21
749.84899900000005
  0
LINE
  8
_0-0_0
  6
CONTINUOUS
 62
    7
 10
-225.76678500000003
 20
749.84899900000005
 11
-225.74639900000011
 21
749.84585600000003
  0
LINE
  8
_0-0_0
  6
CONTINUOUS
 62
    7
 10
-225.74639900000011
 20
749.84585600000003
 11
-225.71954300000016
 21
749.838257
  0
LINE
  8
_0-0_0
  6
CONTINUOUS
 62
    7
 10
-225.71954300000016
 20
749.838257
 11
-225.69390900000008
 21
749.82690400000001
  0
LINE
  8
_0-0_0
  6
CONTINUOUS
 62
    7
 10
-225.69390900000008
 20
749.82690400000001
 11
-225.67010500000015
 21
749.81201199999998
  0
LINE
  8
_0-0_0
  6
CONTINUOUS
 62
    7
 10
-225.67010500000015
 20
749.81201199999998
 11
-225.65338100000008
 21
749.79849200000001
  0
LINE
  8
_0-0_0
  6
CONTINUOUS
 62
    7
 10
-225.65338100000008
 20
749.79849200000001
 11
-225.637878
 21
749.78326399999992
  0
LINE
  8
_0-0_0
  6
CONTINUOUS
 62
    7
 10
-225.637878
 20
749.78326399999992
 11
-225.61096199999997
 21
749.74862699999994
  0
LINE
  8
_0-0_0
  6
CONTINUOUS
 62
    7
 10
-225.61096199999997
 20
749.74862699999994
 11
-225.58990500000004
 21
749.71029700000008
  0
LINE
  8
_0-0_0
  6
CONTINUOUS
 62
    7
 10
-225.58990500000004
 20
749.71029700000008
 11
-225.57794200000012
 21
749.68035899999995
  0
LINE
  8
_0-0_0
  6
CONTINUOUS
 62
    7
 10
-225.57794200000012
 20
749.68035899999995
 11
-225.56890900000008
 21
749.65002400000003
  0
LINE
  8
_0-0_0
  6
CONTINUOUS
 62
    7
 10
-225.78717000000006
 20
749.85000600000001
 11
-225.96887199999992
 21
749.85000600000001
  0
LINE
  8
_0-0_0
  6
CONTINUOUS
 62
    7
 10
-230.46887199999992
 20
751.15002400000003
 11
-230.46887199999992
 21
750.09643600000004
  0
LINE
  8
_0-0_0
  6
CONTINUOUS
 62
    7
 10
-230.46887199999992
 20
751.15002400000003
 11
-230.46887199999992
 21
768.75
  0
LINE
  8
_0-0_0
  6
CONTINUOUS
 62
    7
 10
-230.46887199999992
 20
770.72738600000002
 11
-230.46887199999992
 21
768.75
  0
ARC
  8
_0-0_0
  6
CONTINUOUS
 62
    7
 10
-230.96887199999992
 20
769.50500499999998
 40
0.5
 50
0
 51
123.74898500000002
  0
ARC
  8
_0-0_0
  6
CONTINUOUS
 62
    7
 10
-230.29858400000012
 20
750.02331500000003
 40
0.1734229999999999
 50
181.12417600000003
 51
270.64883800000007
  0
LINE
  8
_0-0_0
  6
CONTINUOUS
 62
    7
 10
-230.47296099999994
 20
750.05001800000002
 11
-230.47283900000002
 21
750.01986699999998
  0
ARC
  8
_0-0_0
  6
CONTINUOUS
 62
    7
 10
-235.16888400000016
 20
772.75
 40
0.5
 50
0
 51
90.000003000000007
  0
ARC
  8
_0-0_0
  6
CONTINUOUS
 62
    7
 10
-311.46887199999992
 20
771.75
 40
2.7000000000000002
 50
285.68033600000007
 51
0.0000000000000381
  0
ARC
  8
_0-0_0
  6
CONTINUOUS
 62
    7
 10
-294.46887199999992
 20
755.95001200000002
 40
3
 50
269.99999700000001
 51
0
  0
LINE
  8
_0-0_0
  6
CONTINUOUS
 62
    7
 10
-291.46887199999992
 20
755.95001200000002
 11
-291.46887199999992
 21
769.55001800000002
  0
ARC
  8
_0-0_0
  6
CONTINUOUS
 62
    7
 10
-294.46887199999992
 20
769.55001800000002
 40
3
 50
0
 51
90.000003000000007
  0
ARC
  8
_0-0_0
  6
CONTINUOUS
 62
    7
 10
-298.96887199999992
 20
765.25
 40
4.5
 50
269.99999700000001
 51
90.000002999999992
  0
LINE
  8
_0-0_0
  6
CONTINUOUS
 62
    7
 10
-298.96887199999992
 20
760.75
 11
-303.96887199999992
 21
760.75
  0
ARC
  8
_0-0_0
  6
CONTINUOUS
 62
    7
 10
-303.96887199999992
 20
765.25
 40
4.5
 50
90.000003000000007
 51
269.99999700000006
  0
LINE
  8
_0-0_0
  6
CONTINUOUS
 62
    7
 10
-303.96887199999992
 20
769.75
 11
-298.96887199999992
 21
769.75
  0
ARC
  8
_0-0_0
  6
CONTINUOUS
 62
    7
 10
-252.46887199999992
 20
755.95001200000002
 40
3
 50
179.99999099999999
 51
269.99999700000001
  0
LINE
  8
_0-0_0
  6
CONTINUOUS
 62
    7
 10
-255.46887199999992
 20
769.55001800000002
 11
-255.46887199999992
 21
755.95001200000002
  0
ARC
  8
_0-0_0
  6
CONTINUOUS
 62
    7
 10
-252.46887199999992
 20
769.55001800000002
 40
3
 50
90.000003000000007
 51
179.99999099999999
  0
ARC
  8
_0-0_0
  6
CONTINUOUS
 62
    7
 10
-242.96887199999992
 20
765.25
 40
4.5
 50
269.99999700000001
 51
90.000002999999992
  0
LINE
  8
_0-0_0
  6
CONTINUOUS
 62
    7
 10
-242.96887199999992
 20
760.75
 11
-247.96887199999992
 21
760.75
  0
ARC
  8
_0-0_0
  6
CONTINUOUS
 62
    7
 10
-247.96887199999992
 20
765.25
 40
4.5
 50
90.000003000000007
 51
269.99999700000006
  0
LINE
  8
_0-0_0
  6
CONTINUOUS
 62
    7
 10
-247.96887199999992
 20
769.75
 11
-242.96887199999992
 21
769.75
  0
LINE
  8
_0-0_0
  6
CONTINUOUS
 62
    7
 10
-320.96887199999992
 20
770.05001800000002
 11
-321.15063499999997
 21
770.05001800000002
  0
LINE
  8
_0-0_0
  6
CONTINUOUS
 62
    7
 10
-316.46887199999992
 20
751.95001200000002
 11
-316.46887199999992
 21
750.29168700000002
  0
LINE
  8
_0-0_0
  6
CONTINUOUS
 62
    7
 10
-316.46887199999992
 20
751.95001200000002
 11
-316.46887199999992
 21
768.45001200000002
  0
LINE
  8
_0-0_0
  6
CONTINUOUS
 62
    7
 10
-316.46887199999992
 20
769.91629
 11
-316.46887199999992
 21
768.45001200000002
  0
ARC
  8
_0-0_0
  6
CONTINUOUS
 62
    7
 10
-316.63916000000017
 20
750.02328499999999
 40
0.1734209999999999
 50
269.35085600000002
 51
358.87625300000002
  0
LINE
  8
_0-0_0
  6
CONTINUOUS
 62
    7
 10
-316.46484400000008
 20
750.05001800000002
 11
-316.46490500000004
 21
750.01986699999998
  0
LINE
  8
_0-0_0
  6
CONTINUOUS
 62
    7
 10
-316.46484400000008
 20
769.85000600000001
 11
-316.46490500000004
 21
769.88012700000002
  0
ARC
  8
_0-0_0
  6
CONTINUOUS
 62
    7
 10
-316.63916000000017
 20
769.87670900000001
 40
0.1734219999999999
 50
1.1236539999999999
 51
90.649110000000007
  0
LINE
  8
_0-0_0
  6
CONTINUOUS
 62
    7
 10
-320.96887199999992
 20
749.85000600000001
 11
-321.15063499999997
 21
749.85000600000001
  0
LINE
  8
_0-0_0
  6
CONTINUOUS
 62
    7
 10
-321.15063499999997
 20
749.85000600000001
 11
-321.17102100000011
 21
749.84899900000005
  0
LINE
  8
_0-0_0
  6
CONTINUOUS
 62
    7
 10
-321.17102100000011
 20
749.84899900000005
 11
-321.19140599999992
 21
749.84582499999999
  0
LINE
  8
_0-0_0
  6
CONTINUOUS
 62
    7
 10
-321.19140599999992
 20
749.84582499999999
 11
-321.21820100000014
 21
749.838257
  0
LINE
  8
_0-0_0
  6
CONTINUOUS
 62
    7
 10
-321.21820100000014
 20
749.838257
 11
-321.24383499999999
 21
749.82690400000001
  0
LINE
  8
_0-0_0
  6
CONTINUOUS
 62
    7
 10
-321.24383499999999
 20
749.82690400000001
 11
-321.26763900000014
 21
749.81201199999998
  0
LINE
  8
_0-0_0
  6
CONTINUOUS
 62
    7
 10
-321.26763900000014
 20
749.81201199999998
 11
-321.28442399999994
 21
749.79849200000001
  0
LINE
  8
_0-0_0
  6
CONTINUOUS
 62
    7
 10
-321.28442399999994
 20
749.79849200000001
 11
-321.29992700000003
 21
749.78326399999992
  0
LINE
  8
_0-0_0
  6
CONTINUOUS
 62
    7
 10
-321.29992700000003
 20
749.78326399999992
 11
-321.32684300000005
 21
749.74862699999994
  0
LINE
  8
_0-0_0
  6
CONTINUOUS
 62
    7
 10
-321.32684300000005
 20
749.74862699999994
 11
-321.34783900000002
 21
749.71029700000008
  0
LINE
  8
_0-0_0
  6
CONTINUOUS
 62
    7
 10
-321.34783900000002
 20
749.71029700000008
 11
-321.35986300000013
 21
749.68035899999995
  0
LINE
  8
_0-0_0
  6
CONTINUOUS
 62
    7
 10
-321.35986300000013
 20
749.68035899999995
 11
-321.36889700000006
 21
749.65002400000003
  0
ARC
  8
_0-0_0
  6
CONTINUOUS
 62
    7
 10
-320.96887199999992
 20
747.15002400000003
 40
0.5
 50
179.99999099999999
 51
269.99999700000001
  0
ARC
  8
_0-0_0
  6
CONTINUOUS
 62
    7
 10
-316.66888400000016
 20
746.45001200000002
 40
0.2
 50
0
 51
90.000003000000007
  0
LINE
  8
_0-0_0
  6
CONTINUOUS
 62
    7
 10
-316.46887199999992
 20
746.25
 11
-315.96887199999992
 21
745.75
  0
LINE
  8
_0-0_0
  6
CONTINUOUS
 62
    7
 10
-322.46887199999992
 20
772.09429899999998
 11
-322.46887199999992
 21
773.65002400000003
  0
ARC
  8
_0-0_0
  6
CONTINUOUS
 62
    7
 10
-321.9819950000001
 20
772.09765599999992
 40
0.4869939999999999
 50
180.39493000000002
 51
203.93946700000001
  0
ARC
  8
_0-0_0
  6
CONTINUOUS
 62
    7
 10
-321.96887199999992
 20
772.10000600000001
 40
0.5
 50
203.57823099999999
 51
269.99999700000001
  0
ARC
  8
_0-0_0
  6
CONTINUOUS
 62
    7
 10
-321.96887199999992
 20
773.65002400000003
 40
0.5
 50
90.000003000000007
 51
179.99999099999999
  0
LINE
  8
_0-0_0
  6
CONTINUOUS
 62
    7
 10
-230.46887199999992
 20
771.45001200000002
 11
-229.96887199999992
 21
771.45001200000002
  0
LINE
  8
_0-0_0
  6
CONTINUOUS
 62
    7
 10
-229.96887199999992
 20
771.45001200000002
 11
-217.46890299999995
 21
771.45001200000002
  0
ARC
  8
_0-0_0
  6
CONTINUOUS
 62
    7
 10
-229.96887199999992
 20
771.95001200000002
 40
0.5
 50
179.99999099999999
 51
269.99999700000001
  0
LINE
  8
_0-0_0
  6
CONTINUOUS
 62
    7
 10
-230.46887199999992
 20
771.08398399999999
 11
-230.46887199999992
 21
771.45001200000002
  0
LINE
  8
_0-0_0
  6
CONTINUOUS
 62
    7
 10
-230.46887199999992
 20
770.83349599999997
 11
-230.46887199999992
 21
770.72738600000002
  0
LINE
  8
_0-0_0
  6
CONTINUOUS
 62
    7
 10
-230.46887199999992
 20
771.08398399999999
 11
-230.46887199999992
 21
770.83349599999997
  0
CIRCLE
  8
_0-0_0
  6
CONTINUOUS
 62
    7
 10
-311.46887199999992
 20
771.75
 40
1.4750000000000001
  0
CIRCLE
  8
_0-0_0
  6
CONTINUOUS
 62
    7
 10
-232.46887199999992
 20
771.75
 40
1.4750000000000001
  0
LINE
  8
_0-0_0
  6
CONTINUOUS
 62
    7
 10
-322.46887199999992
 20
751.95001200000002
 11
-322.46887199999992
 21
749.45001200000002
  0
LINE
  8
_0-0_0
  6
CONTINUOUS
 62
    7
 10
-322.46887199999992
 20
751.95001200000002
 11
-322.46887199999992
 21
764.75
  0
LINE
  8
_0-0_0
  6
CONTINUOUS
 62
    7
 10
-322.46887199999992
 20
768.25
 11
-322.46887199999992
 21
764.75
  0
LINE
  8
_0-0_0
  6
CONTINUOUS
 62
    7
 10
-322.46887199999992
 20
768.25
 11
-322.46887199999992
 21
768.60000600000001
  0
LINE
  8
_0-0_0
  6
CONTINUOUS
 62
    7
 10
-322.46887199999992
 20
772.09429899999998
 11
-322.46887199999992
 21
768.60000600000001
  0
LINE
  8
_0-0_0
  6
CONTINUOUS
 62
    7
 10
-322.46887199999992
 20
773.942902
 11
-322.46887199999992
 21
773.65002400000003
  0
LINE
  8
_0-0_0
  6
CONTINUOUS
 62
    7
 10
-322.46887199999992
 20
773.942902
 11
-322.46887199999992
 21
774
  0
LINE
  8
_0-0_0
  6
CONTINUOUS
 62
    7
 10
-321.46838400000001
 20
748.95001200000002
 11
-321.96887199999992
 21
748.95001200000002
  0
LINE
  8
_0-0_0
  6
CONTINUOUS
 62
    7
 10
-225.4801030000001
 20
749.15002400000003
 11
-218.46890299999995
 21
749.15002400000003
  0
LINE
  8
_0-0_0
  6
CONTINUOUS
 62
    7
 10
-218.46890299999995
 20
749.15002400000003
 11
-213.79345699999999
 21
749.15002400000003
  0
LINE
  8
_0-0_0
  6
CONTINUOUS
 62
    7
 10
-218.46890299999995
 20
749.15002400000003
 11
-218.46890299999995
 21
751.15002400000003
  0
LINE
  8
_0-0_0
  6
CONTINUOUS
 62
    7
 10
-218.46890299999995
 20
754.65002400000003
 11
-218.46890299999995
 21
751.65002400000003
  0
LINE
  8
_0-0_0
  6
CONTINUOUS
 62
    7
 10
-218.46890299999995
 20
751.65002400000003
 11
-218.46890299999995
 21
751.15002400000003
  0
LINE
  8
_0-0_0
  6
CONTINUOUS
 62
    7
 10
-218.46890299999995
 20
754.65002400000003
 11
-218.46890299999995
 21
755.15002400000003
  0
ARC
  8
_0-0_0
  6
CONTINUOUS
 62
    7
 10
-224.46893300000011
 20
754.45001200000002
 40
0.500016
 50
180.00117
 51
359.995611
  0
LINE
  8
_0-0_0
  6
CONTINUOUS
 62
    7
 10
-223.96887199999992
 20
754.45001200000002
 11
-223.96887199999992
 21
766.45001200000002
  0
ARC
  8
_0-0_0
  6
CONTINUOUS
 62
    7
 10
-224.46893300000011
 20
766.45001200000002
 40
0.500016
 50
0.001164
 51
179.99560600000004
  0
LINE
  8
_0-0_0
  6
CONTINUOUS
 62
    7
 10
-224.96887199999992
 20
754.45001200000002
 11
-224.96887199999992
 21
766.45001200000002
  0
ARC
  8
_0-0_0
  6
CONTINUOUS
 62
    7
 10
-222.96893300000011
 20
754.45001200000002
 40
0.500016
 50
180.00117
 51
359.995611
  0
LINE
  8
_0-0_0
  6
CONTINUOUS
 62
    7
 10
-222.46887199999992
 20
754.45001200000002
 11
-222.46887199999992
 21
766.45001200000002
  0
ARC
  8
_0-0_0
  6
CONTINUOUS
 62
    7
 10
-222.96893300000011
 20
766.45001200000002
 40
0.500016
 50
0.001164
 51
179.99560600000004
  0
LINE
  8
_0-0_0
  6
CONTINUOUS
 62
    7
 10
-223.46887199999992
 20
754.45001200000002
 11
-223.46887199999992
 21
766.45001200000002
  0
ARC
  8
_0-0_0
  6
CONTINUOUS
 62
    7
 10
-221.46891800000003
 20
754.45001200000002
 40
0.500016
 50
180.00117
 51
359.995611
  0
LINE
  8
_0-0_0
  6
CONTINUOUS
 62
    7
 10
-220.96890299999995
 20
754.45001200000002
 11
-220.96890299999995
 21
766.45001200000002
  0
ARC
  8
_0-0_0
  6
CONTINUOUS
 62
    7
 10
-221.46891800000003
 20
766.45001200000002
 40
0.500016
 50
0.001164
 51
179.99560600000004
  0
LINE
  8
_0-0_0
  6
CONTINUOUS
 62
    7
 10
-221.96890299999995
 20
754.45001200000002
 11
-221.96890299999995
 21
766.45001200000002
  0
ARC
  8
_0-0_0
  6
CONTINUOUS
 62
    7
 10
-219.96891800000003
 20
754.45001200000002
 40
0.500016
 50
180.00117
 51
359.995611
  0
LINE
  8
_0-0_0
  6
CONTINUOUS
 62
    7
 10
-219.46890299999995
 20
754.45001200000002
 11
-219.46890299999995
 21
766.45001200000002
  0
ARC
  8
_0-0_0
  6
CONTINUOUS
 62
    7
 10
-219.96891800000003
 20
766.45001200000002
 40
0.500016
 50
0.001164
 51
179.99560600000004
  0
LINE
  8
_0-0_0
  6
CONTINUOUS
 62
    7
 10
-220.46890299999995
 20
754.45001200000002
 11
-220.46890299999995
 21
766.45001200000002
  0
LINE
  8
_0-0_0
  6
CONTINUOUS
 62
    7
 10
-230.46887199999992
 20
770.75
 11
-213.79345699999999
 21
770.75
  0
LINE
  8
_0-0_0
  6
CONTINUOUS
 62
    7
 10
-321.96887199999992
 20
774.5
 11
-316.46887199999992
 21
774.5
  0
ARC
  8
_0-0_0
  6
CONTINUOUS
 62
    7
 10
-321.96887199999992
 20
774
 40
0.5
 50
90.000003000000007
 51
179.99999099999999
  0
ARC
  8
_0-0_0
  6
CONTINUOUS
 62
    7
 10
-321.96887199999992
 20
749.45001200000002
 40
0.5
 50
179.99999099999999
 51
269.99999700000001
  0
ARC
  8
_0-0_0
  6
CONTINUOUS
 62
    7
 10
-321.96887199999992
 20
764.75
 40
0.5
 50
90.000003000000007
 51
179.99999099999999
  0
ARC
  8
_0-0_0
  6
CONTINUOUS
 62
    7
 10
-213.79345699999999
 20
751.15002400000003
 40
2
 50
269.99999700000001
 51
288.43501300000003
  0
LINE
  8
_0-0_0
  6
CONTINUOUS
 62
    7
 10
-218.46890299999995
 20
749.15002400000003
 11
-218.46890299999995
 21
749.40008499999999
  0
LINE
  8
_0-0_0
  6
CONTINUOUS
 62
    7
 10
-218.46890299999995
 20
754.65002400000003
 11
-213.79345699999999
 21
754.65002400000003
  0
LINE
  8
_0-0_0
  6
CONTINUOUS
 62
    7
 10
-213.16099600000007
 20
770.64736900000003
 11
-213.28050200000007
 21
770.68298299999992
  0
LINE
  8
_0-0_0
  6
CONTINUOUS
 62
    7
 10
-213.28050200000007
 20
770.68298299999992
 11
-213.40205400000013
 21
770.71087599999998
  0
LINE
  8
_0-0_0
  6
CONTINUOUS
 62
    7
 10
-213.40205400000013
 20
770.71087599999998
 11
-213.52519200000006
 21
770.73092700000007
  0
LINE
  8
_0-0_0
  6
CONTINUOUS
 62
    7
 10
-213.52519200000006
 20
770.73092700000007
 11
-213.64941399999998
 21
770.74304200000006
  0
LINE
  8
_0-0_0
  6
CONTINUOUS
 62
    7
 10
-213.64941399999998
 20
770.74304200000006
 11
-213.7742310000001
 21
770.747162
  0
LINE
  8
_0-0_0
  6
CONTINUOUS
 62
    7
 10
-213.7742310000001
 20
770.747162
 11
-213.79345699999999
 21
770.74710099999993
  0
ARC
  8
_0-0_0
  6
CONTINUOUS
 62
    7
 10
-213.79345699999999
 20
768.75
 40
2
 50
71.565000999999995
 51
90.000003000000007
  0
LINE
  8
_0-0_0
  6
CONTINUOUS
 62
    7
 10
-297.49737600000003
 20
761.15002400000003
 11
-305.44043000000011
 21
761.15002400000003
  0
ARC
  8
_0-0_0
  6
CONTINUOUS
 62
    7
 10
-305.44043000000011
 20
761.65002400000003
 40
0.5
 50
210.00000299999999
 51
269.99999700000001
  0
LINE
  8
_0-0_0
  6
CONTINUOUS
 62
    7
 10
-305.87347399999999
 20
761.40002400000003
 11
-307.95190400000001
 21
765
  0
ARC
  8
_0-0_0
  6
CONTINUOUS
 62
    7
 10
-307.51892100000009
 20
765.25
 40
0.5
 50
149.99999700000001
 51
210.00000299999996
  0
LINE
  8
_0-0_0
  6
CONTINUOUS
 62
    7
 10
-307.95190400000001
 20
765.5
 11
-305.87347399999999
 21
769.10000600000001
  0
ARC
  8
_0-0_0
  6
CONTINUOUS
 62
    7
 10
-305.44043000000011
 20
768.85000600000001
 40
0.5
 50
90.000003000000007
 51
149.99999700000001
  0
LINE
  8
_0-0_0
  6
CONTINUOUS
 62
    7
 10
-305.44043000000011
 20
769.35000600000001
 11
-297.49737600000003
 21
769.35000600000001
  0
ARC
  8
_0-0_0
  6
CONTINUOUS
 62
    7
 10
-297.49737600000003
 20
768.85000600000001
 40
0.5
 50
30.000001000000001
 51
90.000003000000007
  0
LINE
  8
_0-0_0
  6
CONTINUOUS
 62
    7
 10
-297.06433100000004
 20
769.10000600000001
 11
-294.98590100000001
 21
765.5
  0
ARC
  8
_0-0_0
  6
CONTINUOUS
 62
    7
 10
-295.41888400000016
 20
765.25
 40
0.5
 50
329.99998900000003
 51
30.000000999999983
  0
LINE
  8
_0-0_0
  6
CONTINUOUS
 62
    7
 10
-294.98590100000001
 20
765
 11
-297.06433100000004
 21
761.40002400000003
  0
ARC
  8
_0-0_0
  6
CONTINUOUS
 62
    7
 10
-297.49737600000003
 20
761.65002400000003
 40
0.5
 50
269.99999700000001
 51
329.99998900000003
  0
ARC
  8
_0-0_0
  6
CONTINUOUS
 62
    7
 10
-249.49816899999996
 20
761.75
 40
0.5
 50
210.00000299999999
 51
269.99999700000001
  0
LINE
  8
_0-0_0
  6
CONTINUOUS
 62
    7
 10
-249.93115200000011
 20
761.5
 11
-251.95190400000001
 21
765
  0
ARC
  8
_0-0_0
  6
CONTINUOUS
 62
    7
 10
-251.51892100000009
 20
765.25
 40
0.5
 50
149.99999700000001
 51
210.00000299999996
  0
LINE
  8
_0-0_0
  6
CONTINUOUS
 62
    7
 10
-251.95190400000001
 20
765.5
 11
-249.93115200000011
 21
769
  0
ARC
  8
_0-0_0
  6
CONTINUOUS
 62
    7
 10
-249.49816899999996
 20
768.75
 40
0.5
 50
90.000003000000007
 51
149.99999700000001
  0
LINE
  8
_0-0_0
  6
CONTINUOUS
 62
    7
 10
-249.49816899999996
 20
769.25
 11
-241.43963600000006
 21
769.25
  0
ARC
  8
_0-0_0
  6
CONTINUOUS
 62
    7
 10
-241.43963600000006
 20
768.75
 40
0.5
 50
30.000001000000001
 51
90.000003000000007
  0
LINE
  8
_0-0_0
  6
CONTINUOUS
 62
    7
 10
-241.00659199999996
 20
769
 11
-238.98590100000001
 21
765.5
  0
ARC
  8
_0-0_0
  6
CONTINUOUS
 62
    7
 10
-239.41888400000016
 20
765.25
 40
0.5
 50
329.99998900000003
 51
30.000000999999983
  0
LINE
  8
_0-0_0
  6
CONTINUOUS
 62
    7
 10
-238.98590100000001
 20
765
 11
-241.00659199999996
 21
761.5
  0
ARC
  8
_0-0_0
  6
CONTINUOUS
 62
    7
 10
-241.43963600000006
 20
761.75
 40
0.5
 50
269.99999700000001
 51
329.99998900000003
  0
LINE
  8
_0-0_0
  6
CONTINUOUS
 62
    7
 10
-241.43963600000006
 20
761.25
 11
-249.49816899999996
 21
761.25
  0
LINE
  8
_0-0_0
  6
CONTINUOUS
 62
    7
 10
-319.46887199999992
 20
769.88043199999993
 11
-319.46887199999992
 21
769.05419899999993
  0
LINE
  8
_0-0_0
  6
CONTINUOUS
 62
    7
 10
-321.96887199999992
 20
765.25
 11
-319.76892100000009
 21
765.25
  0
LINE
  8
_0-0_0
  6
CONTINUOUS
 62
    7
 10
-319.46887199999992
 20
765.55001800000002
 11
-319.46887199999992
 21
767.77832000000001
  0
LINE
  8
_0-0_0
  6
CONTINUOUS
 62
    7
 10
-319.46887199999992
 20
770.04968299999996
 11
-319.46887199999992
 21
769.88043199999993
  0
LINE
  8
_0-0_0
  6
CONTINUOUS
 62
    7
 10
-311.26892100000009
 20
770.65002400000003
 11
-311.66888400000016
 21
770.65002400000003
  0
LINE
  8
_0-0_0
  6
CONTINUOUS
 62
    7
 10
-311.26892100000009
 20
770.65002400000003
 11
-311.26892100000009
 21
771.30001800000002
  0
ARC
  8
_0-0_0
  6
CONTINUOUS
 62
    7
 10
-311.01892100000009
 20
771.30001800000002
 40
0.25
 50
90.000003000000007
 51
179.99999099999999
  0
LINE
  8
_0-0_0
  6
CONTINUOUS
 62
    7
 10
-311.01892100000009
 20
771.55001800000002
 11
-310.36889700000006
 21
771.55001800000002
  0
LINE
  8
_0-0_0
  6
CONTINUOUS
 62
    7
 10
-310.36889700000006
 20
771.55001800000002
 11
-310.36889700000006
 21
771.95001200000002
  0
LINE
  8
_0-0_0
  6
CONTINUOUS
 62
    7
 10
-311.01892100000009
 20
771.95001200000002
 11
-310.36889700000006
 21
771.95001200000002
  0
ARC
  8
_0-0_0
  6
CONTINUOUS
 62
    7
 10
-311.01892100000009
 20
772.20001200000002
 40
0.25
 50
179.99999099999999
 51
269.99999700000001
  0
LINE
  8
_0-0_0
  6
CONTINUOUS
 62
    7
 10
-311.26892100000009
 20
772.85000600000001
 11
-311.26892100000009
 21
772.20001200000002
  0
LINE
  8
_0-0_0
  6
CONTINUOUS
 62
    7
 10
-311.26892100000009
 20
772.85000600000001
 11
-311.66888400000016
 21
772.85000600000001
  0
LINE
  8
_0-0_0
  6
CONTINUOUS
 62
    7
 10
-311.66888400000016
 20
772.85000600000001
 11
-311.66888400000016
 21
772.20001200000002
  0
ARC
  8
_0-0_0
  6
CONTINUOUS
 62
    7
 10
-311.91888400000016
 20
772.20001200000002
 40
0.25
 50
269.99999700000001
 51
0
  0
LINE
  8
_0-0_0
  6
CONTINUOUS
 62
    7
 10
-311.91888400000016
 20
771.95001200000002
 11
-312.56890900000008
 21
771.95001200000002
  0
LINE
  8
_0-0_0
  6
CONTINUOUS
 62
    7
 10
-312.56890900000008
 20
771.55001800000002
 11
-312.56890900000008
 21
771.95001200000002
  0
LINE
  8
_0-0_0
  6
CONTINUOUS
 62
    7
 10
-311.91888400000016
 20
771.55001800000002
 11
-312.56890900000008
 21
771.55001800000002
  0
ARC
  8
_0-0_0
  6
CONTINUOUS
 62
    7
 10
-311.91888400000016
 20
771.30001800000002
 40
0.25
 50
0
 51
90.000003000000007
  0
LINE
  8
_0-0_0
  6
CONTINUOUS
 62
    7
 10
-311.66888400000016
 20
770.65002400000003
 11
-311.66888400000016
 21
771.30001800000002
  0
LINE
  8
_0-0_0
  6
CONTINUOUS
 62
    7
 10
-232.26892100000009
 20
770.65002400000003
 11
-232.66888400000016
 21
770.65002400000003
  0
LINE
  8
_0-0_0
  6
CONTINUOUS
 62
    7
 10
-232.26892100000009
 20
770.65002400000003
 11
-232.26892100000009
 21
771.30001800000002
  0
ARC
  8
_0-0_0
  6
CONTINUOUS
 62
    7
 10
-232.01892100000009
 20
771.30001800000002
 40
0.25
 50
90.000003000000007
 51
179.99999099999999
  0
LINE
  8
_0-0_0
  6
CONTINUOUS
 62
    7
 10
-232.01892100000009
 20
771.55001800000002
 11
-231.36889700000006
 21
771.55001800000002
  0
LINE
  8
_0-0_0
  6
CONTINUOUS
 62
    7
 10
-231.36889700000006
 20
771.55001800000002
 11
-231.36889700000006
 21
771.95001200000002
  0
LINE
  8
_0-0_0
  6
CONTINUOUS
 62
    7
 10
-232.01892100000009
 20
771.95001200000002
 11
-231.36889700000006
 21
771.95001200000002
  0
ARC
  8
_0-0_0
  6
CONTINUOUS
 62
    7
 10
-232.01892100000009
 20
772.20001200000002
 40
0.25
 50
179.99999099999999
 51
269.99999700000001
  0
LINE
  8
_0-0_0
  6
CONTINUOUS
 62
    7
 10
-232.26892100000009
 20
772.85000600000001
 11
-232.26892100000009
 21
772.20001200000002
  0
LINE
  8
_0-0_0
  6
CONTINUOUS
 62
    7
 10
-232.26892100000009
 20
772.85000600000001
 11
-232.66888400000016
 21
772.85000600000001
  0
LINE
  8
_0-0_0
  6
CONTINUOUS
 62
    7
 10
-232.66888400000016
 20
772.85000600000001
 11
-232.66888400000016
 21
772.20001200000002
  0
ARC
  8
_0-0_0
  6
CONTINUOUS
 62
    7
 10
-232.91888400000016
 20
772.20001200000002
 40
0.25
 50
269.99999700000001
 51
0
  0
LINE
  8
_0-0_0
  6
CONTINUOUS
 62
    7
 10
-232.91888400000016
 20
771.95001200000002
 11
-233.56890900000008
 21
771.95001200000002
  0
LINE
  8
_0-0_0
  6
CONTINUOUS
 62
    7
 10
-233.56890900000008
 20
771.55001800000002
 11
-233.56890900000008
 21
771.95001200000002
  0
LINE
  8
_0-0_0
  6
CONTINUOUS
 62
    7
 10
-232.91888400000016
 20
771.55001800000002
 11
-233.56890900000008
 21
771.55001800000002
  0
ARC
  8
_0-0_0
  6
CONTINUOUS
 62
    7
 10
-232.91888400000016
 20
771.30001800000002
 40
0.25
 50
0
 51
90.000003000000007
  0
LINE
  8
_0-0_0
  6
CONTINUOUS
 62
    7
 10
-232.66888400000016
 20
770.65002400000003
 11
-232.66888400000016
 21
771.30001800000002
  0
LINE
  8
_0-0_0
  6
CONTINUOUS
 62
    7
 10
-212.71890299999995
 20
749.39999399999999
 11
-213.16099600000007
 21
749.25262500000008
  0
LINE
  8
_0-0_0
  6
CONTINUOUS
 62
    7
 10
-208.994553
 20
754.65002400000003
 11
-208.30119300000001
 21
754.65002400000003
  0
LINE
  8
_0-0_0
  6
CONTINUOUS
 62
    7
 10
-208.994553
 20
754.65002400000003
 11
-213.31910700000003
 21
754.65002400000003
  0
LINE
  8
_0-0_0
  6
CONTINUOUS
 62
    7
 10
-213.79345699999999
 20
754.65002400000003
 11
-213.31910700000003
 21
754.65002400000003
  0
LINE
  8
_0-0_0
  6
CONTINUOUS
 62
    7
 10
-208.83644099999992
 20
769.20584099999996
 11
-213.16099600000007
 21
770.64736900000003
  0
LINE
  8
_0-0_0
  6
CONTINUOUS
 62
    7
 10
-319.46887199999992
 20
769.05419899999993
 11
-319.46887199999992
 21
767.77832000000001
  0
ARC
  8
_0-0_0
  6
CONTINUOUS
 62
    7
 10
-319.76892100000009
 20
765.55001800000002
 40
0.2999999999999999
 50
269.99999700000001
 51
0
  0
LINE
  8
_0-0_0
  6
CONTINUOUS
 62
    7
 10
-321.92456100000004
 20
769.32870500000001
 11
-321.92456100000004
 21
766
  0
LINE
  8
_0-0_0
  6
CONTINUOUS
 62
    7
 10
-321.92456100000004
 20
770.5
 11
-321.92456100000004
 21
769.32870500000001
  0
LINE
  8
_0-0_0
  6
CONTINUOUS
 62
    7
 10
-207.46890299999995
 20
753.89996300000007
 11
-207.46890299999995
 21
755.02099599999997
  0
LINE
  8
_0-0_0
  6
CONTINUOUS
 62
    7
 10
-207.46890299999995
 20
755.94232199999999
 11
-207.46890299999995
 21
755.02099599999997
  0
LINE
  8
_0-0_0
  6
CONTINUOUS
 62
    7
 10
-207.76890600000002
 20
757.73800699999993
 11
-207.71009800000002
 21
757.49117999999999
  0
LINE
  8
_0-0_0
  6
CONTINUOUS
 62
    7
 10
-207.71009800000002
 20
757.49117999999999
 11
-207.66033900000002
 21
757.29882799999996
  0
LINE
  8
_0-0_0
  6
CONTINUOUS
 62
    7
 10
-207.66033900000002
 20
757.29882799999996
 11
-207.589203
 21
757.033051
  0
LINE
  8
_0-0_0
  6
CONTINUOUS
 62
    7
 10
-207.589203
 20
757.033051
 11
-207.55624400000011
 21
756.906342
  0
LINE
  8
_0-0_0
  6
CONTINUOUS
 62
    7
 10
-207.55624400000011
 20
756.906342
 11
-207.53099100000009
 21
756.80291699999998
  0
LINE
  8
_0-0_0
  6
CONTINUOUS
 62
    7
 10
-207.53099100000009
 20
756.80291699999998
 11
-207.50895700000001
 21
756.70297200000005
  0
LINE
  8
_0-0_0
  6
CONTINUOUS
 62
    7
 10
-207.50895700000001
 20
756.70297200000005
 11
-207.4875790000001
 21
756.58526600000005
  0
LINE
  8
_0-0_0
  6
CONTINUOUS
 62
    7
 10
-207.4875790000001
 20
756.58526600000005
 11
-207.47900400000003
 21
756.52313200000003
  0
LINE
  8
_0-0_0
  6
CONTINUOUS
 62
    7
 10
-207.47900400000003
 20
756.52313200000003
 11
-207.47293100000002
 21
756.46252400000003
  0
LINE
  8
_0-0_0
  6
CONTINUOUS
 62
    7
 10
-207.47293100000002
 20
756.46252400000003
 11
-207.4699250000001
 21
756.41329999999994
  0
LINE
  8
_0-0_0
  6
CONTINUOUS
 62
    7
 10
-207.4699250000001
 20
756.41329999999994
 11
-207.46890299999995
 21
756.36505099999999
  0
LINE
  8
_0-0_0
  6
CONTINUOUS
 62
    7
 10
-207.76890600000002
 20
762.16204800000003
 11
-207.8523560000001
 21
761.78335600000003
  0
LINE
  8
_0-0_0
  6
CONTINUOUS
 62
    7
 10
-207.8523560000001
 20
761.78335600000003
 11
-207.89245600000004
 21
761.59182699999997
  0
LINE
  8
_0-0_0
  6
CONTINUOUS
 62
    7
 10
-207.89245600000004
 20
761.59182699999997
 11
-207.94853200000011
 21
761.30181900000002
  0
LINE
  8
_0-0_0
  6
CONTINUOUS
 62
    7
 10
-207.94853200000011
 20
761.30181900000002
 11
-207.98613
 21
761.08221400000002
  0
LINE
  8
_0-0_0
  6
CONTINUOUS
 62
    7
 10
-207.98613
 20
761.08221400000002
 11
-208.0187840000001
 21
760.86096199999997
  0
LINE
  8
_0-0_0
  6
CONTINUOUS
 62
    7
 10
-208.0187840000001
 20
760.86096199999997
 11
-208.04594399999996
 21
760.63415499999996
  0
LINE
  8
_0-0_0
  6
CONTINUOUS
 62
    7
 10
-208.04594399999996
 20
760.63415499999996
 11
-208.06601000000001
 21
760.40676899999994
  0
LINE
  8
_0-0_0
  6
CONTINUOUS
 62
    7
 10
-208.06601000000001
 20
760.40676899999994
 11
-208.07316600000013
 21
760.29303000000004
  0
LINE
  8
_0-0_0
  6
CONTINUOUS
 62
    7
 10
-208.07316600000013
 20
760.29303000000004
 11
-208.07832299999995
 21
760.17935199999999
  0
LINE
  8
_0-0_0
  6
CONTINUOUS
 62
    7
 10
-208.07832299999995
 20
760.17935199999999
 11
-208.08203099999992
 21
760.02792399999998
  0
LINE
  8
_0-0_0
  6
CONTINUOUS
 62
    7
 10
-208.08203099999992
 20
760.02792399999998
 11
-208.0820920000001
 21
759.87667800000008
  0
LINE
  8
_0-0_0
  6
CONTINUOUS
 62
    7
 10
-208.0820920000001
 20
759.87667800000008
 11
-208.07852200000002
 21
759.72561599999995
  0
LINE
  8
_0-0_0
  6
CONTINUOUS
 62
    7
 10
-208.07852200000002
 20
759.72561599999995
 11
-208.06901599999992
 21
759.53707899999995
  0
LINE
  8
_0-0_0
  6
CONTINUOUS
 62
    7
 10
-208.06901599999992
 20
759.53707899999995
 11
-208.05413799999997
 21
759.34881599999994
  0
LINE
  8
_0-0_0
  6
CONTINUOUS
 62
    7
 10
-208.05413799999997
 20
759.34881599999994
 11
-208.03422500000011
 21
759.160889
  0
LINE
  8
_0-0_0
  6
CONTINUOUS
 62
    7
 10
-208.03422500000011
 20
759.160889
 11
-208.01783799999998
 21
759.03201300000001
  0
LINE
  8
_0-0_0
  6
CONTINUOUS
 62
    7
 10
-208.01783799999998
 20
759.03201300000001
 11
-207.9994200000001
 21
758.90335099999993
  0
LINE
  8
_0-0_0
  6
CONTINUOUS
 62
    7
 10
-207.9994200000001
 20
758.90335099999993
 11
-207.97526599999992
 21
758.75140399999998
  0
LINE
  8
_0-0_0
  6
CONTINUOUS
 62
    7
 10
-207.97526599999992
 20
758.75140399999998
 11
-207.94886799999995
 21
758.60006700000008
  0
LINE
  8
_0-0_0
  6
CONTINUOUS
 62
    7
 10
-207.94886799999995
 20
758.60006700000008
 11
-207.8927000000001
 21
758.30944799999997
  0
LINE
  8
_0-0_0
  6
CONTINUOUS
 62
    7
 10
-207.8927000000001
 20
758.30944799999997
 11
-207.85253899999998
 21
758.11749299999997
  0
LINE
  8
_0-0_0
  6
CONTINUOUS
 62
    7
 10
-207.85253899999998
 20
758.11749299999997
 11
-207.76890600000002
 21
757.73800699999993
  0
LINE
  8
_0-0_0
  6
CONTINUOUS
 62
    7
 10
-207.76889000000006
 20
762.16204800000003
 11
-207.71009800000002
 21
762.40887500000008
  0
LINE
  8
_0-0_0
  6
CONTINUOUS
 62
    7
 10
-207.71009800000002
 20
762.40887500000008
 11
-207.66033900000002
 21
762.60119600000007
  0
LINE
  8
_0-0_0
  6
CONTINUOUS
 62
    7
 10
-207.66033900000002
 20
762.60119600000007
 11
-207.58921800000007
 21
762.86694299999999
  0
LINE
  8
_0-0_0
  6
CONTINUOUS
 62
    7
 10
-207.58921800000007
 20
762.86694299999999
 11
-207.55625899999995
 21
762.993652
  0
LINE
  8
_0-0_0
  6
CONTINUOUS
 62
    7
 10
-207.55625899999995
 20
762.993652
 11
-207.53099100000009
 21
763.09707600000002
  0
LINE
  8
_0-0_0
  6
CONTINUOUS
 62
    7
 10
-207.53099100000009
 20
763.09707600000002
 11
-207.50895700000001
 21
763.19705199999999
  0
LINE
  8
_0-0_0
  6
CONTINUOUS
 62
    7
 10
-207.50895700000001
 20
763.19705199999999
 11
-207.4875790000001
 21
763.31475799999998
  0
LINE
  8
_0-0_0
  6
CONTINUOUS
 62
    7
 10
-207.4875790000001
 20
763.31475799999998
 11
-207.47900400000003
 21
763.376892
  0
LINE
  8
_0-0_0
  6
CONTINUOUS
 62
    7
 10
-207.47900400000003
 20
763.376892
 11
-207.47293100000002
 21
763.4375
  0
LINE
  8
_0-0_0
  6
CONTINUOUS
 62
    7
 10
-207.47293100000002
 20
763.4375
 11
-207.4699250000001
 21
763.48672499999998
  0
LINE
  8
_0-0_0
  6
CONTINUOUS
 62
    7
 10
-207.4699250000001
 20
763.48672499999998
 11
-207.46890299999995
 21
763.534943
  0
LINE
  8
_0-0_0
  6
CONTINUOUS
 62
    7
 10
-207.46890299999995
 20
767.30847199999994
 11
-207.46890299999995
 21
763.95770300000004
  0
ARC
  8
_0-0_0
  6
CONTINUOUS
 62
    7
 10
-209.46890299999995
 20
767.30847199999994
 40
2
 50
0
 51
71.565000999999995
  0
CIRCLE
  8
_0-0_0
  6
CONTINUOUS
 62
    7
 10
-301.46887199999992
 20
765.25
 40
2.5
  0
CIRCLE
  8
_0-0_0
  6
CONTINUOUS
 62
    7
 10
-245.46887199999992
 20
765.25
 40
2.5
  0
LINE
  8
_0-0_0
  6
CONTINUOUS
 62
    7
 10
-322.06890900000008
 20
769.20886199999995
 11
-322.06890900000008
 21
766.25
  0
LINE
  8
_0-0_0
  6
CONTINUOUS
 62
    7
 10
-322.06890900000008
 20
770.25
 11
-322.06890900000008
 21
769.20886199999995
  0
LINE
  8
_0-0_0
  6
CONTINUOUS
 62
    7
 10
-192.46890299999995
 20
750.42456100000004
 11
-192.46890299999995
 21
750.57128899999998
  0
LINE
  8
_0-0_0
  6
CONTINUOUS
 62
    7
 10
-192.46890299999995
 20
750.23403899999994
 11
-192.46890299999995
 21
750.42456100000004
  0
LINE
  8
_0-0_0
  6
CONTINUOUS
 62
    7
 10
-192.46890299999995
 20
750.05902100000003
 11
-192.46890299999995
 21
750.23403899999994
  0
LINE
  8
_0-0_0
  6
CONTINUOUS
 62
    7
 10
-192.46890299999995
 20
749.90142800000001
 11
-192.46890299999995
 21
750.05902100000003
  0
LINE
  8
_0-0_0
  6
CONTINUOUS
 62
    7
 10
-192.46890299999995
 20
749.76299999999992
 11
-192.46890299999995
 21
749.90142800000001
  0
LINE
  8
_0-0_0
  6
CONTINUOUS
 62
    7
 10
-192.46890299999995
 20
749.64523299999996
 11
-192.46890299999995
 21
749.76299999999992
  0
LINE
  8
_0-0_0
  6
CONTINUOUS
 62
    7
 10
-192.46890299999995
 20
749.54943800000001
 11
-192.46890299999995
 21
749.64523299999996
  0
LINE
  8
_0-0_0
  6
CONTINUOUS
 62
    7
 10
-192.46890299999995
 20
749.47668499999997
 11
-192.46890299999995
 21
749.54943800000001
  0
LINE
  8
_0-0_0
  6
CONTINUOUS
 62
    7
 10
-192.46890299999995
 20
749.42770399999995
 11
-192.46890299999995
 21
749.47668499999997
  0
LINE
  8
_0-0_0
  6
CONTINUOUS
 62
    7
 10
-192.46890299999995
 20
749.40307600000006
 11
-192.46890299999995
 21
749.42770399999995
  0
LINE
  8
_0-0_0
  6
CONTINUOUS
 62
    7
 10
-192.46890299999995
 20
749.40002400000003
 11
-192.46890299999995
 21
749.40307600000006
  0
LINE
  8
_0-0_0
  6
CONTINUOUS
 62
    7
 10
-192.46890299999995
 20
753.89691199999993
 11
-192.46890299999995
 21
753.90002400000003
  0
LINE
  8
_0-0_0
  6
CONTINUOUS
 62
    7
 10
-192.46890299999995
 20
753.87231399999996
 11
-192.46890299999995
 21
753.89691199999993
  0
LINE
  8
_0-0_0
  6
CONTINUOUS
 62
    7
 10
-192.46890299999995
 20
753.82333399999993
 11
-192.46890299999995
 21
753.87231399999996
  0
LINE
  8
_0-0_0
  6
CONTINUOUS
 62
    7
 10
-192.46890299999995
 20
753.75054899999998
 11
-192.46890299999995
 21
753.82333399999993
  0
LINE
  8
_0-0_0
  6
CONTINUOUS
 62
    7
 10
-192.46890299999995
 20
753.65478499999995
 11
-192.46890299999995
 21
753.75054899999998
  0
LINE
  8
_0-0_0
  6
CONTINUOUS
 62
    7
 10
-192.46890299999995
 20
753.62457300000005
 11
-192.46890299999995
 21
753.65478499999995
  0
LINE
  8
_0-0_0
  6
CONTINUOUS
 62
    7
 10
-192.46890299999995
 20
753.53701799999999
 11
-192.46890299999995
 21
753.62457300000005
  0
LINE
  8
_0-0_0
  6
CONTINUOUS
 62
    7
 10
-192.46890299999995
 20
753.39859000000001
 11
-192.46890299999995
 21
753.53701799999999
  0
LINE
  8
_0-0_0
  6
CONTINUOUS
 62
    7
 10
-192.46890299999995
 20
753.24099699999999
 11
-192.46890299999995
 21
753.39859000000001
  0
LINE
  8
_0-0_0
  6
CONTINUOUS
 62
    7
 10
-192.46890299999995
 20
753.06597899999997
 11
-192.46890299999995
 21
753.24099699999999
  0
LINE
  8
_0-0_0
  6
CONTINUOUS
 62
    7
 10
-192.46890299999995
 20
752.87542699999995
 11
-192.46890299999995
 21
753.06597899999997
  0
LINE
  8
_0-0_0
  6
CONTINUOUS
 62
    7
 10
-192.46890299999995
 20
752.67147799999998
 11
-192.46890299999995
 21
752.87542699999995
  0
LINE
  8
_0-0_0
  6
CONTINUOUS
 62
    7
 10
-192.46890299999995
 20
752.45632899999998
 11
-192.46890299999995
 21
752.67147799999998
  0
LINE
  8
_0-0_0
  6
CONTINUOUS
 62
    7
 10
-192.46890299999995
 20
752.23236100000008
 11
-192.46890299999995
 21
752.45632899999998
  0
LINE
  8
_0-0_0
  6
CONTINUOUS
 62
    7
 10
-192.46890299999995
 20
752.00198399999999
 11
-192.46890299999995
 21
752.23236100000008
  0
LINE
  8
_0-0_0
  6
CONTINUOUS
 62
    7
 10
-192.46890299999995
 20
751.76776100000006
 11
-192.46890299999995
 21
752.00198399999999
  0
LINE
  8
_0-0_0
  6
CONTINUOUS
 62
    7
 10
-192.46890299999995
 20
751.53225700000007
 11
-192.46890299999995
 21
751.76776100000006
  0
LINE
  8
_0-0_0
  6
CONTINUOUS
 62
    7
 10
-192.46890299999995
 20
751.29803500000003
 11
-192.46890299999995
 21
751.53225700000007
  0
LINE
  8
_0-0_0
  6
CONTINUOUS
 62
    7
 10
-192.46890299999995
 20
751.06765700000005
 11
-192.46890299999995
 21
751.29803500000003
  0
LINE
  8
_0-0_0
  6
CONTINUOUS
 62
    7
 10
-192.46890299999995
 20
750.84368900000004
 11
-192.46890299999995
 21
751.06765700000005
  0
LINE
  8
_0-0_0
  6
CONTINUOUS
 62
    7
 10
-192.46890299999995
 20
750.62853999999993
 11
-192.46890299999995
 21
750.84368900000004
  0
LINE
  8
_0-0_0
  6
CONTINUOUS
 62
    7
 10
-192.46890299999995
 20
750.57128899999998
 11
-192.46890299999995
 21
750.62853999999993
  0
LINE
  8
_0-0_0
  6
CONTINUOUS
 62
    7
 10
-207.46890299999995
 20
758.38797
 11
-207.46890299999995
 21
757.34231599999998
  0
LINE
  8
_0-0_0
  6
CONTINUOUS
 62
    7
 10
-207.46890299999995
 20
756.05770899999993
 11
-207.46890299999995
 21
757.34231599999998
  0
LINE
  8
_0-0_0
  6
CONTINUOUS
 62
    7
 10
-207.46890299999995
 20
755.94232199999999
 11
-207.46890299999995
 21
756.05770899999993
  0
LINE
  8
_0-0_0
  6
CONTINUOUS
 62
    7
 10
-207.46890299999995
 20
758.38797
 11
-207.46890299999995
 21
761.51205400000003
  0
LINE
  8
_0-0_0
  6
CONTINUOUS
 62
    7
 10
-207.46890299999995
 20
763.95770300000004
 11
-207.46890299999995
 21
763.84231599999998
  0
LINE
  8
_0-0_0
  6
CONTINUOUS
 62
    7
 10
-207.46890299999995
 20
762.55770899999993
 11
-207.46890299999995
 21
763.84231599999998
  0
LINE
  8
_0-0_0
  6
CONTINUOUS
 62
    7
 10
-207.46890299999995
 20
762.55770899999993
 11
-207.46890299999995
 21
761.51205400000003
  0
LINE
  8
_0-0_0
  6
CONTINUOUS
 62
    7
 10
-207.46890299999995
 20
763.84231599999998
 11
-197.761078
 21
763.84231599999998
  0
LINE
  8
_0-0_0
  6
CONTINUOUS
 62
    7
 10
-197.761078
 20
766.45001200000002
 11
-197.70658900000012
 21
766.38006599999994
  0
LINE
  8
_0-0_0
  6
CONTINUOUS
 62
    7
 10
-197.70658900000012
 20
766.38006599999994
 11
-197.65548699999999
 21
766.31124899999998
  0
LINE
  8
_0-0_0
  6
CONTINUOUS
 62
    7
 10
-197.65548699999999
 20
766.31124899999998
 11
-197.60784899999999
 21
766.24374399999999
  0
LINE
  8
_0-0_0
  6
CONTINUOUS
 62
    7
 10
-197.60784899999999
 20
766.24374399999999
 11
-197.563355
 21
766.17718500000001
  0
LINE
  8
_0-0_0
  6
CONTINUOUS
 62
    7
 10
-197.563355
 20
766.17718500000001
 11
-197.50863700000014
 21
766.08966099999998
  0
LINE
  8
_0-0_0
  6
CONTINUOUS
 62
    7
 10
-197.50863700000014
 20
766.08966099999998
 11
-197.45912199999998
 21
766.00353999999993
  0
LINE
  8
_0-0_0
  6
CONTINUOUS
 62
    7
 10
-197.45912199999998
 20
766.00353999999993
 11
-197.41465800000014
 21
765.91870100000006
  0
LINE
  8
_0-0_0
  6
CONTINUOUS
 62
    7
 10
-197.41465800000014
 20
765.91870100000006
 11
-197.36769099999992
 21
765.81839000000002
  0
LINE
  8
_0-0_0
  6
CONTINUOUS
 62
    7
 10
-197.36769099999992
 20
765.81839000000002
 11
-197.32748399999991
 21
765.71948199999997
  0
LINE
  8
_0-0_0
  6
CONTINUOUS
 62
    7
 10
-197.32748399999991
 20
765.71948199999997
 11
-197.29382299999997
 21
765.62170400000002
  0
LINE
  8
_0-0_0
  6
CONTINUOUS
 62
    7
 10
-197.29382299999997
 20
765.62170400000002
 11
-197.266525
 21
765.524902
  0
LINE
  8
_0-0_0
  6
CONTINUOUS
 62
    7
 10
-197.266525
 20
765.524902
 11
-197.24548300000015
 21
765.42886399999998
  0
LINE
  8
_0-0_0
  6
CONTINUOUS
 62
    7
 10
-197.24548300000015
 20
765.42886399999998
 11
-197.22955300000012
 21
765.32501200000002
  0
LINE
  8
_0-0_0
  6
CONTINUOUS
 62
    7
 10
-197.22955300000012
 20
765.32501200000002
 11
-197.22079499999995
 21
765.221588
  0
LINE
  8
_0-0_0
  6
CONTINUOUS
 62
    7
 10
-197.22079499999995
 20
765.221588
 11
-197.2191620000001
 21
765.11834700000009
  0
LINE
  8
_0-0_0
  6
CONTINUOUS
 62
    7
 10
-197.2191620000001
 20
765.11834700000009
 11
-197.22462500000006
 21
765.01504499999999
  0
LINE
  8
_0-0_0
  6
CONTINUOUS
 62
    7
 10
-197.22462500000006
 20
765.01504499999999
 11
-197.23724399999992
 21
764.91146900000001
  0
LINE
  8
_0-0_0
  6
CONTINUOUS
 62
    7
 10
-197.23724399999992
 20
764.91146900000001
 11
-197.25705000000016
 21
764.80731200000002
  0
LINE
  8
_0-0_0
  6
CONTINUOUS
 62
    7
 10
-197.25705000000016
 20
764.80731200000002
 11
-197.28419499999995
 21
764.70236199999999
  0
LINE
  8
_0-0_0
  6
CONTINUOUS
 62
    7
 10
-197.28419499999995
 20
764.70236199999999
 11
-197.31884800000012
 21
764.59631300000001
  0
LINE
  8
_0-0_0
  6
CONTINUOUS
 62
    7
 10
-197.31884800000012
 20
764.59631300000001
 11
-197.36119099999996
 21
764.48895300000004
  0
LINE
  8
_0-0_0
  6
CONTINUOUS
 62
    7
 10
-197.36119099999996
 20
764.48895300000004
 11
-197.41151400000012
 21
764.37994400000002
  0
LINE
  8
_0-0_0
  6
CONTINUOUS
 62
    7
 10
-197.41151400000012
 20
764.37994400000002
 11
-197.46575900000016
 21
764.276794
  0
LINE
  8
_0-0_0
  6
CONTINUOUS
 62
    7
 10
-197.46575900000016
 20
764.276794
 11
-197.527466
 21
764.17175300000008
  0
LINE
  8
_0-0_0
  6
CONTINUOUS
 62
    7
 10
-197.527466
 20
764.17175300000008
 11
-197.59698500000013
 21
764.06451399999992
  0
LINE
  8
_0-0_0
  6
CONTINUOUS
 62
    7
 10
-197.59698500000013
 20
764.06451399999992
 11
-197.67469800000003
 21
763.95480300000008
  0
LINE
  8
_0-0_0
  6
CONTINUOUS
 62
    7
 10
-197.67469800000003
 20
763.95480300000008
 11
-197.761078
 21
763.84231599999998
  0
LINE
  8
_0-0_0
  6
CONTINUOUS
 62
    7
 10
-207.46890299999995
 20
766.45001200000002
 11
-197.761078
 21
766.45001200000002
  0
LINE
  8
_0-0_0
  6
CONTINUOUS
 62
    7
 10
-197.71890299999995
 20
766.45001200000002
 11
-197.761078
 21
766.45001200000002
  0
LINE
  8
_0-0_0
  6
CONTINUOUS
 62
    7
 10
-207.46890299999995
 20
756.05770899999993
 11
-197.761078
 21
756.05770899999993
  0
LINE
  8
_0-0_0
  6
CONTINUOUS
 62
    7
 10
-197.761078
 20
756.05770899999993
 11
-197.70658900000012
 21
755.98776199999998
  0
LINE
  8
_0-0_0
  6
CONTINUOUS
 62
    7
 10
-197.70658900000012
 20
755.98776199999998
 11
-197.65548699999999
 21
755.91894500000001
  0
LINE
  8
_0-0_0
  6
CONTINUOUS
 62
    7
 10
-197.65548699999999
 20
755.91894500000001
 11
-197.60784899999999
 21
755.85144000000003
  0
LINE
  8
_0-0_0
  6
CONTINUOUS
 62
    7
 10
-197.60784899999999
 20
755.85144000000003
 11
-197.563355
 21
755.78488199999993
  0
LINE
  8
_0-0_0
  6
CONTINUOUS
 62
    7
 10
-197.563355
 20
755.78488199999993
 11
-197.50863700000014
 21
755.69735700000001
  0
LINE
  8
_0-0_0
  6
CONTINUOUS
 62
    7
 10
-197.50863700000014
 20
755.69735700000001
 11
-197.45912199999998
 21
755.61123700000007
  0
LINE
  8
_0-0_0
  6
CONTINUOUS
 62
    7
 10
-197.45912199999998
 20
755.61123700000007
 11
-197.41465800000014
 21
755.52642800000001
  0
LINE
  8
_0-0_0
  6
CONTINUOUS
 62
    7
 10
-197.41465800000014
 20
755.52642800000001
 11
-197.36769099999992
 21
755.42608599999994
  0
LINE
  8
_0-0_0
  6
CONTINUOUS
 62
    7
 10
-197.36769099999992
 20
755.42608599999994
 11
-197.32748399999991
 21
755.327179
  0
LINE
  8
_0-0_0
  6
CONTINUOUS
 62
    7
 10
-197.32748399999991
 20
755.327179
 11
-197.29382299999997
 21
755.22940100000005
  0
LINE
  8
_0-0_0
  6
CONTINUOUS
 62
    7
 10
-197.29382299999997
 20
755.22940100000005
 11
-197.266525
 21
755.13259900000003
  0
LINE
  8
_0-0_0
  6
CONTINUOUS
 62
    7
 10
-197.266525
 20
755.13259900000003
 11
-197.24548300000015
 21
755.03656000000001
  0
LINE
  8
_0-0_0
  6
CONTINUOUS
 62
    7
 10
-197.24548300000015
 20
755.03656000000001
 11
-197.22955300000012
 21
754.93270899999993
  0
LINE
  8
_0-0_0
  6
CONTINUOUS
 62
    7
 10
-197.22955300000012
 20
754.93270899999993
 11
-197.22079499999995
 21
754.82928500000003
  0
LINE
  8
_0-0_0
  6
CONTINUOUS
 62
    7
 10
-197.22079499999995
 20
754.82928500000003
 11
-197.2191620000001
 21
754.726044
  0
LINE
  8
_0-0_0
  6
CONTINUOUS
 62
    7
 10
-197.2191620000001
 20
754.726044
 11
-197.22462500000006
 21
754.62274200000002
  0
LINE
  8
_0-0_0
  6
CONTINUOUS
 62
    7
 10
-197.22462500000006
 20
754.62274200000002
 11
-197.23724399999992
 21
754.51916499999993
  0
LINE
  8
_0-0_0
  6
CONTINUOUS
 62
    7
 10
-197.23724399999992
 20
754.51916499999993
 11
-197.25705000000016
 21
754.41500900000005
  0
LINE
  8
_0-0_0
  6
CONTINUOUS
 62
    7
 10
-197.25705000000016
 20
754.41500900000005
 11
-197.28419499999995
 21
754.31005900000002
  0
LINE
  8
_0-0_0
  6
CONTINUOUS
 62
    7
 10
-197.28419499999995
 20
754.31005900000002
 11
-197.31884800000012
 21
754.20400999999993
  0
LINE
  8
_0-0_0
  6
CONTINUOUS
 62
    7
 10
-197.31884800000012
 20
754.20400999999993
 11
-197.36119099999996
 21
754.09661899999992
  0
LINE
  8
_0-0_0
  6
CONTINUOUS
 62
    7
 10
-197.36119099999996
 20
754.09661899999992
 11
-197.41151400000012
 21
753.98764000000006
  0
LINE
  8
_0-0_0
  6
CONTINUOUS
 62
    7
 10
-197.41151400000012
 20
753.98764000000006
 11
-197.45719899999995
 21
753.89996300000007
  0
LINE
  8
_0-0_0
  6
CONTINUOUS
 62
    7
 10
-192.46890299999995
 20
750.42456100000004
 11
-192.21890299999995
 21
750.40002400000003
  0
LINE
  8
_0-0_0
  6
CONTINUOUS
 62
    7
 10
-192.46890299999995
 20
750.62853999999993
 11
-192.21890299999995
 21
750.40002400000003
  0
LINE
  8
_0-0_0
  6
CONTINUOUS
 62
    7
 10
-192.46890299999995
 20
750.23403899999994
 11
-192.21890299999995
 21
750.18054200000006
  0
LINE
  8
_0-0_0
  6
CONTINUOUS
 62
    7
 10
-192.46890299999995
 20
750.42456100000004
 11
-192.21890299999995
 21
750.18054200000006
  0
LINE
  8
_0-0_0
  6
CONTINUOUS
 62
    7
 10
-192.46890299999995
 20
750.05902100000003
 11
-192.21890299999995
 21
749.97717299999999
  0
LINE
  8
_0-0_0
  6
CONTINUOUS
 62
    7
 10
-192.46890299999995
 20
750.23403899999994
 11
-192.21890299999995
 21
749.97717299999999
  0
LINE
  8
_0-0_0
  6
CONTINUOUS
 62
    7
 10
-192.46890299999995
 20
749.90142800000001
 11
-192.21890299999995
 21
749.792145
  0
LINE
  8
_0-0_0
  6
CONTINUOUS
 62
    7
 10
-192.46890299999995
 20
750.05902100000003
 11
-192.21890299999995
 21
749.792145
  0
LINE
  8
_0-0_0
  6
CONTINUOUS
 62
    7
 10
-192.46890299999995
 20
749.76299999999992
 11
-192.21890299999995
 21
749.62747200000001
  0
LINE
  8
_0-0_0
  6
CONTINUOUS
 62
    7
 10
-192.46890299999995
 20
749.90142800000001
 11
-192.21890299999995
 21
749.62747200000001
  0
LINE
  8
_0-0_0
  6
CONTINUOUS
 62
    7
 10
-192.46890299999995
 20
749.64523299999996
 11
-192.21890299999995
 21
749.48495500000001
  0
LINE
  8
_0-0_0
  6
CONTINUOUS
 62
    7
 10
-192.46890299999995
 20
749.76299999999992
 11
-192.21890299999995
 21
749.48495500000001
  0
LINE
  8
_0-0_0
  6
CONTINUOUS
 62
    7
 10
-192.46890299999995
 20
749.54943800000001
 11
-192.21890299999995
 21
749.36615000000006
  0
LINE
  8
_0-0_0
  6
CONTINUOUS
 62
    7
 10
-192.46890299999995
 20
749.64523299999996
 11
-192.21890299999995
 21
749.36615000000006
  0
LINE
  8
_0-0_0
  6
CONTINUOUS
 62
    7
 10
-192.46890299999995
 20
749.47668499999997
 11
-192.21890299999995
 21
749.27236900000003
  0
LINE
  8
_0-0_0
  6
CONTINUOUS
 62
    7
 10
-192.46890299999995
 20
749.54943800000001
 11
-192.21890299999995
 21
749.27236900000003
  0
LINE
  8
_0-0_0
  6
CONTINUOUS
 62
    7
 10
-192.46890299999995
 20
749.42770399999995
 11
-192.21890299999995
 21
749.20465100000001
  0
LINE
  8
_0-0_0
  6
CONTINUOUS
 62
    7
 10
-192.46890299999995
 20
749.47668499999997
 11
-192.21890299999995
 21
749.20465100000001
  0
LINE
  8
_0-0_0
  6
CONTINUOUS
 62
    7
 10
-192.46890299999995
 20
749.40307600000006
 11
-192.21890299999995
 21
749.16369600000007
  0
LINE
  8
_0-0_0
  6
CONTINUOUS
 62
    7
 10
-192.46890299999995
 20
749.42770399999995
 11
-192.21890299999995
 21
749.16369600000007
  0
LINE
  8
_0-0_0
  6
CONTINUOUS
 62
    7
 10
-192.46890299999995
 20
749.40307600000006
 11
-192.21890299999995
 21
749.15002400000003
  0
LINE
  8
_0-0_0
  6
CONTINUOUS
 62
    7
 10
-192.46890299999995
 20
753.89691199999993
 11
-192.21890299999995
 21
754.15002400000003
  0
LINE
  8
_0-0_0
  6
CONTINUOUS
 62
    7
 10
-192.46890299999995
 20
753.87231399999996
 11
-192.21890299999995
 21
754.13632200000006
  0
LINE
  8
_0-0_0
  6
CONTINUOUS
 62
    7
 10
-192.46890299999995
 20
753.89691199999993
 11
-192.21890299999995
 21
754.13632200000006
  0
LINE
  8
_0-0_0
  6
CONTINUOUS
 62
    7
 10
-192.46890299999995
 20
753.82333399999993
 11
-192.21890299999995
 21
754.09536700000001
  0
LINE
  8
_0-0_0
  6
CONTINUOUS
 62
    7
 10
-192.46890299999995
 20
753.87231399999996
 11
-192.21890299999995
 21
754.09536700000001
  0
LINE
  8
_0-0_0
  6
CONTINUOUS
 62
    7
 10
-192.46890299999995
 20
753.75054899999998
 11
-192.21890299999995
 21
754.027649
  0
LINE
  8
_0-0_0
  6
CONTINUOUS
 62
    7
 10
-192.46890299999995
 20
753.82333399999993
 11
-192.21890299999995
 21
754.027649
  0
LINE
  8
_0-0_0
  6
CONTINUOUS
 62
    7
 10
-192.46890299999995
 20
753.65478499999995
 11
-192.21890299999995
 21
753.93386800000007
  0
LINE
  8
_0-0_0
  6
CONTINUOUS
 62
    7
 10
-192.46890299999995
 20
753.75054899999998
 11
-192.21890299999995
 21
753.93386800000007
  0
LINE
  8
_0-0_0
  6
CONTINUOUS
 62
    7
 10
-192.46890299999995
 20
753.65478499999995
 11
-192.33892800000012
 21
753.73861699999998
  0
LINE
  8
_0-0_0
  6
CONTINUOUS
 62
    7
 10
-192.46890299999995
 20
753.53701799999999
 11
-192.21890299999995
 21
753.81506300000001
  0
LINE
  8
_0-0_0
  6
CONTINUOUS
 62
    7
 10
-192.33892800000012
 20
753.73861699999998
 11
-192.21890299999995
 21
753.81506300000001
  0
LINE
  8
_0-0_0
  6
CONTINUOUS
 62
    7
 10
-192.46890299999995
 20
753.39859000000001
 11
-192.21890299999995
 21
753.67254600000001
  0
LINE
  8
_0-0_0
  6
CONTINUOUS
 62
    7
 10
-192.46890299999995
 20
753.53701799999999
 11
-192.21890299999995
 21
753.67254600000001
  0
LINE
  8
_0-0_0
  6
CONTINUOUS
 62
    7
 10
-192.46890299999995
 20
753.24099699999999
 11
-192.21890299999995
 21
753.50787400000002
  0
LINE
  8
_0-0_0
  6
CONTINUOUS
 62
    7
 10
-192.46890299999995
 20
753.39859000000001
 11
-192.21890299999995
 21
753.50787400000002
  0
LINE
  8
_0-0_0
  6
CONTINUOUS
 62
    7
 10
-192.46890299999995
 20
753.06597899999997
 11
-192.21890299999995
 21
753.32284499999992
  0
LINE
  8
_0-0_0
  6
CONTINUOUS
 62
    7
 10
-192.46890299999995
 20
753.24099699999999
 11
-192.21890299999995
 21
753.32284499999992
  0
LINE
  8
_0-0_0
  6
CONTINUOUS
 62
    7
 10
-192.46890299999995
 20
752.87542699999995
 11
-192.21890299999995
 21
753.11947600000008
  0
LINE
  8
_0-0_0
  6
CONTINUOUS
 62
    7
 10
-192.46890299999995
 20
753.06597899999997
 11
-192.21890299999995
 21
753.11947600000008
  0
LINE
  8
_0-0_0
  6
CONTINUOUS
 62
    7
 10
-192.46890299999995
 20
752.67147799999998
 11
-192.21890299999995
 21
752.90002400000003
  0
LINE
  8
_0-0_0
  6
CONTINUOUS
 62
    7
 10
-192.46890299999995
 20
752.87542699999995
 11
-192.21890299999995
 21
752.90002400000003
  0
LINE
  8
_0-0_0
  6
CONTINUOUS
 62
    7
 10
-192.46890299999995
 20
752.45632899999998
 11
-192.21890299999995
 21
752.66683999999998
  0
LINE
  8
_0-0_0
  6
CONTINUOUS
 62
    7
 10
-192.46890299999995
 20
752.67147799999998
 11
-192.21890299999995
 21
752.66683999999998
  0
LINE
  8
_0-0_0
  6
CONTINUOUS
 62
    7
 10
-192.46890299999995
 20
752.23236100000008
 11
-192.21890299999995
 21
752.42254600000001
  0
LINE
  8
_0-0_0
  6
CONTINUOUS
 62
    7
 10
-192.46890299999995
 20
752.45632899999998
 11
-192.21890299999995
 21
752.42254600000001
  0
LINE
  8
_0-0_0
  6
CONTINUOUS
 62
    7
 10
-192.46890299999995
 20
752.00198399999999
 11
-192.21890299999995
 21
752.16980000000001
  0
LINE
  8
_0-0_0
  6
CONTINUOUS
 62
    7
 10
-192.46890299999995
 20
752.23236100000008
 11
-192.21890299999995
 21
752.16980000000001
  0
LINE
  8
_0-0_0
  6
CONTINUOUS
 62
    7
 10
-192.46890299999995
 20
751.76776100000006
 11
-192.21890299999995
 21
751.91131599999994
  0
LINE
  8
_0-0_0
  6
CONTINUOUS
 62
    7
 10
-192.46890299999995
 20
752.00198399999999
 11
-192.21890299999995
 21
751.91131599999994
  0
LINE
  8
_0-0_0
  6
CONTINUOUS
 62
    7
 10
-192.46890299999995
 20
751.53225700000007
 11
-192.21890299999995
 21
751.65002400000003
  0
LINE
  8
_0-0_0
  6
CONTINUOUS
 62
    7
 10
-192.46890299999995
 20
751.76776100000006
 11
-192.21890299999995
 21
751.65002400000003
  0
LINE
  8
_0-0_0
  6
CONTINUOUS
 62
    7
 10
-192.46890299999995
 20
751.29803500000003
 11
-192.21890299999995
 21
751.38867200000004
  0
LINE
  8
_0-0_0
  6
CONTINUOUS
 62
    7
 10
-192.46890299999995
 20
751.53225700000007
 11
-192.21890299999995
 21
751.38867200000004
  0
LINE
  8
_0-0_0
  6
CONTINUOUS
 62
    7
 10
-192.46890299999995
 20
751.06765700000005
 11
-192.21890299999995
 21
751.13021900000001
  0
LINE
  8
_0-0_0
  6
CONTINUOUS
 62
    7
 10
-192.46890299999995
 20
751.29803500000003
 11
-192.21890299999995
 21
751.13021900000001
  0
LINE
  8
_0-0_0
  6
CONTINUOUS
 62
    7
 10
-192.46890299999995
 20
750.84368900000004
 11
-192.21890299999995
 21
750.87747200000001
  0
LINE
  8
_0-0_0
  6
CONTINUOUS
 62
    7
 10
-192.46890299999995
 20
751.06765700000005
 11
-192.21890299999995
 21
750.87747200000001
  0
LINE
  8
_0-0_0
  6
CONTINUOUS
 62
    7
 10
-192.46890299999995
 20
750.62853999999993
 11
-192.21890299999995
 21
750.63317899999993
  0
LINE
  8
_0-0_0
  6
CONTINUOUS
 62
    7
 10
-192.46890299999995
 20
750.84368900000004
 11
-192.21890299999995
 21
750.63317899999993
  0
LINE
  8
_0-0_0
  6
CONTINUOUS
 62
    7
 10
-207.46890299999995
 20
757.34231599999998
 11
-197.761078
 21
757.34231599999998
  0
LINE
  8
_0-0_0
  6
CONTINUOUS
 62
    7
 10
-197.761078
 20
757.34231599999998
 11
-197.6667480000001
 21
757.58892800000001
  0
LINE
  8
_0-0_0
  6
CONTINUOUS
 62
    7
 10
-197.6667480000001
 20
757.58892800000001
 11
-197.58279399999992
 21
757.82891799999993
  0
LINE
  8
_0-0_0
  6
CONTINUOUS
 62
    7
 10
-197.58279399999992
 20
757.82891799999993
 11
-197.50863700000014
 21
758.06301899999994
  0
LINE
  8
_0-0_0
  6
CONTINUOUS
 62
    7
 10
-197.50863700000014
 20
758.06301899999994
 11
-197.44375600000012
 21
758.29205300000001
  0
LINE
  8
_0-0_0
  6
CONTINUOUS
 62
    7
 10
-197.44375600000012
 20
758.29205300000001
 11
-197.38771100000008
 21
758.51672400000007
  0
LINE
  8
_0-0_0
  6
CONTINUOUS
 62
    7
 10
-197.38771100000008
 20
758.51672400000007
 11
-197.34014900000011
 21
758.73770100000002
  0
LINE
  8
_0-0_0
  6
CONTINUOUS
 62
    7
 10
-197.34014900000011
 20
758.73770100000002
 11
-197.30075099999999
 21
758.95562700000005
  0
LINE
  8
_0-0_0
  6
CONTINUOUS
 62
    7
 10
-197.30075099999999
 20
758.95562700000005
 11
-197.26925699999993
 21
759.17108200000007
  0
LINE
  8
_0-0_0
  6
CONTINUOUS
 62
    7
 10
-197.26925699999993
 20
759.17108200000007
 11
-197.24548300000015
 21
759.38461299999994
  0
LINE
  8
_0-0_0
  6
CONTINUOUS
 62
    7
 10
-197.24548300000015
 20
759.38461299999994
 11
-197.22955300000012
 21
759.59231599999998
  0
LINE
  8
_0-0_0
  6
CONTINUOUS
 62
    7
 10
-197.22955300000012
 20
759.59231599999998
 11
-197.22079499999995
 21
759.79916400000002
  0
LINE
  8
_0-0_0
  6
CONTINUOUS
 62
    7
 10
-197.22079499999995
 20
759.79916400000002
 11
-197.2191620000001
 21
760.00564600000007
  0
LINE
  8
_0-0_0
  6
CONTINUOUS
 62
    7
 10
-197.2191620000001
 20
760.00564600000007
 11
-197.22462500000006
 21
760.212219
  0
LINE
  8
_0-0_0
  6
CONTINUOUS
 62
    7
 10
-197.22462500000006
 20
760.212219
 11
-197.23724399999992
 21
760.41940299999999
  0
LINE
  8
_0-0_0
  6
CONTINUOUS
 62
    7
 10
-197.23724399999992
 20
760.41940299999999
 11
-197.25705000000016
 21
760.62771599999996
  0
LINE
  8
_0-0_0
  6
CONTINUOUS
 62
    7
 10
-197.25705000000016
 20
760.62771599999996
 11
-197.28419499999995
 21
760.83761600000003
  0
LINE
  8
_0-0_0
  6
CONTINUOUS
 62
    7
 10
-197.28419499999995
 20
760.83761600000003
 11
-197.31884800000012
 21
761.04968299999996
  0
LINE
  8
_0-0_0
  6
CONTINUOUS
 62
    7
 10
-197.31884800000012
 20
761.04968299999996
 11
-197.36119099999996
 21
761.26443500000005
  0
LINE
  8
_0-0_0
  6
CONTINUOUS
 62
    7
 10
-197.36119099999996
 20
761.26443500000005
 11
-197.41151400000012
 21
761.48245199999997
  0
LINE
  8
_0-0_0
  6
CONTINUOUS
 62
    7
 10
-197.41151400000012
 20
761.48245199999997
 11
-197.46575900000016
 21
761.68872099999999
  0
LINE
  8
_0-0_0
  6
CONTINUOUS
 62
    7
 10
-197.46575900000016
 20
761.68872099999999
 11
-197.527466
 21
761.89883400000008
  0
LINE
  8
_0-0_0
  6
CONTINUOUS
 62
    7
 10
-197.527466
 20
761.89883400000008
 11
-197.59698500000013
 21
762.11331199999995
  0
LINE
  8
_0-0_0
  6
CONTINUOUS
 62
    7
 10
-197.59698500000013
 20
762.11331199999995
 11
-197.67469800000003
 21
762.33273299999996
  0
LINE
  8
_0-0_0
  6
CONTINUOUS
 62
    7
 10
-197.67469800000003
 20
762.33273299999996
 11
-197.761078
 21
762.55770899999993
  0
LINE
  8
_0-0_0
  6
CONTINUOUS
 62
    7
 10
-207.46890299999995
 20
762.55770899999993
 11
-197.761078
 21
762.55770899999993
  0
ARC
  8
_0-0_0
  6
CONTINUOUS
 62
    7
 10
-202.63262899999995
 20
756.70001200000002
 40
4.9136889999999998
 50
352.48898799999995
 51
7.5110139999999577
  0
ARC
  8
_0-0_0
  6
CONTINUOUS
 62
    7
 10
-202.6427920000001
 20
763.20089699999994
 40
4.9238749999999998
 50
352.49423299999995
 51
1.5359699999999901
  0
ARC
  8
_0-0_0
  6
CONTINUOUS
 62
    7
 10
-202.68081699999993
 20
763.19595299999992
 40
4.9620009999999999
 50
1.5813010000000001
 51
7.4847919999999997
  0
LINE
  8
_0-0_0
  6
CONTINUOUS
 62
    7
 10
-196.46890299999995
 20
762.68154900000002
 11
-196.46890299999995
 21
765.20001200000002
  0
LINE
  8
_0-0_0
  6
CONTINUOUS
 62
    7
 10
-196.46890299999995
 20
754.70001200000002
 11
-196.46890299999995
 21
762.68154900000002
  0
LINE
  8
_0-0_0
  6
CONTINUOUS
 62
    7
 10
-182.71890300000007
 20
750.42456100000004
 11
-182.96890300000007
 21
750.40002400000003
  0
LINE
  8
_0-0_0
  6
CONTINUOUS
 62
    7
 10
-182.96890300000007
 20
750.40002400000003
 11
-192.21890299999995
 21
750.40002400000003
  0
LINE
  8
_0-0_0
  6
CONTINUOUS
 62
    7
 10
-182.71890300000007
 20
750.62853999999993
 11
-182.96890300000007
 21
750.40002400000003
  0
LINE
  8
_0-0_0
  6
CONTINUOUS
 62
    7
 10
-182.71890300000007
 20
750.62853999999993
 11
-192.46890299999995
 21
750.62853999999993
  0
LINE
  8
_0-0_0
  6
CONTINUOUS
 62
    7
 10
-182.71890300000007
 20
750.23403899999994
 11
-182.96890300000007
 21
750.18054200000006
  0
LINE
  8
_0-0_0
  6
CONTINUOUS
 62
    7
 10
-182.96890300000007
 20
750.18054200000006
 11
-192.21890299999995
 21
750.18054200000006
  0
LINE
  8
_0-0_0
  6
CONTINUOUS
 62
    7
 10
-182.71890300000007
 20
750.42456100000004
 11
-182.96890300000007
 21
750.18054200000006
  0
LINE
  8
_0-0_0
  6
CONTINUOUS
 62
    7
 10
-182.71890300000007
 20
750.05902100000003
 11
-182.96890300000007
 21
749.97717299999999
  0
LINE
  8
_0-0_0
  6
CONTINUOUS
 62
    7
 10
-182.96890300000007
 20
749.97717299999999
 11
-192.21890299999995
 21
749.97717299999999
  0
LINE
  8
_0-0_0
  6
CONTINUOUS
 62
    7
 10
-182.71890300000007
 20
750.23403899999994
 11
-182.96890300000007
 21
749.97717299999999
  0
LINE
  8
_0-0_0
  6
CONTINUOUS
 62
    7
 10
-182.71890300000007
 20
749.90142800000001
 11
-182.96890300000007
 21
749.792145
  0
LINE
  8
_0-0_0
  6
CONTINUOUS
 62
    7
 10
-182.96890300000007
 20
749.792145
 11
-192.21890299999995
 21
749.792145
  0
LINE
  8
_0-0_0
  6
CONTINUOUS
 62
    7
 10
-182.71890300000007
 20
750.05902100000003
 11
-182.96890300000007
 21
749.792145
  0
LINE
  8
_0-0_0
  6
CONTINUOUS
 62
    7
 10
-182.71890300000007
 20
749.76299999999992
 11
-182.96890300000007
 21
749.62747200000001
  0
LINE
  8
_0-0_0
  6
CONTINUOUS
 62
    7
 10
-182.96890300000007
 20
749.62747200000001
 11
-192.21890299999995
 21
749.62747200000001
  0
LINE
  8
_0-0_0
  6
CONTINUOUS
 62
    7
 10
-182.71890300000007
 20
749.90142800000001
 11
-182.96890300000007
 21
749.62747200000001
  0
LINE
  8
_0-0_0
  6
CONTINUOUS
 62
    7
 10
-182.71890300000007
 20
749.64523299999996
 11
-182.96890300000007
 21
749.48495500000001
  0
LINE
  8
_0-0_0
  6
CONTINUOUS
 62
    7
 10
-182.96890300000007
 20
749.48495500000001
 11
-192.21890299999995
 21
749.48495500000001
  0
LINE
  8
_0-0_0
  6
CONTINUOUS
 62
    7
 10
-182.71890300000007
 20
749.76299999999992
 11
-182.96890300000007
 21
749.48495500000001
  0
LINE
  8
_0-0_0
  6
CONTINUOUS
 62
    7
 10
-182.71890300000007
 20
749.54943800000001
 11
-182.96890300000007
 21
749.36615000000006
  0
LINE
  8
_0-0_0
  6
CONTINUOUS
 62
    7
 10
-182.96890300000007
 20
749.36615000000006
 11
-192.21890299999995
 21
749.36615000000006
  0
LINE
  8
_0-0_0
  6
CONTINUOUS
 62
    7
 10
-182.71890300000007
 20
749.64523299999996
 11
-182.96890300000007
 21
749.36615000000006
  0
LINE
  8
_0-0_0
  6
CONTINUOUS
 62
    7
 10
-182.71890300000007
 20
749.47668499999997
 11
-182.96890300000007
 21
749.27236900000003
  0
LINE
  8
_0-0_0
  6
CONTINUOUS
 62
    7
 10
-182.96890300000007
 20
749.27236900000003
 11
-192.21890299999995
 21
749.27236900000003
  0
LINE
  8
_0-0_0
  6
CONTINUOUS
 62
    7
 10
-182.71890300000007
 20
749.54943800000001
 11
-182.96890300000007
 21
749.27236900000003
  0
LINE
  8
_0-0_0
  6
CONTINUOUS
 62
    7
 10
-182.71890300000007
 20
749.42770399999995
 11
-182.96890300000007
 21
749.20465100000001
  0
LINE
  8
_0-0_0
  6
CONTINUOUS
 62
    7
 10
-182.96890300000007
 20
749.20465100000001
 11
-192.21890299999995
 21
749.20465100000001
  0
LINE
  8
_0-0_0
  6
CONTINUOUS
 62
    7
 10
-182.71890300000007
 20
749.47668499999997
 11
-182.96890300000007
 21
749.20465100000001
  0
LINE
  8
_0-0_0
  6
CONTINUOUS
 62
    7
 10
-182.71890300000007
 20
749.40307600000006
 11
-182.96890300000007
 21
749.16369600000007
  0
LINE
  8
_0-0_0
  6
CONTINUOUS
 62
    7
 10
-182.96890300000007
 20
749.16369600000007
 11
-192.21890299999995
 21
749.16369600000007
  0
LINE
  8
_0-0_0
  6
CONTINUOUS
 62
    7
 10
-182.71890300000007
 20
749.42770399999995
 11
-182.96890300000007
 21
749.16369600000007
  0
LINE
  8
_0-0_0
  6
CONTINUOUS
 62
    7
 10
-182.96890300000007
 20
749.15002400000003
 11
-192.21890299999995
 21
749.15002400000003
  0
LINE
  8
_0-0_0
  6
CONTINUOUS
 62
    7
 10
-182.71890300000007
 20
749.40307600000006
 11
-182.96890300000007
 21
749.15002400000003
  0
LINE
  8
_0-0_0
  6
CONTINUOUS
 62
    7
 10
-182.71890300000007
 20
753.89691199999993
 11
-182.96890300000007
 21
754.15002400000003
  0
LINE
  8
_0-0_0
  6
CONTINUOUS
 62
    7
 10
-182.96890300000007
 20
754.15002400000003
 11
-192.21890299999995
 21
754.15002400000003
  0
LINE
  8
_0-0_0
  6
CONTINUOUS
 62
    7
 10
-182.71890300000007
 20
753.87231399999996
 11
-182.96890300000007
 21
754.13632200000006
  0
LINE
  8
_0-0_0
  6
CONTINUOUS
 62
    7
 10
-182.96890300000007
 20
754.13632200000006
 11
-192.21890299999995
 21
754.13632200000006
  0
LINE
  8
_0-0_0
  6
CONTINUOUS
 62
    7
 10
-182.71890300000007
 20
753.89691199999993
 11
-182.96890300000007
 21
754.13632200000006
  0
LINE
  8
_0-0_0
  6
CONTINUOUS
 62
    7
 10
-182.71890300000007
 20
753.82333399999993
 11
-182.96890300000007
 21
754.09536700000001
  0
LINE
  8
_0-0_0
  6
CONTINUOUS
 62
    7
 10
-182.96890300000007
 20
754.09536700000001
 11
-192.21890299999995
 21
754.09536700000001
  0
LINE
  8
_0-0_0
  6
CONTINUOUS
 62
    7
 10
-182.71890300000007
 20
753.87231399999996
 11
-182.96890300000007
 21
754.09536700000001
  0
LINE
  8
_0-0_0
  6
CONTINUOUS
 62
    7
 10
-182.71890300000007
 20
753.75054899999998
 11
-182.96890300000007
 21
754.027649
  0
LINE
  8
_0-0_0
  6
CONTINUOUS
 62
    7
 10
-182.96890300000007
 20
754.027649
 11
-192.21890299999995
 21
754.027649
  0
LINE
  8
_0-0_0
  6
CONTINUOUS
 62
    7
 10
-182.71890300000007
 20
753.82333399999993
 11
-182.96890300000007
 21
754.027649
  0
LINE
  8
_0-0_0
  6
CONTINUOUS
 62
    7
 10
-182.71890300000007
 20
753.65478499999995
 11
-182.96890300000007
 21
753.93386800000007
  0
LINE
  8
_0-0_0
  6
CONTINUOUS
 62
    7
 10
-182.96890300000007
 20
753.93386800000007
 11
-192.21890299999995
 21
753.93386800000007
  0
LINE
  8
_0-0_0
  6
CONTINUOUS
 62
    7
 10
-182.71890300000007
 20
753.75054899999998
 11
-182.96890300000007
 21
753.93386800000007
  0
LINE
  8
_0-0_0
  6
CONTINUOUS
 62
    7
 10
-182.96890300000007
 20
753.81506300000001
 11
-192.21890299999995
 21
753.81506300000001
  0
LINE
  8
_0-0_0
  6
CONTINUOUS
 62
    7
 10
-182.84886200000005
 20
753.73861699999998
 11
-182.96890300000007
 21
753.81506300000001
  0
LINE
  8
_0-0_0
  6
CONTINUOUS
 62
    7
 10
-182.71890300000007
 20
753.65478499999995
 11
-182.84886200000005
 21
753.73861699999998
  0
LINE
  8
_0-0_0
  6
CONTINUOUS
 62
    7
 10
-182.71890300000007
 20
753.53701799999999
 11
-182.96890300000007
 21
753.81506300000001
  0
LINE
  8
_0-0_0
  6
CONTINUOUS
 62
    7
 10
-182.71890300000007
 20
753.39859000000001
 11
-182.96890300000007
 21
753.67254600000001
  0
LINE
  8
_0-0_0
  6
CONTINUOUS
 62
    7
 10
-182.96890300000007
 20
753.67254600000001
 11
-192.21890299999995
 21
753.67254600000001
  0
LINE
  8
_0-0_0
  6
CONTINUOUS
 62
    7
 10
-182.71890300000007
 20
753.53701799999999
 11
-182.96890300000007
 21
753.67254600000001
  0
LINE
  8
_0-0_0
  6
CONTINUOUS
 62
    7
 10
-182.71890300000007
 20
753.24099699999999
 11
-182.96890300000007
 21
753.50787400000002
  0
LINE
  8
_0-0_0
  6
CONTINUOUS
 62
    7
 10
-182.96890300000007
 20
753.50787400000002
 11
-192.21890299999995
 21
753.50787400000002
  0
LINE
  8
_0-0_0
  6
CONTINUOUS
 62
    7
 10
-182.71890300000007
 20
753.39859000000001
 11
-182.96890300000007
 21
753.50787400000002
  0
LINE
  8
_0-0_0
  6
CONTINUOUS
 62
    7
 10
-182.71890300000007
 20
753.06597899999997
 11
-182.96890300000007
 21
753.32284499999992
  0
LINE
  8
_0-0_0
  6
CONTINUOUS
 62
    7
 10
-182.96890300000007
 20
753.32284499999992
 11
-192.21890299999995
 21
753.32284499999992
  0
LINE
  8
_0-0_0
  6
CONTINUOUS
 62
    7
 10
-182.71890300000007
 20
753.24099699999999
 11
-182.96890300000007
 21
753.32284499999992
  0
LINE
  8
_0-0_0
  6
CONTINUOUS
 62
    7
 10
-182.71890300000007
 20
752.87542699999995
 11
-182.96890300000007
 21
753.11947600000008
  0
LINE
  8
_0-0_0
  6
CONTINUOUS
 62
    7
 10
-182.96890300000007
 20
753.11947600000008
 11
-192.21890299999995
 21
753.11947600000008
  0
LINE
  8
_0-0_0
  6
CONTINUOUS
 62
    7
 10
-182.71890300000007
 20
753.06597899999997
 11
-182.96890300000007
 21
753.11947600000008
  0
LINE
  8
_0-0_0
  6
CONTINUOUS
 62
    7
 10
-182.71890300000007
 20
752.67147799999998
 11
-182.96890300000007
 21
752.90002400000003
  0
LINE
  8
_0-0_0
  6
CONTINUOUS
 62
    7
 10
-182.96890300000007
 20
752.90002400000003
 11
-192.21890299999995
 21
752.90002400000003
  0
LINE
  8
_0-0_0
  6
CONTINUOUS
 62
    7
 10
-182.71890300000007
 20
752.67147799999998
 11
-192.46890299999995
 21
752.67147799999998
  0
LINE
  8
_0-0_0
  6
CONTINUOUS
 62
    7
 10
-182.71890300000007
 20
752.87542699999995
 11
-182.96890300000007
 21
752.90002400000003
  0
LINE
  8
_0-0_0
  6
CONTINUOUS
 62
    7
 10
-182.71890300000007
 20
752.45632899999998
 11
-182.96890300000007
 21
752.66683999999998
  0
LINE
  8
_0-0_0
  6
CONTINUOUS
 62
    7
 10
-182.96890300000007
 20
752.66683999999998
 11
-192.21890299999995
 21
752.66683999999998
  0
LINE
  8
_0-0_0
  6
CONTINUOUS
 62
    7
 10
-182.71890300000007
 20
752.45632899999998
 11
-192.46890299999995
 21
752.45632899999998
  0
LINE
  8
_0-0_0
  6
CONTINUOUS
 62
    7
 10
-182.71890300000007
 20
752.67147799999998
 11
-182.96890300000007
 21
752.66683999999998
  0
LINE
  8
_0-0_0
  6
CONTINUOUS
 62
    7
 10
-182.71890300000007
 20
752.23236100000008
 11
-182.96890300000007
 21
752.42254600000001
  0
LINE
  8
_0-0_0
  6
CONTINUOUS
 62
    7
 10
-182.96890300000007
 20
752.42254600000001
 11
-192.21890299999995
 21
752.42254600000001
  0
LINE
  8
_0-0_0
  6
CONTINUOUS
 62
    7
 10
-182.71890300000007
 20
752.23236100000008
 11
-192.46890299999995
 21
752.23236100000008
  0
LINE
  8
_0-0_0
  6
CONTINUOUS
 62
    7
 10
-182.71890300000007
 20
752.45632899999998
 11
-182.96890300000007
 21
752.42254600000001
  0
LINE
  8
_0-0_0
  6
CONTINUOUS
 62
    7
 10
-182.71890300000007
 20
752.00198399999999
 11
-182.96890300000007
 21
752.16980000000001
  0
LINE
  8
_0-0_0
  6
CONTINUOUS
 62
    7
 10
-182.96890300000007
 20
752.16980000000001
 11
-192.21890299999995
 21
752.16980000000001
  0
LINE
  8
_0-0_0
  6
CONTINUOUS
 62
    7
 10
-182.71890300000007
 20
752.00198399999999
 11
-192.46890299999995
 21
752.00198399999999
  0
LINE
  8
_0-0_0
  6
CONTINUOUS
 62
    7
 10
-182.71890300000007
 20
752.23236100000008
 11
-182.96890300000007
 21
752.16980000000001
  0
LINE
  8
_0-0_0
  6
CONTINUOUS
 62
    7
 10
-182.71890300000007
 20
751.76776100000006
 11
-182.96890300000007
 21
751.91131599999994
  0
LINE
  8
_0-0_0
  6
CONTINUOUS
 62
    7
 10
-182.96890300000007
 20
751.91131599999994
 11
-192.21890299999995
 21
751.91131599999994
  0
LINE
  8
_0-0_0
  6
CONTINUOUS
 62
    7
 10
-182.71890300000007
 20
751.76776100000006
 11
-192.46890299999995
 21
751.76776100000006
  0
LINE
  8
_0-0_0
  6
CONTINUOUS
 62
    7
 10
-182.71890300000007
 20
752.00198399999999
 11
-182.96890300000007
 21
751.91131599999994
  0
LINE
  8
_0-0_0
  6
CONTINUOUS
 62
    7
 10
-182.71890300000007
 20
751.53225700000007
 11
-182.96890300000007
 21
751.65002400000003
  0
LINE
  8
_0-0_0
  6
CONTINUOUS
 62
    7
 10
-182.96890300000007
 20
751.65002400000003
 11
-192.21890299999995
 21
751.65002400000003
  0
LINE
  8
_0-0_0
  6
CONTINUOUS
 62
    7
 10
-182.71890300000007
 20
751.53225700000007
 11
-192.46890299999995
 21
751.53225700000007
  0
LINE
  8
_0-0_0
  6
CONTINUOUS
 62
    7
 10
-182.71890300000007
 20
751.76776100000006
 11
-182.96890300000007
 21
751.65002400000003
  0
LINE
  8
_0-0_0
  6
CONTINUOUS
 62
    7
 10
-182.71890300000007
 20
751.29803500000003
 11
-182.96890300000007
 21
751.38867200000004
  0
LINE
  8
_0-0_0
  6
CONTINUOUS
 62
    7
 10
-182.96890300000007
 20
751.38867200000004
 11
-192.21890299999995
 21
751.38867200000004
  0
LINE
  8
_0-0_0
  6
CONTINUOUS
 62
    7
 10
-182.71890300000007
 20
751.29803500000003
 11
-192.46890299999995
 21
751.29803500000003
  0
LINE
  8
_0-0_0
  6
CONTINUOUS
 62
    7
 10
-182.71890300000007
 20
751.53225700000007
 11
-182.96890300000007
 21
751.38867200000004
  0
LINE
  8
_0-0_0
  6
CONTINUOUS
 62
    7
 10
-182.71890300000007
 20
751.06765700000005
 11
-182.96890300000007
 21
751.13021900000001
  0
LINE
  8
_0-0_0
  6
CONTINUOUS
 62
    7
 10
-182.96890300000007
 20
751.13021900000001
 11
-192.21890299999995
 21
751.13021900000001
  0
LINE
  8
_0-0_0
  6
CONTINUOUS
 62
    7
 10
-182.71890300000007
 20
751.06765700000005
 11
-192.46890299999995
 21
751.06765700000005
  0
LINE
  8
_0-0_0
  6
CONTINUOUS
 62
    7
 10
-182.71890300000007
 20
751.29803500000003
 11
-182.96890300000007
 21
751.13021900000001
  0
LINE
  8
_0-0_0
  6
CONTINUOUS
 62
    7
 10
-182.71890300000007
 20
750.84368900000004
 11
-182.96890300000007
 21
750.87747200000001
  0
LINE
  8
_0-0_0
  6
CONTINUOUS
 62
    7
 10
-182.96890300000007
 20
750.87747200000001
 11
-192.21890299999995
 21
750.87747200000001
  0
LINE
  8
_0-0_0
  6
CONTINUOUS
 62
    7
 10
-182.71890300000007
 20
750.84368900000004
 11
-192.46890299999995
 21
750.84368900000004
  0
LINE
  8
_0-0_0
  6
CONTINUOUS
 62
    7
 10
-182.71890300000007
 20
751.06765700000005
 11
-182.96890300000007
 21
750.87747200000001
  0
LINE
  8
_0-0_0
  6
CONTINUOUS
 62
    7
 10
-182.71890300000007
 20
750.62853999999993
 11
-182.96890300000007
 21
750.63317899999993
  0
LINE
  8
_0-0_0
  6
CONTINUOUS
 62
    7
 10
-182.96890300000007
 20
750.63317899999993
 11
-192.21890299999995
 21
750.63317899999993
  0
LINE
  8
_0-0_0
  6
CONTINUOUS
 62
    7
 10
-182.71890300000007
 20
750.84368900000004
 11
-182.96890300000007
 21
750.63317899999993
  0
LINE
  8
_0-0_0
  6
CONTINUOUS
 62
    7
 10
-182.46890300000007
 20
749.65002400000003
 11
-182.46890300000007
 21
753.40518199999997
  0
LINE
  8
_0-0_0
  6
CONTINUOUS
 62
    7
 10
-182.46890300000007
 20
753.40518199999997
 11
-182.46890300000007
 21
753.65002400000003
  0
LINE
  8
_0-0_0
  6
CONTINUOUS
 62
    7
 10
-196.06890900000008
 20
754.95001200000002
 11
-196.06890900000008
 21
757.45001200000002
  0
LINE
  8
_0-0_0
  6
CONTINUOUS
 62
    7
 10
-196.06890900000008
 20
757.45001200000002
 11
-196.06890900000008
 21
764.95001200000002
  0
LINE
  8
_0-0_0
  6
CONTINUOUS
 62
    7
 10
-195.26890600000002
 20
755.41189600000007
 11
-195.26890600000002
 21
757.68093900000008
  0
LINE
  8
_0-0_0
  6
CONTINUOUS
 62
    7
 10
-195.26890600000002
 20
757.68093900000008
 11
-195.26890600000002
 21
764.48812900000007
  0
LINE
  8
_0-0_0
  6
CONTINUOUS
 62
    7
 10
-137.26890600000002
 20
755.95001200000002
 11
-137.26890600000002
 21
755.95135499999992
  0
LINE
  8
_0-0_0
  6
CONTINUOUS
 62
    7
 10
-137.26890600000002
 20
755.95135499999992
 11
-137.26890600000002
 21
763.95001200000002
  0
LINE
  8
_0-0_0
  6
CONTINUOUS
 62
    7
 10
-192.46890299999995
 20
770.49691800000005
 11
-192.46890299999995
 21
770.5
  0
LINE
  8
_0-0_0
  6
CONTINUOUS
 62
    7
 10
-192.46890299999995
 20
770.47228999999993
 11
-192.46890299999995
 21
770.49691800000005
  0
LINE
  8
_0-0_0
  6
CONTINUOUS
 62
    7
 10
-192.46890299999995
 20
770.42334000000005
 11
-192.46890299999995
 21
770.5
  0
LINE
  8
_0-0_0
  6
CONTINUOUS
 62
    7
 10
-192.46890299999995
 20
770.35055499999999
 11
-192.46890299999995
 21
770.42334000000005
  0
LINE
  8
_0-0_0
  6
CONTINUOUS
 62
    7
 10
-192.46890299999995
 20
770.25476099999992
 11
-192.46890299999995
 21
770.35055499999999
  0
LINE
  8
_0-0_0
  6
CONTINUOUS
 62
    7
 10
-192.46890299999995
 20
770.22457899999995
 11
-192.46890299999995
 21
770.25476099999992
  0
LINE
  8
_0-0_0
  6
CONTINUOUS
 62
    7
 10
-192.46890299999995
 20
770.137024
 11
-192.46890299999995
 21
770.22457899999995
  0
LINE
  8
_0-0_0
  6
CONTINUOUS
 62
    7
 10
-192.46890299999995
 20
769.99859600000002
 11
-192.46890299999995
 21
770.137024
  0
LINE
  8
_0-0_0
  6
CONTINUOUS
 62
    7
 10
-192.46890299999995
 20
769.841003
 11
-192.46890299999995
 21
769.99859600000002
  0
LINE
  8
_0-0_0
  6
CONTINUOUS
 62
    7
 10
-192.46890299999995
 20
769.66598499999998
 11
-192.46890299999995
 21
769.841003
  0
LINE
  8
_0-0_0
  6
CONTINUOUS
 62
    7
 10
-192.46890299999995
 20
769.47543300000007
 11
-192.46890299999995
 21
769.66598499999998
  0
LINE
  8
_0-0_0
  6
CONTINUOUS
 62
    7
 10
-192.46890299999995
 20
769.27148399999999
 11
-192.46890299999995
 21
769.47543300000007
  0
LINE
  8
_0-0_0
  6
CONTINUOUS
 62
    7
 10
-192.46890299999995
 20
769.05633499999999
 11
-192.46890299999995
 21
769.27148399999999
  0
LINE
  8
_0-0_0
  6
CONTINUOUS
 62
    7
 10
-192.46890299999995
 20
768.83233599999994
 11
-192.46890299999995
 21
769.05633499999999
  0
LINE
  8
_0-0_0
  6
CONTINUOUS
 62
    7
 10
-192.46890299999995
 20
768.60199
 11
-192.46890299999995
 21
768.83233599999994
  0
LINE
  8
_0-0_0
  6
CONTINUOUS
 62
    7
 10
-192.46890299999995
 20
768.36776699999996
 11
-192.46890299999995
 21
768.60199
  0
LINE
  8
_0-0_0
  6
CONTINUOUS
 62
    7
 10
-192.46890299999995
 20
768.13226299999997
 11
-192.46890299999995
 21
768.36776699999996
  0
LINE
  8
_0-0_0
  6
CONTINUOUS
 62
    7
 10
-192.46890299999995
 20
767.89804099999992
 11
-192.46890299999995
 21
768.13226299999997
  0
LINE
  8
_0-0_0
  6
CONTINUOUS
 62
    7
 10
-192.46890299999995
 20
767.66766400000006
 11
-192.46890299999995
 21
767.89804099999992
  0
LINE
  8
_0-0_0
  6
CONTINUOUS
 62
    7
 10
-192.46890299999995
 20
767.44366500000001
 11
-192.46890299999995
 21
767.66766400000006
  0
LINE
  8
_0-0_0
  6
CONTINUOUS
 62
    7
 10
-192.46890299999995
 20
767.22851600000001
 11
-192.46890299999995
 21
767.44366500000001
  0
LINE
  8
_0-0_0
  6
CONTINUOUS
 62
    7
 10
-192.46890299999995
 20
767.17129499999999
 11
-192.46890299999995
 21
767.22851600000001
  0
LINE
  8
_0-0_0
  6
CONTINUOUS
 62
    7
 10
-192.46890299999995
 20
770.49691800000005
 11
-192.21890299999995
 21
770.75
  0
LINE
  8
_0-0_0
  6
CONTINUOUS
 62
    7
 10
-192.46890299999995
 20
770.47228999999993
 11
-192.21890299999995
 21
770.73632799999996
  0
LINE
  8
_0-0_0
  6
CONTINUOUS
 62
    7
 10
-192.46890299999995
 20
770.49691800000005
 11
-192.21890299999995
 21
770.73632799999996
  0
LINE
  8
_0-0_0
  6
CONTINUOUS
 62
    7
 10
-192.46890299999995
 20
770.42334000000005
 11
-192.21890299999995
 21
770.69537400000002
  0
LINE
  8
_0-0_0
  6
CONTINUOUS
 62
    7
 10
-192.46890299999995
 20
770.47228999999993
 11
-192.21890299999995
 21
770.69537400000002
  0
LINE
  8
_0-0_0
  6
CONTINUOUS
 62
    7
 10
-192.46890299999995
 20
770.35055499999999
 11
-192.21890299999995
 21
770.627655
  0
LINE
  8
_0-0_0
  6
CONTINUOUS
 62
    7
 10
-192.46890299999995
 20
770.42334000000005
 11
-192.21890299999995
 21
770.627655
  0
LINE
  8
_0-0_0
  6
CONTINUOUS
 62
    7
 10
-192.46890299999995
 20
770.25476099999992
 11
-192.21890299999995
 21
770.53387500000008
  0
LINE
  8
_0-0_0
  6
CONTINUOUS
 62
    7
 10
-192.46890299999995
 20
770.35055499999999
 11
-192.21890299999995
 21
770.53387500000008
  0
LINE
  8
_0-0_0
  6
CONTINUOUS
 62
    7
 10
-192.46890299999995
 20
770.25476099999992
 11
-192.33892800000012
 21
770.33862299999998
  0
LINE
  8
_0-0_0
  6
CONTINUOUS
 62
    7
 10
-192.46890299999995
 20
770.137024
 11
-192.21890299999995
 21
770.41507000000001
  0
LINE
  8
_0-0_0
  6
CONTINUOUS
 62
    7
 10
-192.33892800000012
 20
770.33862299999998
 11
-192.21890299999995
 21
770.41507000000001
  0
LINE
  8
_0-0_0
  6
CONTINUOUS
 62
    7
 10
-192.46890299999995
 20
769.99859600000002
 11
-192.21890299999995
 21
770.27255200000002
  0
LINE
  8
_0-0_0
  6
CONTINUOUS
 62
    7
 10
-192.46890299999995
 20
770.137024
 11
-192.21890299999995
 21
770.27255200000002
  0
LINE
  8
_0-0_0
  6
CONTINUOUS
 62
    7
 10
-192.46890299999995
 20
769.841003
 11
-192.21890299999995
 21
770.10788000000002
  0
LINE
  8
_0-0_0
  6
CONTINUOUS
 62
    7
 10
-192.46890299999995
 20
769.99859600000002
 11
-192.21890299999995
 21
770.10788000000002
  0
LINE
  8
_0-0_0
  6
CONTINUOUS
 62
    7
 10
-192.46890299999995
 20
769.66598499999998
 11
-192.21890299999995
 21
769.922821
  0
LINE
  8
_0-0_0
  6
CONTINUOUS
 62
    7
 10
-192.46890299999995
 20
769.841003
 11
-192.21890299999995
 21
769.922821
  0
LINE
  8
_0-0_0
  6
CONTINUOUS
 62
    7
 10
-192.46890299999995
 20
769.47543300000007
 11
-192.21890299999995
 21
769.71948199999997
  0
LINE
  8
_0-0_0
  6
CONTINUOUS
 62
    7
 10
-192.46890299999995
 20
769.66598499999998
 11
-192.21890299999995
 21
769.71948199999997
  0
LINE
  8
_0-0_0
  6
CONTINUOUS
 62
    7
 10
-192.46890299999995
 20
769.27148399999999
 11
-192.21890299999995
 21
769.5
  0
LINE
  8
_0-0_0
  6
CONTINUOUS
 62
    7
 10
-192.46890299999995
 20
769.47543300000007
 11
-192.21890299999995
 21
769.5
  0
LINE
  8
_0-0_0
  6
CONTINUOUS
 62
    7
 10
-192.46890299999995
 20
769.05633499999999
 11
-192.21890299999995
 21
769.26684599999999
  0
LINE
  8
_0-0_0
  6
CONTINUOUS
 62
    7
 10
-192.46890299999995
 20
769.27148399999999
 11
-192.21890299999995
 21
769.26684599999999
  0
LINE
  8
_0-0_0
  6
CONTINUOUS
 62
    7
 10
-192.46890299999995
 20
768.83233599999994
 11
-192.21890299999995
 21
769.02255200000002
  0
LINE
  8
_0-0_0
  6
CONTINUOUS
 62
    7
 10
-192.46890299999995
 20
769.05633499999999
 11
-192.21890299999995
 21
769.02255200000002
  0
LINE
  8
_0-0_0
  6
CONTINUOUS
 62
    7
 10
-192.46890299999995
 20
768.60199
 11
-192.21890299999995
 21
768.76977499999998
  0
LINE
  8
_0-0_0
  6
CONTINUOUS
 62
    7
 10
-192.46890299999995
 20
768.83233599999994
 11
-192.21890299999995
 21
768.76977499999998
  0
LINE
  8
_0-0_0
  6
CONTINUOUS
 62
    7
 10
-192.46890299999995
 20
768.36776699999996
 11
-192.21890299999995
 21
768.51132200000006
  0
LINE
  8
_0-0_0
  6
CONTINUOUS
 62
    7
 10
-192.46890299999995
 20
768.60199
 11
-192.21890299999995
 21
768.51132200000006
  0
LINE
  8
_0-0_0
  6
CONTINUOUS
 62
    7
 10
-192.46890299999995
 20
768.13226299999997
 11
-192.21890299999995
 21
768.25
  0
LINE
  8
_0-0_0
  6
CONTINUOUS
 62
    7
 10
-192.46890299999995
 20
768.36776699999996
 11
-192.21890299999995
 21
768.25
  0
LINE
  8
_0-0_0
  6
CONTINUOUS
 62
    7
 10
-192.46890299999995
 20
767.89804099999992
 11
-192.21890299999995
 21
767.98867799999994
  0
LINE
  8
_0-0_0
  6
CONTINUOUS
 62
    7
 10
-192.46890299999995
 20
768.13226299999997
 11
-192.21890299999995
 21
767.98867799999994
  0
LINE
  8
_0-0_0
  6
CONTINUOUS
 62
    7
 10
-192.46890299999995
 20
767.66766400000006
 11
-192.21890299999995
 21
767.73022500000002
  0
LINE
  8
_0-0_0
  6
CONTINUOUS
 62
    7
 10
-192.46890299999995
 20
767.89804099999992
 11
-192.21890299999995
 21
767.73022500000002
  0
LINE
  8
_0-0_0
  6
CONTINUOUS
 62
    7
 10
-192.46890299999995
 20
767.44366500000001
 11
-192.21890299999995
 21
767.47747800000002
  0
LINE
  8
_0-0_0
  6
CONTINUOUS
 62
    7
 10
-192.46890299999995
 20
767.66766400000006
 11
-192.21890299999995
 21
767.47747800000002
  0
LINE
  8
_0-0_0
  6
CONTINUOUS
 62
    7
 10
-192.46890299999995
 20
767.22851600000001
 11
-192.21890299999995
 21
767.23315400000001
  0
LINE
  8
_0-0_0
  6
CONTINUOUS
 62
    7
 10
-192.46890299999995
 20
767.44366500000001
 11
-192.21890299999995
 21
767.23315400000001
  0
LINE
  8
_0-0_0
  6
CONTINUOUS
 62
    7
 10
-192.46890299999995
 20
767.02456699999993
 11
-192.46890299999995
 21
767.17129499999999
  0
LINE
  8
_0-0_0
  6
CONTINUOUS
 62
    7
 10
-192.46890299999995
 20
767.02456699999993
 11
-192.21890299999995
 21
767
  0
LINE
  8
_0-0_0
  6
CONTINUOUS
 62
    7
 10
-192.46890299999995
 20
767.22851600000001
 11
-192.21890299999995
 21
767
  0
LINE
  8
_0-0_0
  6
CONTINUOUS
 62
    7
 10
-192.46890299999995
 20
766.83404500000006
 11
-192.46890299999995
 21
767.02456699999993
  0
LINE
  8
_0-0_0
  6
CONTINUOUS
 62
    7
 10
-192.46890299999995
 20
766.65902699999992
 11
-192.46890299999995
 21
766.83404500000006
  0
LINE
  8
_0-0_0
  6
CONTINUOUS
 62
    7
 10
-192.46890299999995
 20
766.50143400000002
 11
-192.46890299999995
 21
766.65902699999992
  0
LINE
  8
_0-0_0
  6
CONTINUOUS
 62
    7
 10
-192.46890299999995
 20
766.36300699999993
 11
-192.46890299999995
 21
766.50143400000002
  0
LINE
  8
_0-0_0
  6
CONTINUOUS
 62
    7
 10
-192.46890299999995
 20
766
 11
-192.46890299999995
 21
766.36300699999993
  0
LINE
  8
_0-0_0
  6
CONTINUOUS
 62
    7
 10
-192.46890299999995
 20
766.14944500000001
 11
-192.46890299999995
 21
766.24523900000008
  0
LINE
  8
_0-0_0
  6
CONTINUOUS
 62
    7
 10
-192.46890299999995
 20
766.07665999999995
 11
-192.46890299999995
 21
766.14944500000001
  0
LINE
  8
_0-0_0
  6
CONTINUOUS
 62
    7
 10
-192.46890299999995
 20
766.02771000000007
 11
-192.46890299999995
 21
766.07665999999995
  0
LINE
  8
_0-0_0
  6
CONTINUOUS
 62
    7
 10
-192.46890299999995
 20
766.00308199999995
 11
-192.46890299999995
 21
766.02771000000007
  0
LINE
  8
_0-0_0
  6
CONTINUOUS
 62
    7
 10
-192.46890299999995
 20
766
 11
-192.46890299999995
 21
766.00308199999995
  0
LINE
  8
_0-0_0
  6
CONTINUOUS
 62
    7
 10
-182.71890300000007
 20
770.49691800000005
 11
-182.96890300000007
 21
770.75
  0
LINE
  8
_0-0_0
  6
CONTINUOUS
 62
    7
 10
-182.96890300000007
 20
770.75
 11
-192.21890299999995
 21
770.75
  0
LINE
  8
_0-0_0
  6
CONTINUOUS
 62
    7
 10
-182.71890300000007
 20
770.47228999999993
 11
-182.96890300000007
 21
770.73632799999996
  0
LINE
  8
_0-0_0
  6
CONTINUOUS
 62
    7
 10
-182.96890300000007
 20
770.73632799999996
 11
-192.21890299999995
 21
770.73632799999996
  0
LINE
  8
_0-0_0
  6
CONTINUOUS
 62
    7
 10
-182.71890300000007
 20
770.49691800000005
 11
-182.96890300000007
 21
770.73632799999996
  0
LINE
  8
_0-0_0
  6
CONTINUOUS
 62
    7
 10
-182.71890300000007
 20
770.42334000000005
 11
-182.96890300000007
 21
770.69537400000002
  0
LINE
  8
_0-0_0
  6
CONTINUOUS
 62
    7
 10
-182.96890300000007
 20
770.69537400000002
 11
-192.21890299999995
 21
770.69537400000002
  0
LINE
  8
_0-0_0
  6
CONTINUOUS
 62
    7
 10
-182.71890300000007
 20
770.47228999999993
 11
-182.96890300000007
 21
770.69537400000002
  0
LINE
  8
_0-0_0
  6
CONTINUOUS
 62
    7
 10
-182.71890300000007
 20
770.35055499999999
 11
-182.96890300000007
 21
770.627655
  0
LINE
  8
_0-0_0
  6
CONTINUOUS
 62
    7
 10
-182.96890300000007
 20
770.627655
 11
-192.21890299999995
 21
770.627655
  0
LINE
  8
_0-0_0
  6
CONTINUOUS
 62
    7
 10
-182.71890300000007
 20
770.42334000000005
 11
-182.96890300000007
 21
770.627655
  0
LINE
  8
_0-0_0
  6
CONTINUOUS
 62
    7
 10
-182.71890300000007
 20
770.25476099999992
 11
-182.96890300000007
 21
770.53387500000008
  0
LINE
  8
_0-0_0
  6
CONTINUOUS
 62
    7
 10
-182.96890300000007
 20
770.53387500000008
 11
-192.21890299999995
 21
770.53387500000008
  0
LINE
  8
_0-0_0
  6
CONTINUOUS
 62
    7
 10
-182.71890300000007
 20
770.35055499999999
 11
-182.96890300000007
 21
770.53387500000008
  0
LINE
  8
_0-0_0
  6
CONTINUOUS
 62
    7
 10
-182.96890300000007
 20
770.41507000000001
 11
-192.21890299999995
 21
770.41507000000001
  0
LINE
  8
_0-0_0
  6
CONTINUOUS
 62
    7
 10
-182.84886200000005
 20
770.33862299999998
 11
-182.96890300000007
 21
770.41507000000001
  0
LINE
  8
_0-0_0
  6
CONTINUOUS
 62
    7
 10
-182.71890300000007
 20
770.25476099999992
 11
-182.84886200000005
 21
770.33862299999998
  0
LINE
  8
_0-0_0
  6
CONTINUOUS
 62
    7
 10
-182.71890300000007
 20
770.137024
 11
-182.96890300000007
 21
770.41507000000001
  0
LINE
  8
_0-0_0
  6
CONTINUOUS
 62
    7
 10
-182.71890300000007
 20
769.99859600000002
 11
-182.96890300000007
 21
770.27255200000002
  0
LINE
  8
_0-0_0
  6
CONTINUOUS
 62
    7
 10
-182.96890300000007
 20
770.27255200000002
 11
-192.21890299999995
 21
770.27255200000002
  0
LINE
  8
_0-0_0
  6
CONTINUOUS
 62
    7
 10
-182.71890300000007
 20
770.137024
 11
-182.96890300000007
 21
770.27255200000002
  0
LINE
  8
_0-0_0
  6
CONTINUOUS
 62
    7
 10
-182.71890300000007
 20
769.841003
 11
-182.96890300000007
 21
770.10788000000002
  0
LINE
  8
_0-0_0
  6
CONTINUOUS
 62
    7
 10
-182.96890300000007
 20
770.10788000000002
 11
-192.21890299999995
 21
770.10788000000002
  0
LINE
  8
_0-0_0
  6
CONTINUOUS
 62
    7
 10
-182.71890300000007
 20
769.99859600000002
 11
-182.96890300000007
 21
770.10788000000002
  0
LINE
  8
_0-0_0
  6
CONTINUOUS
 62
    7
 10
-182.71890300000007
 20
769.66598499999998
 11
-182.96890300000007
 21
769.922821
  0
LINE
  8
_0-0_0
  6
CONTINUOUS
 62
    7
 10
-182.96890300000007
 20
769.922821
 11
-192.21890299999995
 21
769.922821
  0
LINE
  8
_0-0_0
  6
CONTINUOUS
 62
    7
 10
-182.71890300000007
 20
769.841003
 11
-182.96890300000007
 21
769.922821
  0
LINE
  8
_0-0_0
  6
CONTINUOUS
 62
    7
 10
-182.71890300000007
 20
769.47543300000007
 11
-182.96890300000007
 21
769.71948199999997
  0
LINE
  8
_0-0_0
  6
CONTINUOUS
 62
    7
 10
-182.96890300000007
 20
769.71948199999997
 11
-192.21890299999995
 21
769.71948199999997
  0
LINE
  8
_0-0_0
  6
CONTINUOUS
 62
    7
 10
-182.71890300000007
 20
769.66598499999998
 11
-182.96890300000007
 21
769.71948199999997
  0
LINE
  8
_0-0_0
  6
CONTINUOUS
 62
    7
 10
-182.71890300000007
 20
769.27148399999999
 11
-182.96890300000007
 21
769.5
  0
LINE
  8
_0-0_0
  6
CONTINUOUS
 62
    7
 10
-182.96890300000007
 20
769.5
 11
-192.21890299999995
 21
769.5
  0
LINE
  8
_0-0_0
  6
CONTINUOUS
 62
    7
 10
-182.71890300000007
 20
769.27148399999999
 11
-192.46890299999995
 21
769.27148399999999
  0
LINE
  8
_0-0_0
  6
CONTINUOUS
 62
    7
 10
-182.71890300000007
 20
769.47543300000007
 11
-182.96890300000007
 21
769.5
  0
LINE
  8
_0-0_0
  6
CONTINUOUS
 62
    7
 10
-182.71890300000007
 20
769.05633499999999
 11
-182.96890300000007
 21
769.26684599999999
  0
LINE
  8
_0-0_0
  6
CONTINUOUS
 62
    7
 10
-182.96890300000007
 20
769.26684599999999
 11
-192.21890299999995
 21
769.26684599999999
  0
LINE
  8
_0-0_0
  6
CONTINUOUS
 62
    7
 10
-182.71890300000007
 20
769.05633499999999
 11
-192.46890299999995
 21
769.05633499999999
  0
LINE
  8
_0-0_0
  6
CONTINUOUS
 62
    7
 10
-182.71890300000007
 20
769.27148399999999
 11
-182.96890300000007
 21
769.26684599999999
  0
LINE
  8
_0-0_0
  6
CONTINUOUS
 62
    7
 10
-182.71890300000007
 20
768.83233599999994
 11
-182.96890300000007
 21
769.02255200000002
  0
LINE
  8
_0-0_0
  6
CONTINUOUS
 62
    7
 10
-182.96890300000007
 20
769.02255200000002
 11
-192.21890299999995
 21
769.02255200000002
  0
LINE
  8
_0-0_0
  6
CONTINUOUS
 62
    7
 10
-182.71890300000007
 20
768.83233599999994
 11
-192.46890299999995
 21
768.83233599999994
  0
LINE
  8
_0-0_0
  6
CONTINUOUS
 62
    7
 10
-182.71890300000007
 20
769.05633499999999
 11
-182.96890300000007
 21
769.02255200000002
  0
LINE
  8
_0-0_0
  6
CONTINUOUS
 62
    7
 10
-182.71890300000007
 20
768.60199
 11
-182.96890300000007
 21
768.76977499999998
  0
LINE
  8
_0-0_0
  6
CONTINUOUS
 62
    7
 10
-182.96890300000007
 20
768.76977499999998
 11
-192.21890299999995
 21
768.76977499999998
  0
LINE
  8
_0-0_0
  6
CONTINUOUS
 62
    7
 10
-182.71890300000007
 20
768.60199
 11
-192.46890299999995
 21
768.60199
  0
LINE
  8
_0-0_0
  6
CONTINUOUS
 62
    7
 10
-182.71890300000007
 20
768.83233599999994
 11
-182.96890300000007
 21
768.76977499999998
  0
LINE
  8
_0-0_0
  6
CONTINUOUS
 62
    7
 10
-182.71890300000007
 20
768.36776699999996
 11
-182.96890300000007
 21
768.51132200000006
  0
LINE
  8
_0-0_0
  6
CONTINUOUS
 62
    7
 10
-182.96890300000007
 20
768.51132200000006
 11
-192.21890299999995
 21
768.51132200000006
  0
LINE
  8
_0-0_0
  6
CONTINUOUS
 62
    7
 10
-182.71890300000007
 20
768.36776699999996
 11
-192.46890299999995
 21
768.36776699999996
  0
LINE
  8
_0-0_0
  6
CONTINUOUS
 62
    7
 10
-182.71890300000007
 20
768.60199
 11
-182.96890300000007
 21
768.51132200000006
  0
LINE
  8
_0-0_0
  6
CONTINUOUS
 62
    7
 10
-182.71890300000007
 20
768.13226299999997
 11
-182.96890300000007
 21
768.25
  0
LINE
  8
_0-0_0
  6
CONTINUOUS
 62
    7
 10
-182.96890300000007
 20
768.25
 11
-192.21890299999995
 21
768.25
  0
LINE
  8
_0-0_0
  6
CONTINUOUS
 62
    7
 10
-182.71890300000007
 20
768.13226299999997
 11
-192.46890299999995
 21
768.13226299999997
  0
LINE
  8
_0-0_0
  6
CONTINUOUS
 62
    7
 10
-182.71890300000007
 20
768.36776699999996
 11
-182.96890300000007
 21
768.25
  0
LINE
  8
_0-0_0
  6
CONTINUOUS
 62
    7
 10
-182.71890300000007
 20
767.89804099999992
 11
-182.96890300000007
 21
767.98867799999994
  0
LINE
  8
_0-0_0
  6
CONTINUOUS
 62
    7
 10
-182.96890300000007
 20
767.98867799999994
 11
-192.21890299999995
 21
767.98867799999994
  0
LINE
  8
_0-0_0
  6
CONTINUOUS
 62
    7
 10
-182.71890300000007
 20
767.89804099999992
 11
-192.46890299999995
 21
767.89804099999992
  0
LINE
  8
_0-0_0
  6
CONTINUOUS
 62
    7
 10
-182.71890300000007
 20
768.13226299999997
 11
-182.96890300000007
 21
767.98867799999994
  0
LINE
  8
_0-0_0
  6
CONTINUOUS
 62
    7
 10
-182.71890300000007
 20
767.66766400000006
 11
-182.96890300000007
 21
767.73022500000002
  0
LINE
  8
_0-0_0
  6
CONTINUOUS
 62
    7
 10
-182.96890300000007
 20
767.73022500000002
 11
-192.21890299999995
 21
767.73022500000002
  0
LINE
  8
_0-0_0
  6
CONTINUOUS
 62
    7
 10
-182.71890300000007
 20
767.66766400000006
 11
-192.46890299999995
 21
767.66766400000006
  0
LINE
  8
_0-0_0
  6
CONTINUOUS
 62
    7
 10
-182.71890300000007
 20
767.89804099999992
 11
-182.96890300000007
 21
767.73022500000002
  0
LINE
  8
_0-0_0
  6
CONTINUOUS
 62
    7
 10
-182.71890300000007
 20
767.44366500000001
 11
-182.96890300000007
 21
767.47747800000002
  0
LINE
  8
_0-0_0
  6
CONTINUOUS
 62
    7
 10
-182.96890300000007
 20
767.47747800000002
 11
-192.21890299999995
 21
767.47747800000002
  0
LINE
  8
_0-0_0
  6
CONTINUOUS
 62
    7
 10
-182.71890300000007
 20
767.44366500000001
 11
-192.46890299999995
 21
767.44366500000001
  0
LINE
  8
_0-0_0
  6
CONTINUOUS
 62
    7
 10
-182.71890300000007
 20
767.66766400000006
 11
-182.96890300000007
 21
767.47747800000002
  0
LINE
  8
_0-0_0
  6
CONTINUOUS
 62
    7
 10
-182.71890300000007
 20
767.22851600000001
 11
-182.96890300000007
 21
767.23315400000001
  0
LINE
  8
_0-0_0
  6
CONTINUOUS
 62
    7
 10
-182.96890300000007
 20
767.23315400000001
 11
-192.21890299999995
 21
767.23315400000001
  0
LINE
  8
_0-0_0
  6
CONTINUOUS
 62
    7
 10
-182.71890300000007
 20
767.22851600000001
 11
-192.46890299999995
 21
767.22851600000001
  0
LINE
  8
_0-0_0
  6
CONTINUOUS
 62
    7
 10
-182.71890300000007
 20
767.44366500000001
 11
-182.96890300000007
 21
767.23315400000001
  0
LINE
  8
_0-0_0
  6
CONTINUOUS
 62
    7
 10
-182.71890300000007
 20
767.02456699999993
 11
-182.96890300000007
 21
767
  0
LINE
  8
_0-0_0
  6
CONTINUOUS
 62
    7
 10
-182.96890300000007
 20
767
 11
-192.21890299999995
 21
767
  0
LINE
  8
_0-0_0
  6
CONTINUOUS
 62
    7
 10
-182.71890300000007
 20
767.22851600000001
 11
-182.96890300000007
 21
767
  0
LINE
  8
_0-0_0
  6
CONTINUOUS
 62
    7
 10
-192.46890299999995
 20
766.83404500000006
 11
-192.21890299999995
 21
766.78054799999995
  0
LINE
  8
_0-0_0
  6
CONTINUOUS
 62
    7
 10
-192.46890299999995
 20
767.02456699999993
 11
-192.21890299999995
 21
766.78054799999995
  0
LINE
  8
_0-0_0
  6
CONTINUOUS
 62
    7
 10
-192.46890299999995
 20
766.65902699999992
 11
-192.21890299999995
 21
766.577179
  0
LINE
  8
_0-0_0
  6
CONTINUOUS
 62
    7
 10
-192.46890299999995
 20
766.83404500000006
 11
-192.21890299999995
 21
766.577179
  0
LINE
  8
_0-0_0
  6
CONTINUOUS
 62
    7
 10
-192.46890299999995
 20
766.50143400000002
 11
-192.21890299999995
 21
766.39215100000001
  0
LINE
  8
_0-0_0
  6
CONTINUOUS
 62
    7
 10
-192.46890299999995
 20
766.65902699999992
 11
-192.21890299999995
 21
766.39215100000001
  0
LINE
  8
_0-0_0
  6
CONTINUOUS
 62
    7
 10
-192.46890299999995
 20
766.36300699999993
 11
-192.21890299999995
 21
766.22747800000002
  0
LINE
  8
_0-0_0
  6
CONTINUOUS
 62
    7
 10
-192.46890299999995
 20
766.50143400000002
 11
-192.21890299999995
 21
766.22747800000002
  0
LINE
  8
_0-0_0
  6
CONTINUOUS
 62
    7
 10
-192.46890299999995
 20
766.24523900000008
 11
-192.21890299999995
 21
766.08496100000002
  0
LINE
  8
_0-0_0
  6
CONTINUOUS
 62
    7
 10
-192.46890299999995
 20
766.36300699999993
 11
-192.21890299999995
 21
766.08496100000002
  0
LINE
  8
_0-0_0
  6
CONTINUOUS
 62
    7
 10
-192.46890299999995
 20
766.14944500000001
 11
-192.21890299999995
 21
765.96615599999996
  0
LINE
  8
_0-0_0
  6
CONTINUOUS
 62
    7
 10
-192.46890299999995
 20
766.24523900000008
 11
-192.21890299999995
 21
765.96615599999996
  0
LINE
  8
_0-0_0
  6
CONTINUOUS
 62
    7
 10
-192.46890299999995
 20
766.07665999999995
 11
-192.21890299999995
 21
765.87237499999992
  0
LINE
  8
_0-0_0
  6
CONTINUOUS
 62
    7
 10
-192.46890299999995
 20
766.14944500000001
 11
-192.21890299999995
 21
765.87237499999992
  0
LINE
  8
_0-0_0
  6
CONTINUOUS
 62
    7
 10
-192.46890299999995
 20
766.02771000000007
 11
-192.21890299999995
 21
765.80462599999998
  0
LINE
  8
_0-0_0
  6
CONTINUOUS
 62
    7
 10
-192.46890299999995
 20
766.07665999999995
 11
-192.21890299999995
 21
765.80462599999998
  0
LINE
  8
_0-0_0
  6
CONTINUOUS
 62
    7
 10
-192.46890299999995
 20
766.00308199999995
 11
-192.21890299999995
 21
765.76370199999997
  0
LINE
  8
_0-0_0
  6
CONTINUOUS
 62
    7
 10
-192.46890299999995
 20
766.02771000000007
 11
-192.21890299999995
 21
765.76370199999997
  0
LINE
  8
_0-0_0
  6
CONTINUOUS
 62
    7
 10
-192.46890299999995
 20
766.00308199999995
 11
-192.21890299999995
 21
765.75
  0
LINE
  8
_0-0_0
  6
CONTINUOUS
 62
    7
 10
-182.46890300000007
 20
770.00518799999998
 11
-182.46890300000007
 21
770.25
  0
LINE
  8
_0-0_0
  6
CONTINUOUS
 62
    7
 10
-182.71890300000007
 20
767.02456699999993
 11
-182.96890300000007
 21
766.78054799999995
  0
LINE
  8
_0-0_0
  6
CONTINUOUS
 62
    7
 10
-182.71890300000007
 20
766.83404500000006
 11
-182.96890300000007
 21
766.78054799999995
  0
LINE
  8
_0-0_0
  6
CONTINUOUS
 62
    7
 10
-182.71890300000007
 20
766.83404500000006
 11
-182.96890300000007
 21
766.577179
  0
LINE
  8
_0-0_0
  6
CONTINUOUS
 62
    7
 10
-182.71890300000007
 20
766.65902699999992
 11
-182.96890300000007
 21
766.577179
  0
LINE
  8
_0-0_0
  6
CONTINUOUS
 62
    7
 10
-182.71890300000007
 20
766.65902699999992
 11
-182.96890300000007
 21
766.39215100000001
  0
LINE
  8
_0-0_0
  6
CONTINUOUS
 62
    7
 10
-182.71890300000007
 20
766.50143400000002
 11
-182.96890300000007
 21
766.39215100000001
  0
LINE
  8
_0-0_0
  6
CONTINUOUS
 62
    7
 10
-182.71890300000007
 20
766.50143400000002
 11
-182.96890300000007
 21
766.22747800000002
  0
LINE
  8
_0-0_0
  6
CONTINUOUS
 62
    7
 10
-182.71890300000007
 20
766.36300699999993
 11
-182.96890300000007
 21
766.22747800000002
  0
LINE
  8
_0-0_0
  6
CONTINUOUS
 62
    7
 10
-182.71890300000007
 20
766.36300699999993
 11
-182.96890300000007
 21
766.08496100000002
  0
LINE
  8
_0-0_0
  6
CONTINUOUS
 62
    7
 10
-182.71890300000007
 20
766.24523900000008
 11
-182.96890300000007
 21
766.08496100000002
  0
LINE
  8
_0-0_0
  6
CONTINUOUS
 62
    7
 10
-182.71890300000007
 20
766.24523900000008
 11
-182.96890300000007
 21
765.96615599999996
  0
LINE
  8
_0-0_0
  6
CONTINUOUS
 62
    7
 10
-182.71890300000007
 20
766.14944500000001
 11
-182.96890300000007
 21
765.96615599999996
  0
LINE
  8
_0-0_0
  6
CONTINUOUS
 62
    7
 10
-182.71890300000007
 20
766.14944500000001
 11
-182.96890300000007
 21
765.87237499999992
  0
LINE
  8
_0-0_0
  6
CONTINUOUS
 62
    7
 10
-182.71890300000007
 20
766.07665999999995
 11
-182.96890300000007
 21
765.87237499999992
  0
LINE
  8
_0-0_0
  6
CONTINUOUS
 62
    7
 10
-182.71890300000007
 20
766.07665999999995
 11
-182.96890300000007
 21
765.80462599999998
  0
LINE
  8
_0-0_0
  6
CONTINUOUS
 62
    7
 10
-182.71890300000007
 20
766.02771000000007
 11
-182.96890300000007
 21
765.80462599999998
  0
LINE
  8
_0-0_0
  6
CONTINUOUS
 62
    7
 10
-182.71890300000007
 20
766.02771000000007
 11
-182.96890300000007
 21
765.76370199999997
  0
LINE
  8
_0-0_0
  6
CONTINUOUS
 62
    7
 10
-182.71890300000007
 20
766.00308199999995
 11
-182.96890300000007
 21
765.76370199999997
  0
LINE
  8
_0-0_0
  6
CONTINUOUS
 62
    7
 10
-182.71890300000007
 20
766.00308199999995
 11
-182.96890300000007
 21
765.75
  0
LINE
  8
_0-0_0
  6
CONTINUOUS
 62
    7
 10
-182.46890300000007
 20
766.25
 11
-182.46890300000007
 21
770.00518799999998
  0
LINE
  8
_0-0_0
  6
CONTINUOUS
 62
    7
 10
-182.96890300000007
 20
766.78054799999995
 11
-192.21890299999995
 21
766.78054799999995
  0
LINE
  8
_0-0_0
  6
CONTINUOUS
 62
    7
 10
-182.96890300000007
 20
766.577179
 11
-192.21890299999995
 21
766.577179
  0
LINE
  8
_0-0_0
  6
CONTINUOUS
 62
    7
 10
-182.96890300000007
 20
766.39215100000001
 11
-192.21890299999995
 21
766.39215100000001
  0
LINE
  8
_0-0_0
  6
CONTINUOUS
 62
    7
 10
-182.96890300000007
 20
766.22747800000002
 11
-192.21890299999995
 21
766.22747800000002
  0
LINE
  8
_0-0_0
  6
CONTINUOUS
 62
    7
 10
-182.96890300000007
 20
766.08496100000002
 11
-192.21890299999995
 21
766.08496100000002
  0
LINE
  8
_0-0_0
  6
CONTINUOUS
 62
    7
 10
-182.96890300000007
 20
765.96615599999996
 11
-192.21890299999995
 21
765.96615599999996
  0
LINE
  8
_0-0_0
  6
CONTINUOUS
 62
    7
 10
-182.96890300000007
 20
765.87237499999992
 11
-192.21890299999995
 21
765.87237499999992
  0
LINE
  8
_0-0_0
  6
CONTINUOUS
 62
    7
 10
-182.96890300000007
 20
765.80462599999998
 11
-192.21890299999995
 21
765.80462599999998
  0
LINE
  8
_0-0_0
  6
CONTINUOUS
 62
    7
 10
-182.96890300000007
 20
765.76370199999997
 11
-192.21890299999995
 21
765.76370199999997
  0
LINE
  8
_0-0_0
  6
CONTINUOUS
 62
    7
 10
-182.96890300000007
 20
765.75
 11
-192.21890299999995
 21
765.75
  0
LINE
  8
_0-0_0
  6
CONTINUOUS
 62
    7
 10
-319.46887199999992
 20
766
 11
-321.92456100000004
 21
766
  0
LINE
  8
_0-0_0
  6
CONTINUOUS
 62
    7
 10
-321.42346199999997
 20
770.5
 11
-321.92456100000004
 21
770.5
  0
LINE
  8
_0-0_0
  6
CONTINUOUS
 62
    7
 10
-322.06890900000008
 20
766.25
 11
-321.92456100000004
 21
766
  0
LINE
  8
_0-0_0
  6
CONTINUOUS
 62
    7
 10
-322.06890900000008
 20
770.25
 11
-321.92456100000004
 21
770.5
  0
LINE
  8
_0-0_0
  6
CONTINUOUS
 62
    7
 10
-218.46890299999995
 20
749.40002400000003
 11
-192.46890299999995
 21
749.40002400000003
  0
LINE
  8
_0-0_0
  6
CONTINUOUS
 62
    7
 10
-218.46890299999995
 20
753.90002400000003
 11
-192.46890299999995
 21
753.90002400000003
  0
LINE
  8
_0-0_0
  6
CONTINUOUS
 62
    7
 10
-192.46890299999995
 20
749.40002400000003
 11
-192.21890299999995
 21
749.15002400000003
  0
LINE
  8
_0-0_0
  6
CONTINUOUS
 62
    7
 10
-192.46890299999995
 20
753.90002400000003
 11
-192.21890299999995
 21
754.15002400000003
  0
LINE
  8
_0-0_0
  6
CONTINUOUS
 62
    7
 10
-196.46890299999995
 20
765.20001200000002
 11
-197.71890299999995
 21
766.45001200000002
  0
LINE
  8
_0-0_0
  6
CONTINUOUS
 62
    7
 10
-196.46890299999995
 20
754.70001200000002
 11
-197.26890600000002
 21
753.89999399999999
  0
LINE
  8
_0-0_0
  6
CONTINUOUS
 62
    7
 10
-182.46890300000007
 20
749.65002400000003
 11
-182.96873500000004
 21
749.15014599999995
  0
LINE
  8
_0-0_0
  6
CONTINUOUS
 62
    7
 10
-182.46890300000007
 20
753.65002400000003
 11
-182.96873500000004
 21
754.14984099999992
  0
LINE
  8
_0-0_0
  6
CONTINUOUS
 62
    7
 10
-196.46890299999995
 20
754.95001200000002
 11
-196.06890900000008
 21
754.95001200000002
  0
LINE
  8
_0-0_0
  6
CONTINUOUS
 62
    7
 10
-196.46890299999995
 20
764.95001200000002
 11
-196.06890900000008
 21
764.95001200000002
  0
LINE
  8
_0-0_0
  6
CONTINUOUS
 62
    7
 10
-195.26890600000002
 20
755.41189600000007
 11
-196.06890900000008
 21
754.95001200000002
  0
LINE
  8
_0-0_0
  6
CONTINUOUS
 62
    7
 10
-195.26890600000002
 20
764.48812900000007
 11
-196.06890900000008
 21
764.95001200000002
  0
LINE
  8
_0-0_0
  6
CONTINUOUS
 62
    7
 10
-195.26890600000002
 20
755.95001200000002
 11
-137.26890600000002
 21
755.95001200000002
  0
LINE
  8
_0-0_0
  6
CONTINUOUS
 62
    7
 10
-195.26890600000002
 20
763.95001200000002
 11
-137.26890600000002
 21
763.95001200000002
  0
LINE
  8
_0-0_0
  6
CONTINUOUS
 62
    7
 10
-212.71893300000011
 20
770.5
 11
-192.46890299999995
 21
770.5
  0
LINE
  8
_0-0_0
  6
CONTINUOUS
 62
    7
 10
-192.46890299999995
 20
770.5
 11
-192.21890299999995
 21
770.75
  0
LINE
  8
_0-0_0
  6
CONTINUOUS
 62
    7
 10
-197.26890600000002
 20
766
 11
-192.46890299999995
 21
766
  0
LINE
  8
_0-0_0
  6
CONTINUOUS
 62
    7
 10
-192.46890299999995
 20
766
 11
-192.21890299999995
 21
765.75
  0
LINE
  8
_0-0_0
  6
CONTINUOUS
 62
    7
 10
-182.46890300000007
 20
770.25
 11
-182.96873500000004
 21
770.74984700000005
  0
LINE
  8
_0-0_0
  6
CONTINUOUS
 62
    7
 10
-182.46890300000007
 20
766.25
 11
-182.96873500000004
 21
765.75015299999995
  0
LINE
  8
_0-0_0
  6
CONTINUOUS
 62
    7
 10
1645.531189
 20
802.15002400000003
 11
1645.531189
 21
789.15002400000003
  0
LINE
  8
_0-0_0
  6
CONTINUOUS
 62
    7
 10
-327.46887199999992
 20
802.15002400000003
 11
-327.46887199999992
 21
789.15002400000003
  0
LINE
  8
_0-0_0
  6
CONTINUOUS
 62
    7
 10
-327.46887199999992
 20
802.15002400000003
 11
1645.531189
 21
802.15002400000003
  0
LINE
  8
_0-0_0
  6
CONTINUOUS
 62
    7
 10
-327.46887199999992
 20
802.15002400000003
 11
-327.46887199999992
 21
820.75
  0
LINE
  8
_0-0_0
  6
CONTINUOUS
 62
    7
 10
-327.46887199999992
 20
823.25
 11
-327.46887199999992
 21
820.75
  0
LINE
  8
_0-0_0
  6
CONTINUOUS
 62
    7
 10
-327.46887199999992
 20
823.75
 11
-327.46887199999992
 21
823.25
  0
LINE
  8
_0-0_0
  6
CONTINUOUS
 62
    7
 10
-327.46887199999992
 20
775.75
 11
-327.46887199999992
 21
775.25
  0
LINE
  8
_0-0_0
  6
CONTINUOUS
 62
    7
 10
-327.46887199999992
 20
780.75
 11
-327.46887199999992
 21
775.75
  0
LINE
  8
_0-0_0
  6
CONTINUOUS
 62
    7
 10
-327.46887199999992
 20
781.25
 11
-327.46887199999992
 21
780.75
  0
LINE
  8
_0-0_0
  6
CONTINUOUS
 62
    7
 10
-327.46887199999992
 20
781.75
 11
-327.46887199999992
 21
781.25
  0
LINE
  8
_0-0_0
  6
CONTINUOUS
 62
    7
 10
-327.46887199999992
 20
784.95001200000002
 11
-327.46887199999992
 21
781.75
  0
LINE
  8
_0-0_0
  6
CONTINUOUS
 62
    7
 10
-327.46887199999992
 20
784.95001200000002
 11
-327.46887199999992
 21
789.15002400000003
  0
LINE
  8
_0-0_0
  6
CONTINUOUS
 62
    7
 10
-327.46887199999992
 20
789.15002400000003
 11
1645.531189
 21
789.15002400000003
  0
LINE
  8
_0-0_0
  6
CONTINUOUS
 62
    7
 10
1645.531189
 20
784.95001200000002
 11
1645.531189
 21
789.15002400000003
  0
LINE
  8
_0-0_0
  6
CONTINUOUS
 62
    7
 10
1645.531189
 20
781.75
 11
1645.531189
 21
784.95001200000002
  0
LINE
  8
_0-0_0
  6
CONTINUOUS
 62
    7
 10
1645.531189
 20
781.75
 11
1645.531189
 21
781.25
  0
LINE
  8
_0-0_0
  6
CONTINUOUS
 62
    7
 10
1645.531189
 20
781.25
 11
1645.531189
 21
780.75
  0
LINE
  8
_0-0_0
  6
CONTINUOUS
 62
    7
 10
1645.531189
 20
780.75
 11
1645.531189
 21
775.75
  0
LINE
  8
_0-0_0
  6
CONTINUOUS
 62
    7
 10
1645.531189
 20
775.75
 11
1645.531189
 21
775.25
  0
LINE
  8
_0-0_0
  6
CONTINUOUS
 62
    7
 10
1645.531189
 20
823.75
 11
1645.531189
 21
823.25
  0
LINE
  8
_0-0_0
  6
CONTINUOUS
 62
    7
 10
1645.531189
 20
820.75
 11
1645.531189
 21
823.25
  0
LINE
  8
_0-0_0
  6
CONTINUOUS
 62
    7
 10
1645.531189
 20
802.15002400000003
 11
1645.531189
 21
820.75
  0
CIRCLE
  8
_0-0_0
  6
CONTINUOUS
 62
    7
 10
1609.031189
 20
811.25
 40
6
  0
CIRCLE
  8
_0-0_0
  6
CONTINUOUS
 62
    7
 10
1509.031189
 20
811.25
 40
6
  0
CIRCLE
  8
_0-0_0
  6
CONTINUOUS
 62
    7
 10
1409.031189
 20
811.25
 40
6
  0
CIRCLE
  8
_0-0_0
  6
CONTINUOUS
 62
    7
 10
1309.031189
 20
811.25
 40
6
  0
CIRCLE
  8
_0-0_0
  6
CONTINUOUS
 62
    7
 10
1209.031189
 20
811.25
 40
6
  0
CIRCLE
  8
_0-0_0
  6
CONTINUOUS
 62
    7
 10
1109.031189
 20
811.25
 40
6
  0
CIRCLE
  8
_0-0_0
  6
CONTINUOUS
 62
    7
 10
1009.0311889999999
 20
811.25
 40
6
  0
CIRCLE
  8
_0-0_0
  6
CONTINUOUS
 62
    7
 10
909.03118899999993
 20
811.25
 40
6
  0
CIRCLE
  8
_0-0_0
  6
CONTINUOUS
 62
    7
 10
809.03118899999993
 20
811.25
 40
6
  0
CIRCLE
  8
_0-0_0
  6
CONTINUOUS
 62
    7
 10
709.03118899999993
 20
811.25
 40
6
  0
CIRCLE
  8
_0-0_0
  6
CONTINUOUS
 62
    7
 10
609.03106700000001
 20
811.25
 40
6
  0
CIRCLE
  8
_0-0_0
  6
CONTINUOUS
 62
    7
 10
509.03106699999995
 20
811.25
 40
6
  0
CIRCLE
  8
_0-0_0
  6
CONTINUOUS
 62
    7
 10
409.03106699999995
 20
811.25
 40
6
  0
CIRCLE
  8
_0-0_0
  6
CONTINUOUS
 62
    7
 10
309.03106699999989
 20
811.25
 40
6
  0
CIRCLE
  8
_0-0_0
  6
CONTINUOUS
 62
    7
 10
209.03108199999997
 20
811.25
 40
6
  0
CIRCLE
  8
_0-0_0
  6
CONTINUOUS
 62
    7
 10
109.031113
 20
811.25
 40
6
  0
CIRCLE
  8
_0-0_0
  6
CONTINUOUS
 62
    7
 10
9.0311130000000048
 20
811.25
 40
6
  0
CIRCLE
  8
_0-0_0
  6
CONTINUOUS
 62
    7
 10
-90.968886999999995
 20
811.25
 40
6
  0
CIRCLE
  8
_0-0_0
  6
CONTINUOUS
 62
    7
 10
-190.96890299999995
 20
811.25
 40
6
  0
CIRCLE
  8
_0-0_0
  6
CONTINUOUS
 62
    7
 10
-290.96887199999992
 20
811.25
 40
6
  0
LINE
  8
_0-0_0
  6
CONTINUOUS
 62
    7
 10
-327.46887199999992
 20
820.75
 11
1645.531189
 21
820.75
  0
LINE
  8
_0-0_0
  6
CONTINUOUS
 62
    7
 10
-327.46887199999992
 20
823.75
 11
1645.531189
 21
823.75
  0
LINE
  8
_0-0_0
  6
CONTINUOUS
 62
    7
 10
-327.46887199999992
 20
823.25
 11
-329.96887199999992
 21
823.25
  0
LINE
  8
_0-0_0
  6
CONTINUOUS
 62
    7
 10
-329.96887199999992
 20
823.25
 11
-329.96887199999992
 21
822.75
  0
LINE
  8
_0-0_0
  6
CONTINUOUS
 62
    7
 10
-329.96887199999992
 20
822.75
 11
-329.96887199999992
 21
782.25
  0
LINE
  8
_0-0_0
  6
CONTINUOUS
 62
    7
 10
-327.46887199999992
 20
781.75
 11
-329.96887199999992
 21
781.75
  0
LINE
  8
_0-0_0
  6
CONTINUOUS
 62
    7
 10
-329.96887199999992
 20
782.25
 11
-329.96887199999992
 21
781.75
  0
LINE
  8
_0-0_0
  6
CONTINUOUS
 62
    7
 10
-329.96887199999992
 20
781.75
 11
-329.96887199999992
 21
780.75
  0
LINE
  8
_0-0_0
  6
CONTINUOUS
 62
    7
 10
-329.96887199999992
 20
780.75
 11
-329.96887199999992
 21
776.25
  0
LINE
  8
_0-0_0
  6
CONTINUOUS
 62
    7
 10
-327.46887199999992
 20
775.75
 11
-329.96887199999992
 21
775.75
  0
LINE
  8
_0-0_0
  6
CONTINUOUS
 62
    7
 10
-329.96887199999992
 20
776.25
 11
-329.96887199999992
 21
775.75
  0
LINE
  8
_0-0_0
  6
CONTINUOUS
 62
    7
 10
-327.46887199999992
 20
775.25
 11
1645.531189
 21
775.25
  0
LINE
  8
_0-0_0
  6
CONTINUOUS
 62
    7
 10
-327.46887199999992
 20
781.25
 11
1645.531189
 21
781.25
  0
LINE
  8
_0-0_0
  6
CONTINUOUS
 62
    7
 10
-327.46887199999992
 20
784.95001200000002
 11
1645.531189
 21
784.95001200000002
  0
LINE
  8
_0-0_0
  6
CONTINUOUS
 62
    7
 10
1645.531189
 20
823.25
 11
1648.031189
 21
823.25
  0
LINE
  8
_0-0_0
  6
CONTINUOUS
 62
    7
 10
1648.031189
 20
823.25
 11
1648.031189
 21
822.75
  0
LINE
  8
_0-0_0
  6
CONTINUOUS
 62
    7
 10
1648.031189
 20
822.75
 11
1648.031189
 21
782.25
  0
LINE
  8
_0-0_0
  6
CONTINUOUS
 62
    7
 10
1645.531189
 20
781.75
 11
1648.031189
 21
781.75
  0
LINE
  8
_0-0_0
  6
CONTINUOUS
 62
    7
 10
1648.031189
 20
782.25
 11
1648.031189
 21
781.75
  0
LINE
  8
_0-0_0
  6
CONTINUOUS
 62
    7
 10
1648.031189
 20
781.75
 11
1648.031189
 21
780.75
  0
LINE
  8
_0-0_0
  6
CONTINUOUS
 62
    7
 10
1648.031189
 20
780.75
 11
1648.031189
 21
776.25
  0
LINE
  8
_0-0_0
  6
CONTINUOUS
 62
    7
 10
1645.531189
 20
775.75
 11
1648.031189
 21
775.75
  0
LINE
  8
_0-0_0
  6
CONTINUOUS
 62
    7
 10
1648.031189
 20
776.25
 11
1648.031189
 21
775.75
  0
ARC
  8
_0-0_0
  6
CONTINUOUS
 62
    7
 10
-269.96887199999992
 20
776.25
 40
0.5
 50
269.99999700000001
 51
0
  0
LINE
  8
_0-0_0
  6
CONTINUOUS
 62
    7
 10
-269.96887199999992
 20
775.75
 11
-276.96887199999992
 21
775.75
  0
ARC
  8
_0-0_0
  6
CONTINUOUS
 62
    7
 10
-276.96887199999992
 20
776.25
 40
0.5
 50
179.99999099999999
 51
269.99999700000001
  0
LINE
  8
_0-0_0
  6
CONTINUOUS
 62
    7
 10
-277.46887199999992
 20
780.25
 11
-277.46887199999992
 21
776.25
  0
ARC
  8
_0-0_0
  6
CONTINUOUS
 62
    7
 10
-276.96887199999992
 20
780.25
 40
0.5
 50
90.000003000000007
 51
179.99999099999999
  0
ARC
  8
_0-0_0
  6
CONTINUOUS
 62
    7
 10
-269.96887199999992
 20
780.25
 40
0.5
 50
0
 51
90.000003000000007
  0
LINE
  8
_0-0_0
  6
CONTINUOUS
 62
    7
 10
-276.96887199999992
 20
780.75
 11
-269.96887199999992
 21
780.75
  0
LINE
  8
_0-0_0
  6
CONTINUOUS
 62
    7
 10
1645.531189
 20
823.75
 11
1645.531189
 21
823.45001200000002
  0
LINE
  8
_0-0_0
  6
CONTINUOUS
 62
    7
 10
1645.531189
 20
823.45001200000002
 11
1645.531189
 21
823.25
  0
CIRCLE
  8
_0-0_0
  6
CONTINUOUS
 62
    7
 10
1609.031189
 20
811.25
 40
5.5
  0
CIRCLE
  8
_0-0_0
  6
CONTINUOUS
 62
    7
 10
1509.031189
 20
811.25
 40
5.5
  0
CIRCLE
  8
_0-0_0
  6
CONTINUOUS
 62
    7
 10
1409.031189
 20
811.25
 40
5.5
  0
CIRCLE
  8
_0-0_0
  6
CONTINUOUS
 62
    7
 10
1309.031189
 20
811.25
 40
5.5
  0
CIRCLE
  8
_0-0_0
  6
CONTINUOUS
 62
    7
 10
1209.031189
 20
811.25
 40
5.5
  0
CIRCLE
  8
_0-0_0
  6
CONTINUOUS
 62
    7
 10
1109.031189
 20
811.25
 40
5.5
  0
CIRCLE
  8
_0-0_0
  6
CONTINUOUS
 62
    7
 10
1009.0311889999999
 20
811.25
 40
5.5
  0
CIRCLE
  8
_0-0_0
  6
CONTINUOUS
 62
    7
 10
909.03118899999993
 20
811.25
 40
5.5
  0
CIRCLE
  8
_0-0_0
  6
CONTINUOUS
 62
    7
 10
809.03118899999993
 20
811.25
 40
5.5
  0
CIRCLE
  8
_0-0_0
  6
CONTINUOUS
 62
    7
 10
709.03118899999993
 20
811.25
 40
5.5
  0
CIRCLE
  8
_0-0_0
  6
CONTINUOUS
 62
    7
 10
609.03106700000001
 20
811.25
 40
5.5
  0
CIRCLE
  8
_0-0_0
  6
CONTINUOUS
 62
    7
 10
509.03106699999995
 20
811.25
 40
5.5
  0
CIRCLE
  8
_0-0_0
  6
CONTINUOUS
 62
    7
 10
409.03106699999995
 20
811.25
 40
5.5
  0
CIRCLE
  8
_0-0_0
  6
CONTINUOUS
 62
    7
 10
309.03106699999989
 20
811.25
 40
5.5
  0
CIRCLE
  8
_0-0_0
  6
CONTINUOUS
 62
    7
 10
209.03108199999997
 20
811.25
 40
5.5
  0
CIRCLE
  8
_0-0_0
  6
CONTINUOUS
 62
    7
 10
109.031113
 20
811.25
 40
5.5
  0
CIRCLE
  8
_0-0_0
  6
CONTINUOUS
 62
    7
 10
9.0311130000000048
 20
811.25
 40
5.5
  0
CIRCLE
  8
_0-0_0
  6
CONTINUOUS
 62
    7
 10
-90.968886999999995
 20
811.25
 40
5.5
  0
CIRCLE
  8
_0-0_0
  6
CONTINUOUS
 62
    7
 10
-190.96890299999995
 20
811.25
 40
5.5
  0
CIRCLE
  8
_0-0_0
  6
CONTINUOUS
 62
    7
 10
-290.96887199999992
 20
811.25
 40
5.5
  0
LINE
  8
_0-0_0
  6
CONTINUOUS
 62
    7
 10
-269.46887199999992
 20
776.25
 11
-269.46887199999992
 21
780.25
  0
CIRCLE
  8
_0-0_0
  6
CONTINUOUS
 62
    7
 10
1609.031189
 20
811.25
 40
3.5
  0
CIRCLE
  8
_0-0_0
  6
CONTINUOUS
 62
    7
 10
1509.031189
 20
811.25
 40
3.5
  0
CIRCLE
  8
_0-0_0
  6
CONTINUOUS
 62
    7
 10
1409.031189
 20
811.25
 40
3.5
  0
CIRCLE
  8
_0-0_0
  6
CONTINUOUS
 62
    7
 10
1309.031189
 20
811.25
 40
3.5
  0
CIRCLE
  8
_0-0_0
  6
CONTINUOUS
 62
    7
 10
1209.031189
 20
811.25
 40
3.5
  0
CIRCLE
  8
_0-0_0
  6
CONTINUOUS
 62
    7
 10
1109.031189
 20
811.25
 40
3.5
  0
CIRCLE
  8
_0-0_0
  6
CONTINUOUS
 62
    7
 10
1009.0311889999999
 20
811.25
 40
3.5
  0
CIRCLE
  8
_0-0_0
  6
CONTINUOUS
 62
    7
 10
909.03118899999993
 20
811.25
 40
3.5
  0
CIRCLE
  8
_0-0_0
  6
CONTINUOUS
 62
    7
 10
809.03118899999993
 20
811.25
 40
3.5
  0
CIRCLE
  8
_0-0_0
  6
CONTINUOUS
 62
    7
 10
709.03118899999993
 20
811.25
 40
3.5
  0
CIRCLE
  8
_0-0_0
  6
CONTINUOUS
 62
    7
 10
609.03106700000001
 20
811.25
 40
3.5
  0
CIRCLE
  8
_0-0_0
  6
CONTINUOUS
 62
    7
 10
509.03106699999995
 20
811.25
 40
3.5
  0
CIRCLE
  8
_0-0_0
  6
CONTINUOUS
 62
    7
 10
409.03106699999995
 20
811.25
 40
3.5
  0
CIRCLE
  8
_0-0_0
  6
CONTINUOUS
 62
    7
 10
309.03106699999989
 20
811.25
 40
3.5
  0
CIRCLE
  8
_0-0_0
  6
CONTINUOUS
 62
    7
 10
209.03108199999997
 20
811.25
 40
3.5
  0
CIRCLE
  8
_0-0_0
  6
CONTINUOUS
 62
    7
 10
109.031113
 20
811.25
 40
3.5
  0
CIRCLE
  8
_0-0_0
  6
CONTINUOUS
 62
    7
 10
9.0311130000000048
 20
811.25
 40
3.5
  0
CIRCLE
  8
_0-0_0
  6
CONTINUOUS
 62
    7
 10
-90.968886999999995
 20
811.25
 40
3.5
  0
CIRCLE
  8
_0-0_0
  6
CONTINUOUS
 62
    7
 10
-190.96890299999995
 20
811.25
 40
3.5
  0
CIRCLE
  8
_0-0_0
  6
CONTINUOUS
 62
    7
 10
-290.96887199999992
 20
811.25
 40
3.5
  0
ARC
  8
_0-0_0
  6
CONTINUOUS
 62
    7
 10
-272.16888400000016
 20
779.95001200000002
 40
0.2
 50
339.62356199999999
 51
90.000002999999978
  0
LINE
  8
_0-0_0
  6
CONTINUOUS
 62
    7
 10
-271.98138400000016
 20
779.88037099999997
 11
-273.28143300000011
 21
776.38037099999997
  0
ARC
  8
_0-0_0
  6
CONTINUOUS
 62
    7
 10
-273.46887199999992
 20
776.45001200000002
 40
0.2
 50
200.37643
 51
339.62356199999999
  0
LINE
  8
_0-0_0
  6
CONTINUOUS
 62
    7
 10
-274.95636000000013
 20
779.88037099999997
 11
-273.65637199999992
 21
776.38037099999997
  0
ARC
  8
_0-0_0
  6
CONTINUOUS
 62
    7
 10
-274.76892100000009
 20
779.95001200000002
 40
0.2
 50
90.000003000000007
 51
200.37643
  0
LINE
  8
_0-0_0
  6
CONTINUOUS
 62
    7
 10
-274.76892100000009
 20
780.15002400000003
 11
-272.16888400000016
 21
780.15002400000003
  0
ARC
  8
_0-0_0
  6
CONTINUOUS
 62
    7
 10
1565.2311399999999
 20
779.95001200000002
 40
0.2
 50
90.000003000000007
 51
200.37643
  0
LINE
  8
_0-0_0
  6
CONTINUOUS
 62
    7
 10
1565.2311399999999
 20
780.15002400000003
 11
1567.831238
 21
780.15002400000003
  0
ARC
  8
_0-0_0
  6
CONTINUOUS
 62
    7
 10
1563.031189
 20
780.25
 40
0.5
 50
90.000003000000007
 51
179.99999099999999
  0
LINE
  8
_0-0_0
  6
CONTINUOUS
 62
    7
 10
1562.531189
 20
780.25
 11
1562.531189
 21
776.25
  0
ARC
  8
_0-0_0
  6
CONTINUOUS
 62
    7
 10
1563.031189
 20
776.25
 40
0.5
 50
179.99999099999999
 51
269.99999700000001
  0
LINE
  8
_0-0_0
  6
CONTINUOUS
 62
    7
 10
1570.031189
 20
775.75
 11
1563.031189
 21
775.75
  0
ARC
  8
_0-0_0
  6
CONTINUOUS
 62
    7
 10
1570.031189
 20
776.25
 40
0.5
 50
269.99999700000001
 51
0
  0
LINE
  8
_0-0_0
  6
CONTINUOUS
 62
    7
 10
1570.531189
 20
776.25
 11
1570.531189
 21
780.25
  0
ARC
  8
_0-0_0
  6
CONTINUOUS
 62
    7
 10
1570.031189
 20
780.25
 40
0.5
 50
0
 51
90.000003000000007
  0
LINE
  8
_0-0_0
  6
CONTINUOUS
 62
    7
 10
1563.031189
 20
780.75
 11
1570.031189
 21
780.75
  0
LINE
  8
_0-0_0
  6
CONTINUOUS
 62
    7
 10
1565.043762
 20
779.88037099999997
 11
1566.343689
 21
776.38037099999997
  0
ARC
  8
_0-0_0
  6
CONTINUOUS
 62
    7
 10
1566.531189
 20
776.45001200000002
 40
0.2
 50
200.37643
 51
339.62356199999999
  0
LINE
  8
_0-0_0
  6
CONTINUOUS
 62
    7
 10
1568.0186160000001
 20
779.88037099999997
 11
1566.718689
 21
776.38037099999997
  0
ARC
  8
_0-0_0
  6
CONTINUOUS
 62
    7
 10
1567.831238
 20
779.95001200000002
 40
0.2
 50
339.62356199999999
 51
90.000002999999978
  0
LINE
  8
_0-0_0
  6
CONTINUOUS
 62
    7
 10
-385.39355500000011
 20
773.25
 11
-385.29357900000014
 21
773.25
  0
LINE
  8
_0-0_0
  6
CONTINUOUS
 62
    7
 10
-369.59356700000012
 20
773.25
 11
-370.29357900000014
 21
773.25
  0
LINE
  8
_0-0_0
  6
CONTINUOUS
 62
    7
 10
-369.59356700000012
 20
773.25
 11
-368.39355500000011
 21
773.25
  0
ARC
  8
_0-0_0
  6
CONTINUOUS
 62
    7
 10
-368.39355500000011
 20
772.75
 40
0.5
 50
0
 51
90.000003000000007
  0
ARC
  8
_0-0_0
  6
CONTINUOUS
 62
    7
 10
-369.59356700000012
 20
772.75
 40
0.5
 50
90.000003000000007
 51
179.99999099999999
  0
ARC
  8
_0-0_0
  6
CONTINUOUS
 62
    7
 10
-385.39355500000011
 20
772.75
 40
0.5
 50
90.000003000000007
 51
179.99999099999999
  0
ARC
  8
_0-0_0
  6
CONTINUOUS
 62
    7
 10
-383.89355500000011
 20
773.75
 40
0.5
 50
90.000003000000007
 51
126.868797
  0
LINE
  8
_0-0_0
  6
CONTINUOUS
 62
    7
 10
-382.39355500000011
 20
774.25
 11
-383.89355500000011
 21
774.25
  0
ARC
  8
_0-0_0
  6
CONTINUOUS
 62
    7
 10
-382.39355500000011
 20
775.25
 40
1
 50
269.99999700000001
 51
0
  0
LINE
  8
_0-0_0
  6
CONTINUOUS
 62
    7
 10
-381.39355500000011
 20
775.75
 11
-381.39355500000011
 21
775.25
  0
LINE
  8
_0-0_0
  6
CONTINUOUS
 62
    7
 10
-380.89355500000011
 20
775.75
 11
-380.89355500000011
 21
774.75
  0
ARC
  8
_0-0_0
  6
CONTINUOUS
 62
    7
 10
-382.39355500000011
 20
774.75
 40
1.5
 50
336.42205899999999
 51
0
  0
ARC
  8
_0-0_0
  6
CONTINUOUS
 62
    7
 10
-370.79357900000014
 20
774.75
 40
1.5
 50
179.99999099999999
 51
203.57793100000001
  0
LINE
  8
_0-0_0
  6
CONTINUOUS
 62
    7
 10
-368.79357900000014
 20
773.75
 11
-368.79357900000014
 21
773.25
  0
ARC
  8
_0-0_0
  6
CONTINUOUS
 62
    7
 10
-369.29357900000014
 20
773.75
 40
0.5
 50
0
 51
90.000003000000007
  0
LINE
  8
_0-0_0
  6
CONTINUOUS
 62
    7
 10
-370.79357900000014
 20
774.25
 11
-369.29357900000014
 21
774.25
  0
ARC
  8
_0-0_0
  6
CONTINUOUS
 62
    7
 10
-370.79357900000014
 20
775.25
 40
1
 50
179.99999099999999
 51
269.99999700000001
  0
LINE
  8
_0-0_0
  6
CONTINUOUS
 62
    7
 10
-371.79357900000014
 20
775.75
 11
-371.79357900000014
 21
775.25
  0
LINE
  8
_0-0_0
  6
CONTINUOUS
 62
    7
 10
-372.29357900000014
 20
775.75
 11
-372.29357900000014
 21
774.75
  0
LINE
  8
_0-0_0
  6
CONTINUOUS
 62
    7
 10
-367.89355500000011
 20
746.25
 11
-367.89355500000011
 21
747.15002400000003
  0
LINE
  8
_0-0_0
  6
CONTINUOUS
 62
    7
 10
-367.89355500000011
 20
747.15002400000003
 11
-367.89355500000011
 21
749.65002400000003
  0
LINE
  8
_0-0_0
  6
CONTINUOUS
 62
    7
 10
-367.89355500000011
 20
749.65002400000003
 11
-367.89355500000011
 21
770.25
  0
LINE
  8
_0-0_0
  6
CONTINUOUS
 62
    7
 10
-367.89355500000011
 20
770.25
 11
-367.89355500000011
 21
772.75
  0
LINE
  8
_0-0_0
  6
CONTINUOUS
 62
    7
 10
-370.09356700000012
 20
772.75
 11
-370.09356700000012
 21
771.50500499999998
  0
LINE
  8
_0-0_0
  6
CONTINUOUS
 62
    7
 10
-372.49352999999996
 20
774.15002400000003
 11
-372.49352999999996
 21
775.55001800000002
  0
ARC
  8
_0-0_0
  6
CONTINUOUS
 62
    7
 10
-372.99352999999996
 20
775.55001800000002
 40
0.5
 50
0
 51
23.579369
  0
LINE
  8
_0-0_0
  6
CONTINUOUS
 62
    7
 10
-380.69354300000009
 20
774.15002400000003
 11
-380.69354300000009
 21
775.55001800000002
  0
ARC
  8
_0-0_0
  6
CONTINUOUS
 62
    7
 10
-380.19354300000009
 20
775.55001800000002
 40
0.5
 50
156.420635
 51
179.99999099999999
  0
LINE
  8
_0-0_0
  6
CONTINUOUS
 62
    7
 10
-385.89355500000011
 20
746.25
 11
-385.89355500000011
 21
756.45001200000002
  0
LINE
  8
_0-0_0
  6
CONTINUOUS
 62
    7
 10
-385.89355500000011
 20
756.45001200000002
 11
-385.89355500000011
 21
757.45001200000002
  0
LINE
  8
_0-0_0
  6
CONTINUOUS
 62
    7
 10
-385.89355500000011
 20
757.45001200000002
 11
-385.89355500000011
 21
762.45001200000002
  0
LINE
  8
_0-0_0
  6
CONTINUOUS
 62
    7
 10
-385.89355500000011
 20
762.45001200000002
 11
-385.89355500000011
 21
763.45001200000002
  0
LINE
  8
_0-0_0
  6
CONTINUOUS
 62
    7
 10
-385.89355500000011
 20
772.75
 11
-385.89355500000011
 21
763.45001200000002
  0
ARC
  8
_0-0_0
  6
CONTINUOUS
 62
    7
 10
-384.79357900000014
 20
762.45001200000002
 40
0.5
 50
0
 51
90.000003000000007
  0
LINE
  8
_0-0_0
  6
CONTINUOUS
 62
    7
 10
-384.69354300000009
 20
763.40002400000003
 11
-384.79357900000014
 21
763.40002400000003
  0
ARC
  8
_0-0_0
  6
CONTINUOUS
 62
    7
 10
-384.69354300000009
 20
762.90002400000003
 40
0.5
 50
0
 51
90.000003000000007
  0
LINE
  8
_0-0_0
  6
CONTINUOUS
 62
    7
 10
-384.29357900000014
 20
762.45001200000002
 11
-384.29357900000014
 21
757.45001200000002
  0
ARC
  8
_0-0_0
  6
CONTINUOUS
 62
    7
 10
-384.79357900000014
 20
757.45001200000002
 40
0.5
 50
269.99999700000001
 51
0
  0
ARC
  8
_0-0_0
  6
CONTINUOUS
 62
    7
 10
-384.69354300000009
 20
757.35000600000001
 40
0.5
 50
269.99999700000001
 51
0
  0
LINE
  8
_0-0_0
  6
CONTINUOUS
 62
    7
 10
-384.79357900000014
 20
756.85000600000001
 11
-384.69354300000009
 21
756.85000600000001
  0
LINE
  8
_0-0_0
  6
CONTINUOUS
 62
    7
 10
-367.09356700000012
 20
771.75
 11
-367.89355500000011
 21
771.75
  0
LINE
  8
_0-0_0
  6
CONTINUOUS
 62
    7
 10
-367.09356700000012
 20
772.55001800000002
 11
-367.89355500000011
 21
772.55001800000002
  0
LINE
  8
_0-0_0
  6
CONTINUOUS
 62
    7
 10
-367.09356700000012
 20
771.55001800000002
 11
-367.09356700000012
 21
772.55001800000002
  0
LINE
  8
_0-0_0
  6
CONTINUOUS
 62
    7
 10
-367.09356700000012
 20
752.95001200000002
 11
-367.89355500000011
 21
752.95001200000002
  0
LINE
  8
_0-0_0
  6
CONTINUOUS
 62
    7
 10
-367.09356700000012
 20
752.95001200000002
 11
-367.09356700000012
 21
755.95001200000002
  0
LINE
  8
_0-0_0
  6
CONTINUOUS
 62
    7
 10
-367.09356700000012
 20
768.18771400000003
 11
-367.09356700000012
 21
755.95001200000002
  0
LINE
  8
_0-0_0
  6
CONTINUOUS
 62
    7
 10
-367.09356700000012
 20
768.18771400000003
 11
-367.09356700000012
 21
769.15048200000001
  0
LINE
  8
_0-0_0
  6
CONTINUOUS
 62
    7
 10
-367.89355500000011
 20
769.15048200000001
 11
-367.89355500000011
 21
771.75
  0
ARC
  8
_0-0_0
  6
CONTINUOUS
 62
    7
 10
-373.50848399999995
 20
768.43206800000007
 40
5.7120379999999997
 50
18.558475999999999
 51
26.433648000000002
  0
ARC
  8
_0-0_0
  6
CONTINUOUS
 62
    7
 10
-368.09356700000012
 20
770.25
 40
0.2
 50
269.99999700000001
 51
0
  0
ARC
  8
_0-0_0
  6
CONTINUOUS
 62
    7
 10
-368.09356700000012
 20
749.65002400000003
 40
0.2
 50
0
 51
90.000003000000007
  0
ARC
  8
_0-0_0
  6
CONTINUOUS
 62
    7
 10
-373.50836200000003
 20
751.46804799999995
 40
5.711964
 50
333.565022
 51
341.44031000000001
  0
ARC
  8
_0-0_0
  6
CONTINUOUS
 62
    7
 10
-368.39355500000011
 20
747.15002400000003
 40
0.5
 50
269.99999700000001
 51
0
  0
LINE
  8
_0-0_0
  6
CONTINUOUS
 62
    7
 10
-368.39355500000011
 20
746.25
 11
-367.89355500000011
 21
746.25
  0
LINE
  8
_0-0_0
  6
CONTINUOUS
 62
    7
 10
-367.89355500000011
 20
746.25
 11
-368.39355500000011
 21
745.75
  0
ARC
  8
_0-0_0
  6
CONTINUOUS
 62
    7
 10
-370.09356700000012
 20
768.75
 40
2.2999999999999998
 50
34.417387999999995
 51
79.713437000000013
  0
LINE
  8
_0-0_0
  6
CONTINUOUS
 62
    7
 10
-368.15484599999991
 20
770.05001800000002
 11
-368.19616700000006
 21
770.05001800000002
  0
LINE
  8
_0-0_0
  6
CONTINUOUS
 62
    7
 10
-368.15484599999991
 20
770.05001800000002
 11
-368.14532499999996
 21
770.05102499999998
  0
LINE
  8
_0-0_0
  6
CONTINUOUS
 62
    7
 10
-368.14532499999996
 20
770.05102499999998
 11
-368.13580300000012
 21
770.05422999999996
  0
LINE
  8
_0-0_0
  6
CONTINUOUS
 62
    7
 10
-368.13580300000012
 20
770.05422999999996
 11
-368.12658699999997
 21
770.05963100000008
  0
LINE
  8
_0-0_0
  6
CONTINUOUS
 62
    7
 10
-368.12658699999997
 20
770.05963100000008
 11
-368.11773700000003
 21
770.067139
  0
LINE
  8
_0-0_0
  6
CONTINUOUS
 62
    7
 10
-368.11773700000003
 20
770.067139
 11
-368.1023560000001
 21
770.08776899999998
  0
LINE
  8
_0-0_0
  6
CONTINUOUS
 62
    7
 10
-368.1023560000001
 20
770.08776899999998
 11
-368.09057600000006
 21
770.11505099999999
  0
LINE
  8
_0-0_0
  6
CONTINUOUS
 62
    7
 10
-368.09057600000006
 20
770.11505099999999
 11
-368.08343500000001
 21
770.14718599999992
  0
LINE
  8
_0-0_0
  6
CONTINUOUS
 62
    7
 10
-368.08343500000001
 20
770.14718599999992
 11
-368.08154300000001
 21
770.18225099999995
  0
LINE
  8
_0-0_0
  6
CONTINUOUS
 62
    7
 10
-368.08154300000001
 20
770.18225099999995
 11
-368.08538799999997
 21
770.21841399999994
  0
LINE
  8
_0-0_0
  6
CONTINUOUS
 62
    7
 10
-368.08538799999997
 20
770.21841399999994
 11
-368.09356700000012
 21
770.25
  0
ARC
  8
_0-0_0
  6
CONTINUOUS
 62
    7
 10
-369.59356700000012
 20
771.50500499999998
 40
0.5
 50
179.99999099999999
 51
259.71343899999994
  0
LINE
  8
_0-0_0
  6
CONTINUOUS
 62
    7
 10
-370.29357900000014
 20
771.60000600000001
 11
-370.29357900000014
 21
771.30657999999994
  0
LINE
  8
_0-0_0
  6
CONTINUOUS
 62
    7
 10
-370.29357900000014
 20
771.60000600000001
 11
-370.29357900000014
 21
773.65002400000003
  0
ARC
  8
_0-0_0
  6
CONTINUOUS
 62
    7
 10
-370.79357900000014
 20
773.65002400000003
 40
0.5
 50
0
 51
90.000003000000007
  0
LINE
  8
_0-0_0
  6
CONTINUOUS
 62
    7
 10
-370.79357900000014
 20
774.15002400000003
 11
-373.53643800000009
 21
774.15002400000003
  0
ARC
  8
_0-0_0
  6
CONTINUOUS
 62
    7
 10
-384.79357900000014
 20
763.90002400000003
 40
0.5
 50
179.99999099999999
 51
269.99999700000001
  0
LINE
  8
_0-0_0
  6
CONTINUOUS
 62
    7
 10
-385.29357900000014
 20
773.65002400000003
 11
-385.29357900000014
 21
763.90002400000003
  0
LINE
  8
_0-0_0
  6
CONTINUOUS
 62
    7
 10
-379.65063499999997
 20
774.15002400000003
 11
-384.79357900000014
 21
774.15002400000003
  0
ARC
  8
_0-0_0
  6
CONTINUOUS
 62
    7
 10
-384.79357900000014
 20
773.65002400000003
 40
0.5
 50
90.000003000000007
 51
179.99999099999999
  0
LINE
  8
_0-0_0
  6
CONTINUOUS
 62
    7
 10
-386.09356700000012
 20
771.75
 11
-385.89355500000011
 21
771.75
  0
LINE
  8
_0-0_0
  6
CONTINUOUS
 62
    7
 10
-386.09356700000012
 20
772.55001800000002
 11
-385.89355500000011
 21
772.55001800000002
  0
LINE
  8
_0-0_0
  6
CONTINUOUS
 62
    7
 10
-386.09356700000012
 20
772.55001800000002
 11
-386.09356700000012
 21
771.75012199999992
  0
LINE
  8
_0-0_0
  6
CONTINUOUS
 62
    7
 10
-386.09356700000012
 20
752.95001200000002
 11
-385.89355500000011
 21
752.95001200000002
  0
LINE
  8
_0-0_0
  6
CONTINUOUS
 62
    7
 10
-386.09356700000012
 20
755.95001200000002
 11
-386.09356700000012
 21
752.95001200000002
  0
LINE
  8
_0-0_0
  6
CONTINUOUS
 62
    7
 10
-386.09356700000012
 20
768.18771400000003
 11
-386.09356700000012
 21
755.95001200000002
  0
LINE
  8
_0-0_0
  6
CONTINUOUS
 62
    7
 10
-386.09356700000012
 20
769.15048200000001
 11
-386.09356700000012
 21
768.18771400000003
  0
ARC
  8
_0-0_0
  6
CONTINUOUS
 62
    7
 10
-385.39355500000011
 20
762.45001200000002
 40
0.5
 50
90.000003000000007
 51
179.99999099999999
  0
ARC
  8
_0-0_0
  6
CONTINUOUS
 62
    7
 10
-385.39355500000011
 20
757.45001200000002
 40
0.5
 50
179.99999099999999
 51
269.99999700000001
  0
LINE
  8
_0-0_0
  6
CONTINUOUS
 62
    7
 10
-385.89355500000011
 20
746.25
 11
-385.39355500000011
 21
746.25
  0
LINE
  8
_0-0_0
  6
CONTINUOUS
 62
    7
 10
-385.89355500000011
 20
746.25
 11
-385.39355500000011
 21
745.75
  0
LINE
  8
_0-0_0
  6
CONTINUOUS
 62
    7
 10
-384.79357900000014
 20
762.95001200000002
 11
-385.39355500000011
 21
762.95001200000002
  0
LINE
  8
_0-0_0
  6
CONTINUOUS
 62
    7
 10
-384.19354300000009
 20
762.90002400000003
 11
-384.19354300000009
 21
757.35000600000001
  0
LINE
  8
_0-0_0
  6
CONTINUOUS
 62
    7
 10
-368.39355500000011
 20
746.25
 11
-385.39355500000011
 21
746.25
  0
LINE
  8
_0-0_0
  6
CONTINUOUS
 62
    7
 10
-385.39355500000011
 20
756.95001200000002
 11
-384.79357900000014
 21
756.95001200000002
  0
ARC
  8
_0-0_0
  6
CONTINUOUS
 62
    7
 10
-384.79357900000014
 20
756.35000600000001
 40
0.5
 50
90.000003000000007
 51
179.99999099999999
  0
LINE
  8
_0-0_0
  6
CONTINUOUS
 62
    7
 10
-367.09356700000012
 20
769.15048200000001
 11
-367.09356700000012
 21
771.75
  0
LINE
  8
_0-0_0
  6
CONTINUOUS
 62
    7
 10
-368.09356700000012
 20
770.05001800000002
 11
-368.15484599999991
 21
770.05001800000002
  0
LINE
  8
_0-0_0
  6
CONTINUOUS
 62
    7
 10
-368.19616700000006
 20
770.05001800000002
 11
-368.19842500000004
 21
770.05001800000002
  0
LINE
  8
_0-0_0
  6
CONTINUOUS
 62
    7
 10
-368.33007799999996
 20
750.05001800000002
 11
-368.29315199999996
 21
749.97976700000004
  0
LINE
  8
_0-0_0
  6
CONTINUOUS
 62
    7
 10
-368.29315199999996
 20
749.97976700000004
 11
-368.27356000000009
 21
749.94531299999994
  0
LINE
  8
_0-0_0
  6
CONTINUOUS
 62
    7
 10
-368.27356000000009
 20
749.94531299999994
 11
-368.24749800000018
 21
749.90344200000004
  0
LINE
  8
_0-0_0
  6
CONTINUOUS
 62
    7
 10
-368.24749800000018
 20
749.90344200000004
 11
-368.23413100000016
 21
749.88439900000003
  0
LINE
  8
_0-0_0
  6
CONTINUOUS
 62
    7
 10
-368.23413100000016
 20
749.88439900000003
 11
-368.21582000000012
 21
749.86203
  0
LINE
  8
_0-0_0
  6
CONTINUOUS
 62
    7
 10
-368.21582000000012
 20
749.86203
 11
-368.20300300000008
 21
749.85140999999999
  0
LINE
  8
_0-0_0
  6
CONTINUOUS
 62
    7
 10
-368.20300300000008
 20
749.85140999999999
 11
-368.19842500000004
 21
749.85000600000001
  0
LINE
  8
_0-0_0
  6
CONTINUOUS
 62
    7
 10
-368.19616700000006
 20
749.85000600000001
 11
-368.19842500000004
 21
749.85000600000001
  0
LINE
  8
_0-0_0
  6
CONTINUOUS
 62
    7
 10
-368.33007799999996
 20
769.85000600000001
 11
-368.29315199999996
 21
769.92022700000007
  0
LINE
  8
_0-0_0
  6
CONTINUOUS
 62
    7
 10
-368.29315199999996
 20
769.92022700000007
 11
-368.27356000000009
 21
769.95471199999997
  0
LINE
  8
_0-0_0
  6
CONTINUOUS
 62
    7
 10
-368.27356000000009
 20
769.95471199999997
 11
-368.24749800000018
 21
769.99655200000007
  0
LINE
  8
_0-0_0
  6
CONTINUOUS
 62
    7
 10
-368.24749800000018
 20
769.99655200000007
 11
-368.23419200000012
 21
770.01559399999996
  0
LINE
  8
_0-0_0
  6
CONTINUOUS
 62
    7
 10
-368.23419200000012
 20
770.01559399999996
 11
-368.21582000000012
 21
770.03799400000003
  0
LINE
  8
_0-0_0
  6
CONTINUOUS
 62
    7
 10
-368.21582000000012
 20
770.03799400000003
 11
-368.20300300000008
 21
770.04861499999993
  0
LINE
  8
_0-0_0
  6
CONTINUOUS
 62
    7
 10
-368.20300300000008
 20
770.04861499999993
 11
-368.19842500000004
 21
770.05001800000002
  0
LINE
  8
_0-0_0
  6
CONTINUOUS
 62
    7
 10
-368.19616700000006
 20
749.85000600000001
 11
-368.15484599999991
 21
749.85000600000001
  0
LINE
  8
_0-0_0
  6
CONTINUOUS
 62
    7
 10
-368.09356700000012
 20
749.85000600000001
 11
-368.15484599999991
 21
749.85000600000001
  0
LINE
  8
_0-0_0
  6
CONTINUOUS
 62
    7
 10
-368.15484599999991
 20
749.85000600000001
 11
-368.14532499999996
 21
749.84896900000001
  0
LINE
  8
_0-0_0
  6
CONTINUOUS
 62
    7
 10
-368.14532499999996
 20
749.84896900000001
 11
-368.13580300000012
 21
749.84576399999992
  0
LINE
  8
_0-0_0
  6
CONTINUOUS
 62
    7
 10
-368.13580300000012
 20
749.84576399999992
 11
-368.12658699999997
 21
749.84039299999995
  0
LINE
  8
_0-0_0
  6
CONTINUOUS
 62
    7
 10
-368.12658699999997
 20
749.84039299999995
 11
-368.11773700000003
 21
749.83288599999992
  0
LINE
  8
_0-0_0
  6
CONTINUOUS
 62
    7
 10
-368.11773700000003
 20
749.83288599999992
 11
-368.1023560000001
 21
749.81225599999993
  0
LINE
  8
_0-0_0
  6
CONTINUOUS
 62
    7
 10
-368.1023560000001
 20
749.81225599999993
 11
-368.09057600000006
 21
749.78497300000004
  0
LINE
  8
_0-0_0
  6
CONTINUOUS
 62
    7
 10
-368.09057600000006
 20
749.78497300000004
 11
-368.08343500000001
 21
749.752838
  0
LINE
  8
_0-0_0
  6
CONTINUOUS
 62
    7
 10
-368.08343500000001
 20
749.752838
 11
-368.08154300000001
 21
749.71777300000008
  0
LINE
  8
_0-0_0
  6
CONTINUOUS
 62
    7
 10
-368.08154300000001
 20
749.71777300000008
 11
-368.08538799999997
 21
749.68160999999998
  0
LINE
  8
_0-0_0
  6
CONTINUOUS
 62
    7
 10
-368.08538799999997
 20
749.68160999999998
 11
-368.09356700000012
 21
749.65002400000003
  0
ARC
  8
_0-0_0
  6
CONTINUOUS
 62
    7
 10
-370.09356700000012
 20
751.15002400000003
 40
2.2999999999999998
 50
280.28656300000006
 51
325.58260500000006
  0
LINE
  8
_0-0_0
  6
CONTINUOUS
 62
    7
 10
-368.39355500000011
 20
746.65002400000003
 11
-369.59356700000012
 21
746.65002400000003
  0
LINE
  8
_0-0_0
  6
CONTINUOUS
 62
    7
 10
-368.39355500000011
 20
745.75
 11
-385.39355500000011
 21
745.75
  0
LINE
  8
_0-0_0
  6
CONTINUOUS
 62
    7
 10
-370.29357900000014
 20
771.30657999999994
 11
-370.29327400000011
 21
771.29016100000001
  0
ARC
  8
_0-0_0
  6
CONTINUOUS
 62
    7
 10
-369.79357900000014
 20
771.30657999999994
 40
0.5
 50
181.88290099999998
 51
260.07179799999994
  0
LINE
  8
_0-0_0
  6
CONTINUOUS
 62
    7
 10
-370.79357900000014
 20
772.09429899999998
 11
-370.59356700000012
 21
771.89999399999999
  0
LINE
  8
_0-0_0
  6
CONTINUOUS
 62
    7
 10
-370.59356700000012
 20
771.89999399999999
 11
-370.29357900000014
 21
771.60000600000001
  0
LINE
  8
_0-0_0
  6
CONTINUOUS
 62
    7
 10
-370.29357900000014
 20
771.60000600000001
 11
-370.59356700000012
 21
771.60000600000001
  0
ARC
  8
_0-0_0
  6
CONTINUOUS
 62
    7
 10
-373.53643800000009
 20
774.65002400000003
 40
0.5
 50
225
 51
269.99999700000001
  0
ARC
  8
_0-0_0
  6
CONTINUOUS
 62
    7
 10
-379.65063499999997
 20
774.65002400000003
 40
0.5
 50
269.99999700000001
 51
314.99999200000002
  0
LINE
  8
_0-0_0
  6
CONTINUOUS
 62
    7
 10
-386.09356700000012
 20
771.75
 11
-386.09356700000012
 21
769.15048200000001
  0
LINE
  8
_0-0_0
  6
CONTINUOUS
 62
    7
 10
-367.89355500000011
 20
772.55004899999994
 11
-367.89355500000011
 21
772.75
  0
CIRCLE
  8
_0-0_0
  6
CONTINUOUS
 62
    7
 10
-376.59356700000012
 20
771.75
 40
2.25
  0
ARC
  8
_0-0_0
  6
CONTINUOUS
 62
    7
 10
-376.59356700000012
 20
751.65002400000003
 40
1.75
 50
179.99999099999999
 51
359.99998299999993
  0
LINE
  8
_0-0_0
  6
CONTINUOUS
 62
    7
 10
-378.34356700000012
 20
751.90002400000003
 11
-378.34356700000012
 21
751.65002400000003
  0
ARC
  8
_0-0_0
  6
CONTINUOUS
 62
    7
 10
-376.59356700000012
 20
751.90002400000003
 40
1.75
 50
0
 51
179.99999099999999
  0
LINE
  8
_0-0_0
  6
CONTINUOUS
 62
    7
 10
-374.84356700000012
 20
751.65002400000003
 11
-374.84356700000012
 21
751.90002400000003
  0
ARC
  8
_0-0_0
  6
CONTINUOUS
 62
    7
 10
-370.89355500000011
 20
751.95001200000002
 40
3
 50
269.99999700000001
 51
0
  0
LINE
  8
_0-0_0
  6
CONTINUOUS
 62
    7
 10
-385.29357900000014
 20
756.35000600000001
 11
-385.29357900000014
 21
755.5
  0
LINE
  8
_0-0_0
  6
CONTINUOUS
 62
    7
 10
-385.29357900000014
 20
749.45001200000002
 11
-385.29357900000014
 21
755.5
  0
ARC
  8
_0-0_0
  6
CONTINUOUS
 62
    7
 10
-370.29357900000014
 20
768.45001200000002
 40
2.3999999999999999
 50
0
 51
80.071809999999985
  0
LINE
  8
_0-0_0
  6
CONTINUOUS
 62
    7
 10
-367.89355500000011
 20
751.95001200000002
 11
-367.89355500000011
 21
764.75
  0
LINE
  8
_0-0_0
  6
CONTINUOUS
 62
    7
 10
-367.89355500000011
 20
764.75
 11
-367.89355500000011
 21
768.45001200000002
  0
ARC
  8
_0-0_0
  6
CONTINUOUS
 62
    7
 10
-369.59356700000012
 20
748.39501999999993
 40
0.5
 50
100.28656100000001
 51
179.99999099999999
  0
LINE
  8
_0-0_0
  6
CONTINUOUS
 62
    7
 10
-370.09356700000012
 20
747.15002400000003
 11
-370.09356700000012
 21
748.39501999999993
  0
ARC
  8
_0-0_0
  6
CONTINUOUS
 62
    7
 10
-369.59356700000012
 20
747.15002400000003
 40
0.5
 50
179.99999099999999
 51
269.99999700000001
  0
LINE
  8
_0-0_0
  6
CONTINUOUS
 62
    7
 10
-379.29711900000007
 20
774.29644800000005
 11
-379.23999000000003
 21
774.35357699999997
  0
ARC
  8
_0-0_0
  6
CONTINUOUS
 62
    7
 10
-378.88647500000002
 20
774
 40
0.5
 50
90.000003000000007
 51
135
  0
LINE
  8
_0-0_0
  6
CONTINUOUS
 62
    7
 10
-374.300659
 20
774.5
 11
-378.88647500000002
 21
774.5
  0
ARC
  8
_0-0_0
  6
CONTINUOUS
 62
    7
 10
-374.300659
 20
774
 40
0.5
 50
45.00000099999999
 51
90.000002999999992
  0
LINE
  8
_0-0_0
  6
CONTINUOUS
 62
    7
 10
-373.89001499999995
 20
774.29644800000005
 11
-373.94708300000002
 21
774.35357699999997
  0
ARC
  8
_0-0_0
  6
CONTINUOUS
 62
    7
 10
-370.59356700000012
 20
768.60000600000001
 40
3
 50
90.000003000000007
 51
179.99999099999999
  0
LINE
  8
_0-0_0
  6
CONTINUOUS
 62
    7
 10
-382.59356700000012
 20
755
 11
-384.79357900000014
 21
755
  0
ARC
  8
_0-0_0
  6
CONTINUOUS
 62
    7
 10
-382.59356700000012
 20
752
 40
3
 50
0
 51
90.000003000000007
  0
LINE
  8
_0-0_0
  6
CONTINUOUS
 62
    7
 10
-379.59356700000012
 20
752
 11
-379.59356700000012
 21
749.45001200000002
  0
LINE
  8
_0-0_0
  6
CONTINUOUS
 62
    7
 10
-379.09356700000012
 20
748.95001200000002
 11
-370.89355500000011
 21
748.95001200000002
  0
LINE
  8
_0-0_0
  6
CONTINUOUS
 62
    7
 10
-370.59356700000012
 20
765.25
 11
-368.39355500000011
 21
765.25
  0
ARC
  8
_0-0_0
  6
CONTINUOUS
 62
    7
 10
-370.59356700000012
 20
768.25
 40
3
 50
179.99999099999999
 51
269.99999700000001
  0
LINE
  8
_0-0_0
  6
CONTINUOUS
 62
    7
 10
-373.59356700000012
 20
768.25
 11
-373.59356700000012
 21
768.60000600000001
  0
CIRCLE
  8
_0-0_0
  6
CONTINUOUS
 62
    7
 10
-376.59356700000012
 20
771.75
 40
2.0499999999999998
  0
ARC
  8
_0-0_0
  6
CONTINUOUS
 62
    7
 10
-376.59356700000012
 20
751.65002400000003
 40
1.55
 50
179.99999099999999
 51
0
  0
LINE
  8
_0-0_0
  6
CONTINUOUS
 62
    7
 10
-378.14355500000011
 20
751.90002400000003
 11
-378.14355500000011
 21
751.65002400000003
  0
ARC
  8
_0-0_0
  6
CONTINUOUS
 62
    7
 10
-376.59356700000012
 20
751.90002400000003
 40
1.55
 50
0
 51
179.99999099999999
  0
LINE
  8
_0-0_0
  6
CONTINUOUS
 62
    7
 10
-375.04357900000014
 20
751.65002400000003
 11
-375.04357900000014
 21
751.90002400000003
  0
LINE
  8
_0-0_0
  6
CONTINUOUS
 62
    7
 10
-384.79357900000014
 20
748.95001200000002
 11
-379.09356700000012
 21
748.95001200000002
  0
ARC
  8
_0-0_0
  6
CONTINUOUS
 62
    7
 10
-384.79357900000014
 20
749.45001200000002
 40
0.5
 50
179.99999099999999
 51
269.99999700000001
  0
ARC
  8
_0-0_0
  6
CONTINUOUS
 62
    7
 10
-384.79357900000014
 20
755.5
 40
0.5
 50
179.99999099999999
 51
269.99999700000001
  0
ARC
  8
_0-0_0
  6
CONTINUOUS
 62
    7
 10
-368.39355500000011
 20
764.75
 40
0.5
 50
0
 51
90.000003000000007
  0
ARC
  8
_0-0_0
  6
CONTINUOUS
 62
    7
 10
-379.09356700000012
 20
749.45001200000002
 40
0.5
 50
179.99999099999999
 51
269.99999700000001
  0
CIRCLE
  8
_0-0_0
  6
CONTINUOUS
 62
    7
 10
-370.59356700000012
 20
768.25
 40
2.25
  0
CIRCLE
  8
_0-0_0
  6
CONTINUOUS
 62
    7
 10
-382.59356700000012
 20
751.65002400000003
 40
2.25
  0
CIRCLE
  8
_0-0_0
  6
CONTINUOUS
 62
    7
 10
-370.59356700000012
 20
768.25
 40
2
  0
CIRCLE
  8
_0-0_0
  6
CONTINUOUS
 62
    7
 10
-382.59356700000012
 20
751.65002400000003
 40
2
  0
LINE
  8
_0-0_0
  6
CONTINUOUS
 62
    7
 10
-371.74352999999996
 20
768.25
 11
-371.175659
 21
769.25
  0
LINE
  8
_0-0_0
  6
CONTINUOUS
 62
    7
 10
-371.175659
 20
767.25
 11
-371.74352999999996
 21
768.25
  0
LINE
  8
_0-0_0
  6
CONTINUOUS
 62
    7
 10
-370.01141400000006
 20
767.25
 11
-371.175659
 21
767.25
  0
LINE
  8
_0-0_0
  6
CONTINUOUS
 62
    7
 10
-369.44354300000009
 20
768.25
 11
-370.01141400000006
 21
767.25
  0
LINE
  8
_0-0_0
  6
CONTINUOUS
 62
    7
 10
-370.01141400000006
 20
769.25
 11
-369.44354300000009
 21
768.25
  0
LINE
  8
_0-0_0
  6
CONTINUOUS
 62
    7
 10
-371.175659
 20
769.25
 11
-370.01141400000006
 21
769.25
  0
LINE
  8
_0-0_0
  6
CONTINUOUS
 62
    7
 10
-383.74352999999996
 20
751.65002400000003
 11
-383.175659
 21
752.65002400000003
  0
LINE
  8
_0-0_0
  6
CONTINUOUS
 62
    7
 10
-383.175659
 20
750.65002400000003
 11
-383.74352999999996
 21
751.65002400000003
  0
LINE
  8
_0-0_0
  6
CONTINUOUS
 62
    7
 10
-382.01141400000006
 20
750.65002400000003
 11
-383.175659
 21
750.65002400000003
  0
LINE
  8
_0-0_0
  6
CONTINUOUS
 62
    7
 10
-381.44354300000009
 20
751.65002400000003
 11
-382.01141400000006
 21
750.65002400000003
  0
LINE
  8
_0-0_0
  6
CONTINUOUS
 62
    7
 10
-382.01141400000006
 20
752.65002400000003
 11
-381.44354300000009
 21
751.65002400000003
  0
LINE
  8
_0-0_0
  6
CONTINUOUS
 62
    7
 10
-383.175659
 20
752.65002400000003
 11
-382.01141400000006
 21
752.65002400000003
  0
LINE
  8
_0-0_0
  6
CONTINUOUS
 62
    7
 10
-367.89355500000011
 20
769.05032299999993
 11
-367.89355500000011
 21
769.05630500000007
  0
LINE
  8
_0-0_0
  6
CONTINUOUS
 62
    7
 10
-367.89355500000011
 20
770.25
 11
-367.89392100000009
 21
770.23791499999993
  0
LINE
  8
_0-0_0
  6
CONTINUOUS
 62
    7
 10
-367.89392100000009
 20
749.66210899999999
 11
-367.89355500000011
 21
749.65002400000003
  0
LINE
  8
_0-0_0
  6
CONTINUOUS
 62
    7
 10
-367.89428700000008
 20
764.77673299999992
 11
-367.89355500000011
 21
764.75
  0
LINE
  8
_0-0_0
  6
CONTINUOUS
 62
    7
 10
-362.39355500000011
 20
802.15002400000003
 11
-362.39355500000011
 21
789.15002400000003
  0
LINE
  8
_0-0_0
  6
CONTINUOUS
 62
    7
 10
-362.19354300000009
 20
802.15002400000003
 11
-362.39355500000011
 21
802.15002400000003
  0
LINE
  8
_0-0_0
  6
CONTINUOUS
 62
    7
 10
-362.19354300000009
 20
789.15002400000003
 11
-362.39355500000011
 21
789.15002400000003
  0
LINE
  8
_0-0_0
  6
CONTINUOUS
 62
    7
 10
-362.19354300000009
 20
802.15002400000003
 11
-362.19354300000009
 21
820.75
  0
LINE
  8
_0-0_0
  6
CONTINUOUS
 62
    7
 10
-362.09356700000012
 20
820.75
 11
-362.19354300000009
 21
820.75
  0
LINE
  8
_0-0_0
  6
CONTINUOUS
 62
    7
 10
-362.09356700000012
 20
823.25
 11
-362.09356700000012
 21
820.75
  0
ARC
  8
_0-0_0
  6
CONTINUOUS
 62
    7
 10
-362.59356700000012
 20
823.25
 40
0.5
 50
0
 51
90.000003000000007
  0
LINE
  8
_0-0_0
  6
CONTINUOUS
 62
    7
 10
-362.59356700000012
 20
823.75
 11
-365.59356700000012
 21
823.75
  0
ARC
  8
_0-0_0
  6
CONTINUOUS
 62
    7
 10
-365.59356700000012
 20
823.25
 40
0.5
 50
90.000003000000007
 51
179.99999099999999
  0
ARC
  8
_0-0_0
  6
CONTINUOUS
 62
    7
 10
-370.09356700000012
 20
775.75
 40
0.5
 50
179.99999099999999
 51
269.99999700000001
  0
LINE
  8
_0-0_0
  6
CONTINUOUS
 62
    7
 10
-367.59356700000012
 20
775.25
 11
-370.09356700000012
 21
775.25
  0
ARC
  8
_0-0_0
  6
CONTINUOUS
 62
    7
 10
-367.59356700000012
 20
775.75
 40
0.5
 50
269.99999700000001
 51
0
  0
LINE
  8
_0-0_0
  6
CONTINUOUS
 62
    7
 10
-367.09356700000012
 20
780.75
 11
-367.09356700000012
 21
775.75
  0
ARC
  8
_0-0_0
  6
CONTINUOUS
 62
    7
 10
-366.59356700000012
 20
780.75
 40
0.5
 50
90.000003000000007
 51
179.99999099999999
  0
LINE
  8
_0-0_0
  6
CONTINUOUS
 62
    7
 10
-362.59356700000012
 20
781.25
 11
-366.59356700000012
 21
781.25
  0
ARC
  8
_0-0_0
  6
CONTINUOUS
 62
    7
 10
-362.59356700000012
 20
781.75
 40
0.5
 50
269.99999700000001
 51
0
  0
LINE
  8
_0-0_0
  6
CONTINUOUS
 62
    7
 10
-362.09356700000012
 20
784.95001200000002
 11
-362.09356700000012
 21
781.75
  0
LINE
  8
_0-0_0
  6
CONTINUOUS
 62
    7
 10
-362.19354300000009
 20
784.95001200000002
 11
-362.09356700000012
 21
784.95001200000002
  0
LINE
  8
_0-0_0
  6
CONTINUOUS
 62
    7
 10
-362.19354300000009
 20
784.95001200000002
 11
-362.19354300000009
 21
789.15002400000003
  0
LINE
  8
_0-0_0
  6
CONTINUOUS
 62
    7
 10
-363.09356700000012
 20
823.25
 11
-380.89355500000011
 21
823.25
  0
ARC
  8
_0-0_0
  6
CONTINUOUS
 62
    7
 10
-363.09356700000012
 20
822.75
 40
0.5
 50
0
 51
90.000003000000007
  0
LINE
  8
_0-0_0
  6
CONTINUOUS
 62
    7
 10
-362.59356700000012
 20
822.75
 11
-362.59356700000012
 21
782.25
  0
ARC
  8
_0-0_0
  6
CONTINUOUS
 62
    7
 10
-363.09356700000012
 20
782.25
 40
0.5
 50
269.99999700000001
 51
0
  0
LINE
  8
_0-0_0
  6
CONTINUOUS
 62
    7
 10
-366.59356700000012
 20
781.75
 11
-363.09356700000012
 21
781.75
  0
ARC
  8
_0-0_0
  6
CONTINUOUS
 62
    7
 10
-366.59356700000012
 20
780.75
 40
1
 50
90.000003000000007
 51
179.99999099999999
  0
LINE
  8
_0-0_0
  6
CONTINUOUS
 62
    7
 10
-367.59356700000012
 20
780.75
 11
-367.59356700000012
 21
776.25
  0
ARC
  8
_0-0_0
  6
CONTINUOUS
 62
    7
 10
-368.09356700000012
 20
776.25
 40
0.5
 50
269.99999700000001
 51
0
  0
LINE
  8
_0-0_0
  6
CONTINUOUS
 62
    7
 10
-385.09356700000012
 20
775.75
 11
-368.09356700000012
 21
775.75
  0
LINE
  8
_0-0_0
  6
CONTINUOUS
 62
    7
 10
-366.59356700000012
 20
823.45001200000002
 11
-366.59356700000012
 21
823.25
  0
ARC
  8
_0-0_0
  6
CONTINUOUS
 62
    7
 10
-366.89355500000011
 20
823.45001200000002
 40
0.2999999999999999
 50
0
 51
90.000003000000007
  0
LINE
  8
_0-0_0
  6
CONTINUOUS
 62
    7
 10
-366.89355500000011
 20
823.75
 11
-381.59356700000012
 21
823.75
  0
ARC
  8
_0-0_0
  6
CONTINUOUS
 62
    7
 10
-381.59356700000012
 20
823.45001200000002
 40
0.2999999999999999
 50
90.000003000000007
 51
179.99999099999999
  0
LINE
  8
_0-0_0
  6
CONTINUOUS
 62
    7
 10
-381.89355500000011
 20
823.45001200000002
 11
-381.89355500000011
 21
820.25
  0
LINE
  8
_0-0_0
  6
CONTINUOUS
 62
    7
 10
-381.89355500000011
 20
820.25
 11
-387.59356700000012
 21
820.25
  0
LINE
  8
_0-0_0
  6
CONTINUOUS
 62
    7
 10
-387.59356700000012
 20
820.25
 11
-388.39355500000011
 21
819.45001200000002
  0
ARC
  8
_0-0_0
  6
CONTINUOUS
 62
    7
 10
-380.89355500000011
 20
822.75
 40
0.5
 50
90.000003000000007
 51
179.99999099999999
  0
LINE
  8
_0-0_0
  6
CONTINUOUS
 62
    7
 10
-381.39355500000011
 20
822.75
 11
-381.39355500000011
 21
819.95001200000002
  0
ARC
  8
_0-0_0
  6
CONTINUOUS
 62
    7
 10
-381.89355500000011
 20
819.95001200000002
 40
0.5
 50
269.99999700000001
 51
0
  0
LINE
  8
_0-0_0
  6
CONTINUOUS
 62
    7
 10
-381.89355500000011
 20
819.45001200000002
 11
-390.09356700000012
 21
819.45001200000002
  0
ARC
  8
_0-0_0
  6
CONTINUOUS
 62
    7
 10
-390.09356700000012
 20
818.95001200000002
 40
0.5
 50
90.000003000000007
 51
179.99999099999999
  0
LINE
  8
_0-0_0
  6
CONTINUOUS
 62
    7
 10
-390.59356700000012
 20
782.25
 11
-390.59356700000012
 21
818.95001200000002
  0
ARC
  8
_0-0_0
  6
CONTINUOUS
 62
    7
 10
-390.09356700000012
 20
782.25
 40
0.5
 50
179.99999099999999
 51
269.99999700000001
  0
LINE
  8
_0-0_0
  6
CONTINUOUS
 62
    7
 10
-390.09356700000012
 20
781.75
 11
-386.59356700000012
 21
781.75
  0
ARC
  8
_0-0_0
  6
CONTINUOUS
 62
    7
 10
-386.59356700000012
 20
780.75
 40
1
 50
0
 51
90.000003000000007
  0
LINE
  8
_0-0_0
  6
CONTINUOUS
 62
    7
 10
-385.59356700000012
 20
776.25
 11
-385.59356700000012
 21
780.75
  0
ARC
  8
_0-0_0
  6
CONTINUOUS
 62
    7
 10
-385.09356700000012
 20
776.25
 40
0.5
 50
179.99999099999999
 51
269.99999700000001
  0
CIRCLE
  8
_0-0_0
  6
CONTINUOUS
 62
    7
 10
-376.59356700000012
 20
784.75
 40
2.0670000000000002
  0
LINE
  8
_0-0_0
  6
CONTINUOUS
 62
    7
 10
-388.59356700000012
 20
819.75
 11
-388.59356700000012
 21
819.45001200000002
  0
LINE
  8
_0-0_0
  6
CONTINUOUS
 62
    7
 10
-388.59356700000012
 20
819.75
 11
-390.59356700000012
 21
819.75
  0
ARC
  8
_0-0_0
  6
CONTINUOUS
 62
    7
 10
-390.59356700000012
 20
819.25
 40
0.5
 50
90.000003000000007
 51
179.99999099999999
  0
LINE
  8
_0-0_0
  6
CONTINUOUS
 62
    7
 10
-391.09356700000012
 20
819.25
 11
-391.09356700000012
 21
781.75
  0
ARC
  8
_0-0_0
  6
CONTINUOUS
 62
    7
 10
-390.59356700000012
 20
781.75
 40
0.5
 50
179.99999099999999
 51
269.99999700000001
  0
LINE
  8
_0-0_0
  6
CONTINUOUS
 62
    7
 10
-386.59356700000012
 20
781.25
 11
-390.59356700000012
 21
781.25
  0
ARC
  8
_0-0_0
  6
CONTINUOUS
 62
    7
 10
-386.59356700000012
 20
780.75
 40
0.5
 50
0
 51
90.000003000000007
  0
LINE
  8
_0-0_0
  6
CONTINUOUS
 62
    7
 10
-386.09356700000012
 20
775.75
 11
-386.09356700000012
 21
780.75
  0
ARC
  8
_0-0_0
  6
CONTINUOUS
 62
    7
 10
-385.59356700000012
 20
775.75
 40
0.5
 50
179.99999099999999
 51
269.99999700000001
  0
LINE
  8
_0-0_0
  6
CONTINUOUS
 62
    7
 10
-385.59356700000012
 20
775.25
 11
-383.09356700000012
 21
775.25
  0
ARC
  8
_0-0_0
  6
CONTINUOUS
 62
    7
 10
-383.09356700000012
 20
775.75
 40
0.5
 50
269.99999700000001
 51
0
  0
LINE
  8
_0-0_0
  6
CONTINUOUS
 62
    7
 10
-367.09356700000012
 20
775.75
 11
-366.99352999999996
 21
775.75
  0
LINE
  8
_0-0_0
  6
CONTINUOUS
 62
    7
 10
-366.99352999999996
 20
775.75
 11
-366.99352999999996
 21
776.25
  0
LINE
  8
_0-0_0
  6
CONTINUOUS
 62
    7
 10
-366.99352999999996
 20
780.25
 11
-366.99352999999996
 21
776.25
  0
LINE
  8
_0-0_0
  6
CONTINUOUS
 62
    7
 10
-367.09356700000012
 20
780.75
 11
-366.99352999999996
 21
780.75
  0
LINE
  8
_0-0_0
  6
CONTINUOUS
 62
    7
 10
-366.99352999999996
 20
780.25
 11
-366.99352999999996
 21
780.75
  0
LINE
  8
_0-0_0
  6
CONTINUOUS
 62
    7
 10
-366.89355500000011
 20
776.25
 11
-366.89355500000011
 21
776.38037099999997
  0
LINE
  8
_0-0_0
  6
CONTINUOUS
 62
    7
 10
-366.89355500000011
 20
779.88037099999997
 11
-366.89355500000011
 21
776.38037099999997
  0
LINE
  8
_0-0_0
  6
CONTINUOUS
 62
    7
 10
-366.99352999999996
 20
780.15002400000003
 11
-366.89355500000011
 21
780.15002400000003
  0
LINE
  8
_0-0_0
  6
CONTINUOUS
 62
    7
 10
-366.89355500000011
 20
779.88037099999997
 11
-366.89355500000011
 21
780.15002400000003
  0
LINE
  8
_0-0_0
  6
CONTINUOUS
 62
    7
 10
-366.99352999999996
 20
776.25
 11
-366.89355500000011
 21
776.25
  0
LINE
  8
_0-0_0
  6
CONTINUOUS
 62
    7
 10
-366.99352999999996
 20
776.25
 11
-366.89355500000011
 21
776.25
  0
ENDSEC
  0
EOF
