  0
SECTION
  2
HEADER
  9
$ACADVER
  1
AC1009
  9
$INSBASE
 10
0
 20
0
 30
0
  9
$EXTMIN
 10
0
 20
0
  9
$EXTMAX
 10
1682
 20
1188
  9
$LIMMIN
 10
0
 20
0
  9
$LIMMAX
 10
1682
 20
1188
  9
$LTSCALE
 40
2
  0
ENDSEC
  0
SECTION
  2
TABLES
  0
TABLE
  2
LTYPE
 70
     9
  0
LTYPE
  2
CONTINUOUS
 70
    64
  3
実線
 72
    65
 73
     0
 40
0.0
  0
LTYPE
  2
DASHED1
 70
    64
  3
--  --  --  --  --  --  --  --  
 72
    65
 73
     2
 40
2.5
 49
1.25
 49
-1.25
  0
LTYPE
  2
DASHED2
 70
    64
  3
----    ----    ----    ----    
 72
    65
 73
     2
 40
5.0
 49
2.5
 49
-2.5
  0
LTYPE
  2
DASHED3
 70
    64
  3
------  ------  ------  ------  
 72
    65
 73
     2
 40
5.0
 49
3.75
 49
-1.25
  0
LTYPE
  2
CENTER1
 70
    64
  3
----- - ----- - ----- - ----- - 
 72
    65
 73
     4
 40
10.0
 49
6.25
 49
-1.25
 49
1.25
 49
-1.25
  0
LTYPE
  2
CENTER2
 70
    64
  3
----------  --  ----------  --  
 72
    65
 73
     4
 40
20.0
 49
12.5
 49
-2.5
 49
2.5
 49
-2.5
  0
LTYPE
  2
PHANTOM1
 70
    64
  3
--- - - --- - - --- - - --- - - 
 72
    65
 73
     6
 40
10.0
 49
3.25
 49
-1.25
 49
1.25
 49
-1.25
 49
1.25
 49
-1.25
  0
LTYPE
  2
PHANTOM2
 70
    64
  3
--------  -  -  --------  -  -  
 72
    65
 73
     6
 40
20.0
 49
10.0
 49
-2.5
 49
1.25
 49
-2.5
 49
1.25
 49
-2.5
  0
LTYPE
  2
DOT
 70
    64
  3
-   -   -   -   -   -   -   -   
 72
    65
 73
     2
 40
2.5
 49
0.625
 49
-1.875
  0
LTYPE
  2
DUMMY
 70
    64
  3
ダミー
 72
    65
 73
     0
 40
0.0
  0
LTYPE
  2
RAND1
 70
    64
  3
ランダム線1
 72
    65
 73
     4
 40
10.0
 49
1.0
 49
-2.0
 49
3.0
 49
-4.0
  0
LTYPE
  2
RAND2
 70
    64
  3
ランダム線2
 72
    65
 73
     4
 40
14.0
 49
2.0
 49
-3.0
 49
4.0
 49
-5.0
  0
LTYPE
  2
RAND3
 70
    64
  3
ランダム線3
 72
    65
 73
     4
 40
18.0
 49
3.0
 49
-4.0
 49
5.0
 49
-6.0
  0
LTYPE
  2
RAND4
 70
    64
  3
ランダム線4
 72
    65
 73
     4
 40
22.0
 49
4.0
 49
-5.0
 49
6.0
 49
-7.0
  0
LTYPE
  2
RAND5
 70
    64
  3
ランダム線5
 72
    65
 73
     4
 40
26.0
 49
5.0
 49
-6.0
 49
7.0
 49
-8.0
  0
LTYPE
  2
LONG1
 70
    64
  3
----------  --  ----------  --  
 72
    65
 73
     4
 40
40.0
 49
32.5
 49
-2.5
 49
2.5
 49
-2.5
  0
LTYPE
  2
LONG2
 70
    64
  3
--------  -  -  --------  -  -  
 72
    65
 73
     6
 40
40.0
 49
30.0
 49
-2.5
 49
1.25
 49
-2.5
 49
1.25
 49
-2.5
  0
LTYPE
  2
LONG3
 70
    64
  3
+++++++++++++++..+++++++++++++++
 72
    65
 73
     2
 40
40.0
 49
37.5
 49
-2.5
  0
LTYPE
  2
LONG4
 70
    64
  3
+++++++++++++++..+++++++++++++++
 72
    65
 73
     2
 40
80.0
 49
75.0
 49
-5.0
  0
LTYPE
  2
LONG5
 70
    64
  3
----------  --  ----------  --  
 72
    65
 73
     4
 40
60.0
 49
37.5
 49
-7.5
 49
7.5
 49
-7.5
  0
LTYPE
  2
dashed
 70
   64
  3
-------   -------------   ------
 72
   65
 73
    2
 40
7.5
 49
6
 49
-1.5
  0
LTYPE
  2
dashed_spaced
 70
   64
  3
----        --------        ----
 72
   65
 73
    2
 40
12
 49
6
 49
-6
  0
LTYPE
  2
long_dashed_dotted
 70
   64
  3
------------- --- --------------
 72
   65
 73
    4
 40
15.25
 49
12
 49
-1.5
 49
0.25
 49
-1.5
  0
LTYPE
  2
long_dashed_double-dotted
 70
   64
  3
----------- --- --- ------------
 72
   65
 73
    6
 40
17
 49
12
 49
-1.5
 49
0.25
 49
-1.5
 49
0.25
 49
-1.5
  0
LTYPE
  2
long_dashed_triplicate-dotted
 70
   64
  3
--------- --- --- --- ----------
 72
   65
 73
    8
 40
18.75
 49
12
 49
-1.5
 49
0.25
 49
-1.5
 49
0.25
 49
-1.5
 49
0.25
 49
-1.5
  0
LTYPE
  2
dotted
 70
   64
  3
   -       -       -       -    
 72
   65
 73
    2
 40
1.75
 49
0.25
 49
-1.5
  0
LTYPE
  2
chain
 70
   64
  3
-------------- -- --------------
 72
   65
 73
    4
 40
18.5
 49
12
 49
-1.5
 49
3.5
 49
-1.5
  0
LTYPE
  2
chain_double_dash
 70
   64
  3
------------ -- -- -------------
 72
   65
 73
    6
 40
23.5
 49
12
 49
-1.5
 49
3.5
 49
-1.5
 49
3.5
 49
-1.5
  0
LTYPE
  2
dashed_dotted
 70
   64
  3
-----------     -     ----------
 72
   65
 73
    4
 40
9.25
 49
6
 49
-1.5
 49
0.25
 49
-1.5
  0
LTYPE
  2
double-dashed_dotted
 70
   64
  3
------   -----------   -   -----
 72
   65
 73
    6
 40
16.75
 49
6
 49
-1.5
 49
6
 49
-1.5
 49
0.25
 49
-1.5
  0
LTYPE
  2
dashed_double-dotted
 70
   64
  3
---------    -    -    ---------
 72
   65
 73
    6
 40
11
 49
6
 49
-1.5
 49
0.25
 49
-1.5
 49
0.25
 49
-1.5
  0
LTYPE
  2
double-dashed_double-dotted
 70
   64
  3
-----   ---------   -   -   ----
 72
   65
 73
    8
 40
18.5
 49
6
 49
-1.5
 49
6
 49
-1.5
 49
0.25
 49
-1.5
 49
0.25
 49
-1.5
  0
LTYPE
  2
dashed_triplicate-dotted
 70
   64
  3
-------    -    -    -    ------
 72
   65
 73
    8
 40
12.75
 49
6
 49
-1.5
 49
0.25
 49
-1.5
 49
0.25
 49
-1.5
 49
0.25
 49
-1.5
  0
LTYPE
  2
double-dashed_triplicate-dotted
 70
   64
  3
-----  ---------  -  -  -  -----
 72
   65
 73
   10
 40
20.25
 49
6
 49
-1.5
 49
6
 49
-1.5
 49
0.25
 49
-1.5
 49
0.25
 49
-1.5
 49
0.25
 49
-1.5
  0
LTYPE
  2
undefined
 70
   64
  3
--------------------------------
 72
   65
 73
    0
 40
0
  0
ENDTAB
  0
TABLE
  2
STYLE
  5
3
100
AcDbSymbolTable
 70
     1
  0
STYLE
  5
10
100
AcDbSymbolTableRecord
100
AcDbTextStyleTableRecord
  2
STANDARD
 70
     0
 40
0.0
 41
1.0
 50
0.0
 71
     0
 42
0.2
  3
txt
  4
bigfont.shx
  0
STYLE
  5
26
100
AcDbSymbolTableRecord
100
AcDbTextStyleTableRecord
  2
TATEGAKI
 70
    68
 40
0.0
 41
1.0
 50
0.0
 71
     0
 42
1.0
  3
txt
  4
bigfont.shx
  0
ENDTAB
  0
TABLE
  2
LAYER
 70
    2
  0
LAYER
  2
_0-0_0
 70
   64
 62
    7
  6
CONTINUOUS
  0
LAYER
  2
ADD_LINE
 70
   64
 62
    7
  6
CONTINUOUS
  0
ENDTAB
  0
ENDSEC
  0
SECTION
  2
BLOCKS
  0
ENDSEC
  0
SECTION
  2
ENTITIES
  0
ARC
  8
_0-0_0
  6
CONTINUOUS
 62
    7
 10
-122.16890000000001
 20
765.35000600000001
 40
0.2
 50
269.99999700000001
 51
20.376440000000013
  0
LINE
  8
_0-0_0
  6
CONTINUOUS
 62
    7
 10
-121.98141499999997
 20
765.41964699999994
 11
-123.28141800000003
 21
768.91964699999994
  0
ARC
  8
_0-0_0
  6
CONTINUOUS
 62
    7
 10
-123.46890300000007
 20
768.85000600000001
 40
0.2
 50
20.376439999999999
 51
159.62355600000001
  0
LINE
  8
_0-0_0
  6
CONTINUOUS
 62
    7
 10
-124.95637499999998
 20
765.41964699999994
 11
-123.656387
 21
768.91964699999994
  0
ARC
  8
_0-0_0
  6
CONTINUOUS
 62
    7
 10
-124.76890600000002
 20
765.35000600000001
 40
0.2
 50
159.62355600000001
 51
269.99999700000001
  0
LINE
  8
_0-0_0
  6
CONTINUOUS
 62
    7
 10
-124.76890600000002
 20
765.15002400000003
 11
-122.16890000000001
 21
765.15002400000003
  0
LINE
  8
_0-0_0
  6
CONTINUOUS
 62
    7
 10
-200.28234900000007
 20
819.75051899999994
 11
-200.28234900000007
 21
819.74951199999998
  0
LINE
  8
_0-0_0
  6
CONTINUOUS
 62
    7
 10
-170.96890300000007
 20
773.25
 11
-165.96890300000007
 21
773.25
  0
LINE
  8
_0-0_0
  6
CONTINUOUS
 62
    7
 10
-165.96890300000007
 20
773.25
 11
-164.16890000000001
 21
773.25
  0
LINE
  8
_0-0_0
  6
CONTINUOUS
 62
    7
 10
-164.16890000000001
 20
773.25
 11
-163.46890300000007
 21
773.25
  0
ARC
  8
_0-0_0
  6
CONTINUOUS
 62
    7
 10
-164.16890000000001
 20
772.75
 40
0.5
 50
0
 51
90.000003000000007
  0
ARC
  8
_0-0_0
  6
CONTINUOUS
 62
    7
 10
-170.96890300000007
 20
772.75
 40
0.5
 50
90.000003000000007
 51
179.99999099999999
  0
ARC
  8
_0-0_0
  6
CONTINUOUS
 62
    7
 10
-67.468903000000068
 20
772.75
 40
0.5
 50
0
 51
90.000003000000007
  0
LINE
  8
_0-0_0
  6
CONTINUOUS
 62
    7
 10
-163.46890300000007
 20
773.25
 11
-163.46890300000007
 21
771.75
  0
LINE
  8
_0-0_0
  6
CONTINUOUS
 62
    7
 10
-163.46890300000007
 20
773.75
 11
-163.46890300000007
 21
773.25
  0
LINE
  8
_0-0_0
  6
CONTINUOUS
 62
    7
 10
-163.46890300000007
 20
774.25
 11
-163.46890300000007
 21
773.75
  0
LINE
  8
_0-0_0
  6
CONTINUOUS
 62
    7
 10
-163.46890300000007
 20
775.25
 11
-163.46890300000007
 21
774.25
  0
LINE
  8
_0-0_0
  6
CONTINUOUS
 62
    7
 10
-159.46890300000007
 20
773.25
 11
-158.76890600000002
 21
773.25
  0
LINE
  8
_0-0_0
  6
CONTINUOUS
 62
    7
 10
-163.66890000000001
 20
772.75
 11
-163.66890000000001
 21
771.75
  0
LINE
  8
_0-0_0
  6
CONTINUOUS
 62
    7
 10
-160.46890300000007
 20
746.25
 11
-160.46890300000007
 21
747.85000600000001
  0
LINE
  8
_0-0_0
  6
CONTINUOUS
 62
    7
 10
-160.46890300000007
 20
746.25
 11
-165.96890300000007
 21
746.25
  0
LINE
  8
_0-0_0
  6
CONTINUOUS
 62
    7
 10
-144.46890300000007
 20
752.95001200000002
 11
-102.46890300000007
 21
752.95001200000002
  0
LINE
  8
_0-0_0
  6
CONTINUOUS
 62
    7
 10
-144.46890300000007
 20
772.55001800000002
 11
-102.46890300000007
 21
772.55001800000002
  0
LINE
  8
_0-0_0
  6
CONTINUOUS
 62
    7
 10
-80.968903000000068
 20
746.25
 11
-90.468903000000068
 21
746.25
  0
LINE
  8
_0-0_0
  6
CONTINUOUS
 62
    7
 10
-90.468903000000068
 20
746.25
 11
-90.468903000000068
 21
747.85000600000001
  0
ARC
  8
_0-0_0
  6
CONTINUOUS
 62
    7
 10
-90.768906000000015
 20
747.85000600000001
 40
0.2999999999999999
 50
0
 51
90.000003000000007
  0
LINE
  8
_0-0_0
  6
CONTINUOUS
 62
    7
 10
-91.468903000000068
 20
748.15002400000003
 11
-90.768906000000015
 21
748.15002400000003
  0
LINE
  8
_0-0_0
  6
CONTINUOUS
 62
    7
 10
-91.968903000000068
 20
748.55001800000002
 11
-91.468903000000068
 21
748.55001800000002
  0
LINE
  8
_0-0_0
  6
CONTINUOUS
 62
    7
 10
-105.46890300000007
 20
748.55001800000002
 11
-91.968903000000068
 21
748.55001800000002
  0
ARC
  8
_0-0_0
  6
CONTINUOUS
 62
    7
 10
-107.96890300000007
 20
748.55001800000002
 40
2.5
 50
0
 51
90.000003000000007
  0
LINE
  8
_0-0_0
  6
CONTINUOUS
 62
    7
 10
-138.96890300000007
 20
751.05001800000002
 11
-107.96890300000007
 21
751.05001800000002
  0
ARC
  8
_0-0_0
  6
CONTINUOUS
 62
    7
 10
-138.96890300000007
 20
748.55001800000002
 40
2.5
 50
90.000003000000007
 51
179.99999099999999
  0
LINE
  8
_0-0_0
  6
CONTINUOUS
 62
    7
 10
-158.96890300000007
 20
748.55001800000002
 11
-141.46890300000007
 21
748.55001800000002
  0
LINE
  8
_0-0_0
  6
CONTINUOUS
 62
    7
 10
-159.46890300000007
 20
748.55001800000002
 11
-158.96890300000007
 21
748.55001800000002
  0
LINE
  8
_0-0_0
  6
CONTINUOUS
 62
    7
 10
-160.16890000000001
 20
748.15002400000003
 11
-159.46890300000007
 21
748.15002400000003
  0
ARC
  8
_0-0_0
  6
CONTINUOUS
 62
    7
 10
-160.16890000000001
 20
747.85000600000001
 40
0.2999999999999999
 50
90.000003000000007
 51
179.99999099999999
  0
LINE
  8
_0-0_0
  6
CONTINUOUS
 62
    7
 10
-171.46890300000007
 20
770.97485400000005
 11
-171.46890300000007
 21
772.75
  0
LINE
  8
_0-0_0
  6
CONTINUOUS
 62
    7
 10
-166.46890300000007
 20
773.25
 11
-166.46890300000007
 21
773.65002400000003
  0
LINE
  8
_0-0_0
  6
CONTINUOUS
 62
    7
 10
-166.46890300000007
 20
774.15002400000003
 11
-166.46890300000007
 21
773.65002400000003
  0
LINE
  8
_0-0_0
  6
CONTINUOUS
 62
    7
 10
-66.968903000000068
 20
775.25
 11
-66.968903000000068
 21
773.75
  0
LINE
  8
_0-0_0
  6
CONTINUOUS
 62
    7
 10
-66.968903000000068
 20
773.75
 11
-66.968903000000068
 21
772.75
  0
LINE
  8
_0-0_0
  6
CONTINUOUS
 62
    7
 10
-66.968903000000068
 20
771.95001200000002
 11
-66.968903000000068
 21
772.75
  0
LINE
  8
_0-0_0
  6
CONTINUOUS
 62
    7
 10
-67.468903000000068
 20
773.25
 11
-66.968903000000068
 21
773.25
  0
LINE
  8
_0-0_0
  6
CONTINUOUS
 62
    7
 10
-79.968903000000068
 20
773.25
 11
-67.468903000000068
 21
773.25
  0
LINE
  8
_0-0_0
  6
CONTINUOUS
 62
    7
 10
-66.968903000000068
 20
775.25
 11
-66.968903000000068
 21
774.25
  0
LINE
  8
_0-0_0
  6
CONTINUOUS
 62
    7
 10
-66.968903000000068
 20
773.75
 11
-66.968903000000068
 21
773.25
  0
LINE
  8
_0-0_0
  6
CONTINUOUS
 62
    7
 10
-66.968903000000068
 20
774.25
 11
-66.968903000000068
 21
773.75
  0
ARC
  8
_0-0_0
  6
CONTINUOUS
 62
    7
 10
-161.46890300000007
 20
771.75
 40
2
 50
179.99999099999999
 51
0
  0
LINE
  8
_0-0_0
  6
CONTINUOUS
 62
    7
 10
-80.468903000000068
 20
773.25
 11
-79.968903000000068
 21
773.25
  0
LINE
  8
_0-0_0
  6
CONTINUOUS
 62
    7
 10
-80.468903000000068
 20
772.75
 11
-80.468903000000068
 21
773.25
  0
LINE
  8
_0-0_0
  6
CONTINUOUS
 62
    7
 10
-80.468903000000068
 20
771.75
 11
-80.468903000000068
 21
771.95001200000002
  0
ARC
  8
_0-0_0
  6
CONTINUOUS
 62
    7
 10
-82.468903000000068
 20
771.75
 40
2
 50
179.99999099999999
 51
0
  0
LINE
  8
_0-0_0
  6
CONTINUOUS
 62
    7
 10
-84.468903000000068
 20
773.25
 11
-84.468903000000068
 21
771.75
  0
LINE
  8
_0-0_0
  6
CONTINUOUS
 62
    7
 10
-85.168900000000008
 20
773.25
 11
-84.468903000000068
 21
773.25
  0
LINE
  8
_0-0_0
  6
CONTINUOUS
 62
    7
 10
-159.46890300000007
 20
771.75
 11
-159.46890300000007
 21
773.25
  0
LINE
  8
_0-0_0
  6
CONTINUOUS
 62
    7
 10
-163.46890300000007
 20
774.25
 11
-66.968903000000068
 21
774.25
  0
ARC
  8
_0-0_0
  6
CONTINUOUS
 62
    7
 10
-158.76890600000002
 20
772.75
 40
0.5
 50
90.000003000000007
 51
179.99999099999999
  0
ARC
  8
_0-0_0
  6
CONTINUOUS
 62
    7
 10
-161.46890300000007
 20
771.75
 40
2.2000000000000002
 50
179.99999099999999
 51
0
  0
LINE
  8
_0-0_0
  6
CONTINUOUS
 62
    7
 10
-159.46890300000007
 20
748.15002400000003
 11
-158.96890300000007
 21
748.15002400000003
  0
LINE
  8
_0-0_0
  6
CONTINUOUS
 62
    7
 10
-158.96890300000007
 20
748.55001800000002
 11
-158.96890300000007
 21
748.15002400000003
  0
LINE
  8
_0-0_0
  6
CONTINUOUS
 62
    7
 10
-141.46890300000007
 20
748.55001800000002
 11
-105.46890300000007
 21
748.55001800000002
  0
LINE
  8
_0-0_0
  6
CONTINUOUS
 62
    7
 10
-91.968903000000068
 20
748.15002400000003
 11
-91.468903000000068
 21
748.15002400000003
  0
LINE
  8
_0-0_0
  6
CONTINUOUS
 62
    7
 10
-91.968903000000068
 20
748.55001800000002
 11
-91.968903000000068
 21
748.15002400000003
  0
LINE
  8
_0-0_0
  6
CONTINUOUS
 62
    7
 10
-80.968903000000068
 20
745.75
 11
-89.968903000000068
 21
745.75
  0
ARC
  8
_0-0_0
  6
CONTINUOUS
 62
    7
 10
-89.968903000000068
 20
746.25
 40
0.5
 50
179.99999099999999
 51
269.99999700000001
  0
LINE
  8
_0-0_0
  6
CONTINUOUS
 62
    7
 10
-80.968903000000068
 20
746.25
 11
-80.468903000000068
 21
746.25
  0
LINE
  8
_0-0_0
  6
CONTINUOUS
 62
    7
 10
-80.468903000000068
 20
746.25
 11
-80.468903000000068
 21
746.45001200000002
  0
LINE
  8
_0-0_0
  6
CONTINUOUS
 62
    7
 10
-75.968903000000068
 20
746.65002400000003
 11
-80.268906000000015
 21
746.65002400000003
  0
LINE
  8
_0-0_0
  6
CONTINUOUS
 62
    7
 10
-75.468903000000068
 20
747.15002400000003
 11
-75.468903000000068
 21
748.92514000000006
  0
ARC
  8
_0-0_0
  6
CONTINUOUS
 62
    7
 10
-78.516861000000063
 20
748.86901899999998
 40
3.0490550000000001
 50
1.0548960000000001
 51
14.838094000000002
  0
LINE
  8
_0-0_0
  6
CONTINUOUS
 62
    7
 10
-75.968903000000068
 20
749.85000600000001
 11
-80.336441000000036
 21
749.85000600000001
  0
LINE
  8
_0-0_0
  6
CONTINUOUS
 62
    7
 10
-80.468903000000068
 20
749.99145499999997
 11
-80.468903000000068
 21
750.09643600000004
  0
ARC
  8
_0-0_0
  6
CONTINUOUS
 62
    7
 10
-82.468903000000068
 20
771.75
 40
2.2000000000000002
 50
179.99999099999999
 51
303.74900400000001
  0
LINE
  8
_0-0_0
  6
CONTINUOUS
 62
    7
 10
-84.668900000000008
 20
772.75
 11
-84.668900000000008
 21
771.75
  0
LINE
  8
_0-0_0
  6
CONTINUOUS
 62
    7
 10
-85.168900000000008
 20
773.25
 11
-158.76890600000002
 21
773.25
  0
LINE
  8
_0-0_0
  6
CONTINUOUS
 62
    7
 10
-159.26890600000002
 20
771.75
 11
-159.26890600000002
 21
772.75
  0
LINE
  8
_0-0_0
  6
CONTINUOUS
 62
    7
 10
-158.76890600000002
 20
771.55001800000002
 11
-158.76890600000002
 21
771.75
  0
ARC
  8
_0-0_0
  6
CONTINUOUS
 62
    7
 10
-157.76890600000002
 20
771.55001800000002
 40
1
 50
90.000003000000007
 51
179.99999099999999
  0
LINE
  8
_0-0_0
  6
CONTINUOUS
 62
    7
 10
-157.76890600000002
 20
772.55001800000002
 11
-144.46890300000007
 21
772.55001800000002
  0
LINE
  8
_0-0_0
  6
CONTINUOUS
 62
    7
 10
-102.46890300000007
 20
772.55001800000002
 11
-88.468903000000068
 21
772.55001800000002
  0
ARC
  8
_0-0_0
  6
CONTINUOUS
 62
    7
 10
-88.468903000000068
 20
769.55001800000002
 40
3
 50
0
 51
90.000003000000007
  0
LINE
  8
_0-0_0
  6
CONTINUOUS
 62
    7
 10
-85.468903000000068
 20
755.95001200000002
 11
-85.468903000000068
 21
769.55001800000002
  0
ARC
  8
_0-0_0
  6
CONTINUOUS
 62
    7
 10
-88.468903000000068
 20
755.95001200000002
 40
3
 50
269.99999700000001
 51
0
  0
LINE
  8
_0-0_0
  6
CONTINUOUS
 62
    7
 10
-88.468903000000068
 20
752.95001200000002
 11
-102.46890300000007
 21
752.95001200000002
  0
LINE
  8
_0-0_0
  6
CONTINUOUS
 62
    7
 10
-144.46890300000007
 20
752.95001200000002
 11
-158.46890300000007
 21
752.95001200000002
  0
ARC
  8
_0-0_0
  6
CONTINUOUS
 62
    7
 10
-158.46890300000007
 20
755.95001200000002
 40
3
 50
179.99999099999999
 51
269.99999700000001
  0
LINE
  8
_0-0_0
  6
CONTINUOUS
 62
    7
 10
-161.46890300000007
 20
768.18771400000003
 11
-161.46890300000007
 21
755.95001200000002
  0
ARC
  8
_0-0_0
  6
CONTINUOUS
 62
    7
 10
-160.46890300000007
 20
768.18771400000003
 40
1
 50
105.68034800000001
 51
179.99999100000002
  0
ARC
  8
_0-0_0
  6
CONTINUOUS
 62
    7
 10
-168.42094400000008
 20
771.03100599999993
 40
3.0490550000000001
 50
181.05489
 51
194.838089
  0
LINE
  8
_0-0_0
  6
CONTINUOUS
 62
    7
 10
-166.6013640000001
 20
770.05001800000002
 11
-170.96890300000007
 21
770.05001800000002
  0
LINE
  8
_0-0_0
  6
CONTINUOUS
 62
    7
 10
-166.46890300000007
 20
749.99145499999997
 11
-166.46890300000007
 21
750.29168700000002
  0
LINE
  8
_0-0_0
  6
CONTINUOUS
 62
    7
 10
-166.6013640000001
 20
749.85000600000001
 11
-170.96890300000007
 21
749.85000600000001
  0
ARC
  8
_0-0_0
  6
CONTINUOUS
 62
    7
 10
-168.41975400000001
 20
748.86834700000009
 40
3.050319
 50
165.15540799999999
 51
178.932897
  0
LINE
  8
_0-0_0
  6
CONTINUOUS
 62
    7
 10
-171.46890300000007
 20
747.15002400000003
 11
-171.46890300000007
 21
748.92514000000006
  0
LINE
  8
_0-0_0
  6
CONTINUOUS
 62
    7
 10
-166.66890000000001
 20
746.65002400000003
 11
-170.96890300000007
 21
746.65002400000003
  0
LINE
  8
_0-0_0
  6
CONTINUOUS
 62
    7
 10
-166.46890300000007
 20
746.25
 11
-166.46890300000007
 21
746.45001200000002
  0
LINE
  8
_0-0_0
  6
CONTINUOUS
 62
    7
 10
-166.46890300000007
 20
746.25
 11
-165.96890300000007
 21
746.25
  0
LINE
  8
_0-0_0
  6
CONTINUOUS
 62
    7
 10
-160.96890300000007
 20
745.75
 11
-165.96890300000007
 21
745.75
  0
ARC
  8
_0-0_0
  6
CONTINUOUS
 62
    7
 10
-160.96890300000007
 20
746.25
 40
0.5
 50
269.99999700000001
 51
0
  0
LINE
  8
_0-0_0
  6
CONTINUOUS
 62
    7
 10
-171.15065000000004
 20
770.05001800000002
 11
-171.17100500000004
 21
770.05102499999998
  0
LINE
  8
_0-0_0
  6
CONTINUOUS
 62
    7
 10
-171.17100500000004
 20
770.05102499999998
 11
-171.19139100000007
 21
770.054169
  0
LINE
  8
_0-0_0
  6
CONTINUOUS
 62
    7
 10
-171.19139100000007
 20
770.054169
 11
-171.21821599999998
 21
770.06176800000003
  0
LINE
  8
_0-0_0
  6
CONTINUOUS
 62
    7
 10
-171.21821599999998
 20
770.06176800000003
 11
-171.24386600000003
 21
770.07312000000002
  0
LINE
  8
_0-0_0
  6
CONTINUOUS
 62
    7
 10
-171.24386600000003
 20
770.07312000000002
 11
-171.26767000000007
 21
770.08801300000005
  0
LINE
  8
_0-0_0
  6
CONTINUOUS
 62
    7
 10
-171.26767000000007
 20
770.08801300000005
 11
-171.28442400000006
 21
770.10150099999998
  0
LINE
  8
_0-0_0
  6
CONTINUOUS
 62
    7
 10
-171.28442400000006
 20
770.10150099999998
 11
-171.29992700000003
 21
770.11676
  0
LINE
  8
_0-0_0
  6
CONTINUOUS
 62
    7
 10
-171.29992700000003
 20
770.11676
 11
-171.32682799999998
 21
770.15139799999997
  0
LINE
  8
_0-0_0
  6
CONTINUOUS
 62
    7
 10
-171.32682799999998
 20
770.15139799999997
 11
-171.34785499999998
 21
770.18972800000006
  0
LINE
  8
_0-0_0
  6
CONTINUOUS
 62
    7
 10
-171.34785499999998
 20
770.18972800000006
 11
-171.35986300000002
 21
770.21963499999993
  0
LINE
  8
_0-0_0
  6
CONTINUOUS
 62
    7
 10
-171.35986300000002
 20
770.21963499999993
 11
-171.36891200000002
 21
770.25
  0
LINE
  8
_0-0_0
  6
CONTINUOUS
 62
    7
 10
-166.46890300000007
 20
774.15002400000003
 11
-166.46890300000007
 21
775.25
  0
LINE
  8
_0-0_0
  6
CONTINUOUS
 62
    7
 10
-171.96890300000007
 20
771.60000600000001
 11
-171.46890300000007
 21
771.60000600000001
  0
LINE
  8
_0-0_0
  6
CONTINUOUS
 62
    7
 10
-171.96890300000007
 20
774.15002400000003
 11
-166.46890300000007
 21
774.15002400000003
  0
ARC
  8
_0-0_0
  6
CONTINUOUS
 62
    7
 10
-67.468903000000068
 20
771.95001200000002
 40
0.5
 50
269.99999700000001
 51
0
  0
ARC
  8
_0-0_0
  6
CONTINUOUS
 62
    7
 10
-79.968903000000068
 20
772.75
 40
0.5
 50
90.000003000000007
 51
179.99999099999999
  0
LINE
  8
_0-0_0
  6
CONTINUOUS
 62
    7
 10
-80.468903000000068
 20
771.95001200000002
 11
-80.468903000000068
 21
772.75
  0
LINE
  8
_0-0_0
  6
CONTINUOUS
 62
    7
 10
-160.26890600000002
 20
748.13284299999998
 11
-160.26890600000002
 21
746.15002400000003
  0
LINE
  8
_0-0_0
  6
CONTINUOUS
 62
    7
 10
-160.26890600000002
 20
746.15002400000003
 11
-159.26890600000002
 21
746.15002400000003
  0
LINE
  8
_0-0_0
  6
CONTINUOUS
 62
    7
 10
-158.96890300000007
 20
748.15002400000003
 11
-91.968903000000068
 21
748.15002400000003
  0
LINE
  8
_0-0_0
  6
CONTINUOUS
 62
    7
 10
-159.26890600000002
 20
746.15002400000003
 11
-91.668900000000008
 21
746.15002400000003
  0
LINE
  8
_0-0_0
  6
CONTINUOUS
 62
    7
 10
-91.668900000000008
 20
746.15002400000003
 11
-90.668900000000008
 21
746.15002400000003
  0
LINE
  8
_0-0_0
  6
CONTINUOUS
 62
    7
 10
-90.668900000000008
 20
748.13284299999998
 11
-90.668900000000008
 21
746.15002400000003
  0
LINE
  8
_0-0_0
  6
CONTINUOUS
 62
    7
 10
-80.468903000000068
 20
746.25
 11
-80.968903000000068
 21
745.75
  0
ARC
  8
_0-0_0
  6
CONTINUOUS
 62
    7
 10
-80.268906000000015
 20
746.45001200000002
 40
0.2
 50
90.000003000000007
 51
179.99999099999999
  0
ARC
  8
_0-0_0
  6
CONTINUOUS
 62
    7
 10
-75.968903000000068
 20
747.15002400000003
 40
0.5
 50
269.99999700000001
 51
0
  0
LINE
  8
_0-0_0
  6
CONTINUOUS
 62
    7
 10
-75.787154999999984
 20
749.85000600000001
 11
-75.766800000000103
 21
749.84899900000005
  0
LINE
  8
_0-0_0
  6
CONTINUOUS
 62
    7
 10
-75.766800000000103
 20
749.84899900000005
 11
-75.74639900000011
 21
749.84585600000003
  0
LINE
  8
_0-0_0
  6
CONTINUOUS
 62
    7
 10
-75.74639900000011
 20
749.84585600000003
 11
-75.71957400000008
 21
749.838257
  0
LINE
  8
_0-0_0
  6
CONTINUOUS
 62
    7
 10
-75.71957400000008
 20
749.838257
 11
-75.693939
 21
749.82690400000001
  0
LINE
  8
_0-0_0
  6
CONTINUOUS
 62
    7
 10
-75.693939
 20
749.82690400000001
 11
-75.67013600000007
 21
749.81201199999998
  0
LINE
  8
_0-0_0
  6
CONTINUOUS
 62
    7
 10
-75.67013600000007
 20
749.81201199999998
 11
-75.653381000000081
 21
749.79849200000001
  0
LINE
  8
_0-0_0
  6
CONTINUOUS
 62
    7
 10
-75.653381000000081
 20
749.79849200000001
 11
-75.637878000000001
 21
749.78326399999992
  0
LINE
  8
_0-0_0
  6
CONTINUOUS
 62
    7
 10
-75.637878000000001
 20
749.78326399999992
 11
-75.610977000000048
 21
749.74862699999994
  0
LINE
  8
_0-0_0
  6
CONTINUOUS
 62
    7
 10
-75.610977000000048
 20
749.74862699999994
 11
-75.589935000000082
 21
749.71029700000008
  0
LINE
  8
_0-0_0
  6
CONTINUOUS
 62
    7
 10
-75.589935000000082
 20
749.71029700000008
 11
-75.577942000000007
 21
749.68035899999995
  0
LINE
  8
_0-0_0
  6
CONTINUOUS
 62
    7
 10
-75.577942000000007
 20
749.68035899999995
 11
-75.568893000000003
 21
749.65002400000003
  0
LINE
  8
_0-0_0
  6
CONTINUOUS
 62
    7
 10
-75.787154999999984
 20
749.85000600000001
 11
-75.968903000000068
 21
749.85000600000001
  0
LINE
  8
_0-0_0
  6
CONTINUOUS
 62
    7
 10
-80.468903000000068
 20
751.15002400000003
 11
-80.468903000000068
 21
750.09643600000004
  0
LINE
  8
_0-0_0
  6
CONTINUOUS
 62
    7
 10
-80.468903000000068
 20
751.15002400000003
 11
-80.468903000000068
 21
768.75
  0
LINE
  8
_0-0_0
  6
CONTINUOUS
 62
    7
 10
-80.468903000000068
 20
770.72738600000002
 11
-80.468903000000068
 21
768.75
  0
ARC
  8
_0-0_0
  6
CONTINUOUS
 62
    7
 10
-80.968903000000068
 20
769.50500499999998
 40
0.5
 50
0
 51
123.74898500000002
  0
ARC
  8
_0-0_0
  6
CONTINUOUS
 62
    7
 10
-80.298615000000041
 20
750.02331500000003
 40
0.1734229999999999
 50
181.12417600000003
 51
270.64883800000007
  0
LINE
  8
_0-0_0
  6
CONTINUOUS
 62
    7
 10
-80.472946000000093
 20
750.05001800000002
 11
-80.472854999999981
 21
750.01986699999998
  0
ARC
  8
_0-0_0
  6
CONTINUOUS
 62
    7
 10
-85.168900000000008
 20
772.75
 40
0.5
 50
0
 51
90.000003000000007
  0
ARC
  8
_0-0_0
  6
CONTINUOUS
 62
    7
 10
-161.46890300000007
 20
771.75
 40
2.7000000000000002
 50
285.68033600000007
 51
0.0000000000000381
  0
ARC
  8
_0-0_0
  6
CONTINUOUS
 62
    7
 10
-144.46890300000007
 20
755.95001200000002
 40
3
 50
269.99999700000001
 51
0
  0
LINE
  8
_0-0_0
  6
CONTINUOUS
 62
    7
 10
-141.46890300000007
 20
755.95001200000002
 11
-141.46890300000007
 21
769.55001800000002
  0
ARC
  8
_0-0_0
  6
CONTINUOUS
 62
    7
 10
-144.46890300000007
 20
769.55001800000002
 40
3
 50
0
 51
90.000003000000007
  0
ARC
  8
_0-0_0
  6
CONTINUOUS
 62
    7
 10
-148.96890300000007
 20
765.25
 40
4.5
 50
269.99999700000001
 51
90.000002999999992
  0
LINE
  8
_0-0_0
  6
CONTINUOUS
 62
    7
 10
-148.96890300000007
 20
760.75
 11
-153.96890300000007
 21
760.75
  0
ARC
  8
_0-0_0
  6
CONTINUOUS
 62
    7
 10
-153.96890300000007
 20
765.25
 40
4.5
 50
90.000003000000007
 51
269.99999700000006
  0
LINE
  8
_0-0_0
  6
CONTINUOUS
 62
    7
 10
-153.96890300000007
 20
769.75
 11
-148.96890300000007
 21
769.75
  0
ARC
  8
_0-0_0
  6
CONTINUOUS
 62
    7
 10
-102.46890300000007
 20
755.95001200000002
 40
3
 50
179.99999099999999
 51
269.99999700000001
  0
LINE
  8
_0-0_0
  6
CONTINUOUS
 62
    7
 10
-105.46890300000007
 20
769.55001800000002
 11
-105.46890300000007
 21
755.95001200000002
  0
ARC
  8
_0-0_0
  6
CONTINUOUS
 62
    7
 10
-102.46890300000007
 20
769.55001800000002
 40
3
 50
90.000003000000007
 51
179.99999099999999
  0
ARC
  8
_0-0_0
  6
CONTINUOUS
 62
    7
 10
-92.968903000000068
 20
765.25
 40
4.5
 50
269.99999700000001
 51
90.000002999999992
  0
LINE
  8
_0-0_0
  6
CONTINUOUS
 62
    7
 10
-92.968903000000068
 20
760.75
 11
-97.968903000000068
 21
760.75
  0
ARC
  8
_0-0_0
  6
CONTINUOUS
 62
    7
 10
-97.968903000000068
 20
765.25
 40
4.5
 50
90.000003000000007
 51
269.99999700000006
  0
LINE
  8
_0-0_0
  6
CONTINUOUS
 62
    7
 10
-97.968903000000068
 20
769.75
 11
-92.968903000000068
 21
769.75
  0
LINE
  8
_0-0_0
  6
CONTINUOUS
 62
    7
 10
-170.96890300000007
 20
770.05001800000002
 11
-171.15065000000004
 21
770.05001800000002
  0
LINE
  8
_0-0_0
  6
CONTINUOUS
 62
    7
 10
-166.46890300000007
 20
751.95001200000002
 11
-166.46890300000007
 21
750.29168700000002
  0
LINE
  8
_0-0_0
  6
CONTINUOUS
 62
    7
 10
-166.46890300000007
 20
751.95001200000002
 11
-166.46890300000007
 21
768.45001200000002
  0
LINE
  8
_0-0_0
  6
CONTINUOUS
 62
    7
 10
-166.46890300000007
 20
769.91629
 11
-166.46890300000007
 21
768.45001200000002
  0
ARC
  8
_0-0_0
  6
CONTINUOUS
 62
    7
 10
-166.63919099999998
 20
750.02328499999999
 40
0.1734209999999999
 50
269.35085600000002
 51
358.87625300000002
  0
LINE
  8
_0-0_0
  6
CONTINUOUS
 62
    7
 10
-166.46485900000005
 20
750.05001800000002
 11
-166.46493500000008
 21
750.01986699999998
  0
LINE
  8
_0-0_0
  6
CONTINUOUS
 62
    7
 10
-166.46485900000005
 20
769.85000600000001
 11
-166.46493500000008
 21
769.88012700000002
  0
ARC
  8
_0-0_0
  6
CONTINUOUS
 62
    7
 10
-166.63919099999998
 20
769.87670900000001
 40
0.1734219999999999
 50
1.1236539999999999
 51
90.649110000000007
  0
LINE
  8
_0-0_0
  6
CONTINUOUS
 62
    7
 10
-170.96890300000007
 20
749.85000600000001
 11
-171.15065000000004
 21
749.85000600000001
  0
LINE
  8
_0-0_0
  6
CONTINUOUS
 62
    7
 10
-171.15065000000004
 20
749.85000600000001
 11
-171.17100500000004
 21
749.84899900000005
  0
LINE
  8
_0-0_0
  6
CONTINUOUS
 62
    7
 10
-171.17100500000004
 20
749.84899900000005
 11
-171.19140600000003
 21
749.84582499999999
  0
LINE
  8
_0-0_0
  6
CONTINUOUS
 62
    7
 10
-171.19140600000003
 20
749.84582499999999
 11
-171.21821599999998
 21
749.838257
  0
LINE
  8
_0-0_0
  6
CONTINUOUS
 62
    7
 10
-171.21821599999998
 20
749.838257
 11
-171.24386600000003
 21
749.82690400000001
  0
LINE
  8
_0-0_0
  6
CONTINUOUS
 62
    7
 10
-171.24386600000003
 20
749.82690400000001
 11
-171.26767000000007
 21
749.81201199999998
  0
LINE
  8
_0-0_0
  6
CONTINUOUS
 62
    7
 10
-171.26767000000007
 20
749.81201199999998
 11
-171.28442400000006
 21
749.79849200000001
  0
LINE
  8
_0-0_0
  6
CONTINUOUS
 62
    7
 10
-171.28442400000006
 20
749.79849200000001
 11
-171.29992700000003
 21
749.78326399999992
  0
LINE
  8
_0-0_0
  6
CONTINUOUS
 62
    7
 10
-171.29992700000003
 20
749.78326399999992
 11
-171.32682799999998
 21
749.74862699999994
  0
LINE
  8
_0-0_0
  6
CONTINUOUS
 62
    7
 10
-171.32682799999998
 20
749.74862699999994
 11
-171.34785499999998
 21
749.71029700000008
  0
LINE
  8
_0-0_0
  6
CONTINUOUS
 62
    7
 10
-171.34785499999998
 20
749.71029700000008
 11
-171.35986300000002
 21
749.68035899999995
  0
LINE
  8
_0-0_0
  6
CONTINUOUS
 62
    7
 10
-171.35986300000002
 20
749.68035899999995
 11
-171.36891200000002
 21
749.65002400000003
  0
ARC
  8
_0-0_0
  6
CONTINUOUS
 62
    7
 10
-170.96890300000007
 20
747.15002400000003
 40
0.5
 50
179.99999099999999
 51
269.99999700000001
  0
ARC
  8
_0-0_0
  6
CONTINUOUS
 62
    7
 10
-166.66890000000001
 20
746.45001200000002
 40
0.2
 50
0
 51
90.000003000000007
  0
LINE
  8
_0-0_0
  6
CONTINUOUS
 62
    7
 10
-166.46890300000007
 20
746.25
 11
-165.96890300000007
 21
745.75
  0
LINE
  8
_0-0_0
  6
CONTINUOUS
 62
    7
 10
-172.46887200000003
 20
772.09429899999998
 11
-172.46887200000003
 21
773.65002400000003
  0
ARC
  8
_0-0_0
  6
CONTINUOUS
 62
    7
 10
-171.9819950000001
 20
772.09765599999992
 40
0.4869939999999999
 50
180.39493000000002
 51
203.93946700000001
  0
ARC
  8
_0-0_0
  6
CONTINUOUS
 62
    7
 10
-171.96890300000007
 20
772.10000600000001
 40
0.5
 50
203.57823099999999
 51
269.99999700000001
  0
ARC
  8
_0-0_0
  6
CONTINUOUS
 62
    7
 10
-171.96890300000007
 20
773.65002400000003
 40
0.5
 50
90.000003000000007
 51
179.99999099999999
  0
LINE
  8
_0-0_0
  6
CONTINUOUS
 62
    7
 10
-80.468903000000068
 20
771.45001200000002
 11
-79.968903000000068
 21
771.45001200000002
  0
LINE
  8
_0-0_0
  6
CONTINUOUS
 62
    7
 10
-79.968903000000068
 20
771.45001200000002
 11
-67.468903000000068
 21
771.45001200000002
  0
ARC
  8
_0-0_0
  6
CONTINUOUS
 62
    7
 10
-79.968903000000068
 20
771.95001200000002
 40
0.5
 50
179.99999099999999
 51
269.99999700000001
  0
LINE
  8
_0-0_0
  6
CONTINUOUS
 62
    7
 10
-80.468903000000068
 20
771.08398399999999
 11
-80.468903000000068
 21
771.45001200000002
  0
LINE
  8
_0-0_0
  6
CONTINUOUS
 62
    7
 10
-80.468903000000068
 20
770.83349599999997
 11
-80.468903000000068
 21
770.72738600000002
  0
LINE
  8
_0-0_0
  6
CONTINUOUS
 62
    7
 10
-80.468903000000068
 20
771.08398399999999
 11
-80.468903000000068
 21
770.83349599999997
  0
CIRCLE
  8
_0-0_0
  6
CONTINUOUS
 62
    7
 10
-161.46890300000007
 20
771.75
 40
1.4750000000000001
  0
CIRCLE
  8
_0-0_0
  6
CONTINUOUS
 62
    7
 10
-82.468903000000068
 20
771.75
 40
1.4750000000000001
  0
LINE
  8
_0-0_0
  6
CONTINUOUS
 62
    7
 10
-172.46887200000003
 20
751.95001200000002
 11
-172.46887200000003
 21
749.45001200000002
  0
LINE
  8
_0-0_0
  6
CONTINUOUS
 62
    7
 10
-172.46887200000003
 20
751.95001200000002
 11
-172.46887200000003
 21
764.75
  0
LINE
  8
_0-0_0
  6
CONTINUOUS
 62
    7
 10
-172.46887200000003
 20
768.25
 11
-172.46887200000003
 21
764.75
  0
LINE
  8
_0-0_0
  6
CONTINUOUS
 62
    7
 10
-172.46887200000003
 20
768.25
 11
-172.46887200000003
 21
768.60000600000001
  0
LINE
  8
_0-0_0
  6
CONTINUOUS
 62
    7
 10
-172.46887200000003
 20
772.09429899999998
 11
-172.46887200000003
 21
768.60000600000001
  0
LINE
  8
_0-0_0
  6
CONTINUOUS
 62
    7
 10
-172.46887200000003
 20
773.942902
 11
-172.46887200000003
 21
773.65002400000003
  0
LINE
  8
_0-0_0
  6
CONTINUOUS
 62
    7
 10
-172.46887200000003
 20
773.942902
 11
-172.46887200000003
 21
774
  0
LINE
  8
_0-0_0
  6
CONTINUOUS
 62
    7
 10
-171.46836900000005
 20
748.95001200000002
 11
-171.96890300000007
 21
748.95001200000002
  0
LINE
  8
_0-0_0
  6
CONTINUOUS
 62
    7
 10
-75.480103000000099
 20
749.15002400000003
 11
-68.468903000000068
 21
749.15002400000003
  0
LINE
  8
_0-0_0
  6
CONTINUOUS
 62
    7
 10
-68.468903000000068
 20
749.15002400000003
 11
-63.793456999999989
 21
749.15002400000003
  0
LINE
  8
_0-0_0
  6
CONTINUOUS
 62
    7
 10
-68.468903000000068
 20
749.15002400000003
 11
-68.468903000000068
 21
751.15002400000003
  0
LINE
  8
_0-0_0
  6
CONTINUOUS
 62
    7
 10
-68.468903000000068
 20
754.65002400000003
 11
-68.468903000000068
 21
751.65002400000003
  0
LINE
  8
_0-0_0
  6
CONTINUOUS
 62
    7
 10
-68.468903000000068
 20
751.65002400000003
 11
-68.468903000000068
 21
751.15002400000003
  0
LINE
  8
_0-0_0
  6
CONTINUOUS
 62
    7
 10
-68.468903000000068
 20
754.65002400000003
 11
-68.468903000000068
 21
755.15002400000003
  0
ARC
  8
_0-0_0
  6
CONTINUOUS
 62
    7
 10
-74.468918000000031
 20
754.45001200000002
 40
0.500016
 50
180.00117
 51
359.995611
  0
LINE
  8
_0-0_0
  6
CONTINUOUS
 62
    7
 10
-73.968903000000068
 20
754.45001200000002
 11
-73.968903000000068
 21
766.45001200000002
  0
ARC
  8
_0-0_0
  6
CONTINUOUS
 62
    7
 10
-74.468918000000031
 20
766.45001200000002
 40
0.500016
 50
0.001164
 51
179.99560600000004
  0
LINE
  8
_0-0_0
  6
CONTINUOUS
 62
    7
 10
-74.968903000000068
 20
754.45001200000002
 11
-74.968903000000068
 21
766.45001200000002
  0
ARC
  8
_0-0_0
  6
CONTINUOUS
 62
    7
 10
-72.968918000000031
 20
754.45001200000002
 40
0.500016
 50
180.00117
 51
359.995611
  0
LINE
  8
_0-0_0
  6
CONTINUOUS
 62
    7
 10
-72.468903000000068
 20
754.45001200000002
 11
-72.468903000000068
 21
766.45001200000002
  0
ARC
  8
_0-0_0
  6
CONTINUOUS
 62
    7
 10
-72.968918000000031
 20
766.45001200000002
 40
0.500016
 50
0.001164
 51
179.99560600000004
  0
LINE
  8
_0-0_0
  6
CONTINUOUS
 62
    7
 10
-73.468903000000068
 20
754.45001200000002
 11
-73.468903000000068
 21
766.45001200000002
  0
ARC
  8
_0-0_0
  6
CONTINUOUS
 62
    7
 10
-71.468918000000031
 20
754.45001200000002
 40
0.500016
 50
180.00117
 51
359.995611
  0
LINE
  8
_0-0_0
  6
CONTINUOUS
 62
    7
 10
-70.968903000000068
 20
754.45001200000002
 11
-70.968903000000068
 21
766.45001200000002
  0
ARC
  8
_0-0_0
  6
CONTINUOUS
 62
    7
 10
-71.468918000000031
 20
766.45001200000002
 40
0.500016
 50
0.001164
 51
179.99560600000004
  0
LINE
  8
_0-0_0
  6
CONTINUOUS
 62
    7
 10
-71.968903000000068
 20
754.45001200000002
 11
-71.968903000000068
 21
766.45001200000002
  0
ARC
  8
_0-0_0
  6
CONTINUOUS
 62
    7
 10
-69.968918000000031
 20
754.45001200000002
 40
0.500016
 50
180.00117
 51
359.995611
  0
LINE
  8
_0-0_0
  6
CONTINUOUS
 62
    7
 10
-69.468903000000068
 20
754.45001200000002
 11
-69.468903000000068
 21
766.45001200000002
  0
ARC
  8
_0-0_0
  6
CONTINUOUS
 62
    7
 10
-69.968918000000031
 20
766.45001200000002
 40
0.500016
 50
0.001164
 51
179.99560600000004
  0
LINE
  8
_0-0_0
  6
CONTINUOUS
 62
    7
 10
-70.468903000000068
 20
754.45001200000002
 11
-70.468903000000068
 21
766.45001200000002
  0
LINE
  8
_0-0_0
  6
CONTINUOUS
 62
    7
 10
-80.468903000000068
 20
770.75
 11
-63.793456999999989
 21
770.75
  0
LINE
  8
_0-0_0
  6
CONTINUOUS
 62
    7
 10
-171.96890300000007
 20
774.5
 11
-166.46890300000007
 21
774.5
  0
ARC
  8
_0-0_0
  6
CONTINUOUS
 62
    7
 10
-171.96890300000007
 20
774
 40
0.5
 50
90.000003000000007
 51
179.99999099999999
  0
ARC
  8
_0-0_0
  6
CONTINUOUS
 62
    7
 10
-171.96890300000007
 20
749.45001200000002
 40
0.5
 50
179.99999099999999
 51
269.99999700000001
  0
ARC
  8
_0-0_0
  6
CONTINUOUS
 62
    7
 10
-171.96890300000007
 20
764.75
 40
0.5
 50
90.000003000000007
 51
179.99999099999999
  0
ARC
  8
_0-0_0
  6
CONTINUOUS
 62
    7
 10
-63.793456999999989
 20
751.15002400000003
 40
2
 50
269.99999700000001
 51
288.43501300000003
  0
LINE
  8
_0-0_0
  6
CONTINUOUS
 62
    7
 10
-68.468903000000068
 20
749.15002400000003
 11
-68.468903000000068
 21
749.40008499999999
  0
LINE
  8
_0-0_0
  6
CONTINUOUS
 62
    7
 10
-68.468903000000068
 20
754.65002400000003
 11
-63.793456999999989
 21
754.65002400000003
  0
LINE
  8
_0-0_0
  6
CONTINUOUS
 62
    7
 10
-63.160996000000068
 20
770.64736900000003
 11
-63.28050200000007
 21
770.68298299999992
  0
LINE
  8
_0-0_0
  6
CONTINUOUS
 62
    7
 10
-63.28050200000007
 20
770.68298299999992
 11
-63.402054000000021
 21
770.71087599999998
  0
LINE
  8
_0-0_0
  6
CONTINUOUS
 62
    7
 10
-63.402054000000021
 20
770.71087599999998
 11
-63.525192000000061
 21
770.73092700000007
  0
LINE
  8
_0-0_0
  6
CONTINUOUS
 62
    7
 10
-63.525192000000061
 20
770.73092700000007
 11
-63.649413999999979
 21
770.74304200000006
  0
LINE
  8
_0-0_0
  6
CONTINUOUS
 62
    7
 10
-63.649413999999979
 20
770.74304200000006
 11
-63.7742310000001
 21
770.747162
  0
LINE
  8
_0-0_0
  6
CONTINUOUS
 62
    7
 10
-63.7742310000001
 20
770.747162
 11
-63.793456999999989
 21
770.74710099999993
  0
ARC
  8
_0-0_0
  6
CONTINUOUS
 62
    7
 10
-63.793456999999989
 20
768.75
 40
2
 50
71.565000999999995
 51
90.000003000000007
  0
LINE
  8
_0-0_0
  6
CONTINUOUS
 62
    7
 10
-147.49736000000007
 20
761.15002400000003
 11
-155.44044500000007
 21
761.15002400000003
  0
ARC
  8
_0-0_0
  6
CONTINUOUS
 62
    7
 10
-155.44044500000007
 20
761.65002400000003
 40
0.5
 50
210.00000299999999
 51
269.99999700000001
  0
LINE
  8
_0-0_0
  6
CONTINUOUS
 62
    7
 10
-155.87345900000003
 20
761.40002400000003
 11
-157.95191999999997
 21
765
  0
ARC
  8
_0-0_0
  6
CONTINUOUS
 62
    7
 10
-157.51890600000002
 20
765.25
 40
0.5
 50
149.99999700000001
 51
210.00000299999996
  0
LINE
  8
_0-0_0
  6
CONTINUOUS
 62
    7
 10
-157.95191999999997
 20
765.5
 11
-155.87345900000003
 21
769.10000600000001
  0
ARC
  8
_0-0_0
  6
CONTINUOUS
 62
    7
 10
-155.44044500000007
 20
768.85000600000001
 40
0.5
 50
90.000003000000007
 51
149.99999700000001
  0
LINE
  8
_0-0_0
  6
CONTINUOUS
 62
    7
 10
-155.44044500000007
 20
769.35000600000001
 11
-147.49736000000007
 21
769.35000600000001
  0
ARC
  8
_0-0_0
  6
CONTINUOUS
 62
    7
 10
-147.49736000000007
 20
768.85000600000001
 40
0.5
 50
30.000001000000001
 51
90.000003000000007
  0
LINE
  8
_0-0_0
  6
CONTINUOUS
 62
    7
 10
-147.064346
 20
769.10000600000001
 11
-144.98588600000005
 21
765.5
  0
ARC
  8
_0-0_0
  6
CONTINUOUS
 62
    7
 10
-145.41890000000001
 20
765.25
 40
0.5
 50
329.99998900000003
 51
30.000000999999983
  0
LINE
  8
_0-0_0
  6
CONTINUOUS
 62
    7
 10
-144.98588600000005
 20
765
 11
-147.064346
 21
761.40002400000003
  0
ARC
  8
_0-0_0
  6
CONTINUOUS
 62
    7
 10
-147.49736000000007
 20
761.65002400000003
 40
0.5
 50
269.99999700000001
 51
329.99998900000003
  0
ARC
  8
_0-0_0
  6
CONTINUOUS
 62
    7
 10
-99.498169000000075
 20
761.75
 40
0.5
 50
210.00000299999999
 51
269.99999700000001
  0
LINE
  8
_0-0_0
  6
CONTINUOUS
 62
    7
 10
-99.931183000000033
 20
761.5
 11
-101.95190400000001
 21
765
  0
ARC
  8
_0-0_0
  6
CONTINUOUS
 62
    7
 10
-101.51890600000002
 20
765.25
 40
0.5
 50
149.99999700000001
 51
210.00000299999996
  0
LINE
  8
_0-0_0
  6
CONTINUOUS
 62
    7
 10
-101.95190400000001
 20
765.5
 11
-99.931183000000033
 21
769
  0
ARC
  8
_0-0_0
  6
CONTINUOUS
 62
    7
 10
-99.498169000000075
 20
768.75
 40
0.5
 50
90.000003000000007
 51
149.99999700000001
  0
LINE
  8
_0-0_0
  6
CONTINUOUS
 62
    7
 10
-99.498169000000075
 20
769.25
 11
-91.439620999999988
 21
769.25
  0
ARC
  8
_0-0_0
  6
CONTINUOUS
 62
    7
 10
-91.439620999999988
 20
768.75
 40
0.5
 50
30.000001000000001
 51
90.000003000000007
  0
LINE
  8
_0-0_0
  6
CONTINUOUS
 62
    7
 10
-91.006607000000031
 20
769
 11
-88.98588600000005
 21
765.5
  0
ARC
  8
_0-0_0
  6
CONTINUOUS
 62
    7
 10
-89.418900000000008
 20
765.25
 40
0.5
 50
329.99998900000003
 51
30.000000999999983
  0
LINE
  8
_0-0_0
  6
CONTINUOUS
 62
    7
 10
-88.98588600000005
 20
765
 11
-91.006607000000031
 21
761.5
  0
ARC
  8
_0-0_0
  6
CONTINUOUS
 62
    7
 10
-91.439620999999988
 20
761.75
 40
0.5
 50
269.99999700000001
 51
329.99998900000003
  0
LINE
  8
_0-0_0
  6
CONTINUOUS
 62
    7
 10
-91.439620999999988
 20
761.25
 11
-99.498169000000075
 21
761.25
  0
LINE
  8
_0-0_0
  6
CONTINUOUS
 62
    7
 10
-169.46890300000007
 20
769.88043199999993
 11
-169.46890300000007
 21
769.05419899999993
  0
LINE
  8
_0-0_0
  6
CONTINUOUS
 62
    7
 10
-171.96890300000007
 20
765.25
 11
-169.76890600000002
 21
765.25
  0
LINE
  8
_0-0_0
  6
CONTINUOUS
 62
    7
 10
-169.46890300000007
 20
765.55001800000002
 11
-169.46890300000007
 21
767.77832000000001
  0
LINE
  8
_0-0_0
  6
CONTINUOUS
 62
    7
 10
-169.46890300000007
 20
770.04968299999996
 11
-169.46890300000007
 21
769.88043199999993
  0
LINE
  8
_0-0_0
  6
CONTINUOUS
 62
    7
 10
-161.26890600000002
 20
770.65002400000003
 11
-161.66890000000001
 21
770.65002400000003
  0
LINE
  8
_0-0_0
  6
CONTINUOUS
 62
    7
 10
-161.26890600000002
 20
770.65002400000003
 11
-161.26890600000002
 21
771.30001800000002
  0
ARC
  8
_0-0_0
  6
CONTINUOUS
 62
    7
 10
-161.01890600000002
 20
771.30001800000002
 40
0.25
 50
90.000003000000007
 51
179.99999099999999
  0
LINE
  8
_0-0_0
  6
CONTINUOUS
 62
    7
 10
-161.01890600000002
 20
771.55001800000002
 11
-160.36891200000002
 21
771.55001800000002
  0
LINE
  8
_0-0_0
  6
CONTINUOUS
 62
    7
 10
-160.36891200000002
 20
771.55001800000002
 11
-160.36891200000002
 21
771.95001200000002
  0
LINE
  8
_0-0_0
  6
CONTINUOUS
 62
    7
 10
-161.01890600000002
 20
771.95001200000002
 11
-160.36891200000002
 21
771.95001200000002
  0
ARC
  8
_0-0_0
  6
CONTINUOUS
 62
    7
 10
-161.01890600000002
 20
772.20001200000002
 40
0.25
 50
179.99999099999999
 51
269.99999700000001
  0
LINE
  8
_0-0_0
  6
CONTINUOUS
 62
    7
 10
-161.26890600000002
 20
772.85000600000001
 11
-161.26890600000002
 21
772.20001200000002
  0
LINE
  8
_0-0_0
  6
CONTINUOUS
 62
    7
 10
-161.26890600000002
 20
772.85000600000001
 11
-161.66890000000001
 21
772.85000600000001
  0
LINE
  8
_0-0_0
  6
CONTINUOUS
 62
    7
 10
-161.66890000000001
 20
772.85000600000001
 11
-161.66890000000001
 21
772.20001200000002
  0
ARC
  8
_0-0_0
  6
CONTINUOUS
 62
    7
 10
-161.91890000000001
 20
772.20001200000002
 40
0.25
 50
269.99999700000001
 51
0
  0
LINE
  8
_0-0_0
  6
CONTINUOUS
 62
    7
 10
-161.91890000000001
 20
771.95001200000002
 11
-162.568893
 21
771.95001200000002
  0
LINE
  8
_0-0_0
  6
CONTINUOUS
 62
    7
 10
-162.568893
 20
771.55001800000002
 11
-162.568893
 21
771.95001200000002
  0
LINE
  8
_0-0_0
  6
CONTINUOUS
 62
    7
 10
-161.91890000000001
 20
771.55001800000002
 11
-162.568893
 21
771.55001800000002
  0
ARC
  8
_0-0_0
  6
CONTINUOUS
 62
    7
 10
-161.91890000000001
 20
771.30001800000002
 40
0.25
 50
0
 51
90.000003000000007
  0
LINE
  8
_0-0_0
  6
CONTINUOUS
 62
    7
 10
-161.66890000000001
 20
770.65002400000003
 11
-161.66890000000001
 21
771.30001800000002
  0
LINE
  8
_0-0_0
  6
CONTINUOUS
 62
    7
 10
-82.268906000000015
 20
770.65002400000003
 11
-82.668900000000008
 21
770.65002400000003
  0
LINE
  8
_0-0_0
  6
CONTINUOUS
 62
    7
 10
-82.268906000000015
 20
770.65002400000003
 11
-82.268906000000015
 21
771.30001800000002
  0
ARC
  8
_0-0_0
  6
CONTINUOUS
 62
    7
 10
-82.018906000000015
 20
771.30001800000002
 40
0.25
 50
90.000003000000007
 51
179.99999099999999
  0
LINE
  8
_0-0_0
  6
CONTINUOUS
 62
    7
 10
-82.018906000000015
 20
771.55001800000002
 11
-81.368897000000061
 21
771.55001800000002
  0
LINE
  8
_0-0_0
  6
CONTINUOUS
 62
    7
 10
-81.368897000000061
 20
771.55001800000002
 11
-81.368897000000061
 21
771.95001200000002
  0
LINE
  8
_0-0_0
  6
CONTINUOUS
 62
    7
 10
-82.018906000000015
 20
771.95001200000002
 11
-81.368897000000061
 21
771.95001200000002
  0
ARC
  8
_0-0_0
  6
CONTINUOUS
 62
    7
 10
-82.018906000000015
 20
772.20001200000002
 40
0.25
 50
179.99999099999999
 51
269.99999700000001
  0
LINE
  8
_0-0_0
  6
CONTINUOUS
 62
    7
 10
-82.268906000000015
 20
772.85000600000001
 11
-82.268906000000015
 21
772.20001200000002
  0
LINE
  8
_0-0_0
  6
CONTINUOUS
 62
    7
 10
-82.268906000000015
 20
772.85000600000001
 11
-82.668900000000008
 21
772.85000600000001
  0
LINE
  8
_0-0_0
  6
CONTINUOUS
 62
    7
 10
-82.668900000000008
 20
772.85000600000001
 11
-82.668900000000008
 21
772.20001200000002
  0
ARC
  8
_0-0_0
  6
CONTINUOUS
 62
    7
 10
-82.918900000000008
 20
772.20001200000002
 40
0.25
 50
269.99999700000001
 51
0
  0
LINE
  8
_0-0_0
  6
CONTINUOUS
 62
    7
 10
-82.918900000000008
 20
771.95001200000002
 11
-83.568893000000003
 21
771.95001200000002
  0
LINE
  8
_0-0_0
  6
CONTINUOUS
 62
    7
 10
-83.568893000000003
 20
771.55001800000002
 11
-83.568893000000003
 21
771.95001200000002
  0
LINE
  8
_0-0_0
  6
CONTINUOUS
 62
    7
 10
-82.918900000000008
 20
771.55001800000002
 11
-83.568893000000003
 21
771.55001800000002
  0
ARC
  8
_0-0_0
  6
CONTINUOUS
 62
    7
 10
-82.918900000000008
 20
771.30001800000002
 40
0.25
 50
0
 51
90.000003000000007
  0
LINE
  8
_0-0_0
  6
CONTINUOUS
 62
    7
 10
-82.668900000000008
 20
770.65002400000003
 11
-82.668900000000008
 21
771.30001800000002
  0
LINE
  8
_0-0_0
  6
CONTINUOUS
 62
    7
 10
-62.718903000000068
 20
749.39999399999999
 11
-63.160996000000068
 21
749.25262500000008
  0
LINE
  8
_0-0_0
  6
CONTINUOUS
 62
    7
 10
-58.994552999999996
 20
754.65002400000003
 11
-58.301193000000012
 21
754.65002400000003
  0
LINE
  8
_0-0_0
  6
CONTINUOUS
 62
    7
 10
-58.994552999999996
 20
754.65002400000003
 11
-63.319107000000031
 21
754.65002400000003
  0
LINE
  8
_0-0_0
  6
CONTINUOUS
 62
    7
 10
-63.793456999999989
 20
754.65002400000003
 11
-63.319107000000031
 21
754.65002400000003
  0
LINE
  8
_0-0_0
  6
CONTINUOUS
 62
    7
 10
-58.836441000000036
 20
769.20584099999996
 11
-63.160996000000068
 21
770.64736900000003
  0
LINE
  8
_0-0_0
  6
CONTINUOUS
 62
    7
 10
-169.46890300000007
 20
769.05419899999993
 11
-169.46890300000007
 21
767.77832000000001
  0
ARC
  8
_0-0_0
  6
CONTINUOUS
 62
    7
 10
-169.76890600000002
 20
765.55001800000002
 40
0.2999999999999999
 50
269.99999700000001
 51
0
  0
LINE
  8
_0-0_0
  6
CONTINUOUS
 62
    7
 10
-171.924576
 20
769.32870500000001
 11
-171.924576
 21
766
  0
LINE
  8
_0-0_0
  6
CONTINUOUS
 62
    7
 10
-171.924576
 20
770.5
 11
-171.924576
 21
769.32870500000001
  0
LINE
  8
_0-0_0
  6
CONTINUOUS
 62
    7
 10
-57.468903000000068
 20
753.89996300000007
 11
-57.468903000000068
 21
755.02099599999997
  0
LINE
  8
_0-0_0
  6
CONTINUOUS
 62
    7
 10
-57.468903000000068
 20
755.94232199999999
 11
-57.468903000000068
 21
755.02099599999997
  0
LINE
  8
_0-0_0
  6
CONTINUOUS
 62
    7
 10
-57.768906000000015
 20
757.73800699999993
 11
-57.710098000000016
 21
757.49117999999999
  0
LINE
  8
_0-0_0
  6
CONTINUOUS
 62
    7
 10
-57.710098000000016
 20
757.49117999999999
 11
-57.660339000000022
 21
757.29882799999996
  0
LINE
  8
_0-0_0
  6
CONTINUOUS
 62
    7
 10
-57.660339000000022
 20
757.29882799999996
 11
-57.589202999999998
 21
757.033051
  0
LINE
  8
_0-0_0
  6
CONTINUOUS
 62
    7
 10
-57.589202999999998
 20
757.033051
 11
-57.556244000000106
 21
756.906342
  0
LINE
  8
_0-0_0
  6
CONTINUOUS
 62
    7
 10
-57.556244000000106
 20
756.906342
 11
-57.530991000000085
 21
756.80291699999998
  0
LINE
  8
_0-0_0
  6
CONTINUOUS
 62
    7
 10
-57.530991000000085
 20
756.80291699999998
 11
-57.508957000000009
 21
756.70297200000005
  0
LINE
  8
_0-0_0
  6
CONTINUOUS
 62
    7
 10
-57.508957000000009
 20
756.70297200000005
 11
-57.487579000000096
 21
756.58526600000005
  0
LINE
  8
_0-0_0
  6
CONTINUOUS
 62
    7
 10
-57.487579000000096
 20
756.58526600000005
 11
-57.479004000000032
 21
756.52313200000003
  0
LINE
  8
_0-0_0
  6
CONTINUOUS
 62
    7
 10
-57.479004000000032
 20
756.52313200000003
 11
-57.472931000000017
 21
756.46252400000003
  0
LINE
  8
_0-0_0
  6
CONTINUOUS
 62
    7
 10
-57.472931000000017
 20
756.46252400000003
 11
-57.469925000000103
 21
756.41329999999994
  0
LINE
  8
_0-0_0
  6
CONTINUOUS
 62
    7
 10
-57.469925000000103
 20
756.41329999999994
 11
-57.468903000000068
 21
756.36505099999999
  0
LINE
  8
_0-0_0
  6
CONTINUOUS
 62
    7
 10
-57.768906000000015
 20
762.16204800000003
 11
-57.8523560000001
 21
761.78335600000003
  0
LINE
  8
_0-0_0
  6
CONTINUOUS
 62
    7
 10
-57.8523560000001
 20
761.78335600000003
 11
-57.892456000000038
 21
761.59182699999997
  0
LINE
  8
_0-0_0
  6
CONTINUOUS
 62
    7
 10
-57.892456000000038
 20
761.59182699999997
 11
-57.948532
 21
761.30181900000002
  0
LINE
  8
_0-0_0
  6
CONTINUOUS
 62
    7
 10
-57.948532
 20
761.30181900000002
 11
-57.986130000000003
 21
761.08221400000002
  0
LINE
  8
_0-0_0
  6
CONTINUOUS
 62
    7
 10
-57.986130000000003
 20
761.08221400000002
 11
-58.018784000000096
 21
760.86096199999997
  0
LINE
  8
_0-0_0
  6
CONTINUOUS
 62
    7
 10
-58.018784000000096
 20
760.86096199999997
 11
-58.045944000000077
 21
760.63415499999996
  0
LINE
  8
_0-0_0
  6
CONTINUOUS
 62
    7
 10
-58.045944000000077
 20
760.63415499999996
 11
-58.066010000000006
 21
760.40676899999994
  0
LINE
  8
_0-0_0
  6
CONTINUOUS
 62
    7
 10
-58.066010000000006
 20
760.40676899999994
 11
-58.073166000000015
 21
760.29303000000004
  0
LINE
  8
_0-0_0
  6
CONTINUOUS
 62
    7
 10
-58.073166000000015
 20
760.29303000000004
 11
-58.078323000000069
 21
760.17935199999999
  0
LINE
  8
_0-0_0
  6
CONTINUOUS
 62
    7
 10
-58.078323000000069
 20
760.17935199999999
 11
-58.082031000000029
 21
760.02792399999998
  0
LINE
  8
_0-0_0
  6
CONTINUOUS
 62
    7
 10
-58.082031000000029
 20
760.02792399999998
 11
-58.082092000000102
 21
759.87667800000008
  0
LINE
  8
_0-0_0
  6
CONTINUOUS
 62
    7
 10
-58.082092000000102
 20
759.87667800000008
 11
-58.078522000000021
 21
759.72561599999995
  0
LINE
  8
_0-0_0
  6
CONTINUOUS
 62
    7
 10
-58.078522000000021
 20
759.72561599999995
 11
-58.069016000000033
 21
759.53707899999995
  0
LINE
  8
_0-0_0
  6
CONTINUOUS
 62
    7
 10
-58.069016000000033
 20
759.53707899999995
 11
-58.05413800000008
 21
759.34881599999994
  0
LINE
  8
_0-0_0
  6
CONTINUOUS
 62
    7
 10
-58.05413800000008
 20
759.34881599999994
 11
-58.034225000000106
 21
759.160889
  0
LINE
  8
_0-0_0
  6
CONTINUOUS
 62
    7
 10
-58.034225000000106
 20
759.160889
 11
-58.017837999999983
 21
759.03201300000001
  0
LINE
  8
_0-0_0
  6
CONTINUOUS
 62
    7
 10
-58.017837999999983
 20
759.03201300000001
 11
-57.9994200000001
 21
758.90335099999993
  0
LINE
  8
_0-0_0
  6
CONTINUOUS
 62
    7
 10
-57.9994200000001
 20
758.90335099999993
 11
-57.975266000000033
 21
758.75140399999998
  0
LINE
  8
_0-0_0
  6
CONTINUOUS
 62
    7
 10
-57.975266000000033
 20
758.75140399999998
 11
-57.948868000000061
 21
758.60006700000008
  0
LINE
  8
_0-0_0
  6
CONTINUOUS
 62
    7
 10
-57.948868000000061
 20
758.60006700000008
 11
-57.892700000000104
 21
758.30944799999997
  0
LINE
  8
_0-0_0
  6
CONTINUOUS
 62
    7
 10
-57.892700000000104
 20
758.30944799999997
 11
-57.852538999999979
 21
758.11749299999997
  0
LINE
  8
_0-0_0
  6
CONTINUOUS
 62
    7
 10
-57.852538999999979
 20
758.11749299999997
 11
-57.768906000000015
 21
757.73800699999993
  0
LINE
  8
_0-0_0
  6
CONTINUOUS
 62
    7
 10
-57.768890000000056
 20
762.16204800000003
 11
-57.710098000000016
 21
762.40887500000008
  0
LINE
  8
_0-0_0
  6
CONTINUOUS
 62
    7
 10
-57.710098000000016
 20
762.40887500000008
 11
-57.660339000000022
 21
762.60119600000007
  0
LINE
  8
_0-0_0
  6
CONTINUOUS
 62
    7
 10
-57.660339000000022
 20
762.60119600000007
 11
-57.589218000000074
 21
762.86694299999999
  0
LINE
  8
_0-0_0
  6
CONTINUOUS
 62
    7
 10
-57.589218000000074
 20
762.86694299999999
 11
-57.556259000000068
 21
762.993652
  0
LINE
  8
_0-0_0
  6
CONTINUOUS
 62
    7
 10
-57.556259000000068
 20
762.993652
 11
-57.530991000000085
 21
763.09707600000002
  0
LINE
  8
_0-0_0
  6
CONTINUOUS
 62
    7
 10
-57.530991000000085
 20
763.09707600000002
 11
-57.508957000000009
 21
763.19705199999999
  0
LINE
  8
_0-0_0
  6
CONTINUOUS
 62
    7
 10
-57.508957000000009
 20
763.19705199999999
 11
-57.487579000000096
 21
763.31475799999998
  0
LINE
  8
_0-0_0
  6
CONTINUOUS
 62
    7
 10
-57.487579000000096
 20
763.31475799999998
 11
-57.479004000000032
 21
763.376892
  0
LINE
  8
_0-0_0
  6
CONTINUOUS
 62
    7
 10
-57.479004000000032
 20
763.376892
 11
-57.472931000000017
 21
763.4375
  0
LINE
  8
_0-0_0
  6
CONTINUOUS
 62
    7
 10
-57.472931000000017
 20
763.4375
 11
-57.469925000000103
 21
763.48672499999998
  0
LINE
  8
_0-0_0
  6
CONTINUOUS
 62
    7
 10
-57.469925000000103
 20
763.48672499999998
 11
-57.468903000000068
 21
763.534943
  0
LINE
  8
_0-0_0
  6
CONTINUOUS
 62
    7
 10
-57.468903000000068
 20
767.30847199999994
 11
-57.468903000000068
 21
763.95770300000004
  0
ARC
  8
_0-0_0
  6
CONTINUOUS
 62
    7
 10
-59.468903000000068
 20
767.30847199999994
 40
2
 50
0
 51
71.565000999999995
  0
CIRCLE
  8
_0-0_0
  6
CONTINUOUS
 62
    7
 10
-151.46890300000007
 20
765.25
 40
2.5
  0
CIRCLE
  8
_0-0_0
  6
CONTINUOUS
 62
    7
 10
-95.468903000000068
 20
765.25
 40
2.5
  0
LINE
  8
_0-0_0
  6
CONTINUOUS
 62
    7
 10
-172.06890900000008
 20
769.20886199999995
 11
-172.06890900000008
 21
766.25
  0
LINE
  8
_0-0_0
  6
CONTINUOUS
 62
    7
 10
-172.06890900000008
 20
770.25
 11
-172.06890900000008
 21
769.20886199999995
  0
LINE
  8
_0-0_0
  6
CONTINUOUS
 62
    7
 10
-42.468903000000068
 20
750.42456100000004
 11
-42.468903000000068
 21
750.57128899999998
  0
LINE
  8
_0-0_0
  6
CONTINUOUS
 62
    7
 10
-42.468903000000068
 20
750.23403899999994
 11
-42.468903000000068
 21
750.42456100000004
  0
LINE
  8
_0-0_0
  6
CONTINUOUS
 62
    7
 10
-42.468903000000068
 20
750.05902100000003
 11
-42.468903000000068
 21
750.23403899999994
  0
LINE
  8
_0-0_0
  6
CONTINUOUS
 62
    7
 10
-42.468903000000068
 20
749.90142800000001
 11
-42.468903000000068
 21
750.05902100000003
  0
LINE
  8
_0-0_0
  6
CONTINUOUS
 62
    7
 10
-42.468903000000068
 20
749.76299999999992
 11
-42.468903000000068
 21
749.90142800000001
  0
LINE
  8
_0-0_0
  6
CONTINUOUS
 62
    7
 10
-42.468903000000068
 20
749.64523299999996
 11
-42.468903000000068
 21
749.76299999999992
  0
LINE
  8
_0-0_0
  6
CONTINUOUS
 62
    7
 10
-42.468903000000068
 20
749.54943800000001
 11
-42.468903000000068
 21
749.64523299999996
  0
LINE
  8
_0-0_0
  6
CONTINUOUS
 62
    7
 10
-42.468903000000068
 20
749.40002400000003
 11
-42.468903000000068
 21
749.54943800000001
  0
LINE
  8
_0-0_0
  6
CONTINUOUS
 62
    7
 10
-42.468903000000068
 20
749.42770399999995
 11
-42.468903000000068
 21
749.47668499999997
  0
LINE
  8
_0-0_0
  6
CONTINUOUS
 62
    7
 10
-42.468903000000068
 20
749.40307600000006
 11
-42.468903000000068
 21
749.42770399999995
  0
LINE
  8
_0-0_0
  6
CONTINUOUS
 62
    7
 10
-42.468903000000068
 20
749.40002400000003
 11
-42.468903000000068
 21
749.40307600000006
  0
LINE
  8
_0-0_0
  6
CONTINUOUS
 62
    7
 10
-42.468903000000068
 20
753.89691199999993
 11
-42.468903000000068
 21
753.90002400000003
  0
LINE
  8
_0-0_0
  6
CONTINUOUS
 62
    7
 10
-42.468903000000068
 20
753.87231399999996
 11
-42.468903000000068
 21
753.89691199999993
  0
LINE
  8
_0-0_0
  6
CONTINUOUS
 62
    7
 10
-42.468903000000068
 20
753.82333399999993
 11
-42.468903000000068
 21
753.90002400000003
  0
LINE
  8
_0-0_0
  6
CONTINUOUS
 62
    7
 10
-42.468903000000068
 20
753.75054899999998
 11
-42.468903000000068
 21
753.82333399999993
  0
LINE
  8
_0-0_0
  6
CONTINUOUS
 62
    7
 10
-42.468903000000068
 20
753.65478499999995
 11
-42.468903000000068
 21
753.75054899999998
  0
LINE
  8
_0-0_0
  6
CONTINUOUS
 62
    7
 10
-42.468903000000068
 20
753.62457300000005
 11
-42.468903000000068
 21
753.65478499999995
  0
LINE
  8
_0-0_0
  6
CONTINUOUS
 62
    7
 10
-42.468903000000068
 20
753.53701799999999
 11
-42.468903000000068
 21
753.62457300000005
  0
LINE
  8
_0-0_0
  6
CONTINUOUS
 62
    7
 10
-42.468903000000068
 20
753.39859000000001
 11
-42.468903000000068
 21
753.53701799999999
  0
LINE
  8
_0-0_0
  6
CONTINUOUS
 62
    7
 10
-42.468903000000068
 20
753.24099699999999
 11
-42.468903000000068
 21
753.39859000000001
  0
LINE
  8
_0-0_0
  6
CONTINUOUS
 62
    7
 10
-42.468903000000068
 20
753.06597899999997
 11
-42.468903000000068
 21
753.24099699999999
  0
LINE
  8
_0-0_0
  6
CONTINUOUS
 62
    7
 10
-42.468903000000068
 20
752.87542699999995
 11
-42.468903000000068
 21
753.06597899999997
  0
LINE
  8
_0-0_0
  6
CONTINUOUS
 62
    7
 10
-42.468903000000068
 20
752.67147799999998
 11
-42.468903000000068
 21
752.87542699999995
  0
LINE
  8
_0-0_0
  6
CONTINUOUS
 62
    7
 10
-42.468903000000068
 20
752.45632899999998
 11
-42.468903000000068
 21
752.67147799999998
  0
LINE
  8
_0-0_0
  6
CONTINUOUS
 62
    7
 10
-42.468903000000068
 20
752.23236100000008
 11
-42.468903000000068
 21
752.45632899999998
  0
LINE
  8
_0-0_0
  6
CONTINUOUS
 62
    7
 10
-42.468903000000068
 20
752.00198399999999
 11
-42.468903000000068
 21
752.23236100000008
  0
LINE
  8
_0-0_0
  6
CONTINUOUS
 62
    7
 10
-42.468903000000068
 20
751.76776100000006
 11
-42.468903000000068
 21
752.00198399999999
  0
LINE
  8
_0-0_0
  6
CONTINUOUS
 62
    7
 10
-42.468903000000068
 20
751.53225700000007
 11
-42.468903000000068
 21
751.76776100000006
  0
LINE
  8
_0-0_0
  6
CONTINUOUS
 62
    7
 10
-42.468903000000068
 20
751.29803500000003
 11
-42.468903000000068
 21
751.53225700000007
  0
LINE
  8
_0-0_0
  6
CONTINUOUS
 62
    7
 10
-42.468903000000068
 20
751.06765700000005
 11
-42.468903000000068
 21
751.29803500000003
  0
LINE
  8
_0-0_0
  6
CONTINUOUS
 62
    7
 10
-42.468903000000068
 20
750.84368900000004
 11
-42.468903000000068
 21
751.06765700000005
  0
LINE
  8
_0-0_0
  6
CONTINUOUS
 62
    7
 10
-42.468903000000068
 20
750.62853999999993
 11
-42.468903000000068
 21
750.84368900000004
  0
LINE
  8
_0-0_0
  6
CONTINUOUS
 62
    7
 10
-42.468903000000068
 20
750.57128899999998
 11
-42.468903000000068
 21
750.62853999999993
  0
LINE
  8
_0-0_0
  6
CONTINUOUS
 62
    7
 10
-57.468903000000068
 20
758.38797
 11
-57.468903000000068
 21
757.34231599999998
  0
LINE
  8
_0-0_0
  6
CONTINUOUS
 62
    7
 10
-57.468903000000068
 20
756.05770899999993
 11
-57.468903000000068
 21
757.34231599999998
  0
LINE
  8
_0-0_0
  6
CONTINUOUS
 62
    7
 10
-57.468903000000068
 20
755.94232199999999
 11
-57.468903000000068
 21
756.05770899999993
  0
LINE
  8
_0-0_0
  6
CONTINUOUS
 62
    7
 10
-57.468903000000068
 20
758.38797
 11
-57.468903000000068
 21
761.51205400000003
  0
LINE
  8
_0-0_0
  6
CONTINUOUS
 62
    7
 10
-57.468903000000068
 20
763.95770300000004
 11
-57.468903000000068
 21
763.84231599999998
  0
LINE
  8
_0-0_0
  6
CONTINUOUS
 62
    7
 10
-57.468903000000068
 20
762.55770899999993
 11
-57.468903000000068
 21
763.84231599999998
  0
LINE
  8
_0-0_0
  6
CONTINUOUS
 62
    7
 10
-57.468903000000068
 20
762.55770899999993
 11
-57.468903000000068
 21
761.51205400000003
  0
LINE
  8
_0-0_0
  6
CONTINUOUS
 62
    7
 10
-57.468903000000068
 20
763.84231599999998
 11
-47.761077999999998
 21
763.84231599999998
  0
LINE
  8
_0-0_0
  6
CONTINUOUS
 62
    7
 10
-47.761077999999998
 20
766.45001200000002
 11
-47.706589000000008
 21
766.38006599999994
  0
LINE
  8
_0-0_0
  6
CONTINUOUS
 62
    7
 10
-47.706589000000008
 20
766.38006599999994
 11
-47.655486999999994
 21
766.31124899999998
  0
LINE
  8
_0-0_0
  6
CONTINUOUS
 62
    7
 10
-47.655486999999994
 20
766.31124899999998
 11
-47.607848999999987
 21
766.24374399999999
  0
LINE
  8
_0-0_0
  6
CONTINUOUS
 62
    7
 10
-47.607848999999987
 20
766.24374399999999
 11
-47.563355000000001
 21
766.17718500000001
  0
LINE
  8
_0-0_0
  6
CONTINUOUS
 62
    7
 10
-47.563355000000001
 20
766.17718500000001
 11
-47.508637000000022
 21
766.08966099999998
  0
LINE
  8
_0-0_0
  6
CONTINUOUS
 62
    7
 10
-47.508637000000022
 20
766.08966099999998
 11
-47.459121999999979
 21
766.00353999999993
  0
LINE
  8
_0-0_0
  6
CONTINUOUS
 62
    7
 10
-47.459121999999979
 20
766.00353999999993
 11
-47.414658000000031
 21
765.91870100000006
  0
LINE
  8
_0-0_0
  6
CONTINUOUS
 62
    7
 10
-47.414658000000031
 20
765.91870100000006
 11
-47.367691000000036
 21
765.81839000000002
  0
LINE
  8
_0-0_0
  6
CONTINUOUS
 62
    7
 10
-47.367691000000036
 20
765.81839000000002
 11
-47.327484000000027
 21
765.71948199999997
  0
LINE
  8
_0-0_0
  6
CONTINUOUS
 62
    7
 10
-47.327484000000027
 20
765.71948199999997
 11
-47.293822999999975
 21
765.62170400000002
  0
LINE
  8
_0-0_0
  6
CONTINUOUS
 62
    7
 10
-47.293822999999975
 20
765.62170400000002
 11
-47.266525000000001
 21
765.524902
  0
LINE
  8
_0-0_0
  6
CONTINUOUS
 62
    7
 10
-47.266525000000001
 20
765.524902
 11
-47.245483000000036
 21
765.42886399999998
  0
LINE
  8
_0-0_0
  6
CONTINUOUS
 62
    7
 10
-47.245483000000036
 20
765.42886399999998
 11
-47.22955300000001
 21
765.32501200000002
  0
LINE
  8
_0-0_0
  6
CONTINUOUS
 62
    7
 10
-47.22955300000001
 20
765.32501200000002
 11
-47.220795000000066
 21
765.221588
  0
LINE
  8
_0-0_0
  6
CONTINUOUS
 62
    7
 10
-47.220795000000066
 20
765.221588
 11
-47.219162000000097
 21
765.11834700000009
  0
LINE
  8
_0-0_0
  6
CONTINUOUS
 62
    7
 10
-47.219162000000097
 20
765.11834700000009
 11
-47.22462500000006
 21
765.01504499999999
  0
LINE
  8
_0-0_0
  6
CONTINUOUS
 62
    7
 10
-47.22462500000006
 20
765.01504499999999
 11
-47.237244000000032
 21
764.91146900000001
  0
LINE
  8
_0-0_0
  6
CONTINUOUS
 62
    7
 10
-47.237244000000032
 20
764.91146900000001
 11
-47.257050000000049
 21
764.80731200000002
  0
LINE
  8
_0-0_0
  6
CONTINUOUS
 62
    7
 10
-47.257050000000049
 20
764.80731200000002
 11
-47.284195000000068
 21
764.70236199999999
  0
LINE
  8
_0-0_0
  6
CONTINUOUS
 62
    7
 10
-47.284195000000068
 20
764.70236199999999
 11
-47.318848000000003
 21
764.59631300000001
  0
LINE
  8
_0-0_0
  6
CONTINUOUS
 62
    7
 10
-47.318848000000003
 20
764.59631300000001
 11
-47.361191000000076
 21
764.48895300000004
  0
LINE
  8
_0-0_0
  6
CONTINUOUS
 62
    7
 10
-47.361191000000076
 20
764.48895300000004
 11
-47.411514000000011
 21
764.37994400000002
  0
LINE
  8
_0-0_0
  6
CONTINUOUS
 62
    7
 10
-47.411514000000011
 20
764.37994400000002
 11
-47.465759000000048
 21
764.276794
  0
LINE
  8
_0-0_0
  6
CONTINUOUS
 62
    7
 10
-47.465759000000048
 20
764.276794
 11
-47.527466000000004
 21
764.17175300000008
  0
LINE
  8
_0-0_0
  6
CONTINUOUS
 62
    7
 10
-47.527466000000004
 20
764.17175300000008
 11
-47.596985000000018
 21
764.06451399999992
  0
LINE
  8
_0-0_0
  6
CONTINUOUS
 62
    7
 10
-47.596985000000018
 20
764.06451399999992
 11
-47.674698000000035
 21
763.95480300000008
  0
LINE
  8
_0-0_0
  6
CONTINUOUS
 62
    7
 10
-47.674698000000035
 20
763.95480300000008
 11
-47.761077999999998
 21
763.84231599999998
  0
LINE
  8
_0-0_0
  6
CONTINUOUS
 62
    7
 10
-57.468903000000068
 20
766.45001200000002
 11
-47.761077999999998
 21
766.45001200000002
  0
LINE
  8
_0-0_0
  6
CONTINUOUS
 62
    7
 10
-47.718903000000068
 20
766.45001200000002
 11
-47.761077999999998
 21
766.45001200000002
  0
LINE
  8
_0-0_0
  6
CONTINUOUS
 62
    7
 10
-57.468903000000068
 20
756.05770899999993
 11
-47.761077999999998
 21
756.05770899999993
  0
LINE
  8
_0-0_0
  6
CONTINUOUS
 62
    7
 10
-47.761077999999998
 20
756.05770899999993
 11
-47.706589000000008
 21
755.98776199999998
  0
LINE
  8
_0-0_0
  6
CONTINUOUS
 62
    7
 10
-47.706589000000008
 20
755.98776199999998
 11
-47.655486999999994
 21
755.91894500000001
  0
LINE
  8
_0-0_0
  6
CONTINUOUS
 62
    7
 10
-47.655486999999994
 20
755.91894500000001
 11
-47.607848999999987
 21
755.85144000000003
  0
LINE
  8
_0-0_0
  6
CONTINUOUS
 62
    7
 10
-47.607848999999987
 20
755.85144000000003
 11
-47.563355000000001
 21
755.78488199999993
  0
LINE
  8
_0-0_0
  6
CONTINUOUS
 62
    7
 10
-47.563355000000001
 20
755.78488199999993
 11
-47.508637000000022
 21
755.69735700000001
  0
LINE
  8
_0-0_0
  6
CONTINUOUS
 62
    7
 10
-47.508637000000022
 20
755.69735700000001
 11
-47.459121999999979
 21
755.61123700000007
  0
LINE
  8
_0-0_0
  6
CONTINUOUS
 62
    7
 10
-47.459121999999979
 20
755.61123700000007
 11
-47.414658000000031
 21
755.52642800000001
  0
LINE
  8
_0-0_0
  6
CONTINUOUS
 62
    7
 10
-47.414658000000031
 20
755.52642800000001
 11
-47.367691000000036
 21
755.42608599999994
  0
LINE
  8
_0-0_0
  6
CONTINUOUS
 62
    7
 10
-47.367691000000036
 20
755.42608599999994
 11
-47.327484000000027
 21
755.327179
  0
LINE
  8
_0-0_0
  6
CONTINUOUS
 62
    7
 10
-47.327484000000027
 20
755.327179
 11
-47.293822999999975
 21
755.22940100000005
  0
LINE
  8
_0-0_0
  6
CONTINUOUS
 62
    7
 10
-47.293822999999975
 20
755.22940100000005
 11
-47.266525000000001
 21
755.13259900000003
  0
LINE
  8
_0-0_0
  6
CONTINUOUS
 62
    7
 10
-47.266525000000001
 20
755.13259900000003
 11
-47.245483000000036
 21
755.03656000000001
  0
LINE
  8
_0-0_0
  6
CONTINUOUS
 62
    7
 10
-47.245483000000036
 20
755.03656000000001
 11
-47.22955300000001
 21
754.93270899999993
  0
LINE
  8
_0-0_0
  6
CONTINUOUS
 62
    7
 10
-47.22955300000001
 20
754.93270899999993
 11
-47.220795000000066
 21
754.82928500000003
  0
LINE
  8
_0-0_0
  6
CONTINUOUS
 62
    7
 10
-47.220795000000066
 20
754.82928500000003
 11
-47.219162000000097
 21
754.726044
  0
LINE
  8
_0-0_0
  6
CONTINUOUS
 62
    7
 10
-47.219162000000097
 20
754.726044
 11
-47.22462500000006
 21
754.62274200000002
  0
LINE
  8
_0-0_0
  6
CONTINUOUS
 62
    7
 10
-47.22462500000006
 20
754.62274200000002
 11
-47.237244000000032
 21
754.51916499999993
  0
LINE
  8
_0-0_0
  6
CONTINUOUS
 62
    7
 10
-47.237244000000032
 20
754.51916499999993
 11
-47.257050000000049
 21
754.41500900000005
  0
LINE
  8
_0-0_0
  6
CONTINUOUS
 62
    7
 10
-47.257050000000049
 20
754.41500900000005
 11
-47.284195000000068
 21
754.31005900000002
  0
LINE
  8
_0-0_0
  6
CONTINUOUS
 62
    7
 10
-47.284195000000068
 20
754.31005900000002
 11
-47.318848000000003
 21
754.20400999999993
  0
LINE
  8
_0-0_0
  6
CONTINUOUS
 62
    7
 10
-47.318848000000003
 20
754.20400999999993
 11
-47.361191000000076
 21
754.09661899999992
  0
LINE
  8
_0-0_0
  6
CONTINUOUS
 62
    7
 10
-47.361191000000076
 20
754.09661899999992
 11
-47.411514000000011
 21
753.98764000000006
  0
LINE
  8
_0-0_0
  6
CONTINUOUS
 62
    7
 10
-47.411514000000011
 20
753.98764000000006
 11
-47.45719900000006
 21
753.89996300000007
  0
LINE
  8
_0-0_0
  6
CONTINUOUS
 62
    7
 10
-42.468903000000068
 20
750.42456100000004
 11
-42.218903000000068
 21
750.40002400000003
  0
LINE
  8
_0-0_0
  6
CONTINUOUS
 62
    7
 10
-42.468903000000068
 20
750.62853999999993
 11
-42.218903000000068
 21
750.40002400000003
  0
LINE
  8
_0-0_0
  6
CONTINUOUS
 62
    7
 10
-42.468903000000068
 20
750.23403899999994
 11
-42.218903000000068
 21
750.18054200000006
  0
LINE
  8
_0-0_0
  6
CONTINUOUS
 62
    7
 10
-42.468903000000068
 20
750.42456100000004
 11
-42.218903000000068
 21
750.18054200000006
  0
LINE
  8
_0-0_0
  6
CONTINUOUS
 62
    7
 10
-42.468903000000068
 20
750.05902100000003
 11
-42.218903000000068
 21
749.97717299999999
  0
LINE
  8
_0-0_0
  6
CONTINUOUS
 62
    7
 10
-42.468903000000068
 20
750.23403899999994
 11
-42.218903000000068
 21
749.97717299999999
  0
LINE
  8
_0-0_0
  6
CONTINUOUS
 62
    7
 10
-42.468903000000068
 20
749.90142800000001
 11
-42.218903000000068
 21
749.792145
  0
LINE
  8
_0-0_0
  6
CONTINUOUS
 62
    7
 10
-42.468903000000068
 20
750.05902100000003
 11
-42.218903000000068
 21
749.792145
  0
LINE
  8
_0-0_0
  6
CONTINUOUS
 62
    7
 10
-42.468903000000068
 20
749.76299999999992
 11
-42.218903000000068
 21
749.62747200000001
  0
LINE
  8
_0-0_0
  6
CONTINUOUS
 62
    7
 10
-42.468903000000068
 20
749.90142800000001
 11
-42.218903000000068
 21
749.62747200000001
  0
LINE
  8
_0-0_0
  6
CONTINUOUS
 62
    7
 10
-42.468903000000068
 20
749.64523299999996
 11
-42.218903000000068
 21
749.48495500000001
  0
LINE
  8
_0-0_0
  6
CONTINUOUS
 62
    7
 10
-42.468903000000068
 20
749.76299999999992
 11
-42.218903000000068
 21
749.48495500000001
  0
LINE
  8
_0-0_0
  6
CONTINUOUS
 62
    7
 10
-42.468903000000068
 20
749.54943800000001
 11
-42.218903000000068
 21
749.36615000000006
  0
LINE
  8
_0-0_0
  6
CONTINUOUS
 62
    7
 10
-42.468903000000068
 20
749.64523299999996
 11
-42.218903000000068
 21
749.36615000000006
  0
LINE
  8
_0-0_0
  6
CONTINUOUS
 62
    7
 10
-42.468903000000068
 20
749.47668499999997
 11
-42.218903000000068
 21
749.27236900000003
  0
LINE
  8
_0-0_0
  6
CONTINUOUS
 62
    7
 10
-42.468903000000068
 20
749.54943800000001
 11
-42.218903000000068
 21
749.27236900000003
  0
LINE
  8
_0-0_0
  6
CONTINUOUS
 62
    7
 10
-42.468903000000068
 20
749.42770399999995
 11
-42.218903000000068
 21
749.20465100000001
  0
LINE
  8
_0-0_0
  6
CONTINUOUS
 62
    7
 10
-42.468903000000068
 20
749.47668499999997
 11
-42.218903000000068
 21
749.20465100000001
  0
LINE
  8
_0-0_0
  6
CONTINUOUS
 62
    7
 10
-42.468903000000068
 20
749.40307600000006
 11
-42.218903000000068
 21
749.16369600000007
  0
LINE
  8
_0-0_0
  6
CONTINUOUS
 62
    7
 10
-42.468903000000068
 20
749.42770399999995
 11
-42.218903000000068
 21
749.16369600000007
  0
LINE
  8
_0-0_0
  6
CONTINUOUS
 62
    7
 10
-42.468903000000068
 20
749.40307600000006
 11
-42.218903000000068
 21
749.15002400000003
  0
LINE
  8
_0-0_0
  6
CONTINUOUS
 62
    7
 10
-42.468903000000068
 20
753.89691199999993
 11
-42.218903000000068
 21
754.15002400000003
  0
LINE
  8
_0-0_0
  6
CONTINUOUS
 62
    7
 10
-42.468903000000068
 20
753.87231399999996
 11
-42.218903000000068
 21
754.13632200000006
  0
LINE
  8
_0-0_0
  6
CONTINUOUS
 62
    7
 10
-42.468903000000068
 20
753.89691199999993
 11
-42.218903000000068
 21
754.13632200000006
  0
LINE
  8
_0-0_0
  6
CONTINUOUS
 62
    7
 10
-42.468903000000068
 20
753.82333399999993
 11
-42.218903000000068
 21
754.09536700000001
  0
LINE
  8
_0-0_0
  6
CONTINUOUS
 62
    7
 10
-42.468903000000068
 20
753.87231399999996
 11
-42.218903000000068
 21
754.09536700000001
  0
LINE
  8
_0-0_0
  6
CONTINUOUS
 62
    7
 10
-42.468903000000068
 20
753.75054899999998
 11
-42.218903000000068
 21
754.027649
  0
LINE
  8
_0-0_0
  6
CONTINUOUS
 62
    7
 10
-42.468903000000068
 20
753.82333399999993
 11
-42.218903000000068
 21
754.027649
  0
LINE
  8
_0-0_0
  6
CONTINUOUS
 62
    7
 10
-42.468903000000068
 20
753.65478499999995
 11
-42.218903000000068
 21
753.93386800000007
  0
LINE
  8
_0-0_0
  6
CONTINUOUS
 62
    7
 10
-42.468903000000068
 20
753.75054899999998
 11
-42.218903000000068
 21
753.93386800000007
  0
LINE
  8
_0-0_0
  6
CONTINUOUS
 62
    7
 10
-42.468903000000068
 20
753.65478499999995
 11
-42.33892800000001
 21
753.73861699999998
  0
LINE
  8
_0-0_0
  6
CONTINUOUS
 62
    7
 10
-42.468903000000068
 20
753.53701799999999
 11
-42.218903000000068
 21
753.81506300000001
  0
LINE
  8
_0-0_0
  6
CONTINUOUS
 62
    7
 10
-42.33892800000001
 20
753.73861699999998
 11
-42.218903000000068
 21
753.81506300000001
  0
LINE
  8
_0-0_0
  6
CONTINUOUS
 62
    7
 10
-42.468903000000068
 20
753.39859000000001
 11
-42.218903000000068
 21
753.67254600000001
  0
LINE
  8
_0-0_0
  6
CONTINUOUS
 62
    7
 10
-42.468903000000068
 20
753.53701799999999
 11
-42.218903000000068
 21
753.67254600000001
  0
LINE
  8
_0-0_0
  6
CONTINUOUS
 62
    7
 10
-42.468903000000068
 20
753.24099699999999
 11
-42.218903000000068
 21
753.50787400000002
  0
LINE
  8
_0-0_0
  6
CONTINUOUS
 62
    7
 10
-42.468903000000068
 20
753.39859000000001
 11
-42.218903000000068
 21
753.50787400000002
  0
LINE
  8
_0-0_0
  6
CONTINUOUS
 62
    7
 10
-42.468903000000068
 20
753.06597899999997
 11
-42.218903000000068
 21
753.32284499999992
  0
LINE
  8
_0-0_0
  6
CONTINUOUS
 62
    7
 10
-42.468903000000068
 20
753.24099699999999
 11
-42.218903000000068
 21
753.32284499999992
  0
LINE
  8
_0-0_0
  6
CONTINUOUS
 62
    7
 10
-42.468903000000068
 20
752.87542699999995
 11
-42.218903000000068
 21
753.11947600000008
  0
LINE
  8
_0-0_0
  6
CONTINUOUS
 62
    7
 10
-42.468903000000068
 20
753.06597899999997
 11
-42.218903000000068
 21
753.11947600000008
  0
LINE
  8
_0-0_0
  6
CONTINUOUS
 62
    7
 10
-42.468903000000068
 20
752.67147799999998
 11
-42.218903000000068
 21
752.90002400000003
  0
LINE
  8
_0-0_0
  6
CONTINUOUS
 62
    7
 10
-42.468903000000068
 20
752.87542699999995
 11
-42.218903000000068
 21
752.90002400000003
  0
LINE
  8
_0-0_0
  6
CONTINUOUS
 62
    7
 10
-42.468903000000068
 20
752.45632899999998
 11
-42.218903000000068
 21
752.66683999999998
  0
LINE
  8
_0-0_0
  6
CONTINUOUS
 62
    7
 10
-42.468903000000068
 20
752.67147799999998
 11
-42.218903000000068
 21
752.66683999999998
  0
LINE
  8
_0-0_0
  6
CONTINUOUS
 62
    7
 10
-42.468903000000068
 20
752.23236100000008
 11
-42.218903000000068
 21
752.42254600000001
  0
LINE
  8
_0-0_0
  6
CONTINUOUS
 62
    7
 10
-42.468903000000068
 20
752.45632899999998
 11
-42.218903000000068
 21
752.42254600000001
  0
LINE
  8
_0-0_0
  6
CONTINUOUS
 62
    7
 10
-42.468903000000068
 20
752.00198399999999
 11
-42.218903000000068
 21
752.16980000000001
  0
LINE
  8
_0-0_0
  6
CONTINUOUS
 62
    7
 10
-42.468903000000068
 20
752.23236100000008
 11
-42.218903000000068
 21
752.16980000000001
  0
LINE
  8
_0-0_0
  6
CONTINUOUS
 62
    7
 10
-42.468903000000068
 20
751.76776100000006
 11
-42.218903000000068
 21
751.91131599999994
  0
LINE
  8
_0-0_0
  6
CONTINUOUS
 62
    7
 10
-42.468903000000068
 20
752.00198399999999
 11
-42.218903000000068
 21
751.91131599999994
  0
LINE
  8
_0-0_0
  6
CONTINUOUS
 62
    7
 10
-42.468903000000068
 20
751.53225700000007
 11
-42.218903000000068
 21
751.65002400000003
  0
LINE
  8
_0-0_0
  6
CONTINUOUS
 62
    7
 10
-42.468903000000068
 20
751.76776100000006
 11
-42.218903000000068
 21
751.65002400000003
  0
LINE
  8
_0-0_0
  6
CONTINUOUS
 62
    7
 10
-42.468903000000068
 20
751.29803500000003
 11
-42.218903000000068
 21
751.38867200000004
  0
LINE
  8
_0-0_0
  6
CONTINUOUS
 62
    7
 10
-42.468903000000068
 20
751.53225700000007
 11
-42.218903000000068
 21
751.38867200000004
  0
LINE
  8
_0-0_0
  6
CONTINUOUS
 62
    7
 10
-42.468903000000068
 20
751.06765700000005
 11
-42.218903000000068
 21
751.13021900000001
  0
LINE
  8
_0-0_0
  6
CONTINUOUS
 62
    7
 10
-42.468903000000068
 20
751.29803500000003
 11
-42.218903000000068
 21
751.13021900000001
  0
LINE
  8
_0-0_0
  6
CONTINUOUS
 62
    7
 10
-42.468903000000068
 20
750.84368900000004
 11
-42.218903000000068
 21
750.87747200000001
  0
LINE
  8
_0-0_0
  6
CONTINUOUS
 62
    7
 10
-42.468903000000068
 20
751.06765700000005
 11
-42.218903000000068
 21
750.87747200000001
  0
LINE
  8
_0-0_0
  6
CONTINUOUS
 62
    7
 10
-42.468903000000068
 20
750.62853999999993
 11
-42.218903000000068
 21
750.63317899999993
  0
LINE
  8
_0-0_0
  6
CONTINUOUS
 62
    7
 10
-42.468903000000068
 20
750.84368900000004
 11
-42.218903000000068
 21
750.63317899999993
  0
LINE
  8
_0-0_0
  6
CONTINUOUS
 62
    7
 10
-57.468903000000068
 20
757.34231599999998
 11
-47.761077999999998
 21
757.34231599999998
  0
LINE
  8
_0-0_0
  6
CONTINUOUS
 62
    7
 10
-47.761077999999998
 20
757.34231599999998
 11
-47.666748000000098
 21
757.58892800000001
  0
LINE
  8
_0-0_0
  6
CONTINUOUS
 62
    7
 10
-47.666748000000098
 20
757.58892800000001
 11
-47.582794000000035
 21
757.82891799999993
  0
LINE
  8
_0-0_0
  6
CONTINUOUS
 62
    7
 10
-47.582794000000035
 20
757.82891799999993
 11
-47.508637000000022
 21
758.06301899999994
  0
LINE
  8
_0-0_0
  6
CONTINUOUS
 62
    7
 10
-47.508637000000022
 20
758.06301899999994
 11
-47.443756000000008
 21
758.29205300000001
  0
LINE
  8
_0-0_0
  6
CONTINUOUS
 62
    7
 10
-47.443756000000008
 20
758.29205300000001
 11
-47.387711000000081
 21
758.51672400000007
  0
LINE
  8
_0-0_0
  6
CONTINUOUS
 62
    7
 10
-47.387711000000081
 20
758.51672400000007
 11
-47.34014900000011
 21
758.73770100000002
  0
LINE
  8
_0-0_0
  6
CONTINUOUS
 62
    7
 10
-47.34014900000011
 20
758.73770100000002
 11
-47.300750999999991
 21
758.95562700000005
  0
LINE
  8
_0-0_0
  6
CONTINUOUS
 62
    7
 10
-47.300750999999991
 20
758.95562700000005
 11
-47.269257000000039
 21
759.17108200000007
  0
LINE
  8
_0-0_0
  6
CONTINUOUS
 62
    7
 10
-47.269257000000039
 20
759.17108200000007
 11
-47.245483000000036
 21
759.38461299999994
  0
LINE
  8
_0-0_0
  6
CONTINUOUS
 62
    7
 10
-47.245483000000036
 20
759.38461299999994
 11
-47.22955300000001
 21
759.59231599999998
  0
LINE
  8
_0-0_0
  6
CONTINUOUS
 62
    7
 10
-47.22955300000001
 20
759.59231599999998
 11
-47.220795000000066
 21
759.79916400000002
  0
LINE
  8
_0-0_0
  6
CONTINUOUS
 62
    7
 10
-47.220795000000066
 20
759.79916400000002
 11
-47.219162000000097
 21
760.00564600000007
  0
LINE
  8
_0-0_0
  6
CONTINUOUS
 62
    7
 10
-47.219162000000097
 20
760.00564600000007
 11
-47.22462500000006
 21
760.212219
  0
LINE
  8
_0-0_0
  6
CONTINUOUS
 62
    7
 10
-47.22462500000006
 20
760.212219
 11
-47.237244000000032
 21
760.41940299999999
  0
LINE
  8
_0-0_0
  6
CONTINUOUS
 62
    7
 10
-47.237244000000032
 20
760.41940299999999
 11
-47.257050000000049
 21
760.62771599999996
  0
LINE
  8
_0-0_0
  6
CONTINUOUS
 62
    7
 10
-47.257050000000049
 20
760.62771599999996
 11
-47.284195000000068
 21
760.83761600000003
  0
LINE
  8
_0-0_0
  6
CONTINUOUS
 62
    7
 10
-47.284195000000068
 20
760.83761600000003
 11
-47.318848000000003
 21
761.04968299999996
  0
LINE
  8
_0-0_0
  6
CONTINUOUS
 62
    7
 10
-47.318848000000003
 20
761.04968299999996
 11
-47.361191000000076
 21
761.26443500000005
  0
LINE
  8
_0-0_0
  6
CONTINUOUS
 62
    7
 10
-47.361191000000076
 20
761.26443500000005
 11
-47.411514000000011
 21
761.48245199999997
  0
LINE
  8
_0-0_0
  6
CONTINUOUS
 62
    7
 10
-47.411514000000011
 20
761.48245199999997
 11
-47.465759000000048
 21
761.68872099999999
  0
LINE
  8
_0-0_0
  6
CONTINUOUS
 62
    7
 10
-47.465759000000048
 20
761.68872099999999
 11
-47.527466000000004
 21
761.89883400000008
  0
LINE
  8
_0-0_0
  6
CONTINUOUS
 62
    7
 10
-47.527466000000004
 20
761.89883400000008
 11
-47.596985000000018
 21
762.11331199999995
  0
LINE
  8
_0-0_0
  6
CONTINUOUS
 62
    7
 10
-47.596985000000018
 20
762.11331199999995
 11
-47.674698000000035
 21
762.33273299999996
  0
LINE
  8
_0-0_0
  6
CONTINUOUS
 62
    7
 10
-47.674698000000035
 20
762.33273299999996
 11
-47.761077999999998
 21
762.55770899999993
  0
LINE
  8
_0-0_0
  6
CONTINUOUS
 62
    7
 10
-57.468903000000068
 20
762.55770899999993
 11
-47.761077999999998
 21
762.55770899999993
  0
ARC
  8
_0-0_0
  6
CONTINUOUS
 62
    7
 10
-52.632629000000065
 20
756.70001200000002
 40
4.9136889999999998
 50
352.48898799999995
 51
7.5110139999999577
  0
ARC
  8
_0-0_0
  6
CONTINUOUS
 62
    7
 10
-52.6427920000001
 20
763.20089699999994
 40
4.9238749999999998
 50
352.49423299999995
 51
1.5359699999999901
  0
ARC
  8
_0-0_0
  6
CONTINUOUS
 62
    7
 10
-52.680817000000047
 20
763.19595299999992
 40
4.9620009999999999
 50
1.5813010000000001
 51
7.4847919999999997
  0
LINE
  8
_0-0_0
  6
CONTINUOUS
 62
    7
 10
-46.468903000000068
 20
762.68154900000002
 11
-46.468903000000068
 21
765.20001200000002
  0
LINE
  8
_0-0_0
  6
CONTINUOUS
 62
    7
 10
-46.468903000000068
 20
754.70001200000002
 11
-46.468903000000068
 21
762.68154900000002
  0
LINE
  8
_0-0_0
  6
CONTINUOUS
 62
    7
 10
-32.718903000000068
 20
750.42456100000004
 11
-32.968903000000068
 21
750.40002400000003
  0
LINE
  8
_0-0_0
  6
CONTINUOUS
 62
    7
 10
-32.968903000000068
 20
750.40002400000003
 11
-42.218903000000068
 21
750.40002400000003
  0
LINE
  8
_0-0_0
  6
CONTINUOUS
 62
    7
 10
-32.718903000000068
 20
750.62853999999993
 11
-32.968903000000068
 21
750.40002400000003
  0
LINE
  8
_0-0_0
  6
CONTINUOUS
 62
    7
 10
-32.718903000000068
 20
750.62853999999993
 11
-42.468903000000068
 21
750.62853999999993
  0
LINE
  8
_0-0_0
  6
CONTINUOUS
 62
    7
 10
-32.718903000000068
 20
750.23403899999994
 11
-32.968903000000068
 21
750.18054200000006
  0
LINE
  8
_0-0_0
  6
CONTINUOUS
 62
    7
 10
-32.968903000000068
 20
750.18054200000006
 11
-42.218903000000068
 21
750.18054200000006
  0
LINE
  8
_0-0_0
  6
CONTINUOUS
 62
    7
 10
-32.718903000000068
 20
750.42456100000004
 11
-32.968903000000068
 21
750.18054200000006
  0
LINE
  8
_0-0_0
  6
CONTINUOUS
 62
    7
 10
-32.718903000000068
 20
750.05902100000003
 11
-32.968903000000068
 21
749.97717299999999
  0
LINE
  8
_0-0_0
  6
CONTINUOUS
 62
    7
 10
-32.968903000000068
 20
749.97717299999999
 11
-42.218903000000068
 21
749.97717299999999
  0
LINE
  8
_0-0_0
  6
CONTINUOUS
 62
    7
 10
-32.718903000000068
 20
750.23403899999994
 11
-32.968903000000068
 21
749.97717299999999
  0
LINE
  8
_0-0_0
  6
CONTINUOUS
 62
    7
 10
-32.718903000000068
 20
749.90142800000001
 11
-32.968903000000068
 21
749.792145
  0
LINE
  8
_0-0_0
  6
CONTINUOUS
 62
    7
 10
-32.968903000000068
 20
749.792145
 11
-42.218903000000068
 21
749.792145
  0
LINE
  8
_0-0_0
  6
CONTINUOUS
 62
    7
 10
-32.718903000000068
 20
750.05902100000003
 11
-32.968903000000068
 21
749.792145
  0
LINE
  8
_0-0_0
  6
CONTINUOUS
 62
    7
 10
-32.718903000000068
 20
749.76299999999992
 11
-32.968903000000068
 21
749.62747200000001
  0
LINE
  8
_0-0_0
  6
CONTINUOUS
 62
    7
 10
-32.968903000000068
 20
749.62747200000001
 11
-42.218903000000068
 21
749.62747200000001
  0
LINE
  8
_0-0_0
  6
CONTINUOUS
 62
    7
 10
-32.718903000000068
 20
749.90142800000001
 11
-32.968903000000068
 21
749.62747200000001
  0
LINE
  8
_0-0_0
  6
CONTINUOUS
 62
    7
 10
-32.718903000000068
 20
749.64523299999996
 11
-32.968903000000068
 21
749.48495500000001
  0
LINE
  8
_0-0_0
  6
CONTINUOUS
 62
    7
 10
-32.968903000000068
 20
749.48495500000001
 11
-42.218903000000068
 21
749.48495500000001
  0
LINE
  8
_0-0_0
  6
CONTINUOUS
 62
    7
 10
-32.718903000000068
 20
749.76299999999992
 11
-32.968903000000068
 21
749.48495500000001
  0
LINE
  8
_0-0_0
  6
CONTINUOUS
 62
    7
 10
-32.718903000000068
 20
749.54943800000001
 11
-32.968903000000068
 21
749.36615000000006
  0
LINE
  8
_0-0_0
  6
CONTINUOUS
 62
    7
 10
-32.968903000000068
 20
749.36615000000006
 11
-42.218903000000068
 21
749.36615000000006
  0
LINE
  8
_0-0_0
  6
CONTINUOUS
 62
    7
 10
-32.718903000000068
 20
749.64523299999996
 11
-32.968903000000068
 21
749.36615000000006
  0
LINE
  8
_0-0_0
  6
CONTINUOUS
 62
    7
 10
-32.718903000000068
 20
749.47668499999997
 11
-32.968903000000068
 21
749.27236900000003
  0
LINE
  8
_0-0_0
  6
CONTINUOUS
 62
    7
 10
-32.968903000000068
 20
749.27236900000003
 11
-42.218903000000068
 21
749.27236900000003
  0
LINE
  8
_0-0_0
  6
CONTINUOUS
 62
    7
 10
-32.718903000000068
 20
749.54943800000001
 11
-32.968903000000068
 21
749.27236900000003
  0
LINE
  8
_0-0_0
  6
CONTINUOUS
 62
    7
 10
-32.718903000000068
 20
749.42770399999995
 11
-32.968903000000068
 21
749.20465100000001
  0
LINE
  8
_0-0_0
  6
CONTINUOUS
 62
    7
 10
-32.968903000000068
 20
749.20465100000001
 11
-42.218903000000068
 21
749.20465100000001
  0
LINE
  8
_0-0_0
  6
CONTINUOUS
 62
    7
 10
-32.718903000000068
 20
749.47668499999997
 11
-32.968903000000068
 21
749.20465100000001
  0
LINE
  8
_0-0_0
  6
CONTINUOUS
 62
    7
 10
-32.718903000000068
 20
749.40307600000006
 11
-32.968903000000068
 21
749.16369600000007
  0
LINE
  8
_0-0_0
  6
CONTINUOUS
 62
    7
 10
-32.968903000000068
 20
749.16369600000007
 11
-42.218903000000068
 21
749.16369600000007
  0
LINE
  8
_0-0_0
  6
CONTINUOUS
 62
    7
 10
-32.718903000000068
 20
749.42770399999995
 11
-32.968903000000068
 21
749.16369600000007
  0
LINE
  8
_0-0_0
  6
CONTINUOUS
 62
    7
 10
-32.968903000000068
 20
749.15002400000003
 11
-42.218903000000068
 21
749.15002400000003
  0
LINE
  8
_0-0_0
  6
CONTINUOUS
 62
    7
 10
-32.718903000000068
 20
749.40307600000006
 11
-32.968903000000068
 21
749.15002400000003
  0
LINE
  8
_0-0_0
  6
CONTINUOUS
 62
    7
 10
-32.718903000000068
 20
753.89691199999993
 11
-32.968903000000068
 21
754.15002400000003
  0
LINE
  8
_0-0_0
  6
CONTINUOUS
 62
    7
 10
-32.968903000000068
 20
754.15002400000003
 11
-42.218903000000068
 21
754.15002400000003
  0
LINE
  8
_0-0_0
  6
CONTINUOUS
 62
    7
 10
-32.718903000000068
 20
753.87231399999996
 11
-32.968903000000068
 21
754.13632200000006
  0
LINE
  8
_0-0_0
  6
CONTINUOUS
 62
    7
 10
-32.968903000000068
 20
754.13632200000006
 11
-42.218903000000068
 21
754.13632200000006
  0
LINE
  8
_0-0_0
  6
CONTINUOUS
 62
    7
 10
-32.718903000000068
 20
753.89691199999993
 11
-32.968903000000068
 21
754.13632200000006
  0
LINE
  8
_0-0_0
  6
CONTINUOUS
 62
    7
 10
-32.718903000000068
 20
753.82333399999993
 11
-32.968903000000068
 21
754.09536700000001
  0
LINE
  8
_0-0_0
  6
CONTINUOUS
 62
    7
 10
-32.968903000000068
 20
754.09536700000001
 11
-42.218903000000068
 21
754.09536700000001
  0
LINE
  8
_0-0_0
  6
CONTINUOUS
 62
    7
 10
-32.718903000000068
 20
753.87231399999996
 11
-32.968903000000068
 21
754.09536700000001
  0
LINE
  8
_0-0_0
  6
CONTINUOUS
 62
    7
 10
-32.718903000000068
 20
753.75054899999998
 11
-32.968903000000068
 21
754.027649
  0
LINE
  8
_0-0_0
  6
CONTINUOUS
 62
    7
 10
-32.968903000000068
 20
754.027649
 11
-42.218903000000068
 21
754.027649
  0
LINE
  8
_0-0_0
  6
CONTINUOUS
 62
    7
 10
-32.718903000000068
 20
753.82333399999993
 11
-32.968903000000068
 21
754.027649
  0
LINE
  8
_0-0_0
  6
CONTINUOUS
 62
    7
 10
-32.718903000000068
 20
753.65478499999995
 11
-32.968903000000068
 21
753.93386800000007
  0
LINE
  8
_0-0_0
  6
CONTINUOUS
 62
    7
 10
-32.968903000000068
 20
753.93386800000007
 11
-42.218903000000068
 21
753.93386800000007
  0
LINE
  8
_0-0_0
  6
CONTINUOUS
 62
    7
 10
-32.718903000000068
 20
753.75054899999998
 11
-32.968903000000068
 21
753.93386800000007
  0
LINE
  8
_0-0_0
  6
CONTINUOUS
 62
    7
 10
-32.968903000000068
 20
753.81506300000001
 11
-42.218903000000068
 21
753.81506300000001
  0
LINE
  8
_0-0_0
  6
CONTINUOUS
 62
    7
 10
-32.848862000000054
 20
753.73861699999998
 11
-32.968903000000068
 21
753.81506300000001
  0
LINE
  8
_0-0_0
  6
CONTINUOUS
 62
    7
 10
-32.718903000000068
 20
753.65478499999995
 11
-32.848862000000054
 21
753.73861699999998
  0
LINE
  8
_0-0_0
  6
CONTINUOUS
 62
    7
 10
-32.718903000000068
 20
753.53701799999999
 11
-32.968903000000068
 21
753.81506300000001
  0
LINE
  8
_0-0_0
  6
CONTINUOUS
 62
    7
 10
-32.718903000000068
 20
753.39859000000001
 11
-32.968903000000068
 21
753.67254600000001
  0
LINE
  8
_0-0_0
  6
CONTINUOUS
 62
    7
 10
-32.968903000000068
 20
753.67254600000001
 11
-42.218903000000068
 21
753.67254600000001
  0
LINE
  8
_0-0_0
  6
CONTINUOUS
 62
    7
 10
-32.718903000000068
 20
753.53701799999999
 11
-32.968903000000068
 21
753.67254600000001
  0
LINE
  8
_0-0_0
  6
CONTINUOUS
 62
    7
 10
-32.718903000000068
 20
753.24099699999999
 11
-32.968903000000068
 21
753.50787400000002
  0
LINE
  8
_0-0_0
  6
CONTINUOUS
 62
    7
 10
-32.968903000000068
 20
753.50787400000002
 11
-42.218903000000068
 21
753.50787400000002
  0
LINE
  8
_0-0_0
  6
CONTINUOUS
 62
    7
 10
-32.718903000000068
 20
753.39859000000001
 11
-32.968903000000068
 21
753.50787400000002
  0
LINE
  8
_0-0_0
  6
CONTINUOUS
 62
    7
 10
-32.718903000000068
 20
753.06597899999997
 11
-32.968903000000068
 21
753.32284499999992
  0
LINE
  8
_0-0_0
  6
CONTINUOUS
 62
    7
 10
-32.968903000000068
 20
753.32284499999992
 11
-42.218903000000068
 21
753.32284499999992
  0
LINE
  8
_0-0_0
  6
CONTINUOUS
 62
    7
 10
-32.718903000000068
 20
753.24099699999999
 11
-32.968903000000068
 21
753.32284499999992
  0
LINE
  8
_0-0_0
  6
CONTINUOUS
 62
    7
 10
-32.718903000000068
 20
752.87542699999995
 11
-32.968903000000068
 21
753.11947600000008
  0
LINE
  8
_0-0_0
  6
CONTINUOUS
 62
    7
 10
-32.968903000000068
 20
753.11947600000008
 11
-42.218903000000068
 21
753.11947600000008
  0
LINE
  8
_0-0_0
  6
CONTINUOUS
 62
    7
 10
-32.718903000000068
 20
753.06597899999997
 11
-32.968903000000068
 21
753.11947600000008
  0
LINE
  8
_0-0_0
  6
CONTINUOUS
 62
    7
 10
-32.718903000000068
 20
752.67147799999998
 11
-32.968903000000068
 21
752.90002400000003
  0
LINE
  8
_0-0_0
  6
CONTINUOUS
 62
    7
 10
-32.968903000000068
 20
752.90002400000003
 11
-42.218903000000068
 21
752.90002400000003
  0
LINE
  8
_0-0_0
  6
CONTINUOUS
 62
    7
 10
-32.718903000000068
 20
752.67147799999998
 11
-42.468903000000068
 21
752.67147799999998
  0
LINE
  8
_0-0_0
  6
CONTINUOUS
 62
    7
 10
-32.718903000000068
 20
752.87542699999995
 11
-32.968903000000068
 21
752.90002400000003
  0
LINE
  8
_0-0_0
  6
CONTINUOUS
 62
    7
 10
-32.718903000000068
 20
752.45632899999998
 11
-32.968903000000068
 21
752.66683999999998
  0
LINE
  8
_0-0_0
  6
CONTINUOUS
 62
    7
 10
-32.968903000000068
 20
752.66683999999998
 11
-42.218903000000068
 21
752.66683999999998
  0
LINE
  8
_0-0_0
  6
CONTINUOUS
 62
    7
 10
-32.718903000000068
 20
752.45632899999998
 11
-42.468903000000068
 21
752.45632899999998
  0
LINE
  8
_0-0_0
  6
CONTINUOUS
 62
    7
 10
-32.718903000000068
 20
752.67147799999998
 11
-32.968903000000068
 21
752.66683999999998
  0
LINE
  8
_0-0_0
  6
CONTINUOUS
 62
    7
 10
-32.718903000000068
 20
752.23236100000008
 11
-32.968903000000068
 21
752.42254600000001
  0
LINE
  8
_0-0_0
  6
CONTINUOUS
 62
    7
 10
-32.968903000000068
 20
752.42254600000001
 11
-42.218903000000068
 21
752.42254600000001
  0
LINE
  8
_0-0_0
  6
CONTINUOUS
 62
    7
 10
-32.718903000000068
 20
752.23236100000008
 11
-42.468903000000068
 21
752.23236100000008
  0
LINE
  8
_0-0_0
  6
CONTINUOUS
 62
    7
 10
-32.718903000000068
 20
752.45632899999998
 11
-32.968903000000068
 21
752.42254600000001
  0
LINE
  8
_0-0_0
  6
CONTINUOUS
 62
    7
 10
-32.718903000000068
 20
752.00198399999999
 11
-32.968903000000068
 21
752.16980000000001
  0
LINE
  8
_0-0_0
  6
CONTINUOUS
 62
    7
 10
-32.968903000000068
 20
752.16980000000001
 11
-42.218903000000068
 21
752.16980000000001
  0
LINE
  8
_0-0_0
  6
CONTINUOUS
 62
    7
 10
-32.718903000000068
 20
752.00198399999999
 11
-42.468903000000068
 21
752.00198399999999
  0
LINE
  8
_0-0_0
  6
CONTINUOUS
 62
    7
 10
-32.718903000000068
 20
752.23236100000008
 11
-32.968903000000068
 21
752.16980000000001
  0
LINE
  8
_0-0_0
  6
CONTINUOUS
 62
    7
 10
-32.718903000000068
 20
751.76776100000006
 11
-32.968903000000068
 21
751.91131599999994
  0
LINE
  8
_0-0_0
  6
CONTINUOUS
 62
    7
 10
-32.968903000000068
 20
751.91131599999994
 11
-42.218903000000068
 21
751.91131599999994
  0
LINE
  8
_0-0_0
  6
CONTINUOUS
 62
    7
 10
-32.718903000000068
 20
751.76776100000006
 11
-42.468903000000068
 21
751.76776100000006
  0
LINE
  8
_0-0_0
  6
CONTINUOUS
 62
    7
 10
-32.718903000000068
 20
752.00198399999999
 11
-32.968903000000068
 21
751.91131599999994
  0
LINE
  8
_0-0_0
  6
CONTINUOUS
 62
    7
 10
-32.718903000000068
 20
751.53225700000007
 11
-32.968903000000068
 21
751.65002400000003
  0
LINE
  8
_0-0_0
  6
CONTINUOUS
 62
    7
 10
-32.968903000000068
 20
751.65002400000003
 11
-42.218903000000068
 21
751.65002400000003
  0
LINE
  8
_0-0_0
  6
CONTINUOUS
 62
    7
 10
-32.718903000000068
 20
751.53225700000007
 11
-42.468903000000068
 21
751.53225700000007
  0
LINE
  8
_0-0_0
  6
CONTINUOUS
 62
    7
 10
-32.718903000000068
 20
751.76776100000006
 11
-32.968903000000068
 21
751.65002400000003
  0
LINE
  8
_0-0_0
  6
CONTINUOUS
 62
    7
 10
-32.718903000000068
 20
751.29803500000003
 11
-32.968903000000068
 21
751.38867200000004
  0
LINE
  8
_0-0_0
  6
CONTINUOUS
 62
    7
 10
-32.968903000000068
 20
751.38867200000004
 11
-42.218903000000068
 21
751.38867200000004
  0
LINE
  8
_0-0_0
  6
CONTINUOUS
 62
    7
 10
-32.718903000000068
 20
751.29803500000003
 11
-42.468903000000068
 21
751.29803500000003
  0
LINE
  8
_0-0_0
  6
CONTINUOUS
 62
    7
 10
-32.718903000000068
 20
751.53225700000007
 11
-32.968903000000068
 21
751.38867200000004
  0
LINE
  8
_0-0_0
  6
CONTINUOUS
 62
    7
 10
-32.718903000000068
 20
751.06765700000005
 11
-32.968903000000068
 21
751.13021900000001
  0
LINE
  8
_0-0_0
  6
CONTINUOUS
 62
    7
 10
-32.968903000000068
 20
751.13021900000001
 11
-42.218903000000068
 21
751.13021900000001
  0
LINE
  8
_0-0_0
  6
CONTINUOUS
 62
    7
 10
-32.718903000000068
 20
751.06765700000005
 11
-42.468903000000068
 21
751.06765700000005
  0
LINE
  8
_0-0_0
  6
CONTINUOUS
 62
    7
 10
-32.718903000000068
 20
751.29803500000003
 11
-32.968903000000068
 21
751.13021900000001
  0
LINE
  8
_0-0_0
  6
CONTINUOUS
 62
    7
 10
-32.718903000000068
 20
750.84368900000004
 11
-32.968903000000068
 21
750.87747200000001
  0
LINE
  8
_0-0_0
  6
CONTINUOUS
 62
    7
 10
-32.968903000000068
 20
750.87747200000001
 11
-42.218903000000068
 21
750.87747200000001
  0
LINE
  8
_0-0_0
  6
CONTINUOUS
 62
    7
 10
-32.718903000000068
 20
750.84368900000004
 11
-42.468903000000068
 21
750.84368900000004
  0
LINE
  8
_0-0_0
  6
CONTINUOUS
 62
    7
 10
-32.718903000000068
 20
751.06765700000005
 11
-32.968903000000068
 21
750.87747200000001
  0
LINE
  8
_0-0_0
  6
CONTINUOUS
 62
    7
 10
-32.718903000000068
 20
750.62853999999993
 11
-32.968903000000068
 21
750.63317899999993
  0
LINE
  8
_0-0_0
  6
CONTINUOUS
 62
    7
 10
-32.968903000000068
 20
750.63317899999993
 11
-42.218903000000068
 21
750.63317899999993
  0
LINE
  8
_0-0_0
  6
CONTINUOUS
 62
    7
 10
-32.718903000000068
 20
750.84368900000004
 11
-32.968903000000068
 21
750.63317899999993
  0
LINE
  8
_0-0_0
  6
CONTINUOUS
 62
    7
 10
-32.468903000000068
 20
749.65002400000003
 11
-32.468903000000068
 21
753.40518199999997
  0
LINE
  8
_0-0_0
  6
CONTINUOUS
 62
    7
 10
-32.468903000000068
 20
753.40518199999997
 11
-32.468903000000068
 21
753.65002400000003
  0
LINE
  8
_0-0_0
  6
CONTINUOUS
 62
    7
 10
-46.068909000000076
 20
754.95001200000002
 11
-46.068909000000076
 21
757.45001200000002
  0
LINE
  8
_0-0_0
  6
CONTINUOUS
 62
    7
 10
-46.068909000000076
 20
757.45001200000002
 11
-46.068909000000076
 21
764.95001200000002
  0
LINE
  8
_0-0_0
  6
CONTINUOUS
 62
    7
 10
-45.268906000000015
 20
755.41189600000007
 11
-45.268906000000015
 21
757.68093900000008
  0
LINE
  8
_0-0_0
  6
CONTINUOUS
 62
    7
 10
-45.268906000000015
 20
757.68093900000008
 11
-45.268906000000015
 21
764.48812900000007
  0
LINE
  8
_0-0_0
  6
CONTINUOUS
 62
    7
 10
12.731093999999985
 20
755.95001200000002
 11
12.731093999999985
 21
755.95135499999992
  0
LINE
  8
_0-0_0
  6
CONTINUOUS
 62
    7
 10
12.731093999999985
 20
755.95135499999992
 11
12.731093999999985
 21
763.95001200000002
  0
LINE
  8
_0-0_0
  6
CONTINUOUS
 62
    7
 10
-42.468903000000068
 20
770.49691800000005
 11
-42.468903000000068
 21
770.5
  0
LINE
  8
_0-0_0
  6
CONTINUOUS
 62
    7
 10
-42.468903000000068
 20
770.47228999999993
 11
-42.468903000000068
 21
770.49691800000005
  0
LINE
  8
_0-0_0
  6
CONTINUOUS
 62
    7
 10
-42.468903000000068
 20
770.42334000000005
 11
-42.468903000000068
 21
770.5
  0
LINE
  8
_0-0_0
  6
CONTINUOUS
 62
    7
 10
-42.468903000000068
 20
770.35055499999999
 11
-42.468903000000068
 21
770.42334000000005
  0
LINE
  8
_0-0_0
  6
CONTINUOUS
 62
    7
 10
-42.468903000000068
 20
770.25476099999992
 11
-42.468903000000068
 21
770.35055499999999
  0
LINE
  8
_0-0_0
  6
CONTINUOUS
 62
    7
 10
-42.468903000000068
 20
770.22457899999995
 11
-42.468903000000068
 21
770.25476099999992
  0
LINE
  8
_0-0_0
  6
CONTINUOUS
 62
    7
 10
-42.468903000000068
 20
770.137024
 11
-42.468903000000068
 21
770.22457899999995
  0
LINE
  8
_0-0_0
  6
CONTINUOUS
 62
    7
 10
-42.468903000000068
 20
769.99859600000002
 11
-42.468903000000068
 21
770.137024
  0
LINE
  8
_0-0_0
  6
CONTINUOUS
 62
    7
 10
-42.468903000000068
 20
769.841003
 11
-42.468903000000068
 21
769.99859600000002
  0
LINE
  8
_0-0_0
  6
CONTINUOUS
 62
    7
 10
-42.468903000000068
 20
769.66598499999998
 11
-42.468903000000068
 21
769.841003
  0
LINE
  8
_0-0_0
  6
CONTINUOUS
 62
    7
 10
-42.468903000000068
 20
769.47543300000007
 11
-42.468903000000068
 21
769.66598499999998
  0
LINE
  8
_0-0_0
  6
CONTINUOUS
 62
    7
 10
-42.468903000000068
 20
769.27148399999999
 11
-42.468903000000068
 21
769.47543300000007
  0
LINE
  8
_0-0_0
  6
CONTINUOUS
 62
    7
 10
-42.468903000000068
 20
769.05633499999999
 11
-42.468903000000068
 21
769.27148399999999
  0
LINE
  8
_0-0_0
  6
CONTINUOUS
 62
    7
 10
-42.468903000000068
 20
768.83233599999994
 11
-42.468903000000068
 21
769.05633499999999
  0
LINE
  8
_0-0_0
  6
CONTINUOUS
 62
    7
 10
-42.468903000000068
 20
768.60199
 11
-42.468903000000068
 21
768.83233599999994
  0
LINE
  8
_0-0_0
  6
CONTINUOUS
 62
    7
 10
-42.468903000000068
 20
768.36776699999996
 11
-42.468903000000068
 21
768.60199
  0
LINE
  8
_0-0_0
  6
CONTINUOUS
 62
    7
 10
-42.468903000000068
 20
768.13226299999997
 11
-42.468903000000068
 21
768.36776699999996
  0
LINE
  8
_0-0_0
  6
CONTINUOUS
 62
    7
 10
-42.468903000000068
 20
767.89804099999992
 11
-42.468903000000068
 21
768.13226299999997
  0
LINE
  8
_0-0_0
  6
CONTINUOUS
 62
    7
 10
-42.468903000000068
 20
767.66766400000006
 11
-42.468903000000068
 21
767.89804099999992
  0
LINE
  8
_0-0_0
  6
CONTINUOUS
 62
    7
 10
-42.468903000000068
 20
767.44366500000001
 11
-42.468903000000068
 21
767.66766400000006
  0
LINE
  8
_0-0_0
  6
CONTINUOUS
 62
    7
 10
-42.468903000000068
 20
767.22851600000001
 11
-42.468903000000068
 21
767.44366500000001
  0
LINE
  8
_0-0_0
  6
CONTINUOUS
 62
    7
 10
-42.468903000000068
 20
767.17129499999999
 11
-42.468903000000068
 21
767.22851600000001
  0
LINE
  8
_0-0_0
  6
CONTINUOUS
 62
    7
 10
-42.468903000000068
 20
770.49691800000005
 11
-42.218903000000068
 21
770.75
  0
LINE
  8
_0-0_0
  6
CONTINUOUS
 62
    7
 10
-42.468903000000068
 20
770.47228999999993
 11
-42.218903000000068
 21
770.73632799999996
  0
LINE
  8
_0-0_0
  6
CONTINUOUS
 62
    7
 10
-42.468903000000068
 20
770.49691800000005
 11
-42.218903000000068
 21
770.73632799999996
  0
LINE
  8
_0-0_0
  6
CONTINUOUS
 62
    7
 10
-42.468903000000068
 20
770.42334000000005
 11
-42.218903000000068
 21
770.69537400000002
  0
LINE
  8
_0-0_0
  6
CONTINUOUS
 62
    7
 10
-42.468903000000068
 20
770.47228999999993
 11
-42.218903000000068
 21
770.69537400000002
  0
LINE
  8
_0-0_0
  6
CONTINUOUS
 62
    7
 10
-42.468903000000068
 20
770.35055499999999
 11
-42.218903000000068
 21
770.627655
  0
LINE
  8
_0-0_0
  6
CONTINUOUS
 62
    7
 10
-42.468903000000068
 20
770.42334000000005
 11
-42.218903000000068
 21
770.627655
  0
LINE
  8
_0-0_0
  6
CONTINUOUS
 62
    7
 10
-42.468903000000068
 20
770.25476099999992
 11
-42.218903000000068
 21
770.53387500000008
  0
LINE
  8
_0-0_0
  6
CONTINUOUS
 62
    7
 10
-42.468903000000068
 20
770.35055499999999
 11
-42.218903000000068
 21
770.53387500000008
  0
LINE
  8
_0-0_0
  6
CONTINUOUS
 62
    7
 10
-42.468903000000068
 20
770.25476099999992
 11
-42.33892800000001
 21
770.33862299999998
  0
LINE
  8
_0-0_0
  6
CONTINUOUS
 62
    7
 10
-42.468903000000068
 20
770.137024
 11
-42.218903000000068
 21
770.41507000000001
  0
LINE
  8
_0-0_0
  6
CONTINUOUS
 62
    7
 10
-42.33892800000001
 20
770.33862299999998
 11
-42.218903000000068
 21
770.41507000000001
  0
LINE
  8
_0-0_0
  6
CONTINUOUS
 62
    7
 10
-42.468903000000068
 20
769.99859600000002
 11
-42.218903000000068
 21
770.27255200000002
  0
LINE
  8
_0-0_0
  6
CONTINUOUS
 62
    7
 10
-42.468903000000068
 20
770.137024
 11
-42.218903000000068
 21
770.27255200000002
  0
LINE
  8
_0-0_0
  6
CONTINUOUS
 62
    7
 10
-42.468903000000068
 20
769.841003
 11
-42.218903000000068
 21
770.10788000000002
  0
LINE
  8
_0-0_0
  6
CONTINUOUS
 62
    7
 10
-42.468903000000068
 20
769.99859600000002
 11
-42.218903000000068
 21
770.10788000000002
  0
LINE
  8
_0-0_0
  6
CONTINUOUS
 62
    7
 10
-42.468903000000068
 20
769.66598499999998
 11
-42.218903000000068
 21
769.922821
  0
LINE
  8
_0-0_0
  6
CONTINUOUS
 62
    7
 10
-42.468903000000068
 20
769.841003
 11
-42.218903000000068
 21
769.922821
  0
LINE
  8
_0-0_0
  6
CONTINUOUS
 62
    7
 10
-42.468903000000068
 20
769.47543300000007
 11
-42.218903000000068
 21
769.71948199999997
  0
LINE
  8
_0-0_0
  6
CONTINUOUS
 62
    7
 10
-42.468903000000068
 20
769.66598499999998
 11
-42.218903000000068
 21
769.71948199999997
  0
LINE
  8
_0-0_0
  6
CONTINUOUS
 62
    7
 10
-42.468903000000068
 20
769.27148399999999
 11
-42.218903000000068
 21
769.5
  0
LINE
  8
_0-0_0
  6
CONTINUOUS
 62
    7
 10
-42.468903000000068
 20
769.47543300000007
 11
-42.218903000000068
 21
769.5
  0
LINE
  8
_0-0_0
  6
CONTINUOUS
 62
    7
 10
-42.468903000000068
 20
769.05633499999999
 11
-42.218903000000068
 21
769.26684599999999
  0
LINE
  8
_0-0_0
  6
CONTINUOUS
 62
    7
 10
-42.468903000000068
 20
769.27148399999999
 11
-42.218903000000068
 21
769.26684599999999
  0
LINE
  8
_0-0_0
  6
CONTINUOUS
 62
    7
 10
-42.468903000000068
 20
768.83233599999994
 11
-42.218903000000068
 21
769.02255200000002
  0
LINE
  8
_0-0_0
  6
CONTINUOUS
 62
    7
 10
-42.468903000000068
 20
769.05633499999999
 11
-42.218903000000068
 21
769.02255200000002
  0
LINE
  8
_0-0_0
  6
CONTINUOUS
 62
    7
 10
-42.468903000000068
 20
768.60199
 11
-42.218903000000068
 21
768.76977499999998
  0
LINE
  8
_0-0_0
  6
CONTINUOUS
 62
    7
 10
-42.468903000000068
 20
768.83233599999994
 11
-42.218903000000068
 21
768.76977499999998
  0
LINE
  8
_0-0_0
  6
CONTINUOUS
 62
    7
 10
-42.468903000000068
 20
768.36776699999996
 11
-42.218903000000068
 21
768.51132200000006
  0
LINE
  8
_0-0_0
  6
CONTINUOUS
 62
    7
 10
-42.468903000000068
 20
768.60199
 11
-42.218903000000068
 21
768.51132200000006
  0
LINE
  8
_0-0_0
  6
CONTINUOUS
 62
    7
 10
-42.468903000000068
 20
768.13226299999997
 11
-42.218903000000068
 21
768.25
  0
LINE
  8
_0-0_0
  6
CONTINUOUS
 62
    7
 10
-42.468903000000068
 20
768.36776699999996
 11
-42.218903000000068
 21
768.25
  0
LINE
  8
_0-0_0
  6
CONTINUOUS
 62
    7
 10
-42.468903000000068
 20
767.89804099999992
 11
-42.218903000000068
 21
767.98867799999994
  0
LINE
  8
_0-0_0
  6
CONTINUOUS
 62
    7
 10
-42.468903000000068
 20
768.13226299999997
 11
-42.218903000000068
 21
767.98867799999994
  0
LINE
  8
_0-0_0
  6
CONTINUOUS
 62
    7
 10
-42.468903000000068
 20
767.66766400000006
 11
-42.218903000000068
 21
767.73022500000002
  0
LINE
  8
_0-0_0
  6
CONTINUOUS
 62
    7
 10
-42.468903000000068
 20
767.89804099999992
 11
-42.218903000000068
 21
767.73022500000002
  0
LINE
  8
_0-0_0
  6
CONTINUOUS
 62
    7
 10
-42.468903000000068
 20
767.44366500000001
 11
-42.218903000000068
 21
767.47747800000002
  0
LINE
  8
_0-0_0
  6
CONTINUOUS
 62
    7
 10
-42.468903000000068
 20
767.66766400000006
 11
-42.218903000000068
 21
767.47747800000002
  0
LINE
  8
_0-0_0
  6
CONTINUOUS
 62
    7
 10
-42.468903000000068
 20
767.22851600000001
 11
-42.218903000000068
 21
767.23315400000001
  0
LINE
  8
_0-0_0
  6
CONTINUOUS
 62
    7
 10
-42.468903000000068
 20
767.44366500000001
 11
-42.218903000000068
 21
767.23315400000001
  0
LINE
  8
_0-0_0
  6
CONTINUOUS
 62
    7
 10
-42.468903000000068
 20
767.02456699999993
 11
-42.468903000000068
 21
767.17129499999999
  0
LINE
  8
_0-0_0
  6
CONTINUOUS
 62
    7
 10
-42.468903000000068
 20
767.02456699999993
 11
-42.218903000000068
 21
767
  0
LINE
  8
_0-0_0
  6
CONTINUOUS
 62
    7
 10
-42.468903000000068
 20
767.22851600000001
 11
-42.218903000000068
 21
767
  0
LINE
  8
_0-0_0
  6
CONTINUOUS
 62
    7
 10
-42.468903000000068
 20
766.83404500000006
 11
-42.468903000000068
 21
767.02456699999993
  0
LINE
  8
_0-0_0
  6
CONTINUOUS
 62
    7
 10
-42.468903000000068
 20
766.65902699999992
 11
-42.468903000000068
 21
766.83404500000006
  0
LINE
  8
_0-0_0
  6
CONTINUOUS
 62
    7
 10
-42.468903000000068
 20
766.50143400000002
 11
-42.468903000000068
 21
766.65902699999992
  0
LINE
  8
_0-0_0
  6
CONTINUOUS
 62
    7
 10
-42.468903000000068
 20
766.36300699999993
 11
-42.468903000000068
 21
766.50143400000002
  0
LINE
  8
_0-0_0
  6
CONTINUOUS
 62
    7
 10
-42.468903000000068
 20
766.24523900000008
 11
-42.468903000000068
 21
766.36300699999993
  0
LINE
  8
_0-0_0
  6
CONTINUOUS
 62
    7
 10
-42.468903000000068
 20
766.14944500000001
 11
-42.468903000000068
 21
766.24523900000008
  0
LINE
  8
_0-0_0
  6
CONTINUOUS
 62
    7
 10
-42.468903000000068
 20
766
 11
-42.468903000000068
 21
766.14944500000001
  0
LINE
  8
_0-0_0
  6
CONTINUOUS
 62
    7
 10
-42.468903000000068
 20
766.02771000000007
 11
-42.468903000000068
 21
766.07665999999995
  0
LINE
  8
_0-0_0
  6
CONTINUOUS
 62
    7
 10
-42.468903000000068
 20
766.00308199999995
 11
-42.468903000000068
 21
766.02771000000007
  0
LINE
  8
_0-0_0
  6
CONTINUOUS
 62
    7
 10
-42.468903000000068
 20
766
 11
-42.468903000000068
 21
766.00308199999995
  0
LINE
  8
_0-0_0
  6
CONTINUOUS
 62
    7
 10
-32.718903000000068
 20
770.49691800000005
 11
-32.968903000000068
 21
770.75
  0
LINE
  8
_0-0_0
  6
CONTINUOUS
 62
    7
 10
-32.968903000000068
 20
770.75
 11
-42.218903000000068
 21
770.75
  0
LINE
  8
_0-0_0
  6
CONTINUOUS
 62
    7
 10
-32.718903000000068
 20
770.47228999999993
 11
-32.968903000000068
 21
770.73632799999996
  0
LINE
  8
_0-0_0
  6
CONTINUOUS
 62
    7
 10
-32.968903000000068
 20
770.73632799999996
 11
-42.218903000000068
 21
770.73632799999996
  0
LINE
  8
_0-0_0
  6
CONTINUOUS
 62
    7
 10
-32.718903000000068
 20
770.49691800000005
 11
-32.968903000000068
 21
770.73632799999996
  0
LINE
  8
_0-0_0
  6
CONTINUOUS
 62
    7
 10
-32.718903000000068
 20
770.42334000000005
 11
-32.968903000000068
 21
770.69537400000002
  0
LINE
  8
_0-0_0
  6
CONTINUOUS
 62
    7
 10
-32.968903000000068
 20
770.69537400000002
 11
-42.218903000000068
 21
770.69537400000002
  0
LINE
  8
_0-0_0
  6
CONTINUOUS
 62
    7
 10
-32.718903000000068
 20
770.47228999999993
 11
-32.968903000000068
 21
770.69537400000002
  0
LINE
  8
_0-0_0
  6
CONTINUOUS
 62
    7
 10
-32.718903000000068
 20
770.35055499999999
 11
-32.968903000000068
 21
770.627655
  0
LINE
  8
_0-0_0
  6
CONTINUOUS
 62
    7
 10
-32.968903000000068
 20
770.627655
 11
-42.218903000000068
 21
770.627655
  0
LINE
  8
_0-0_0
  6
CONTINUOUS
 62
    7
 10
-32.718903000000068
 20
770.42334000000005
 11
-32.968903000000068
 21
770.627655
  0
LINE
  8
_0-0_0
  6
CONTINUOUS
 62
    7
 10
-32.718903000000068
 20
770.25476099999992
 11
-32.968903000000068
 21
770.53387500000008
  0
LINE
  8
_0-0_0
  6
CONTINUOUS
 62
    7
 10
-32.968903000000068
 20
770.53387500000008
 11
-42.218903000000068
 21
770.53387500000008
  0
LINE
  8
_0-0_0
  6
CONTINUOUS
 62
    7
 10
-32.718903000000068
 20
770.35055499999999
 11
-32.968903000000068
 21
770.53387500000008
  0
LINE
  8
_0-0_0
  6
CONTINUOUS
 62
    7
 10
-32.968903000000068
 20
770.41507000000001
 11
-42.218903000000068
 21
770.41507000000001
  0
LINE
  8
_0-0_0
  6
CONTINUOUS
 62
    7
 10
-32.848862000000054
 20
770.33862299999998
 11
-32.968903000000068
 21
770.41507000000001
  0
LINE
  8
_0-0_0
  6
CONTINUOUS
 62
    7
 10
-32.718903000000068
 20
770.25476099999992
 11
-32.848862000000054
 21
770.33862299999998
  0
LINE
  8
_0-0_0
  6
CONTINUOUS
 62
    7
 10
-32.718903000000068
 20
770.137024
 11
-32.968903000000068
 21
770.41507000000001
  0
LINE
  8
_0-0_0
  6
CONTINUOUS
 62
    7
 10
-32.718903000000068
 20
769.99859600000002
 11
-32.968903000000068
 21
770.27255200000002
  0
LINE
  8
_0-0_0
  6
CONTINUOUS
 62
    7
 10
-32.968903000000068
 20
770.27255200000002
 11
-42.218903000000068
 21
770.27255200000002
  0
LINE
  8
_0-0_0
  6
CONTINUOUS
 62
    7
 10
-32.718903000000068
 20
770.137024
 11
-32.968903000000068
 21
770.27255200000002
  0
LINE
  8
_0-0_0
  6
CONTINUOUS
 62
    7
 10
-32.718903000000068
 20
769.841003
 11
-32.968903000000068
 21
770.10788000000002
  0
LINE
  8
_0-0_0
  6
CONTINUOUS
 62
    7
 10
-32.968903000000068
 20
770.10788000000002
 11
-42.218903000000068
 21
770.10788000000002
  0
LINE
  8
_0-0_0
  6
CONTINUOUS
 62
    7
 10
-32.718903000000068
 20
769.99859600000002
 11
-32.968903000000068
 21
770.10788000000002
  0
LINE
  8
_0-0_0
  6
CONTINUOUS
 62
    7
 10
-32.718903000000068
 20
769.66598499999998
 11
-32.968903000000068
 21
769.922821
  0
LINE
  8
_0-0_0
  6
CONTINUOUS
 62
    7
 10
-32.968903000000068
 20
769.922821
 11
-42.218903000000068
 21
769.922821
  0
LINE
  8
_0-0_0
  6
CONTINUOUS
 62
    7
 10
-32.718903000000068
 20
769.841003
 11
-32.968903000000068
 21
769.922821
  0
LINE
  8
_0-0_0
  6
CONTINUOUS
 62
    7
 10
-32.718903000000068
 20
769.47543300000007
 11
-32.968903000000068
 21
769.71948199999997
  0
LINE
  8
_0-0_0
  6
CONTINUOUS
 62
    7
 10
-32.968903000000068
 20
769.71948199999997
 11
-42.218903000000068
 21
769.71948199999997
  0
LINE
  8
_0-0_0
  6
CONTINUOUS
 62
    7
 10
-32.718903000000068
 20
769.66598499999998
 11
-32.968903000000068
 21
769.71948199999997
  0
LINE
  8
_0-0_0
  6
CONTINUOUS
 62
    7
 10
-32.718903000000068
 20
769.27148399999999
 11
-32.968903000000068
 21
769.5
  0
LINE
  8
_0-0_0
  6
CONTINUOUS
 62
    7
 10
-32.968903000000068
 20
769.5
 11
-42.218903000000068
 21
769.5
  0
LINE
  8
_0-0_0
  6
CONTINUOUS
 62
    7
 10
-32.718903000000068
 20
769.27148399999999
 11
-42.468903000000068
 21
769.27148399999999
  0
LINE
  8
_0-0_0
  6
CONTINUOUS
 62
    7
 10
-32.718903000000068
 20
769.47543300000007
 11
-32.968903000000068
 21
769.5
  0
LINE
  8
_0-0_0
  6
CONTINUOUS
 62
    7
 10
-32.718903000000068
 20
769.05633499999999
 11
-32.968903000000068
 21
769.26684599999999
  0
LINE
  8
_0-0_0
  6
CONTINUOUS
 62
    7
 10
-32.968903000000068
 20
769.26684599999999
 11
-42.218903000000068
 21
769.26684599999999
  0
LINE
  8
_0-0_0
  6
CONTINUOUS
 62
    7
 10
-32.718903000000068
 20
769.05633499999999
 11
-42.468903000000068
 21
769.05633499999999
  0
LINE
  8
_0-0_0
  6
CONTINUOUS
 62
    7
 10
-32.718903000000068
 20
769.27148399999999
 11
-32.968903000000068
 21
769.26684599999999
  0
LINE
  8
_0-0_0
  6
CONTINUOUS
 62
    7
 10
-32.718903000000068
 20
768.83233599999994
 11
-32.968903000000068
 21
769.02255200000002
  0
LINE
  8
_0-0_0
  6
CONTINUOUS
 62
    7
 10
-32.968903000000068
 20
769.02255200000002
 11
-42.218903000000068
 21
769.02255200000002
  0
LINE
  8
_0-0_0
  6
CONTINUOUS
 62
    7
 10
-32.718903000000068
 20
768.83233599999994
 11
-42.468903000000068
 21
768.83233599999994
  0
LINE
  8
_0-0_0
  6
CONTINUOUS
 62
    7
 10
-32.718903000000068
 20
769.05633499999999
 11
-32.968903000000068
 21
769.02255200000002
  0
LINE
  8
_0-0_0
  6
CONTINUOUS
 62
    7
 10
-32.718903000000068
 20
768.60199
 11
-32.968903000000068
 21
768.76977499999998
  0
LINE
  8
_0-0_0
  6
CONTINUOUS
 62
    7
 10
-32.968903000000068
 20
768.76977499999998
 11
-42.218903000000068
 21
768.76977499999998
  0
LINE
  8
_0-0_0
  6
CONTINUOUS
 62
    7
 10
-32.718903000000068
 20
768.60199
 11
-42.468903000000068
 21
768.60199
  0
LINE
  8
_0-0_0
  6
CONTINUOUS
 62
    7
 10
-32.718903000000068
 20
768.83233599999994
 11
-32.968903000000068
 21
768.76977499999998
  0
LINE
  8
_0-0_0
  6
CONTINUOUS
 62
    7
 10
-32.718903000000068
 20
768.36776699999996
 11
-32.968903000000068
 21
768.51132200000006
  0
LINE
  8
_0-0_0
  6
CONTINUOUS
 62
    7
 10
-32.968903000000068
 20
768.51132200000006
 11
-42.218903000000068
 21
768.51132200000006
  0
LINE
  8
_0-0_0
  6
CONTINUOUS
 62
    7
 10
-32.718903000000068
 20
768.36776699999996
 11
-42.468903000000068
 21
768.36776699999996
  0
LINE
  8
_0-0_0
  6
CONTINUOUS
 62
    7
 10
-32.718903000000068
 20
768.60199
 11
-32.968903000000068
 21
768.51132200000006
  0
LINE
  8
_0-0_0
  6
CONTINUOUS
 62
    7
 10
-32.718903000000068
 20
768.13226299999997
 11
-32.968903000000068
 21
768.25
  0
LINE
  8
_0-0_0
  6
CONTINUOUS
 62
    7
 10
-32.968903000000068
 20
768.25
 11
-42.218903000000068
 21
768.25
  0
LINE
  8
_0-0_0
  6
CONTINUOUS
 62
    7
 10
-32.718903000000068
 20
768.13226299999997
 11
-42.468903000000068
 21
768.13226299999997
  0
LINE
  8
_0-0_0
  6
CONTINUOUS
 62
    7
 10
-32.718903000000068
 20
768.36776699999996
 11
-32.968903000000068
 21
768.25
  0
LINE
  8
_0-0_0
  6
CONTINUOUS
 62
    7
 10
-32.718903000000068
 20
767.89804099999992
 11
-32.968903000000068
 21
767.98867799999994
  0
LINE
  8
_0-0_0
  6
CONTINUOUS
 62
    7
 10
-32.968903000000068
 20
767.98867799999994
 11
-42.218903000000068
 21
767.98867799999994
  0
LINE
  8
_0-0_0
  6
CONTINUOUS
 62
    7
 10
-32.718903000000068
 20
767.89804099999992
 11
-42.468903000000068
 21
767.89804099999992
  0
LINE
  8
_0-0_0
  6
CONTINUOUS
 62
    7
 10
-32.718903000000068
 20
768.13226299999997
 11
-32.968903000000068
 21
767.98867799999994
  0
LINE
  8
_0-0_0
  6
CONTINUOUS
 62
    7
 10
-32.718903000000068
 20
767.66766400000006
 11
-32.968903000000068
 21
767.73022500000002
  0
LINE
  8
_0-0_0
  6
CONTINUOUS
 62
    7
 10
-32.968903000000068
 20
767.73022500000002
 11
-42.218903000000068
 21
767.73022500000002
  0
LINE
  8
_0-0_0
  6
CONTINUOUS
 62
    7
 10
-32.718903000000068
 20
767.66766400000006
 11
-42.468903000000068
 21
767.66766400000006
  0
LINE
  8
_0-0_0
  6
CONTINUOUS
 62
    7
 10
-32.718903000000068
 20
767.89804099999992
 11
-32.968903000000068
 21
767.73022500000002
  0
LINE
  8
_0-0_0
  6
CONTINUOUS
 62
    7
 10
-32.718903000000068
 20
767.44366500000001
 11
-32.968903000000068
 21
767.47747800000002
  0
LINE
  8
_0-0_0
  6
CONTINUOUS
 62
    7
 10
-32.968903000000068
 20
767.47747800000002
 11
-42.218903000000068
 21
767.47747800000002
  0
LINE
  8
_0-0_0
  6
CONTINUOUS
 62
    7
 10
-32.718903000000068
 20
767.44366500000001
 11
-42.468903000000068
 21
767.44366500000001
  0
LINE
  8
_0-0_0
  6
CONTINUOUS
 62
    7
 10
-32.718903000000068
 20
767.66766400000006
 11
-32.968903000000068
 21
767.47747800000002
  0
LINE
  8
_0-0_0
  6
CONTINUOUS
 62
    7
 10
-32.718903000000068
 20
767.22851600000001
 11
-32.968903000000068
 21
767.23315400000001
  0
LINE
  8
_0-0_0
  6
CONTINUOUS
 62
    7
 10
-32.968903000000068
 20
767.23315400000001
 11
-42.218903000000068
 21
767.23315400000001
  0
LINE
  8
_0-0_0
  6
CONTINUOUS
 62
    7
 10
-32.718903000000068
 20
767.22851600000001
 11
-42.468903000000068
 21
767.22851600000001
  0
LINE
  8
_0-0_0
  6
CONTINUOUS
 62
    7
 10
-32.718903000000068
 20
767.44366500000001
 11
-32.968903000000068
 21
767.23315400000001
  0
LINE
  8
_0-0_0
  6
CONTINUOUS
 62
    7
 10
-32.718903000000068
 20
767.02456699999993
 11
-32.968903000000068
 21
767
  0
LINE
  8
_0-0_0
  6
CONTINUOUS
 62
    7
 10
-32.968903000000068
 20
767
 11
-42.218903000000068
 21
767
  0
LINE
  8
_0-0_0
  6
CONTINUOUS
 62
    7
 10
-32.718903000000068
 20
767.22851600000001
 11
-32.968903000000068
 21
767
  0
LINE
  8
_0-0_0
  6
CONTINUOUS
 62
    7
 10
-42.468903000000068
 20
766.83404500000006
 11
-42.218903000000068
 21
766.78054799999995
  0
LINE
  8
_0-0_0
  6
CONTINUOUS
 62
    7
 10
-42.468903000000068
 20
767.02456699999993
 11
-42.218903000000068
 21
766.78054799999995
  0
LINE
  8
_0-0_0
  6
CONTINUOUS
 62
    7
 10
-42.468903000000068
 20
766.65902699999992
 11
-42.218903000000068
 21
766.577179
  0
LINE
  8
_0-0_0
  6
CONTINUOUS
 62
    7
 10
-42.468903000000068
 20
766.83404500000006
 11
-42.218903000000068
 21
766.577179
  0
LINE
  8
_0-0_0
  6
CONTINUOUS
 62
    7
 10
-42.468903000000068
 20
766.50143400000002
 11
-42.218903000000068
 21
766.39215100000001
  0
LINE
  8
_0-0_0
  6
CONTINUOUS
 62
    7
 10
-42.468903000000068
 20
766.65902699999992
 11
-42.218903000000068
 21
766.39215100000001
  0
LINE
  8
_0-0_0
  6
CONTINUOUS
 62
    7
 10
-42.468903000000068
 20
766.36300699999993
 11
-42.218903000000068
 21
766.22747800000002
  0
LINE
  8
_0-0_0
  6
CONTINUOUS
 62
    7
 10
-42.468903000000068
 20
766.50143400000002
 11
-42.218903000000068
 21
766.22747800000002
  0
LINE
  8
_0-0_0
  6
CONTINUOUS
 62
    7
 10
-42.468903000000068
 20
766.24523900000008
 11
-42.218903000000068
 21
766.08496100000002
  0
LINE
  8
_0-0_0
  6
CONTINUOUS
 62
    7
 10
-42.468903000000068
 20
766.36300699999993
 11
-42.218903000000068
 21
766.08496100000002
  0
LINE
  8
_0-0_0
  6
CONTINUOUS
 62
    7
 10
-42.468903000000068
 20
766.14944500000001
 11
-42.218903000000068
 21
765.96615599999996
  0
LINE
  8
_0-0_0
  6
CONTINUOUS
 62
    7
 10
-42.468903000000068
 20
766.24523900000008
 11
-42.218903000000068
 21
765.96615599999996
  0
LINE
  8
_0-0_0
  6
CONTINUOUS
 62
    7
 10
-42.468903000000068
 20
766.07665999999995
 11
-42.218903000000068
 21
765.87237499999992
  0
LINE
  8
_0-0_0
  6
CONTINUOUS
 62
    7
 10
-42.468903000000068
 20
766.14944500000001
 11
-42.218903000000068
 21
765.87237499999992
  0
LINE
  8
_0-0_0
  6
CONTINUOUS
 62
    7
 10
-42.468903000000068
 20
766.02771000000007
 11
-42.218903000000068
 21
765.80462599999998
  0
LINE
  8
_0-0_0
  6
CONTINUOUS
 62
    7
 10
-42.468903000000068
 20
766.07665999999995
 11
-42.218903000000068
 21
765.80462599999998
  0
LINE
  8
_0-0_0
  6
CONTINUOUS
 62
    7
 10
-42.468903000000068
 20
766.00308199999995
 11
-42.218903000000068
 21
765.76370199999997
  0
LINE
  8
_0-0_0
  6
CONTINUOUS
 62
    7
 10
-42.468903000000068
 20
766.02771000000007
 11
-42.218903000000068
 21
765.76370199999997
  0
LINE
  8
_0-0_0
  6
CONTINUOUS
 62
    7
 10
-42.468903000000068
 20
766.00308199999995
 11
-42.218903000000068
 21
765.75
  0
LINE
  8
_0-0_0
  6
CONTINUOUS
 62
    7
 10
-32.468903000000068
 20
770.00518799999998
 11
-32.468903000000068
 21
770.25
  0
LINE
  8
_0-0_0
  6
CONTINUOUS
 62
    7
 10
-32.718903000000068
 20
767.02456699999993
 11
-32.968903000000068
 21
766.78054799999995
  0
LINE
  8
_0-0_0
  6
CONTINUOUS
 62
    7
 10
-32.718903000000068
 20
766.83404500000006
 11
-32.968903000000068
 21
766.78054799999995
  0
LINE
  8
_0-0_0
  6
CONTINUOUS
 62
    7
 10
-32.718903000000068
 20
766.83404500000006
 11
-32.968903000000068
 21
766.577179
  0
LINE
  8
_0-0_0
  6
CONTINUOUS
 62
    7
 10
-32.718903000000068
 20
766.65902699999992
 11
-32.968903000000068
 21
766.577179
  0
LINE
  8
_0-0_0
  6
CONTINUOUS
 62
    7
 10
-32.718903000000068
 20
766.65902699999992
 11
-32.968903000000068
 21
766.39215100000001
  0
LINE
  8
_0-0_0
  6
CONTINUOUS
 62
    7
 10
-32.718903000000068
 20
766.50143400000002
 11
-32.968903000000068
 21
766.39215100000001
  0
LINE
  8
_0-0_0
  6
CONTINUOUS
 62
    7
 10
-32.718903000000068
 20
766.50143400000002
 11
-32.968903000000068
 21
766.22747800000002
  0
LINE
  8
_0-0_0
  6
CONTINUOUS
 62
    7
 10
-32.718903000000068
 20
766.36300699999993
 11
-32.968903000000068
 21
766.22747800000002
  0
LINE
  8
_0-0_0
  6
CONTINUOUS
 62
    7
 10
-32.718903000000068
 20
766.36300699999993
 11
-32.968903000000068
 21
766.08496100000002
  0
LINE
  8
_0-0_0
  6
CONTINUOUS
 62
    7
 10
-32.718903000000068
 20
766.24523900000008
 11
-32.968903000000068
 21
766.08496100000002
  0
LINE
  8
_0-0_0
  6
CONTINUOUS
 62
    7
 10
-32.718903000000068
 20
766.24523900000008
 11
-32.968903000000068
 21
765.96615599999996
  0
LINE
  8
_0-0_0
  6
CONTINUOUS
 62
    7
 10
-32.718903000000068
 20
766.14944500000001
 11
-32.968903000000068
 21
765.96615599999996
  0
LINE
  8
_0-0_0
  6
CONTINUOUS
 62
    7
 10
-32.718903000000068
 20
766.14944500000001
 11
-32.968903000000068
 21
765.87237499999992
  0
LINE
  8
_0-0_0
  6
CONTINUOUS
 62
    7
 10
-32.718903000000068
 20
766.07665999999995
 11
-32.968903000000068
 21
765.87237499999992
  0
LINE
  8
_0-0_0
  6
CONTINUOUS
 62
    7
 10
-32.718903000000068
 20
766.07665999999995
 11
-32.968903000000068
 21
765.80462599999998
  0
LINE
  8
_0-0_0
  6
CONTINUOUS
 62
    7
 10
-32.718903000000068
 20
766.02771000000007
 11
-32.968903000000068
 21
765.80462599999998
  0
LINE
  8
_0-0_0
  6
CONTINUOUS
 62
    7
 10
-32.718903000000068
 20
766.02771000000007
 11
-32.968903000000068
 21
765.76370199999997
  0
LINE
  8
_0-0_0
  6
CONTINUOUS
 62
    7
 10
-32.718903000000068
 20
766.00308199999995
 11
-32.968903000000068
 21
765.76370199999997
  0
LINE
  8
_0-0_0
  6
CONTINUOUS
 62
    7
 10
-32.718903000000068
 20
766.00308199999995
 11
-32.968903000000068
 21
765.75
  0
LINE
  8
_0-0_0
  6
CONTINUOUS
 62
    7
 10
-32.468903000000068
 20
766.25
 11
-32.468903000000068
 21
770.00518799999998
  0
LINE
  8
_0-0_0
  6
CONTINUOUS
 62
    7
 10
-32.968903000000068
 20
766.78054799999995
 11
-42.218903000000068
 21
766.78054799999995
  0
LINE
  8
_0-0_0
  6
CONTINUOUS
 62
    7
 10
-32.968903000000068
 20
766.577179
 11
-42.218903000000068
 21
766.577179
  0
LINE
  8
_0-0_0
  6
CONTINUOUS
 62
    7
 10
-32.968903000000068
 20
766.39215100000001
 11
-42.218903000000068
 21
766.39215100000001
  0
LINE
  8
_0-0_0
  6
CONTINUOUS
 62
    7
 10
-32.968903000000068
 20
766.22747800000002
 11
-42.218903000000068
 21
766.22747800000002
  0
LINE
  8
_0-0_0
  6
CONTINUOUS
 62
    7
 10
-32.968903000000068
 20
766.08496100000002
 11
-42.218903000000068
 21
766.08496100000002
  0
LINE
  8
_0-0_0
  6
CONTINUOUS
 62
    7
 10
-32.968903000000068
 20
765.96615599999996
 11
-42.218903000000068
 21
765.96615599999996
  0
LINE
  8
_0-0_0
  6
CONTINUOUS
 62
    7
 10
-32.968903000000068
 20
765.87237499999992
 11
-42.218903000000068
 21
765.87237499999992
  0
LINE
  8
_0-0_0
  6
CONTINUOUS
 62
    7
 10
-32.968903000000068
 20
765.80462599999998
 11
-42.218903000000068
 21
765.80462599999998
  0
LINE
  8
_0-0_0
  6
CONTINUOUS
 62
    7
 10
-32.968903000000068
 20
765.76370199999997
 11
-42.218903000000068
 21
765.76370199999997
  0
LINE
  8
_0-0_0
  6
CONTINUOUS
 62
    7
 10
-32.968903000000068
 20
765.75
 11
-42.218903000000068
 21
765.75
  0
LINE
  8
_0-0_0
  6
CONTINUOUS
 62
    7
 10
-169.46890300000007
 20
766
 11
-171.924576
 21
766
  0
LINE
  8
_0-0_0
  6
CONTINUOUS
 62
    7
 10
-171.42349200000001
 20
770.5
 11
-171.924576
 21
770.5
  0
LINE
  8
_0-0_0
  6
CONTINUOUS
 62
    7
 10
-172.06890900000008
 20
766.25
 11
-171.924576
 21
766
  0
LINE
  8
_0-0_0
  6
CONTINUOUS
 62
    7
 10
-172.06890900000008
 20
770.25
 11
-171.924576
 21
770.5
  0
LINE
  8
_0-0_0
  6
CONTINUOUS
 62
    7
 10
-68.468903000000068
 20
749.40002400000003
 11
-42.468903000000068
 21
749.40002400000003
  0
LINE
  8
_0-0_0
  6
CONTINUOUS
 62
    7
 10
-68.468903000000068
 20
753.90002400000003
 11
-42.468903000000068
 21
753.90002400000003
  0
LINE
  8
_0-0_0
  6
CONTINUOUS
 62
    7
 10
-42.468903000000068
 20
749.40002400000003
 11
-42.218903000000068
 21
749.15002400000003
  0
LINE
  8
_0-0_0
  6
CONTINUOUS
 62
    7
 10
-42.468903000000068
 20
753.90002400000003
 11
-42.218903000000068
 21
754.15002400000003
  0
LINE
  8
_0-0_0
  6
CONTINUOUS
 62
    7
 10
-46.468903000000068
 20
765.20001200000002
 11
-47.718903000000068
 21
766.45001200000002
  0
LINE
  8
_0-0_0
  6
CONTINUOUS
 62
    7
 10
-46.468903000000068
 20
754.70001200000002
 11
-47.268906000000015
 21
753.89999399999999
  0
LINE
  8
_0-0_0
  6
CONTINUOUS
 62
    7
 10
-32.468903000000068
 20
749.65002400000003
 11
-32.968735000000038
 21
749.15014599999995
  0
LINE
  8
_0-0_0
  6
CONTINUOUS
 62
    7
 10
-32.468903000000068
 20
753.65002400000003
 11
-32.968735000000038
 21
754.14984099999992
  0
LINE
  8
_0-0_0
  6
CONTINUOUS
 62
    7
 10
-46.468903000000068
 20
754.95001200000002
 11
-46.068909000000076
 21
754.95001200000002
  0
LINE
  8
_0-0_0
  6
CONTINUOUS
 62
    7
 10
-46.468903000000068
 20
764.95001200000002
 11
-46.068909000000076
 21
764.95001200000002
  0
LINE
  8
_0-0_0
  6
CONTINUOUS
 62
    7
 10
-45.268906000000015
 20
755.41189600000007
 11
-46.068909000000076
 21
754.95001200000002
  0
LINE
  8
_0-0_0
  6
CONTINUOUS
 62
    7
 10
-45.268906000000015
 20
764.48812900000007
 11
-46.068909000000076
 21
764.95001200000002
  0
LINE
  8
_0-0_0
  6
CONTINUOUS
 62
    7
 10
-45.268906000000015
 20
755.95001200000002
 11
12.731093999999985
 21
755.95001200000002
  0
LINE
  8
_0-0_0
  6
CONTINUOUS
 62
    7
 10
-45.268906000000015
 20
763.95001200000002
 11
12.731093999999985
 21
763.95001200000002
  0
LINE
  8
_0-0_0
  6
CONTINUOUS
 62
    7
 10
-62.718933000000106
 20
770.5
 11
-42.468903000000068
 21
770.5
  0
LINE
  8
_0-0_0
  6
CONTINUOUS
 62
    7
 10
-42.468903000000068
 20
770.5
 11
-42.218903000000068
 21
770.75
  0
LINE
  8
_0-0_0
  6
CONTINUOUS
 62
    7
 10
-47.268906000000015
 20
766
 11
-42.468903000000068
 21
766
  0
LINE
  8
_0-0_0
  6
CONTINUOUS
 62
    7
 10
-42.468903000000068
 20
766
 11
-42.218903000000068
 21
765.75
  0
LINE
  8
_0-0_0
  6
CONTINUOUS
 62
    7
 10
-32.468903000000068
 20
770.25
 11
-32.968735000000038
 21
770.74984700000005
  0
LINE
  8
_0-0_0
  6
CONTINUOUS
 62
    7
 10
-32.468903000000068
 20
766.25
 11
-32.968735000000038
 21
765.75015299999995
  0
LINE
  8
_0-0_0
  6
CONTINUOUS
 62
    7
 10
1595.531189
 20
802.15002400000003
 11
1595.531189
 21
789.15002400000003
  0
LINE
  8
_0-0_0
  6
CONTINUOUS
 62
    7
 10
-177.46887200000003
 20
802.15002400000003
 11
-177.46887200000003
 21
789.15002400000003
  0
LINE
  8
_0-0_0
  6
CONTINUOUS
 62
    7
 10
-177.46887200000003
 20
802.15002400000003
 11
1595.531189
 21
802.15002400000003
  0
LINE
  8
_0-0_0
  6
CONTINUOUS
 62
    7
 10
-177.46887200000003
 20
802.15002400000003
 11
-177.46887200000003
 21
820.75
  0
LINE
  8
_0-0_0
  6
CONTINUOUS
 62
    7
 10
-177.46887200000003
 20
823.25
 11
-177.46887200000003
 21
820.75
  0
LINE
  8
_0-0_0
  6
CONTINUOUS
 62
    7
 10
-177.46887200000003
 20
823.75
 11
-177.46887200000003
 21
823.25
  0
LINE
  8
_0-0_0
  6
CONTINUOUS
 62
    7
 10
-177.46887200000003
 20
775.75
 11
-177.46887200000003
 21
775.25
  0
LINE
  8
_0-0_0
  6
CONTINUOUS
 62
    7
 10
-177.46887200000003
 20
780.75
 11
-177.46887200000003
 21
775.75
  0
LINE
  8
_0-0_0
  6
CONTINUOUS
 62
    7
 10
-177.46887200000003
 20
781.25
 11
-177.46887200000003
 21
780.75
  0
LINE
  8
_0-0_0
  6
CONTINUOUS
 62
    7
 10
-177.46887200000003
 20
781.75
 11
-177.46887200000003
 21
781.25
  0
LINE
  8
_0-0_0
  6
CONTINUOUS
 62
    7
 10
-177.46887200000003
 20
784.95001200000002
 11
-177.46887200000003
 21
781.75
  0
LINE
  8
_0-0_0
  6
CONTINUOUS
 62
    7
 10
-177.46887200000003
 20
784.95001200000002
 11
-177.46887200000003
 21
789.15002400000003
  0
LINE
  8
_0-0_0
  6
CONTINUOUS
 62
    7
 10
-177.46887200000003
 20
789.15002400000003
 11
1595.531189
 21
789.15002400000003
  0
LINE
  8
_0-0_0
  6
CONTINUOUS
 62
    7
 10
1595.531189
 20
784.95001200000002
 11
1595.531189
 21
789.15002400000003
  0
LINE
  8
_0-0_0
  6
CONTINUOUS
 62
    7
 10
1595.531189
 20
781.75
 11
1595.531189
 21
784.95001200000002
  0
LINE
  8
_0-0_0
  6
CONTINUOUS
 62
    7
 10
1595.531189
 20
781.75
 11
1595.531189
 21
781.25
  0
LINE
  8
_0-0_0
  6
CONTINUOUS
 62
    7
 10
1595.531189
 20
781.25
 11
1595.531189
 21
780.75
  0
LINE
  8
_0-0_0
  6
CONTINUOUS
 62
    7
 10
1595.531189
 20
780.75
 11
1595.531189
 21
775.75
  0
LINE
  8
_0-0_0
  6
CONTINUOUS
 62
    7
 10
1595.531189
 20
775.75
 11
1595.531189
 21
775.25
  0
LINE
  8
_0-0_0
  6
CONTINUOUS
 62
    7
 10
1595.531189
 20
823.75
 11
1595.531189
 21
823.25
  0
LINE
  8
_0-0_0
  6
CONTINUOUS
 62
    7
 10
1595.531189
 20
820.75
 11
1595.531189
 21
823.25
  0
LINE
  8
_0-0_0
  6
CONTINUOUS
 62
    7
 10
1595.531189
 20
802.15002400000003
 11
1595.531189
 21
820.75
  0
CIRCLE
  8
_0-0_0
  6
CONTINUOUS
 62
    7
 10
1559.031189
 20
811.25
 40
6
  0
CIRCLE
  8
_0-0_0
  6
CONTINUOUS
 62
    7
 10
1459.031189
 20
811.25
 40
6
  0
CIRCLE
  8
_0-0_0
  6
CONTINUOUS
 62
    7
 10
1359.031189
 20
811.25
 40
6
  0
CIRCLE
  8
_0-0_0
  6
CONTINUOUS
 62
    7
 10
1259.031189
 20
811.25
 40
6
  0
CIRCLE
  8
_0-0_0
  6
CONTINUOUS
 62
    7
 10
1159.031189
 20
811.25
 40
6
  0
CIRCLE
  8
_0-0_0
  6
CONTINUOUS
 62
    7
 10
1059.0311889999998
 20
811.25
 40
6
  0
CIRCLE
  8
_0-0_0
  6
CONTINUOUS
 62
    7
 10
959.03118899999993
 20
811.25
 40
6
  0
CIRCLE
  8
_0-0_0
  6
CONTINUOUS
 62
    7
 10
859.03118899999993
 20
811.25
 40
6
  0
CIRCLE
  8
_0-0_0
  6
CONTINUOUS
 62
    7
 10
759.03106700000001
 20
811.25
 40
6
  0
CIRCLE
  8
_0-0_0
  6
CONTINUOUS
 62
    7
 10
659.03106700000001
 20
811.25
 40
6
  0
CIRCLE
  8
_0-0_0
  6
CONTINUOUS
 62
    7
 10
559.03106699999989
 20
811.25
 40
6
  0
CIRCLE
  8
_0-0_0
  6
CONTINUOUS
 62
    7
 10
459.03106699999995
 20
811.25
 40
6
  0
CIRCLE
  8
_0-0_0
  6
CONTINUOUS
 62
    7
 10
359.03106699999995
 20
811.25
 40
6
  0
CIRCLE
  8
_0-0_0
  6
CONTINUOUS
 62
    7
 10
259.031113
 20
811.25
 40
6
  0
CIRCLE
  8
_0-0_0
  6
CONTINUOUS
 62
    7
 10
159.031113
 20
811.25
 40
6
  0
CIRCLE
  8
_0-0_0
  6
CONTINUOUS
 62
    7
 10
59.031113000000005
 20
811.25
 40
6
  0
CIRCLE
  8
_0-0_0
  6
CONTINUOUS
 62
    7
 10
-40.968903000000068
 20
811.25
 40
6
  0
CIRCLE
  8
_0-0_0
  6
CONTINUOUS
 62
    7
 10
-140.96890300000007
 20
811.25
 40
6
  0
LINE
  8
_0-0_0
  6
CONTINUOUS
 62
    7
 10
-177.46887200000003
 20
820.75
 11
1595.531189
 21
820.75
  0
LINE
  8
_0-0_0
  6
CONTINUOUS
 62
    7
 10
-177.46887200000003
 20
823.75
 11
1595.531189
 21
823.75
  0
LINE
  8
_0-0_0
  6
CONTINUOUS
 62
    7
 10
-177.46887200000003
 20
823.25
 11
-179.96887200000003
 21
823.25
  0
LINE
  8
_0-0_0
  6
CONTINUOUS
 62
    7
 10
-179.96887200000003
 20
823.25
 11
-179.96887200000003
 21
822.75
  0
LINE
  8
_0-0_0
  6
CONTINUOUS
 62
    7
 10
-179.96887200000003
 20
822.75
 11
-179.96887200000003
 21
782.25
  0
LINE
  8
_0-0_0
  6
CONTINUOUS
 62
    7
 10
-177.46887200000003
 20
781.75
 11
-179.96887200000003
 21
781.75
  0
LINE
  8
_0-0_0
  6
CONTINUOUS
 62
    7
 10
-179.96887200000003
 20
782.25
 11
-179.96887200000003
 21
781.75
  0
LINE
  8
_0-0_0
  6
CONTINUOUS
 62
    7
 10
-179.96887200000003
 20
781.75
 11
-179.96887200000003
 21
780.75
  0
LINE
  8
_0-0_0
  6
CONTINUOUS
 62
    7
 10
-179.96887200000003
 20
780.75
 11
-179.96887200000003
 21
776.25
  0
LINE
  8
_0-0_0
  6
CONTINUOUS
 62
    7
 10
-177.46887200000003
 20
775.75
 11
-179.96887200000003
 21
775.75
  0
LINE
  8
_0-0_0
  6
CONTINUOUS
 62
    7
 10
-179.96887200000003
 20
776.25
 11
-179.96887200000003
 21
775.75
  0
LINE
  8
_0-0_0
  6
CONTINUOUS
 62
    7
 10
-177.46887200000003
 20
775.25
 11
1595.531189
 21
775.25
  0
LINE
  8
_0-0_0
  6
CONTINUOUS
 62
    7
 10
-177.46887200000003
 20
781.25
 11
1595.531189
 21
781.25
  0
LINE
  8
_0-0_0
  6
CONTINUOUS
 62
    7
 10
-177.46887200000003
 20
784.95001200000002
 11
1595.531189
 21
784.95001200000002
  0
LINE
  8
_0-0_0
  6
CONTINUOUS
 62
    7
 10
1595.531189
 20
823.25
 11
1598.031189
 21
823.25
  0
LINE
  8
_0-0_0
  6
CONTINUOUS
 62
    7
 10
1598.031189
 20
823.25
 11
1598.031189
 21
822.75
  0
LINE
  8
_0-0_0
  6
CONTINUOUS
 62
    7
 10
1598.031189
 20
822.75
 11
1598.031189
 21
782.25
  0
LINE
  8
_0-0_0
  6
CONTINUOUS
 62
    7
 10
1595.531189
 20
781.75
 11
1598.031189
 21
781.75
  0
LINE
  8
_0-0_0
  6
CONTINUOUS
 62
    7
 10
1598.031189
 20
782.25
 11
1598.031189
 21
781.75
  0
LINE
  8
_0-0_0
  6
CONTINUOUS
 62
    7
 10
1598.031189
 20
781.75
 11
1598.031189
 21
780.75
  0
LINE
  8
_0-0_0
  6
CONTINUOUS
 62
    7
 10
1598.031189
 20
780.75
 11
1598.031189
 21
776.25
  0
LINE
  8
_0-0_0
  6
CONTINUOUS
 62
    7
 10
1595.531189
 20
775.75
 11
1598.031189
 21
775.75
  0
LINE
  8
_0-0_0
  6
CONTINUOUS
 62
    7
 10
1598.031189
 20
776.25
 11
1598.031189
 21
775.75
  0
ARC
  8
_0-0_0
  6
CONTINUOUS
 62
    7
 10
-119.96890300000007
 20
776.25
 40
0.5
 50
269.99999700000001
 51
0
  0
LINE
  8
_0-0_0
  6
CONTINUOUS
 62
    7
 10
-119.96890300000007
 20
775.75
 11
-126.96890300000007
 21
775.75
  0
ARC
  8
_0-0_0
  6
CONTINUOUS
 62
    7
 10
-126.96890300000007
 20
776.25
 40
0.5
 50
179.99999099999999
 51
269.99999700000001
  0
LINE
  8
_0-0_0
  6
CONTINUOUS
 62
    7
 10
-127.46890300000007
 20
780.25
 11
-127.46890300000007
 21
776.25
  0
ARC
  8
_0-0_0
  6
CONTINUOUS
 62
    7
 10
-126.96890300000007
 20
780.25
 40
0.5
 50
90.000003000000007
 51
179.99999099999999
  0
ARC
  8
_0-0_0
  6
CONTINUOUS
 62
    7
 10
-119.96890300000007
 20
780.25
 40
0.5
 50
0
 51
90.000003000000007
  0
LINE
  8
_0-0_0
  6
CONTINUOUS
 62
    7
 10
-126.96890300000007
 20
780.75
 11
-119.96890300000007
 21
780.75
  0
LINE
  8
_0-0_0
  6
CONTINUOUS
 62
    7
 10
1595.531189
 20
823.75
 11
1595.531189
 21
823.45001200000002
  0
LINE
  8
_0-0_0
  6
CONTINUOUS
 62
    7
 10
1595.531189
 20
823.45001200000002
 11
1595.531189
 21
823.25
  0
CIRCLE
  8
_0-0_0
  6
CONTINUOUS
 62
    7
 10
1559.031189
 20
811.25
 40
5.5
  0
CIRCLE
  8
_0-0_0
  6
CONTINUOUS
 62
    7
 10
1459.031189
 20
811.25
 40
5.5
  0
CIRCLE
  8
_0-0_0
  6
CONTINUOUS
 62
    7
 10
1359.031189
 20
811.25
 40
5.5
  0
CIRCLE
  8
_0-0_0
  6
CONTINUOUS
 62
    7
 10
1259.031189
 20
811.25
 40
5.5
  0
CIRCLE
  8
_0-0_0
  6
CONTINUOUS
 62
    7
 10
1159.031189
 20
811.25
 40
5.5
  0
CIRCLE
  8
_0-0_0
  6
CONTINUOUS
 62
    7
 10
1059.0311889999998
 20
811.25
 40
5.5
  0
CIRCLE
  8
_0-0_0
  6
CONTINUOUS
 62
    7
 10
959.03118899999993
 20
811.25
 40
5.5
  0
CIRCLE
  8
_0-0_0
  6
CONTINUOUS
 62
    7
 10
859.03118899999993
 20
811.25
 40
5.5
  0
CIRCLE
  8
_0-0_0
  6
CONTINUOUS
 62
    7
 10
759.03106700000001
 20
811.25
 40
5.5
  0
CIRCLE
  8
_0-0_0
  6
CONTINUOUS
 62
    7
 10
659.03106700000001
 20
811.25
 40
5.5
  0
CIRCLE
  8
_0-0_0
  6
CONTINUOUS
 62
    7
 10
559.03106699999989
 20
811.25
 40
5.5
  0
CIRCLE
  8
_0-0_0
  6
CONTINUOUS
 62
    7
 10
459.03106699999995
 20
811.25
 40
5.5
  0
CIRCLE
  8
_0-0_0
  6
CONTINUOUS
 62
    7
 10
359.03106699999995
 20
811.25
 40
5.5
  0
CIRCLE
  8
_0-0_0
  6
CONTINUOUS
 62
    7
 10
259.031113
 20
811.25
 40
5.5
  0
CIRCLE
  8
_0-0_0
  6
CONTINUOUS
 62
    7
 10
159.031113
 20
811.25
 40
5.5
  0
CIRCLE
  8
_0-0_0
  6
CONTINUOUS
 62
    7
 10
59.031113000000005
 20
811.25
 40
5.5
  0
CIRCLE
  8
_0-0_0
  6
CONTINUOUS
 62
    7
 10
-40.968903000000068
 20
811.25
 40
5.5
  0
CIRCLE
  8
_0-0_0
  6
CONTINUOUS
 62
    7
 10
-140.96890300000007
 20
811.25
 40
5.5
  0
LINE
  8
_0-0_0
  6
CONTINUOUS
 62
    7
 10
-119.46890300000007
 20
776.25
 11
-119.46890300000007
 21
780.25
  0
CIRCLE
  8
_0-0_0
  6
CONTINUOUS
 62
    7
 10
1559.031189
 20
811.25
 40
3.5
  0
CIRCLE
  8
_0-0_0
  6
CONTINUOUS
 62
    7
 10
1459.031189
 20
811.25
 40
3.5
  0
CIRCLE
  8
_0-0_0
  6
CONTINUOUS
 62
    7
 10
1359.031189
 20
811.25
 40
3.5
  0
CIRCLE
  8
_0-0_0
  6
CONTINUOUS
 62
    7
 10
1259.031189
 20
811.25
 40
3.5
  0
CIRCLE
  8
_0-0_0
  6
CONTINUOUS
 62
    7
 10
1159.031189
 20
811.25
 40
3.5
  0
CIRCLE
  8
_0-0_0
  6
CONTINUOUS
 62
    7
 10
1059.0311889999998
 20
811.25
 40
3.5
  0
CIRCLE
  8
_0-0_0
  6
CONTINUOUS
 62
    7
 10
959.03118899999993
 20
811.25
 40
3.5
  0
CIRCLE
  8
_0-0_0
  6
CONTINUOUS
 62
    7
 10
859.03118899999993
 20
811.25
 40
3.5
  0
CIRCLE
  8
_0-0_0
  6
CONTINUOUS
 62
    7
 10
759.03106700000001
 20
811.25
 40
3.5
  0
CIRCLE
  8
_0-0_0
  6
CONTINUOUS
 62
    7
 10
659.03106700000001
 20
811.25
 40
3.5
  0
CIRCLE
  8
_0-0_0
  6
CONTINUOUS
 62
    7
 10
559.03106699999989
 20
811.25
 40
3.5
  0
CIRCLE
  8
_0-0_0
  6
CONTINUOUS
 62
    7
 10
459.03106699999995
 20
811.25
 40
3.5
  0
CIRCLE
  8
_0-0_0
  6
CONTINUOUS
 62
    7
 10
359.03106699999995
 20
811.25
 40
3.5
  0
CIRCLE
  8
_0-0_0
  6
CONTINUOUS
 62
    7
 10
259.031113
 20
811.25
 40
3.5
  0
CIRCLE
  8
_0-0_0
  6
CONTINUOUS
 62
    7
 10
159.031113
 20
811.25
 40
3.5
  0
CIRCLE
  8
_0-0_0
  6
CONTINUOUS
 62
    7
 10
59.031113000000005
 20
811.25
 40
3.5
  0
CIRCLE
  8
_0-0_0
  6
CONTINUOUS
 62
    7
 10
-40.968903000000068
 20
811.25
 40
3.5
  0
CIRCLE
  8
_0-0_0
  6
CONTINUOUS
 62
    7
 10
-140.96890300000007
 20
811.25
 40
3.5
  0
ARC
  8
_0-0_0
  6
CONTINUOUS
 62
    7
 10
-122.16890000000001
 20
779.95001200000002
 40
0.2
 50
339.62356199999999
 51
90.000002999999978
  0
LINE
  8
_0-0_0
  6
CONTINUOUS
 62
    7
 10
-121.98141499999997
 20
779.88037099999997
 11
-123.28141800000003
 21
776.38037099999997
  0
ARC
  8
_0-0_0
  6
CONTINUOUS
 62
    7
 10
-123.46890300000007
 20
776.45001200000002
 40
0.2
 50
200.37643
 51
339.62356199999999
  0
LINE
  8
_0-0_0
  6
CONTINUOUS
 62
    7
 10
-124.95637499999998
 20
779.88037099999997
 11
-123.656387
 21
776.38037099999997
  0
ARC
  8
_0-0_0
  6
CONTINUOUS
 62
    7
 10
-124.76890600000002
 20
779.95001200000002
 40
0.2
 50
90.000003000000007
 51
200.37643
  0
LINE
  8
_0-0_0
  6
CONTINUOUS
 62
    7
 10
-124.76890600000002
 20
780.15002400000003
 11
-122.16890000000001
 21
780.15002400000003
  0
ARC
  8
_0-0_0
  6
CONTINUOUS
 62
    7
 10
1515.2311399999999
 20
779.95001200000002
 40
0.2
 50
90.000003000000007
 51
200.37643
  0
LINE
  8
_0-0_0
  6
CONTINUOUS
 62
    7
 10
1515.2311399999999
 20
780.15002400000003
 11
1517.831238
 21
780.15002400000003
  0
ARC
  8
_0-0_0
  6
CONTINUOUS
 62
    7
 10
1513.031189
 20
780.25
 40
0.5
 50
90.000003000000007
 51
179.99999099999999
  0
LINE
  8
_0-0_0
  6
CONTINUOUS
 62
    7
 10
1512.531189
 20
780.25
 11
1512.531189
 21
776.25
  0
ARC
  8
_0-0_0
  6
CONTINUOUS
 62
    7
 10
1513.031189
 20
776.25
 40
0.5
 50
179.99999099999999
 51
269.99999700000001
  0
LINE
  8
_0-0_0
  6
CONTINUOUS
 62
    7
 10
1520.031189
 20
775.75
 11
1513.031189
 21
775.75
  0
ARC
  8
_0-0_0
  6
CONTINUOUS
 62
    7
 10
1520.031189
 20
776.25
 40
0.5
 50
269.99999700000001
 51
0
  0
LINE
  8
_0-0_0
  6
CONTINUOUS
 62
    7
 10
1520.531189
 20
776.25
 11
1520.531189
 21
780.25
  0
ARC
  8
_0-0_0
  6
CONTINUOUS
 62
    7
 10
1520.031189
 20
780.25
 40
0.5
 50
0
 51
90.000003000000007
  0
LINE
  8
_0-0_0
  6
CONTINUOUS
 62
    7
 10
1513.031189
 20
780.75
 11
1520.031189
 21
780.75
  0
LINE
  8
_0-0_0
  6
CONTINUOUS
 62
    7
 10
1515.043762
 20
779.88037099999997
 11
1516.343689
 21
776.38037099999997
  0
ARC
  8
_0-0_0
  6
CONTINUOUS
 62
    7
 10
1516.531189
 20
776.45001200000002
 40
0.2
 50
200.37643
 51
339.62356199999999
  0
LINE
  8
_0-0_0
  6
CONTINUOUS
 62
    7
 10
1518.0186160000001
 20
779.88037099999997
 11
1516.718689
 21
776.38037099999997
  0
ARC
  8
_0-0_0
  6
CONTINUOUS
 62
    7
 10
1517.831238
 20
779.95001200000002
 40
0.2
 50
339.62356199999999
 51
90.000002999999978
  0
LINE
  8
_0-0_0
  6
CONTINUOUS
 62
    7
 10
-235.39355500000011
 20
773.25
 11
-235.29357900000014
 21
773.25
  0
LINE
  8
_0-0_0
  6
CONTINUOUS
 62
    7
 10
-219.59356700000012
 20
773.25
 11
-220.29357900000014
 21
773.25
  0
LINE
  8
_0-0_0
  6
CONTINUOUS
 62
    7
 10
-219.59356700000012
 20
773.25
 11
-218.39355500000011
 21
773.25
  0
ARC
  8
_0-0_0
  6
CONTINUOUS
 62
    7
 10
-218.39355500000011
 20
772.75
 40
0.5
 50
0
 51
90.000003000000007
  0
ARC
  8
_0-0_0
  6
CONTINUOUS
 62
    7
 10
-219.59356700000012
 20
772.75
 40
0.5
 50
90.000003000000007
 51
179.99999099999999
  0
ARC
  8
_0-0_0
  6
CONTINUOUS
 62
    7
 10
-235.39355500000011
 20
772.75
 40
0.5
 50
90.000003000000007
 51
179.99999099999999
  0
ARC
  8
_0-0_0
  6
CONTINUOUS
 62
    7
 10
-233.89355500000011
 20
773.75
 40
0.5
 50
90.000003000000007
 51
126.868797
  0
LINE
  8
_0-0_0
  6
CONTINUOUS
 62
    7
 10
-232.39355500000011
 20
774.25
 11
-233.89355500000011
 21
774.25
  0
ARC
  8
_0-0_0
  6
CONTINUOUS
 62
    7
 10
-232.39355500000011
 20
775.25
 40
1
 50
269.99999700000001
 51
0
  0
LINE
  8
_0-0_0
  6
CONTINUOUS
 62
    7
 10
-231.39355500000011
 20
775.75
 11
-231.39355500000011
 21
775.25
  0
LINE
  8
_0-0_0
  6
CONTINUOUS
 62
    7
 10
-230.89355500000011
 20
775.75
 11
-230.89355500000011
 21
774.75
  0
ARC
  8
_0-0_0
  6
CONTINUOUS
 62
    7
 10
-232.39355500000011
 20
774.75
 40
1.5
 50
336.42205899999999
 51
0
  0
ARC
  8
_0-0_0
  6
CONTINUOUS
 62
    7
 10
-220.79357900000014
 20
774.75
 40
1.5
 50
179.99999099999999
 51
203.57793100000001
  0
LINE
  8
_0-0_0
  6
CONTINUOUS
 62
    7
 10
-218.79357900000014
 20
773.75
 11
-218.79357900000014
 21
773.25
  0
ARC
  8
_0-0_0
  6
CONTINUOUS
 62
    7
 10
-219.29357900000014
 20
773.75
 40
0.5
 50
0
 51
90.000003000000007
  0
LINE
  8
_0-0_0
  6
CONTINUOUS
 62
    7
 10
-220.79357900000014
 20
774.25
 11
-219.29357900000014
 21
774.25
  0
ARC
  8
_0-0_0
  6
CONTINUOUS
 62
    7
 10
-220.79357900000014
 20
775.25
 40
1
 50
179.99999099999999
 51
269.99999700000001
  0
LINE
  8
_0-0_0
  6
CONTINUOUS
 62
    7
 10
-221.79357900000014
 20
775.75
 11
-221.79357900000014
 21
775.25
  0
LINE
  8
_0-0_0
  6
CONTINUOUS
 62
    7
 10
-222.29357900000014
 20
775.75
 11
-222.29357900000014
 21
774.75
  0
LINE
  8
_0-0_0
  6
CONTINUOUS
 62
    7
 10
-217.89355500000011
 20
746.25
 11
-217.89355500000011
 21
747.15002400000003
  0
LINE
  8
_0-0_0
  6
CONTINUOUS
 62
    7
 10
-217.89355500000011
 20
747.15002400000003
 11
-217.89355500000011
 21
749.65002400000003
  0
LINE
  8
_0-0_0
  6
CONTINUOUS
 62
    7
 10
-217.89355500000011
 20
749.65002400000003
 11
-217.89355500000011
 21
770.25
  0
LINE
  8
_0-0_0
  6
CONTINUOUS
 62
    7
 10
-217.89355500000011
 20
770.25
 11
-217.89355500000011
 21
772.75
  0
LINE
  8
_0-0_0
  6
CONTINUOUS
 62
    7
 10
-220.09356700000012
 20
772.75
 11
-220.09356700000012
 21
771.50500499999998
  0
LINE
  8
_0-0_0
  6
CONTINUOUS
 62
    7
 10
-222.49352999999996
 20
774.15002400000003
 11
-222.49352999999996
 21
775.55001800000002
  0
ARC
  8
_0-0_0
  6
CONTINUOUS
 62
    7
 10
-222.99352999999996
 20
775.55001800000002
 40
0.5
 50
0
 51
23.579369
  0
LINE
  8
_0-0_0
  6
CONTINUOUS
 62
    7
 10
-230.69354300000009
 20
774.15002400000003
 11
-230.69354300000009
 21
775.55001800000002
  0
ARC
  8
_0-0_0
  6
CONTINUOUS
 62
    7
 10
-230.19354300000009
 20
775.55001800000002
 40
0.5
 50
156.420635
 51
179.99999099999999
  0
LINE
  8
_0-0_0
  6
CONTINUOUS
 62
    7
 10
-235.89355500000011
 20
746.25
 11
-235.89355500000011
 21
756.45001200000002
  0
LINE
  8
_0-0_0
  6
CONTINUOUS
 62
    7
 10
-235.89355500000011
 20
756.45001200000002
 11
-235.89355500000011
 21
757.45001200000002
  0
LINE
  8
_0-0_0
  6
CONTINUOUS
 62
    7
 10
-235.89355500000011
 20
757.45001200000002
 11
-235.89355500000011
 21
762.45001200000002
  0
LINE
  8
_0-0_0
  6
CONTINUOUS
 62
    7
 10
-235.89355500000011
 20
762.45001200000002
 11
-235.89355500000011
 21
763.45001200000002
  0
LINE
  8
_0-0_0
  6
CONTINUOUS
 62
    7
 10
-235.89355500000011
 20
772.75
 11
-235.89355500000011
 21
763.45001200000002
  0
ARC
  8
_0-0_0
  6
CONTINUOUS
 62
    7
 10
-234.79357900000014
 20
762.45001200000002
 40
0.5
 50
0
 51
90.000003000000007
  0
LINE
  8
_0-0_0
  6
CONTINUOUS
 62
    7
 10
-234.69354300000009
 20
763.40002400000003
 11
-234.79357900000014
 21
763.40002400000003
  0
ARC
  8
_0-0_0
  6
CONTINUOUS
 62
    7
 10
-234.69354300000009
 20
762.90002400000003
 40
0.5
 50
0
 51
90.000003000000007
  0
LINE
  8
_0-0_0
  6
CONTINUOUS
 62
    7
 10
-234.29357900000014
 20
762.45001200000002
 11
-234.29357900000014
 21
757.45001200000002
  0
ARC
  8
_0-0_0
  6
CONTINUOUS
 62
    7
 10
-234.79357900000014
 20
757.45001200000002
 40
0.5
 50
269.99999700000001
 51
0
  0
ARC
  8
_0-0_0
  6
CONTINUOUS
 62
    7
 10
-234.69354300000009
 20
757.35000600000001
 40
0.5
 50
269.99999700000001
 51
0
  0
LINE
  8
_0-0_0
  6
CONTINUOUS
 62
    7
 10
-234.79357900000014
 20
756.85000600000001
 11
-234.69354300000009
 21
756.85000600000001
  0
LINE
  8
_0-0_0
  6
CONTINUOUS
 62
    7
 10
-217.09356700000012
 20
771.75
 11
-217.89355500000011
 21
771.75
  0
LINE
  8
_0-0_0
  6
CONTINUOUS
 62
    7
 10
-217.09356700000012
 20
772.55001800000002
 11
-217.89355500000011
 21
772.55001800000002
  0
LINE
  8
_0-0_0
  6
CONTINUOUS
 62
    7
 10
-217.09356700000012
 20
771.55001800000002
 11
-217.09356700000012
 21
772.55001800000002
  0
LINE
  8
_0-0_0
  6
CONTINUOUS
 62
    7
 10
-217.09356700000012
 20
752.95001200000002
 11
-217.89355500000011
 21
752.95001200000002
  0
LINE
  8
_0-0_0
  6
CONTINUOUS
 62
    7
 10
-217.09356700000012
 20
752.95001200000002
 11
-217.09356700000012
 21
755.95001200000002
  0
LINE
  8
_0-0_0
  6
CONTINUOUS
 62
    7
 10
-217.09356700000012
 20
768.18771400000003
 11
-217.09356700000012
 21
755.95001200000002
  0
LINE
  8
_0-0_0
  6
CONTINUOUS
 62
    7
 10
-217.09356700000012
 20
768.18771400000003
 11
-217.09356700000012
 21
769.15048200000001
  0
LINE
  8
_0-0_0
  6
CONTINUOUS
 62
    7
 10
-217.89355500000011
 20
769.15048200000001
 11
-217.89355500000011
 21
771.75
  0
ARC
  8
_0-0_0
  6
CONTINUOUS
 62
    7
 10
-223.50848399999995
 20
768.43206800000007
 40
5.7120379999999997
 50
18.558475999999999
 51
26.433648000000002
  0
ARC
  8
_0-0_0
  6
CONTINUOUS
 62
    7
 10
-218.09356700000012
 20
770.25
 40
0.2
 50
269.99999700000001
 51
0
  0
ARC
  8
_0-0_0
  6
CONTINUOUS
 62
    7
 10
-218.09356700000012
 20
749.65002400000003
 40
0.2
 50
0
 51
90.000003000000007
  0
ARC
  8
_0-0_0
  6
CONTINUOUS
 62
    7
 10
-223.50836200000003
 20
751.46804799999995
 40
5.711964
 50
333.565022
 51
341.44031000000001
  0
ARC
  8
_0-0_0
  6
CONTINUOUS
 62
    7
 10
-218.39355500000011
 20
747.15002400000003
 40
0.5
 50
269.99999700000001
 51
0
  0
LINE
  8
_0-0_0
  6
CONTINUOUS
 62
    7
 10
-218.39355500000011
 20
746.25
 11
-217.89355500000011
 21
746.25
  0
LINE
  8
_0-0_0
  6
CONTINUOUS
 62
    7
 10
-217.89355500000011
 20
746.25
 11
-218.39355500000011
 21
745.75
  0
ARC
  8
_0-0_0
  6
CONTINUOUS
 62
    7
 10
-220.09356700000012
 20
768.75
 40
2.2999999999999998
 50
34.417387999999995
 51
79.713437000000013
  0
LINE
  8
_0-0_0
  6
CONTINUOUS
 62
    7
 10
-218.15484599999991
 20
770.05001800000002
 11
-218.19616700000006
 21
770.05001800000002
  0
LINE
  8
_0-0_0
  6
CONTINUOUS
 62
    7
 10
-218.15484599999991
 20
770.05001800000002
 11
-218.14532499999996
 21
770.05102499999998
  0
LINE
  8
_0-0_0
  6
CONTINUOUS
 62
    7
 10
-218.14532499999996
 20
770.05102499999998
 11
-218.13580300000012
 21
770.05422999999996
  0
LINE
  8
_0-0_0
  6
CONTINUOUS
 62
    7
 10
-218.13580300000012
 20
770.05422999999996
 11
-218.12658699999997
 21
770.05963100000008
  0
LINE
  8
_0-0_0
  6
CONTINUOUS
 62
    7
 10
-218.12658699999997
 20
770.05963100000008
 11
-218.11773700000003
 21
770.067139
  0
LINE
  8
_0-0_0
  6
CONTINUOUS
 62
    7
 10
-218.11773700000003
 20
770.067139
 11
-218.1023560000001
 21
770.08776899999998
  0
LINE
  8
_0-0_0
  6
CONTINUOUS
 62
    7
 10
-218.1023560000001
 20
770.08776899999998
 11
-218.09057600000006
 21
770.11505099999999
  0
LINE
  8
_0-0_0
  6
CONTINUOUS
 62
    7
 10
-218.09057600000006
 20
770.11505099999999
 11
-218.08343500000001
 21
770.14718599999992
  0
LINE
  8
_0-0_0
  6
CONTINUOUS
 62
    7
 10
-218.08343500000001
 20
770.14718599999992
 11
-218.08154300000001
 21
770.18225099999995
  0
LINE
  8
_0-0_0
  6
CONTINUOUS
 62
    7
 10
-218.08154300000001
 20
770.18225099999995
 11
-218.08538799999997
 21
770.21841399999994
  0
LINE
  8
_0-0_0
  6
CONTINUOUS
 62
    7
 10
-218.08538799999997
 20
770.21841399999994
 11
-218.09356700000012
 21
770.25
  0
ARC
  8
_0-0_0
  6
CONTINUOUS
 62
    7
 10
-219.59356700000012
 20
771.50500499999998
 40
0.5
 50
179.99999099999999
 51
259.71343899999994
  0
LINE
  8
_0-0_0
  6
CONTINUOUS
 62
    7
 10
-220.29357900000014
 20
771.60000600000001
 11
-220.29357900000014
 21
771.30657999999994
  0
LINE
  8
_0-0_0
  6
CONTINUOUS
 62
    7
 10
-220.29357900000014
 20
771.60000600000001
 11
-220.29357900000014
 21
773.65002400000003
  0
ARC
  8
_0-0_0
  6
CONTINUOUS
 62
    7
 10
-220.79357900000014
 20
773.65002400000003
 40
0.5
 50
0
 51
90.000003000000007
  0
LINE
  8
_0-0_0
  6
CONTINUOUS
 62
    7
 10
-220.79357900000014
 20
774.15002400000003
 11
-223.53643800000009
 21
774.15002400000003
  0
ARC
  8
_0-0_0
  6
CONTINUOUS
 62
    7
 10
-234.79357900000014
 20
763.90002400000003
 40
0.5
 50
179.99999099999999
 51
269.99999700000001
  0
LINE
  8
_0-0_0
  6
CONTINUOUS
 62
    7
 10
-235.29357900000014
 20
773.65002400000003
 11
-235.29357900000014
 21
763.90002400000003
  0
LINE
  8
_0-0_0
  6
CONTINUOUS
 62
    7
 10
-229.65063499999997
 20
774.15002400000003
 11
-234.79357900000014
 21
774.15002400000003
  0
ARC
  8
_0-0_0
  6
CONTINUOUS
 62
    7
 10
-234.79357900000014
 20
773.65002400000003
 40
0.5
 50
90.000003000000007
 51
179.99999099999999
  0
LINE
  8
_0-0_0
  6
CONTINUOUS
 62
    7
 10
-236.09356700000012
 20
771.75
 11
-235.89355500000011
 21
771.75
  0
LINE
  8
_0-0_0
  6
CONTINUOUS
 62
    7
 10
-236.09356700000012
 20
772.55001800000002
 11
-235.89355500000011
 21
772.55001800000002
  0
LINE
  8
_0-0_0
  6
CONTINUOUS
 62
    7
 10
-236.09356700000012
 20
772.55001800000002
 11
-236.09356700000012
 21
771.75012199999992
  0
LINE
  8
_0-0_0
  6
CONTINUOUS
 62
    7
 10
-236.09356700000012
 20
752.95001200000002
 11
-235.89355500000011
 21
752.95001200000002
  0
LINE
  8
_0-0_0
  6
CONTINUOUS
 62
    7
 10
-236.09356700000012
 20
755.95001200000002
 11
-236.09356700000012
 21
752.95001200000002
  0
LINE
  8
_0-0_0
  6
CONTINUOUS
 62
    7
 10
-236.09356700000012
 20
768.18771400000003
 11
-236.09356700000012
 21
755.95001200000002
  0
LINE
  8
_0-0_0
  6
CONTINUOUS
 62
    7
 10
-236.09356700000012
 20
769.15048200000001
 11
-236.09356700000012
 21
768.18771400000003
  0
ARC
  8
_0-0_0
  6
CONTINUOUS
 62
    7
 10
-235.39355500000011
 20
762.45001200000002
 40
0.5
 50
90.000003000000007
 51
179.99999099999999
  0
ARC
  8
_0-0_0
  6
CONTINUOUS
 62
    7
 10
-235.39355500000011
 20
757.45001200000002
 40
0.5
 50
179.99999099999999
 51
269.99999700000001
  0
LINE
  8
_0-0_0
  6
CONTINUOUS
 62
    7
 10
-235.89355500000011
 20
746.25
 11
-235.39355500000011
 21
746.25
  0
LINE
  8
_0-0_0
  6
CONTINUOUS
 62
    7
 10
-235.89355500000011
 20
746.25
 11
-235.39355500000011
 21
745.75
  0
LINE
  8
_0-0_0
  6
CONTINUOUS
 62
    7
 10
-234.79357900000014
 20
762.95001200000002
 11
-235.39355500000011
 21
762.95001200000002
  0
LINE
  8
_0-0_0
  6
CONTINUOUS
 62
    7
 10
-234.19354300000009
 20
762.90002400000003
 11
-234.19354300000009
 21
757.35000600000001
  0
LINE
  8
_0-0_0
  6
CONTINUOUS
 62
    7
 10
-218.39355500000011
 20
746.25
 11
-235.39355500000011
 21
746.25
  0
LINE
  8
_0-0_0
  6
CONTINUOUS
 62
    7
 10
-235.39355500000011
 20
756.95001200000002
 11
-234.79357900000014
 21
756.95001200000002
  0
ARC
  8
_0-0_0
  6
CONTINUOUS
 62
    7
 10
-234.79357900000014
 20
756.35000600000001
 40
0.5
 50
90.000003000000007
 51
179.99999099999999
  0
LINE
  8
_0-0_0
  6
CONTINUOUS
 62
    7
 10
-217.09356700000012
 20
769.15048200000001
 11
-217.09356700000012
 21
771.75
  0
LINE
  8
_0-0_0
  6
CONTINUOUS
 62
    7
 10
-218.09356700000012
 20
770.05001800000002
 11
-218.15484599999991
 21
770.05001800000002
  0
LINE
  8
_0-0_0
  6
CONTINUOUS
 62
    7
 10
-218.19616700000006
 20
770.05001800000002
 11
-218.19842500000004
 21
770.05001800000002
  0
LINE
  8
_0-0_0
  6
CONTINUOUS
 62
    7
 10
-218.33007799999996
 20
750.05001800000002
 11
-218.29315199999996
 21
749.97976700000004
  0
LINE
  8
_0-0_0
  6
CONTINUOUS
 62
    7
 10
-218.29315199999996
 20
749.97976700000004
 11
-218.27356000000009
 21
749.94531299999994
  0
LINE
  8
_0-0_0
  6
CONTINUOUS
 62
    7
 10
-218.27356000000009
 20
749.94531299999994
 11
-218.24749800000018
 21
749.90344200000004
  0
LINE
  8
_0-0_0
  6
CONTINUOUS
 62
    7
 10
-218.24749800000018
 20
749.90344200000004
 11
-218.23413100000016
 21
749.88439900000003
  0
LINE
  8
_0-0_0
  6
CONTINUOUS
 62
    7
 10
-218.23413100000016
 20
749.88439900000003
 11
-218.21582000000012
 21
749.86203
  0
LINE
  8
_0-0_0
  6
CONTINUOUS
 62
    7
 10
-218.21582000000012
 20
749.86203
 11
-218.20300300000008
 21
749.85140999999999
  0
LINE
  8
_0-0_0
  6
CONTINUOUS
 62
    7
 10
-218.20300300000008
 20
749.85140999999999
 11
-218.19842500000004
 21
749.85000600000001
  0
LINE
  8
_0-0_0
  6
CONTINUOUS
 62
    7
 10
-218.19616700000006
 20
749.85000600000001
 11
-218.19842500000004
 21
749.85000600000001
  0
LINE
  8
_0-0_0
  6
CONTINUOUS
 62
    7
 10
-218.33007799999996
 20
769.85000600000001
 11
-218.29315199999996
 21
769.92022700000007
  0
LINE
  8
_0-0_0
  6
CONTINUOUS
 62
    7
 10
-218.29315199999996
 20
769.92022700000007
 11
-218.27356000000009
 21
769.95471199999997
  0
LINE
  8
_0-0_0
  6
CONTINUOUS
 62
    7
 10
-218.27356000000009
 20
769.95471199999997
 11
-218.24749800000018
 21
769.99655200000007
  0
LINE
  8
_0-0_0
  6
CONTINUOUS
 62
    7
 10
-218.24749800000018
 20
769.99655200000007
 11
-218.23419200000012
 21
770.01559399999996
  0
LINE
  8
_0-0_0
  6
CONTINUOUS
 62
    7
 10
-218.23419200000012
 20
770.01559399999996
 11
-218.21582000000012
 21
770.03799400000003
  0
LINE
  8
_0-0_0
  6
CONTINUOUS
 62
    7
 10
-218.21582000000012
 20
770.03799400000003
 11
-218.20300300000008
 21
770.04861499999993
  0
LINE
  8
_0-0_0
  6
CONTINUOUS
 62
    7
 10
-218.20300300000008
 20
770.04861499999993
 11
-218.19842500000004
 21
770.05001800000002
  0
LINE
  8
_0-0_0
  6
CONTINUOUS
 62
    7
 10
-218.19616700000006
 20
749.85000600000001
 11
-218.15484599999991
 21
749.85000600000001
  0
LINE
  8
_0-0_0
  6
CONTINUOUS
 62
    7
 10
-218.09356700000012
 20
749.85000600000001
 11
-218.15484599999991
 21
749.85000600000001
  0
LINE
  8
_0-0_0
  6
CONTINUOUS
 62
    7
 10
-218.15484599999991
 20
749.85000600000001
 11
-218.14532499999996
 21
749.84896900000001
  0
LINE
  8
_0-0_0
  6
CONTINUOUS
 62
    7
 10
-218.14532499999996
 20
749.84896900000001
 11
-218.13580300000012
 21
749.84576399999992
  0
LINE
  8
_0-0_0
  6
CONTINUOUS
 62
    7
 10
-218.13580300000012
 20
749.84576399999992
 11
-218.12658699999997
 21
749.84039299999995
  0
LINE
  8
_0-0_0
  6
CONTINUOUS
 62
    7
 10
-218.12658699999997
 20
749.84039299999995
 11
-218.11773700000003
 21
749.83288599999992
  0
LINE
  8
_0-0_0
  6
CONTINUOUS
 62
    7
 10
-218.11773700000003
 20
749.83288599999992
 11
-218.1023560000001
 21
749.81225599999993
  0
LINE
  8
_0-0_0
  6
CONTINUOUS
 62
    7
 10
-218.1023560000001
 20
749.81225599999993
 11
-218.09057600000006
 21
749.78497300000004
  0
LINE
  8
_0-0_0
  6
CONTINUOUS
 62
    7
 10
-218.09057600000006
 20
749.78497300000004
 11
-218.08343500000001
 21
749.752838
  0
LINE
  8
_0-0_0
  6
CONTINUOUS
 62
    7
 10
-218.08343500000001
 20
749.752838
 11
-218.08154300000001
 21
749.71777300000008
  0
LINE
  8
_0-0_0
  6
CONTINUOUS
 62
    7
 10
-218.08154300000001
 20
749.71777300000008
 11
-218.08538799999997
 21
749.68160999999998
  0
LINE
  8
_0-0_0
  6
CONTINUOUS
 62
    7
 10
-218.08538799999997
 20
749.68160999999998
 11
-218.09356700000012
 21
749.65002400000003
  0
ARC
  8
_0-0_0
  6
CONTINUOUS
 62
    7
 10
-220.09356700000012
 20
751.15002400000003
 40
2.2999999999999998
 50
280.28656300000006
 51
325.58260500000006
  0
LINE
  8
_0-0_0
  6
CONTINUOUS
 62
    7
 10
-218.39355500000011
 20
746.65002400000003
 11
-219.59356700000012
 21
746.65002400000003
  0
LINE
  8
_0-0_0
  6
CONTINUOUS
 62
    7
 10
-218.39355500000011
 20
745.75
 11
-235.39355500000011
 21
745.75
  0
LINE
  8
_0-0_0
  6
CONTINUOUS
 62
    7
 10
-220.29357900000014
 20
771.30657999999994
 11
-220.29327400000011
 21
771.29016100000001
  0
ARC
  8
_0-0_0
  6
CONTINUOUS
 62
    7
 10
-219.79357900000014
 20
771.30657999999994
 40
0.5
 50
181.88290099999998
 51
260.07179799999994
  0
LINE
  8
_0-0_0
  6
CONTINUOUS
 62
    7
 10
-220.79357900000014
 20
772.09429899999998
 11
-220.59356700000012
 21
771.89999399999999
  0
LINE
  8
_0-0_0
  6
CONTINUOUS
 62
    7
 10
-220.59356700000012
 20
771.89999399999999
 11
-220.29357900000014
 21
771.60000600000001
  0
LINE
  8
_0-0_0
  6
CONTINUOUS
 62
    7
 10
-220.29357900000014
 20
771.60000600000001
 11
-220.59356700000012
 21
771.60000600000001
  0
ARC
  8
_0-0_0
  6
CONTINUOUS
 62
    7
 10
-223.53643800000009
 20
774.65002400000003
 40
0.5
 50
225
 51
269.99999700000001
  0
ARC
  8
_0-0_0
  6
CONTINUOUS
 62
    7
 10
-229.65063499999997
 20
774.65002400000003
 40
0.5
 50
269.99999700000001
 51
314.99999200000002
  0
LINE
  8
_0-0_0
  6
CONTINUOUS
 62
    7
 10
-236.09356700000012
 20
771.75
 11
-236.09356700000012
 21
769.15048200000001
  0
LINE
  8
_0-0_0
  6
CONTINUOUS
 62
    7
 10
-217.89355500000011
 20
772.55004899999994
 11
-217.89355500000011
 21
772.75
  0
CIRCLE
  8
_0-0_0
  6
CONTINUOUS
 62
    7
 10
-226.59356700000012
 20
771.75
 40
2.25
  0
ARC
  8
_0-0_0
  6
CONTINUOUS
 62
    7
 10
-226.59356700000012
 20
751.65002400000003
 40
1.75
 50
179.99999099999999
 51
359.99998299999993
  0
LINE
  8
_0-0_0
  6
CONTINUOUS
 62
    7
 10
-228.34356700000012
 20
751.90002400000003
 11
-228.34356700000012
 21
751.65002400000003
  0
ARC
  8
_0-0_0
  6
CONTINUOUS
 62
    7
 10
-226.59356700000012
 20
751.90002400000003
 40
1.75
 50
0
 51
179.99999099999999
  0
LINE
  8
_0-0_0
  6
CONTINUOUS
 62
    7
 10
-224.84356700000012
 20
751.65002400000003
 11
-224.84356700000012
 21
751.90002400000003
  0
ARC
  8
_0-0_0
  6
CONTINUOUS
 62
    7
 10
-220.89355500000011
 20
751.95001200000002
 40
3
 50
269.99999700000001
 51
0
  0
LINE
  8
_0-0_0
  6
CONTINUOUS
 62
    7
 10
-235.29357900000014
 20
756.35000600000001
 11
-235.29357900000014
 21
755.5
  0
LINE
  8
_0-0_0
  6
CONTINUOUS
 62
    7
 10
-235.29357900000014
 20
749.45001200000002
 11
-235.29357900000014
 21
755.5
  0
ARC
  8
_0-0_0
  6
CONTINUOUS
 62
    7
 10
-220.29357900000014
 20
768.45001200000002
 40
2.3999999999999999
 50
0
 51
80.071809999999985
  0
LINE
  8
_0-0_0
  6
CONTINUOUS
 62
    7
 10
-217.89355500000011
 20
751.95001200000002
 11
-217.89355500000011
 21
764.75
  0
LINE
  8
_0-0_0
  6
CONTINUOUS
 62
    7
 10
-217.89355500000011
 20
764.75
 11
-217.89355500000011
 21
768.45001200000002
  0
ARC
  8
_0-0_0
  6
CONTINUOUS
 62
    7
 10
-219.59356700000012
 20
748.39501999999993
 40
0.5
 50
100.28656100000001
 51
179.99999099999999
  0
LINE
  8
_0-0_0
  6
CONTINUOUS
 62
    7
 10
-220.09356700000012
 20
747.15002400000003
 11
-220.09356700000012
 21
748.39501999999993
  0
ARC
  8
_0-0_0
  6
CONTINUOUS
 62
    7
 10
-219.59356700000012
 20
747.15002400000003
 40
0.5
 50
179.99999099999999
 51
269.99999700000001
  0
LINE
  8
_0-0_0
  6
CONTINUOUS
 62
    7
 10
-229.29711900000007
 20
774.29644800000005
 11
-229.23999000000003
 21
774.35357699999997
  0
ARC
  8
_0-0_0
  6
CONTINUOUS
 62
    7
 10
-228.88647500000002
 20
774
 40
0.5
 50
90.000003000000007
 51
135
  0
LINE
  8
_0-0_0
  6
CONTINUOUS
 62
    7
 10
-224.300659
 20
774.5
 11
-228.88647500000002
 21
774.5
  0
ARC
  8
_0-0_0
  6
CONTINUOUS
 62
    7
 10
-224.300659
 20
774
 40
0.5
 50
45.00000099999999
 51
90.000002999999992
  0
LINE
  8
_0-0_0
  6
CONTINUOUS
 62
    7
 10
-223.89001499999995
 20
774.29644800000005
 11
-223.94708300000002
 21
774.35357699999997
  0
ARC
  8
_0-0_0
  6
CONTINUOUS
 62
    7
 10
-220.59356700000012
 20
768.60000600000001
 40
3
 50
90.000003000000007
 51
179.99999099999999
  0
LINE
  8
_0-0_0
  6
CONTINUOUS
 62
    7
 10
-232.59356700000012
 20
755
 11
-234.79357900000014
 21
755
  0
ARC
  8
_0-0_0
  6
CONTINUOUS
 62
    7
 10
-232.59356700000012
 20
752
 40
3
 50
0
 51
90.000003000000007
  0
LINE
  8
_0-0_0
  6
CONTINUOUS
 62
    7
 10
-229.59356700000012
 20
752
 11
-229.59356700000012
 21
749.45001200000002
  0
LINE
  8
_0-0_0
  6
CONTINUOUS
 62
    7
 10
-229.09356700000012
 20
748.95001200000002
 11
-220.89355500000011
 21
748.95001200000002
  0
LINE
  8
_0-0_0
  6
CONTINUOUS
 62
    7
 10
-220.59356700000012
 20
765.25
 11
-218.39355500000011
 21
765.25
  0
ARC
  8
_0-0_0
  6
CONTINUOUS
 62
    7
 10
-220.59356700000012
 20
768.25
 40
3
 50
179.99999099999999
 51
269.99999700000001
  0
LINE
  8
_0-0_0
  6
CONTINUOUS
 62
    7
 10
-223.59356700000012
 20
768.25
 11
-223.59356700000012
 21
768.60000600000001
  0
CIRCLE
  8
_0-0_0
  6
CONTINUOUS
 62
    7
 10
-226.59356700000012
 20
771.75
 40
2.0499999999999998
  0
ARC
  8
_0-0_0
  6
CONTINUOUS
 62
    7
 10
-226.59356700000012
 20
751.65002400000003
 40
1.55
 50
179.99999099999999
 51
0
  0
LINE
  8
_0-0_0
  6
CONTINUOUS
 62
    7
 10
-228.14355500000011
 20
751.90002400000003
 11
-228.14355500000011
 21
751.65002400000003
  0
ARC
  8
_0-0_0
  6
CONTINUOUS
 62
    7
 10
-226.59356700000012
 20
751.90002400000003
 40
1.55
 50
0
 51
179.99999099999999
  0
LINE
  8
_0-0_0
  6
CONTINUOUS
 62
    7
 10
-225.04357900000014
 20
751.65002400000003
 11
-225.04357900000014
 21
751.90002400000003
  0
LINE
  8
_0-0_0
  6
CONTINUOUS
 62
    7
 10
-234.79357900000014
 20
748.95001200000002
 11
-229.09356700000012
 21
748.95001200000002
  0
ARC
  8
_0-0_0
  6
CONTINUOUS
 62
    7
 10
-234.79357900000014
 20
749.45001200000002
 40
0.5
 50
179.99999099999999
 51
269.99999700000001
  0
ARC
  8
_0-0_0
  6
CONTINUOUS
 62
    7
 10
-234.79357900000014
 20
755.5
 40
0.5
 50
179.99999099999999
 51
269.99999700000001
  0
ARC
  8
_0-0_0
  6
CONTINUOUS
 62
    7
 10
-218.39355500000011
 20
764.75
 40
0.5
 50
0
 51
90.000003000000007
  0
ARC
  8
_0-0_0
  6
CONTINUOUS
 62
    7
 10
-229.09356700000012
 20
749.45001200000002
 40
0.5
 50
179.99999099999999
 51
269.99999700000001
  0
CIRCLE
  8
_0-0_0
  6
CONTINUOUS
 62
    7
 10
-220.59356700000012
 20
768.25
 40
2.25
  0
CIRCLE
  8
_0-0_0
  6
CONTINUOUS
 62
    7
 10
-232.59356700000012
 20
751.65002400000003
 40
2.25
  0
CIRCLE
  8
_0-0_0
  6
CONTINUOUS
 62
    7
 10
-220.59356700000012
 20
768.25
 40
2
  0
CIRCLE
  8
_0-0_0
  6
CONTINUOUS
 62
    7
 10
-232.59356700000012
 20
751.65002400000003
 40
2
  0
LINE
  8
_0-0_0
  6
CONTINUOUS
 62
    7
 10
-221.74352999999996
 20
768.25
 11
-221.175659
 21
769.25
  0
LINE
  8
_0-0_0
  6
CONTINUOUS
 62
    7
 10
-221.175659
 20
767.25
 11
-221.74352999999996
 21
768.25
  0
LINE
  8
_0-0_0
  6
CONTINUOUS
 62
    7
 10
-220.01141400000006
 20
767.25
 11
-221.175659
 21
767.25
  0
LINE
  8
_0-0_0
  6
CONTINUOUS
 62
    7
 10
-219.44354300000009
 20
768.25
 11
-220.01141400000006
 21
767.25
  0
LINE
  8
_0-0_0
  6
CONTINUOUS
 62
    7
 10
-220.01141400000006
 20
769.25
 11
-219.44354300000009
 21
768.25
  0
LINE
  8
_0-0_0
  6
CONTINUOUS
 62
    7
 10
-221.175659
 20
769.25
 11
-220.01141400000006
 21
769.25
  0
LINE
  8
_0-0_0
  6
CONTINUOUS
 62
    7
 10
-233.74352999999996
 20
751.65002400000003
 11
-233.175659
 21
752.65002400000003
  0
LINE
  8
_0-0_0
  6
CONTINUOUS
 62
    7
 10
-233.175659
 20
750.65002400000003
 11
-233.74352999999996
 21
751.65002400000003
  0
LINE
  8
_0-0_0
  6
CONTINUOUS
 62
    7
 10
-232.01141400000006
 20
750.65002400000003
 11
-233.175659
 21
750.65002400000003
  0
LINE
  8
_0-0_0
  6
CONTINUOUS
 62
    7
 10
-231.44354300000009
 20
751.65002400000003
 11
-232.01141400000006
 21
750.65002400000003
  0
LINE
  8
_0-0_0
  6
CONTINUOUS
 62
    7
 10
-232.01141400000006
 20
752.65002400000003
 11
-231.44354300000009
 21
751.65002400000003
  0
LINE
  8
_0-0_0
  6
CONTINUOUS
 62
    7
 10
-233.175659
 20
752.65002400000003
 11
-232.01141400000006
 21
752.65002400000003
  0
LINE
  8
_0-0_0
  6
CONTINUOUS
 62
    7
 10
-217.89355500000011
 20
769.05032299999993
 11
-217.89355500000011
 21
769.05630500000007
  0
LINE
  8
_0-0_0
  6
CONTINUOUS
 62
    7
 10
-217.89355500000011
 20
770.25
 11
-217.89392100000009
 21
770.23791499999993
  0
LINE
  8
_0-0_0
  6
CONTINUOUS
 62
    7
 10
-217.89392100000009
 20
749.66210899999999
 11
-217.89355500000011
 21
749.65002400000003
  0
LINE
  8
_0-0_0
  6
CONTINUOUS
 62
    7
 10
-217.89428700000008
 20
764.77673299999992
 11
-217.89355500000011
 21
764.75
  0
LINE
  8
_0-0_0
  6
CONTINUOUS
 62
    7
 10
-212.39355500000011
 20
802.15002400000003
 11
-212.39355500000011
 21
789.15002400000003
  0
LINE
  8
_0-0_0
  6
CONTINUOUS
 62
    7
 10
-212.19354300000009
 20
802.15002400000003
 11
-212.39355500000011
 21
802.15002400000003
  0
LINE
  8
_0-0_0
  6
CONTINUOUS
 62
    7
 10
-212.19354300000009
 20
789.15002400000003
 11
-212.39355500000011
 21
789.15002400000003
  0
LINE
  8
_0-0_0
  6
CONTINUOUS
 62
    7
 10
-212.19354300000009
 20
802.15002400000003
 11
-212.19354300000009
 21
820.75
  0
LINE
  8
_0-0_0
  6
CONTINUOUS
 62
    7
 10
-212.09356700000012
 20
820.75
 11
-212.19354300000009
 21
820.75
  0
LINE
  8
_0-0_0
  6
CONTINUOUS
 62
    7
 10
-212.09356700000012
 20
823.25
 11
-212.09356700000012
 21
820.75
  0
ARC
  8
_0-0_0
  6
CONTINUOUS
 62
    7
 10
-212.59356700000012
 20
823.25
 40
0.5
 50
0
 51
90.000003000000007
  0
LINE
  8
_0-0_0
  6
CONTINUOUS
 62
    7
 10
-212.59356700000012
 20
823.75
 11
-215.59356700000012
 21
823.75
  0
ARC
  8
_0-0_0
  6
CONTINUOUS
 62
    7
 10
-215.59356700000012
 20
823.25
 40
0.5
 50
90.000003000000007
 51
179.99999099999999
  0
ARC
  8
_0-0_0
  6
CONTINUOUS
 62
    7
 10
-220.09356700000012
 20
775.75
 40
0.5
 50
179.99999099999999
 51
269.99999700000001
  0
LINE
  8
_0-0_0
  6
CONTINUOUS
 62
    7
 10
-217.59356700000012
 20
775.25
 11
-220.09356700000012
 21
775.25
  0
ARC
  8
_0-0_0
  6
CONTINUOUS
 62
    7
 10
-217.59356700000012
 20
775.75
 40
0.5
 50
269.99999700000001
 51
0
  0
LINE
  8
_0-0_0
  6
CONTINUOUS
 62
    7
 10
-217.09356700000012
 20
780.75
 11
-217.09356700000012
 21
775.75
  0
ARC
  8
_0-0_0
  6
CONTINUOUS
 62
    7
 10
-216.59356700000012
 20
780.75
 40
0.5
 50
90.000003000000007
 51
179.99999099999999
  0
LINE
  8
_0-0_0
  6
CONTINUOUS
 62
    7
 10
-212.59356700000012
 20
781.25
 11
-216.59356700000012
 21
781.25
  0
ARC
  8
_0-0_0
  6
CONTINUOUS
 62
    7
 10
-212.59356700000012
 20
781.75
 40
0.5
 50
269.99999700000001
 51
0
  0
LINE
  8
_0-0_0
  6
CONTINUOUS
 62
    7
 10
-212.09356700000012
 20
784.95001200000002
 11
-212.09356700000012
 21
781.75
  0
LINE
  8
_0-0_0
  6
CONTINUOUS
 62
    7
 10
-212.19354300000009
 20
784.95001200000002
 11
-212.09356700000012
 21
784.95001200000002
  0
LINE
  8
_0-0_0
  6
CONTINUOUS
 62
    7
 10
-212.19354300000009
 20
784.95001200000002
 11
-212.19354300000009
 21
789.15002400000003
  0
LINE
  8
_0-0_0
  6
CONTINUOUS
 62
    7
 10
-213.09356700000012
 20
823.25
 11
-230.89355500000011
 21
823.25
  0
ARC
  8
_0-0_0
  6
CONTINUOUS
 62
    7
 10
-213.09356700000012
 20
822.75
 40
0.5
 50
0
 51
90.000003000000007
  0
LINE
  8
_0-0_0
  6
CONTINUOUS
 62
    7
 10
-212.59356700000012
 20
822.75
 11
-212.59356700000012
 21
782.25
  0
ARC
  8
_0-0_0
  6
CONTINUOUS
 62
    7
 10
-213.09356700000012
 20
782.25
 40
0.5
 50
269.99999700000001
 51
0
  0
LINE
  8
_0-0_0
  6
CONTINUOUS
 62
    7
 10
-216.59356700000012
 20
781.75
 11
-213.09356700000012
 21
781.75
  0
ARC
  8
_0-0_0
  6
CONTINUOUS
 62
    7
 10
-216.59356700000012
 20
780.75
 40
1
 50
90.000003000000007
 51
179.99999099999999
  0
LINE
  8
_0-0_0
  6
CONTINUOUS
 62
    7
 10
-217.59356700000012
 20
780.75
 11
-217.59356700000012
 21
776.25
  0
ARC
  8
_0-0_0
  6
CONTINUOUS
 62
    7
 10
-218.09356700000012
 20
776.25
 40
0.5
 50
269.99999700000001
 51
0
  0
LINE
  8
_0-0_0
  6
CONTINUOUS
 62
    7
 10
-235.09356700000012
 20
775.75
 11
-218.09356700000012
 21
775.75
  0
LINE
  8
_0-0_0
  6
CONTINUOUS
 62
    7
 10
-216.59356700000012
 20
823.45001200000002
 11
-216.59356700000012
 21
823.25
  0
ARC
  8
_0-0_0
  6
CONTINUOUS
 62
    7
 10
-216.89355500000011
 20
823.45001200000002
 40
0.2999999999999999
 50
0
 51
90.000003000000007
  0
LINE
  8
_0-0_0
  6
CONTINUOUS
 62
    7
 10
-216.89355500000011
 20
823.75
 11
-231.59356700000012
 21
823.75
  0
ARC
  8
_0-0_0
  6
CONTINUOUS
 62
    7
 10
-231.59356700000012
 20
823.45001200000002
 40
0.2999999999999999
 50
90.000003000000007
 51
179.99999099999999
  0
LINE
  8
_0-0_0
  6
CONTINUOUS
 62
    7
 10
-231.89355500000011
 20
823.45001200000002
 11
-231.89355500000011
 21
820.25
  0
LINE
  8
_0-0_0
  6
CONTINUOUS
 62
    7
 10
-231.89355500000011
 20
820.25
 11
-237.59356700000012
 21
820.25
  0
LINE
  8
_0-0_0
  6
CONTINUOUS
 62
    7
 10
-237.59356700000012
 20
820.25
 11
-238.39355500000011
 21
819.45001200000002
  0
ARC
  8
_0-0_0
  6
CONTINUOUS
 62
    7
 10
-230.89355500000011
 20
822.75
 40
0.5
 50
90.000003000000007
 51
179.99999099999999
  0
LINE
  8
_0-0_0
  6
CONTINUOUS
 62
    7
 10
-231.39355500000011
 20
822.75
 11
-231.39355500000011
 21
819.95001200000002
  0
ARC
  8
_0-0_0
  6
CONTINUOUS
 62
    7
 10
-231.89355500000011
 20
819.95001200000002
 40
0.5
 50
269.99999700000001
 51
0
  0
LINE
  8
_0-0_0
  6
CONTINUOUS
 62
    7
 10
-231.89355500000011
 20
819.45001200000002
 11
-240.09356700000012
 21
819.45001200000002
  0
ARC
  8
_0-0_0
  6
CONTINUOUS
 62
    7
 10
-240.09356700000012
 20
818.95001200000002
 40
0.5
 50
90.000003000000007
 51
179.99999099999999
  0
LINE
  8
_0-0_0
  6
CONTINUOUS
 62
    7
 10
-240.59356700000012
 20
782.25
 11
-240.59356700000012
 21
818.95001200000002
  0
ARC
  8
_0-0_0
  6
CONTINUOUS
 62
    7
 10
-240.09356700000012
 20
782.25
 40
0.5
 50
179.99999099999999
 51
269.99999700000001
  0
LINE
  8
_0-0_0
  6
CONTINUOUS
 62
    7
 10
-240.09356700000012
 20
781.75
 11
-236.59356700000012
 21
781.75
  0
ARC
  8
_0-0_0
  6
CONTINUOUS
 62
    7
 10
-236.59356700000012
 20
780.75
 40
1
 50
0
 51
90.000003000000007
  0
LINE
  8
_0-0_0
  6
CONTINUOUS
 62
    7
 10
-235.59356700000012
 20
776.25
 11
-235.59356700000012
 21
780.75
  0
ARC
  8
_0-0_0
  6
CONTINUOUS
 62
    7
 10
-235.09356700000012
 20
776.25
 40
0.5
 50
179.99999099999999
 51
269.99999700000001
  0
CIRCLE
  8
_0-0_0
  6
CONTINUOUS
 62
    7
 10
-226.59356700000012
 20
784.75
 40
2.0670000000000002
  0
LINE
  8
_0-0_0
  6
CONTINUOUS
 62
    7
 10
-238.59356700000012
 20
819.75
 11
-238.59356700000012
 21
819.45001200000002
  0
LINE
  8
_0-0_0
  6
CONTINUOUS
 62
    7
 10
-238.59356700000012
 20
819.75
 11
-240.59356700000012
 21
819.75
  0
ARC
  8
_0-0_0
  6
CONTINUOUS
 62
    7
 10
-240.59356700000012
 20
819.25
 40
0.5
 50
90.000003000000007
 51
179.99999099999999
  0
LINE
  8
_0-0_0
  6
CONTINUOUS
 62
    7
 10
-241.09356700000012
 20
819.25
 11
-241.09356700000012
 21
781.75
  0
ARC
  8
_0-0_0
  6
CONTINUOUS
 62
    7
 10
-240.59356700000012
 20
781.75
 40
0.5
 50
179.99999099999999
 51
269.99999700000001
  0
LINE
  8
_0-0_0
  6
CONTINUOUS
 62
    7
 10
-236.59356700000012
 20
781.25
 11
-240.59356700000012
 21
781.25
  0
ARC
  8
_0-0_0
  6
CONTINUOUS
 62
    7
 10
-236.59356700000012
 20
780.75
 40
0.5
 50
0
 51
90.000003000000007
  0
LINE
  8
_0-0_0
  6
CONTINUOUS
 62
    7
 10
-236.09356700000012
 20
775.75
 11
-236.09356700000012
 21
780.75
  0
ARC
  8
_0-0_0
  6
CONTINUOUS
 62
    7
 10
-235.59356700000012
 20
775.75
 40
0.5
 50
179.99999099999999
 51
269.99999700000001
  0
LINE
  8
_0-0_0
  6
CONTINUOUS
 62
    7
 10
-235.59356700000012
 20
775.25
 11
-233.09356700000012
 21
775.25
  0
ARC
  8
_0-0_0
  6
CONTINUOUS
 62
    7
 10
-233.09356700000012
 20
775.75
 40
0.5
 50
269.99999700000001
 51
0
  0
LINE
  8
_0-0_0
  6
CONTINUOUS
 62
    7
 10
-217.09356700000012
 20
775.75
 11
-216.99352999999996
 21
775.75
  0
LINE
  8
_0-0_0
  6
CONTINUOUS
 62
    7
 10
-216.99352999999996
 20
775.75
 11
-216.99352999999996
 21
776.25
  0
LINE
  8
_0-0_0
  6
CONTINUOUS
 62
    7
 10
-216.99352999999996
 20
780.25
 11
-216.99352999999996
 21
776.25
  0
LINE
  8
_0-0_0
  6
CONTINUOUS
 62
    7
 10
-217.09356700000012
 20
780.75
 11
-216.99352999999996
 21
780.75
  0
LINE
  8
_0-0_0
  6
CONTINUOUS
 62
    7
 10
-216.99352999999996
 20
780.25
 11
-216.99352999999996
 21
780.75
  0
LINE
  8
_0-0_0
  6
CONTINUOUS
 62
    7
 10
-216.89355500000011
 20
776.25
 11
-216.89355500000011
 21
776.38037099999997
  0
LINE
  8
_0-0_0
  6
CONTINUOUS
 62
    7
 10
-216.89355500000011
 20
779.88037099999997
 11
-216.89355500000011
 21
776.38037099999997
  0
LINE
  8
_0-0_0
  6
CONTINUOUS
 62
    7
 10
-216.99352999999996
 20
780.15002400000003
 11
-216.89355500000011
 21
780.15002400000003
  0
LINE
  8
_0-0_0
  6
CONTINUOUS
 62
    7
 10
-216.89355500000011
 20
779.88037099999997
 11
-216.89355500000011
 21
780.15002400000003
  0
LINE
  8
_0-0_0
  6
CONTINUOUS
 62
    7
 10
-216.99352999999996
 20
776.25
 11
-216.89355500000011
 21
776.25
  0
LINE
  8
_0-0_0
  6
CONTINUOUS
 62
    7
 10
-216.99352999999996
 20
776.25
 11
-216.89355500000011
 21
776.25
  0
ENDSEC
  0
EOF
