  0
SECTION
  2
HEADER
  9
$ACADVER
  1
AC1009
  9
$INSBASE
 10
0
 20
0
 30
0
  9
$EXTMIN
 10
0
 20
0
  9
$EXTMAX
 10
1682
 20
1188
  9
$LIMMIN
 10
0
 20
0
  9
$LIMMAX
 10
1682
 20
1188
  9
$LTSCALE
 40
2
  0
ENDSEC
  0
SECTION
  2
TABLES
  0
TABLE
  2
LTYPE
 70
     9
  0
LTYPE
  2
CONTINUOUS
 70
    64
  3
実線
 72
    65
 73
     0
 40
0.0
  0
LTYPE
  2
DASHED1
 70
    64
  3
--  --  --  --  --  --  --  --  
 72
    65
 73
     2
 40
2.5
 49
1.25
 49
-1.25
  0
LTYPE
  2
DASHED2
 70
    64
  3
----    ----    ----    ----    
 72
    65
 73
     2
 40
5.0
 49
2.5
 49
-2.5
  0
LTYPE
  2
DASHED3
 70
    64
  3
------  ------  ------  ------  
 72
    65
 73
     2
 40
5.0
 49
3.75
 49
-1.25
  0
LTYPE
  2
CENTER1
 70
    64
  3
----- - ----- - ----- - ----- - 
 72
    65
 73
     4
 40
10.0
 49
6.25
 49
-1.25
 49
1.25
 49
-1.25
  0
LTYPE
  2
CENTER2
 70
    64
  3
----------  --  ----------  --  
 72
    65
 73
     4
 40
20.0
 49
12.5
 49
-2.5
 49
2.5
 49
-2.5
  0
LTYPE
  2
PHANTOM1
 70
    64
  3
--- - - --- - - --- - - --- - - 
 72
    65
 73
     6
 40
10.0
 49
3.25
 49
-1.25
 49
1.25
 49
-1.25
 49
1.25
 49
-1.25
  0
LTYPE
  2
PHANTOM2
 70
    64
  3
--------  -  -  --------  -  -  
 72
    65
 73
     6
 40
20.0
 49
10.0
 49
-2.5
 49
1.25
 49
-2.5
 49
1.25
 49
-2.5
  0
LTYPE
  2
DOT
 70
    64
  3
-   -   -   -   -   -   -   -   
 72
    65
 73
     2
 40
2.5
 49
0.625
 49
-1.875
  0
LTYPE
  2
DUMMY
 70
    64
  3
ダミー
 72
    65
 73
     0
 40
0.0
  0
LTYPE
  2
RAND1
 70
    64
  3
ランダム線1
 72
    65
 73
     4
 40
10.0
 49
1.0
 49
-2.0
 49
3.0
 49
-4.0
  0
LTYPE
  2
RAND2
 70
    64
  3
ランダム線2
 72
    65
 73
     4
 40
14.0
 49
2.0
 49
-3.0
 49
4.0
 49
-5.0
  0
LTYPE
  2
RAND3
 70
    64
  3
ランダム線3
 72
    65
 73
     4
 40
18.0
 49
3.0
 49
-4.0
 49
5.0
 49
-6.0
  0
LTYPE
  2
RAND4
 70
    64
  3
ランダム線4
 72
    65
 73
     4
 40
22.0
 49
4.0
 49
-5.0
 49
6.0
 49
-7.0
  0
LTYPE
  2
RAND5
 70
    64
  3
ランダム線5
 72
    65
 73
     4
 40
26.0
 49
5.0
 49
-6.0
 49
7.0
 49
-8.0
  0
LTYPE
  2
LONG1
 70
    64
  3
----------  --  ----------  --  
 72
    65
 73
     4
 40
40.0
 49
32.5
 49
-2.5
 49
2.5
 49
-2.5
  0
LTYPE
  2
LONG2
 70
    64
  3
--------  -  -  --------  -  -  
 72
    65
 73
     6
 40
40.0
 49
30.0
 49
-2.5
 49
1.25
 49
-2.5
 49
1.25
 49
-2.5
  0
LTYPE
  2
LONG3
 70
    64
  3
+++++++++++++++..+++++++++++++++
 72
    65
 73
     2
 40
40.0
 49
37.5
 49
-2.5
  0
LTYPE
  2
LONG4
 70
    64
  3
+++++++++++++++..+++++++++++++++
 72
    65
 73
     2
 40
80.0
 49
75.0
 49
-5.0
  0
LTYPE
  2
LONG5
 70
    64
  3
----------  --  ----------  --  
 72
    65
 73
     4
 40
60.0
 49
37.5
 49
-7.5
 49
7.5
 49
-7.5
  0
LTYPE
  2
dashed
 70
   64
  3
-------   -------------   ------
 72
   65
 73
    2
 40
7.5
 49
6
 49
-1.5
  0
LTYPE
  2
dashed_spaced
 70
   64
  3
----        --------        ----
 72
   65
 73
    2
 40
12
 49
6
 49
-6
  0
LTYPE
  2
long_dashed_dotted
 70
   64
  3
------------- --- --------------
 72
   65
 73
    4
 40
15.25
 49
12
 49
-1.5
 49
0.25
 49
-1.5
  0
LTYPE
  2
long_dashed_double-dotted
 70
   64
  3
----------- --- --- ------------
 72
   65
 73
    6
 40
17
 49
12
 49
-1.5
 49
0.25
 49
-1.5
 49
0.25
 49
-1.5
  0
LTYPE
  2
long_dashed_triplicate-dotted
 70
   64
  3
--------- --- --- --- ----------
 72
   65
 73
    8
 40
18.75
 49
12
 49
-1.5
 49
0.25
 49
-1.5
 49
0.25
 49
-1.5
 49
0.25
 49
-1.5
  0
LTYPE
  2
dotted
 70
   64
  3
   -       -       -       -    
 72
   65
 73
    2
 40
1.75
 49
0.25
 49
-1.5
  0
LTYPE
  2
chain
 70
   64
  3
-------------- -- --------------
 72
   65
 73
    4
 40
18.5
 49
12
 49
-1.5
 49
3.5
 49
-1.5
  0
LTYPE
  2
chain_double_dash
 70
   64
  3
------------ -- -- -------------
 72
   65
 73
    6
 40
23.5
 49
12
 49
-1.5
 49
3.5
 49
-1.5
 49
3.5
 49
-1.5
  0
LTYPE
  2
dashed_dotted
 70
   64
  3
-----------     -     ----------
 72
   65
 73
    4
 40
9.25
 49
6
 49
-1.5
 49
0.25
 49
-1.5
  0
LTYPE
  2
double-dashed_dotted
 70
   64
  3
------   -----------   -   -----
 72
   65
 73
    6
 40
16.75
 49
6
 49
-1.5
 49
6
 49
-1.5
 49
0.25
 49
-1.5
  0
LTYPE
  2
dashed_double-dotted
 70
   64
  3
---------    -    -    ---------
 72
   65
 73
    6
 40
11
 49
6
 49
-1.5
 49
0.25
 49
-1.5
 49
0.25
 49
-1.5
  0
LTYPE
  2
double-dashed_double-dotted
 70
   64
  3
-----   ---------   -   -   ----
 72
   65
 73
    8
 40
18.5
 49
6
 49
-1.5
 49
6
 49
-1.5
 49
0.25
 49
-1.5
 49
0.25
 49
-1.5
  0
LTYPE
  2
dashed_triplicate-dotted
 70
   64
  3
-------    -    -    -    ------
 72
   65
 73
    8
 40
12.75
 49
6
 49
-1.5
 49
0.25
 49
-1.5
 49
0.25
 49
-1.5
 49
0.25
 49
-1.5
  0
LTYPE
  2
double-dashed_triplicate-dotted
 70
   64
  3
-----  ---------  -  -  -  -----
 72
   65
 73
   10
 40
20.25
 49
6
 49
-1.5
 49
6
 49
-1.5
 49
0.25
 49
-1.5
 49
0.25
 49
-1.5
 49
0.25
 49
-1.5
  0
LTYPE
  2
undefined
 70
   64
  3
--------------------------------
 72
   65
 73
    0
 40
0
  0
ENDTAB
  0
TABLE
  2
STYLE
  5
3
100
AcDbSymbolTable
 70
     1
  0
STYLE
  5
10
100
AcDbSymbolTableRecord
100
AcDbTextStyleTableRecord
  2
STANDARD
 70
     0
 40
0.0
 41
1.0
 50
0.0
 71
     0
 42
0.2
  3
txt
  4
bigfont.shx
  0
STYLE
  5
26
100
AcDbSymbolTableRecord
100
AcDbTextStyleTableRecord
  2
TATEGAKI
 70
    68
 40
0.0
 41
1.0
 50
0.0
 71
     0
 42
1.0
  3
txt
  4
bigfont.shx
  0
ENDTAB
  0
TABLE
  2
LAYER
 70
    2
  0
LAYER
  2
_0-0_0
 70
   64
 62
    7
  6
CONTINUOUS
  0
LAYER
  2
ADD_LINE
 70
   64
 62
    7
  6
CONTINUOUS
  0
ENDTAB
  0
ENDSEC
  0
SECTION
  2
BLOCKS
  0
ENDSEC
  0
SECTION
  2
ENTITIES
  0
ARC
  8
_0-0_0
  6
CONTINUOUS
 62
    7
 10
-47.168900000000008
 20
765.35000600000001
 40
0.2
 50
269.99999700000001
 51
20.376440000000013
  0
LINE
  8
_0-0_0
  6
CONTINUOUS
 62
    7
 10
-46.98141499999997
 20
765.41964699999994
 11
-48.281418000000031
 21
768.91964699999994
  0
ARC
  8
_0-0_0
  6
CONTINUOUS
 62
    7
 10
-48.468903000000068
 20
768.85000600000001
 40
0.2
 50
20.376439999999999
 51
159.62355600000001
  0
LINE
  8
_0-0_0
  6
CONTINUOUS
 62
    7
 10
-49.95637499999998
 20
765.41964699999994
 11
-48.656386999999995
 21
768.91964699999994
  0
ARC
  8
_0-0_0
  6
CONTINUOUS
 62
    7
 10
-49.768906000000015
 20
765.35000600000001
 40
0.2
 50
159.62355600000001
 51
269.99999700000001
  0
LINE
  8
_0-0_0
  6
CONTINUOUS
 62
    7
 10
-49.768906000000015
 20
765.15002400000003
 11
-47.168900000000008
 21
765.15002400000003
  0
LINE
  8
_0-0_0
  6
CONTINUOUS
 62
    7
 10
-125.28236400000003
 20
819.75051899999994
 11
-125.28236400000003
 21
819.74951199999998
  0
LINE
  8
_0-0_0
  6
CONTINUOUS
 62
    7
 10
-95.968903000000068
 20
773.25
 11
-90.968903000000068
 21
773.25
  0
LINE
  8
_0-0_0
  6
CONTINUOUS
 62
    7
 10
-90.968903000000068
 20
773.25
 11
-89.168900000000008
 21
773.25
  0
LINE
  8
_0-0_0
  6
CONTINUOUS
 62
    7
 10
-89.168900000000008
 20
773.25
 11
-88.468903000000068
 21
773.25
  0
ARC
  8
_0-0_0
  6
CONTINUOUS
 62
    7
 10
-89.168900000000008
 20
772.75
 40
0.5
 50
0
 51
90.000003000000007
  0
ARC
  8
_0-0_0
  6
CONTINUOUS
 62
    7
 10
-95.968903000000068
 20
772.75
 40
0.5
 50
90.000003000000007
 51
179.99999099999999
  0
ARC
  8
_0-0_0
  6
CONTINUOUS
 62
    7
 10
7.5310969999999315
 20
772.75
 40
0.5
 50
0
 51
90.000003000000007
  0
LINE
  8
_0-0_0
  6
CONTINUOUS
 62
    7
 10
-88.468903000000068
 20
773.25
 11
-88.468903000000068
 21
771.75
  0
LINE
  8
_0-0_0
  6
CONTINUOUS
 62
    7
 10
-88.468903000000068
 20
773.75
 11
-88.468903000000068
 21
773.25
  0
LINE
  8
_0-0_0
  6
CONTINUOUS
 62
    7
 10
-88.468903000000068
 20
774.25
 11
-88.468903000000068
 21
773.75
  0
LINE
  8
_0-0_0
  6
CONTINUOUS
 62
    7
 10
-88.468903000000068
 20
775.25
 11
-88.468903000000068
 21
774.25
  0
LINE
  8
_0-0_0
  6
CONTINUOUS
 62
    7
 10
-84.468903000000068
 20
773.25
 11
-83.768906000000015
 21
773.25
  0
LINE
  8
_0-0_0
  6
CONTINUOUS
 62
    7
 10
-88.668900000000008
 20
772.75
 11
-88.668900000000008
 21
771.75
  0
LINE
  8
_0-0_0
  6
CONTINUOUS
 62
    7
 10
-85.468903000000068
 20
746.25
 11
-85.468903000000068
 21
747.85000600000001
  0
LINE
  8
_0-0_0
  6
CONTINUOUS
 62
    7
 10
-85.468903000000068
 20
746.25
 11
-90.968903000000068
 21
746.25
  0
LINE
  8
_0-0_0
  6
CONTINUOUS
 62
    7
 10
-69.468903000000068
 20
752.95001200000002
 11
-27.468903000000068
 21
752.95001200000002
  0
LINE
  8
_0-0_0
  6
CONTINUOUS
 62
    7
 10
-69.468903000000068
 20
772.55001800000002
 11
-27.468903000000068
 21
772.55001800000002
  0
LINE
  8
_0-0_0
  6
CONTINUOUS
 62
    7
 10
-5.9689030000000685
 20
746.25
 11
-15.468903000000068
 21
746.25
  0
LINE
  8
_0-0_0
  6
CONTINUOUS
 62
    7
 10
-15.468903000000068
 20
746.25
 11
-15.468903000000068
 21
747.85000600000001
  0
ARC
  8
_0-0_0
  6
CONTINUOUS
 62
    7
 10
-15.768906000000015
 20
747.85000600000001
 40
0.2999999999999999
 50
0
 51
90.000003000000007
  0
LINE
  8
_0-0_0
  6
CONTINUOUS
 62
    7
 10
-16.468903000000068
 20
748.15002400000003
 11
-15.768906000000015
 21
748.15002400000003
  0
LINE
  8
_0-0_0
  6
CONTINUOUS
 62
    7
 10
-16.968903000000068
 20
748.55001800000002
 11
-16.468903000000068
 21
748.55001800000002
  0
LINE
  8
_0-0_0
  6
CONTINUOUS
 62
    7
 10
-30.468903000000068
 20
748.55001800000002
 11
-16.968903000000068
 21
748.55001800000002
  0
ARC
  8
_0-0_0
  6
CONTINUOUS
 62
    7
 10
-32.968903000000068
 20
748.55001800000002
 40
2.5
 50
0
 51
90.000003000000007
  0
LINE
  8
_0-0_0
  6
CONTINUOUS
 62
    7
 10
-63.968903000000068
 20
751.05001800000002
 11
-32.968903000000068
 21
751.05001800000002
  0
ARC
  8
_0-0_0
  6
CONTINUOUS
 62
    7
 10
-63.968903000000068
 20
748.55001800000002
 40
2.5
 50
90.000003000000007
 51
179.99999099999999
  0
LINE
  8
_0-0_0
  6
CONTINUOUS
 62
    7
 10
-83.968903000000068
 20
748.55001800000002
 11
-66.468903000000068
 21
748.55001800000002
  0
LINE
  8
_0-0_0
  6
CONTINUOUS
 62
    7
 10
-84.468903000000068
 20
748.55001800000002
 11
-83.968903000000068
 21
748.55001800000002
  0
LINE
  8
_0-0_0
  6
CONTINUOUS
 62
    7
 10
-85.168900000000008
 20
748.15002400000003
 11
-84.468903000000068
 21
748.15002400000003
  0
ARC
  8
_0-0_0
  6
CONTINUOUS
 62
    7
 10
-85.168900000000008
 20
747.85000600000001
 40
0.2999999999999999
 50
90.000003000000007
 51
179.99999099999999
  0
LINE
  8
_0-0_0
  6
CONTINUOUS
 62
    7
 10
-96.468903000000068
 20
770.97485400000005
 11
-96.468903000000068
 21
772.75
  0
LINE
  8
_0-0_0
  6
CONTINUOUS
 62
    7
 10
-91.468903000000068
 20
773.25
 11
-91.468903000000068
 21
773.65002400000003
  0
LINE
  8
_0-0_0
  6
CONTINUOUS
 62
    7
 10
-91.468903000000068
 20
774.15002400000003
 11
-91.468903000000068
 21
773.65002400000003
  0
LINE
  8
_0-0_0
  6
CONTINUOUS
 62
    7
 10
8.0310969999999315
 20
775.25
 11
8.0310969999999315
 21
773.75
  0
LINE
  8
_0-0_0
  6
CONTINUOUS
 62
    7
 10
8.0310969999999315
 20
773.75
 11
8.0310969999999315
 21
772.75
  0
LINE
  8
_0-0_0
  6
CONTINUOUS
 62
    7
 10
8.0310969999999315
 20
771.95001200000002
 11
8.0310969999999315
 21
772.75
  0
LINE
  8
_0-0_0
  6
CONTINUOUS
 62
    7
 10
7.5310969999999315
 20
773.25
 11
8.0310969999999315
 21
773.25
  0
LINE
  8
_0-0_0
  6
CONTINUOUS
 62
    7
 10
-4.9689030000000685
 20
773.25
 11
7.5310969999999315
 21
773.25
  0
LINE
  8
_0-0_0
  6
CONTINUOUS
 62
    7
 10
8.0310969999999315
 20
775.25
 11
8.0310969999999315
 21
774.25
  0
LINE
  8
_0-0_0
  6
CONTINUOUS
 62
    7
 10
8.0310969999999315
 20
773.75
 11
8.0310969999999315
 21
773.25
  0
LINE
  8
_0-0_0
  6
CONTINUOUS
 62
    7
 10
8.0310969999999315
 20
774.25
 11
8.0310969999999315
 21
773.75
  0
ARC
  8
_0-0_0
  6
CONTINUOUS
 62
    7
 10
-86.468903000000068
 20
771.75
 40
2
 50
179.99999099999999
 51
0
  0
LINE
  8
_0-0_0
  6
CONTINUOUS
 62
    7
 10
-5.4689030000000685
 20
773.25
 11
-4.9689030000000685
 21
773.25
  0
LINE
  8
_0-0_0
  6
CONTINUOUS
 62
    7
 10
-5.4689030000000685
 20
772.75
 11
-5.4689030000000685
 21
773.25
  0
LINE
  8
_0-0_0
  6
CONTINUOUS
 62
    7
 10
-5.4689030000000685
 20
771.75
 11
-5.4689030000000685
 21
771.95001200000002
  0
ARC
  8
_0-0_0
  6
CONTINUOUS
 62
    7
 10
-7.4689030000000685
 20
771.75
 40
2
 50
179.99999099999999
 51
0
  0
LINE
  8
_0-0_0
  6
CONTINUOUS
 62
    7
 10
-9.4689030000000685
 20
773.25
 11
-9.4689030000000685
 21
771.75
  0
LINE
  8
_0-0_0
  6
CONTINUOUS
 62
    7
 10
-10.168900000000008
 20
773.25
 11
-9.4689030000000685
 21
773.25
  0
LINE
  8
_0-0_0
  6
CONTINUOUS
 62
    7
 10
-84.468903000000068
 20
771.75
 11
-84.468903000000068
 21
773.25
  0
LINE
  8
_0-0_0
  6
CONTINUOUS
 62
    7
 10
-88.468903000000068
 20
774.25
 11
8.0310969999999315
 21
774.25
  0
ARC
  8
_0-0_0
  6
CONTINUOUS
 62
    7
 10
-83.768906000000015
 20
772.75
 40
0.5
 50
90.000003000000007
 51
179.99999099999999
  0
ARC
  8
_0-0_0
  6
CONTINUOUS
 62
    7
 10
-86.468903000000068
 20
771.75
 40
2.2000000000000002
 50
179.99999099999999
 51
0
  0
LINE
  8
_0-0_0
  6
CONTINUOUS
 62
    7
 10
-84.468903000000068
 20
748.15002400000003
 11
-83.968903000000068
 21
748.15002400000003
  0
LINE
  8
_0-0_0
  6
CONTINUOUS
 62
    7
 10
-83.968903000000068
 20
748.55001800000002
 11
-83.968903000000068
 21
748.15002400000003
  0
LINE
  8
_0-0_0
  6
CONTINUOUS
 62
    7
 10
-66.468903000000068
 20
748.55001800000002
 11
-30.468903000000068
 21
748.55001800000002
  0
LINE
  8
_0-0_0
  6
CONTINUOUS
 62
    7
 10
-16.968903000000068
 20
748.15002400000003
 11
-16.468903000000068
 21
748.15002400000003
  0
LINE
  8
_0-0_0
  6
CONTINUOUS
 62
    7
 10
-16.968903000000068
 20
748.55001800000002
 11
-16.968903000000068
 21
748.15002400000003
  0
LINE
  8
_0-0_0
  6
CONTINUOUS
 62
    7
 10
-5.9689030000000685
 20
745.75
 11
-14.968903000000068
 21
745.75
  0
ARC
  8
_0-0_0
  6
CONTINUOUS
 62
    7
 10
-14.968903000000068
 20
746.25
 40
0.5
 50
179.99999099999999
 51
269.99999700000001
  0
LINE
  8
_0-0_0
  6
CONTINUOUS
 62
    7
 10
-5.9689030000000685
 20
746.25
 11
-5.4689030000000685
 21
746.25
  0
LINE
  8
_0-0_0
  6
CONTINUOUS
 62
    7
 10
-5.4689030000000685
 20
746.25
 11
-5.4689030000000685
 21
746.45001200000002
  0
LINE
  8
_0-0_0
  6
CONTINUOUS
 62
    7
 10
-0.9689030000000684
 20
746.65002400000003
 11
-5.2689060000000154
 21
746.65002400000003
  0
LINE
  8
_0-0_0
  6
CONTINUOUS
 62
    7
 10
-0.4689030000000684
 20
747.15002400000003
 11
-0.4689030000000684
 21
748.92514000000006
  0
ARC
  8
_0-0_0
  6
CONTINUOUS
 62
    7
 10
-3.5168610000000626
 20
748.86901899999998
 40
3.0490550000000001
 50
1.0548960000000001
 51
14.838094000000002
  0
LINE
  8
_0-0_0
  6
CONTINUOUS
 62
    7
 10
-0.9689030000000684
 20
749.85000600000001
 11
-5.3364410000000362
 21
749.85000600000001
  0
LINE
  8
_0-0_0
  6
CONTINUOUS
 62
    7
 10
-5.4689030000000685
 20
749.99145499999997
 11
-5.4689030000000685
 21
750.09643600000004
  0
ARC
  8
_0-0_0
  6
CONTINUOUS
 62
    7
 10
-7.4689030000000685
 20
771.75
 40
2.2000000000000002
 50
179.99999099999999
 51
303.74900400000001
  0
LINE
  8
_0-0_0
  6
CONTINUOUS
 62
    7
 10
-9.6689000000000078
 20
772.75
 11
-9.6689000000000078
 21
771.75
  0
LINE
  8
_0-0_0
  6
CONTINUOUS
 62
    7
 10
-10.168900000000008
 20
773.25
 11
-83.768906000000015
 21
773.25
  0
LINE
  8
_0-0_0
  6
CONTINUOUS
 62
    7
 10
-84.268906000000015
 20
771.75
 11
-84.268906000000015
 21
772.75
  0
LINE
  8
_0-0_0
  6
CONTINUOUS
 62
    7
 10
-83.768906000000015
 20
771.55001800000002
 11
-83.768906000000015
 21
771.75
  0
ARC
  8
_0-0_0
  6
CONTINUOUS
 62
    7
 10
-82.768906000000015
 20
771.55001800000002
 40
1
 50
90.000003000000007
 51
179.99999099999999
  0
LINE
  8
_0-0_0
  6
CONTINUOUS
 62
    7
 10
-82.768906000000015
 20
772.55001800000002
 11
-69.468903000000068
 21
772.55001800000002
  0
LINE
  8
_0-0_0
  6
CONTINUOUS
 62
    7
 10
-27.468903000000068
 20
772.55001800000002
 11
-13.468903000000068
 21
772.55001800000002
  0
ARC
  8
_0-0_0
  6
CONTINUOUS
 62
    7
 10
-13.468903000000068
 20
769.55001800000002
 40
3
 50
0
 51
90.000003000000007
  0
LINE
  8
_0-0_0
  6
CONTINUOUS
 62
    7
 10
-10.468903000000068
 20
755.95001200000002
 11
-10.468903000000068
 21
769.55001800000002
  0
ARC
  8
_0-0_0
  6
CONTINUOUS
 62
    7
 10
-13.468903000000068
 20
755.95001200000002
 40
3
 50
269.99999700000001
 51
0
  0
LINE
  8
_0-0_0
  6
CONTINUOUS
 62
    7
 10
-13.468903000000068
 20
752.95001200000002
 11
-27.468903000000068
 21
752.95001200000002
  0
LINE
  8
_0-0_0
  6
CONTINUOUS
 62
    7
 10
-69.468903000000068
 20
752.95001200000002
 11
-83.468903000000068
 21
752.95001200000002
  0
ARC
  8
_0-0_0
  6
CONTINUOUS
 62
    7
 10
-83.468903000000068
 20
755.95001200000002
 40
3
 50
179.99999099999999
 51
269.99999700000001
  0
LINE
  8
_0-0_0
  6
CONTINUOUS
 62
    7
 10
-86.468903000000068
 20
768.18771400000003
 11
-86.468903000000068
 21
755.95001200000002
  0
ARC
  8
_0-0_0
  6
CONTINUOUS
 62
    7
 10
-85.468903000000068
 20
768.18771400000003
 40
1
 50
105.68034800000001
 51
179.99999100000002
  0
ARC
  8
_0-0_0
  6
CONTINUOUS
 62
    7
 10
-93.420944000000077
 20
771.03100599999993
 40
3.0490550000000001
 50
181.05489
 51
194.838089
  0
LINE
  8
_0-0_0
  6
CONTINUOUS
 62
    7
 10
-91.601364000000103
 20
770.05001800000002
 11
-95.968903000000068
 21
770.05001800000002
  0
LINE
  8
_0-0_0
  6
CONTINUOUS
 62
    7
 10
-91.468903000000068
 20
749.99145499999997
 11
-91.468903000000068
 21
750.29168700000002
  0
LINE
  8
_0-0_0
  6
CONTINUOUS
 62
    7
 10
-91.601364000000103
 20
749.85000600000001
 11
-95.968903000000068
 21
749.85000600000001
  0
ARC
  8
_0-0_0
  6
CONTINUOUS
 62
    7
 10
-93.419754000000012
 20
748.86834700000009
 40
3.050319
 50
165.15540799999999
 51
178.932897
  0
LINE
  8
_0-0_0
  6
CONTINUOUS
 62
    7
 10
-96.468903000000068
 20
747.15002400000003
 11
-96.468903000000068
 21
748.92514000000006
  0
LINE
  8
_0-0_0
  6
CONTINUOUS
 62
    7
 10
-91.668900000000008
 20
746.65002400000003
 11
-95.968903000000068
 21
746.65002400000003
  0
LINE
  8
_0-0_0
  6
CONTINUOUS
 62
    7
 10
-91.468903000000068
 20
746.25
 11
-91.468903000000068
 21
746.45001200000002
  0
LINE
  8
_0-0_0
  6
CONTINUOUS
 62
    7
 10
-91.468903000000068
 20
746.25
 11
-90.968903000000068
 21
746.25
  0
LINE
  8
_0-0_0
  6
CONTINUOUS
 62
    7
 10
-85.968903000000068
 20
745.75
 11
-90.968903000000068
 21
745.75
  0
ARC
  8
_0-0_0
  6
CONTINUOUS
 62
    7
 10
-85.968903000000068
 20
746.25
 40
0.5
 50
269.99999700000001
 51
0
  0
LINE
  8
_0-0_0
  6
CONTINUOUS
 62
    7
 10
-96.150650000000041
 20
770.05001800000002
 11
-96.171005000000036
 21
770.05102499999998
  0
LINE
  8
_0-0_0
  6
CONTINUOUS
 62
    7
 10
-96.171005000000036
 20
770.05102499999998
 11
-96.191391000000067
 21
770.054169
  0
LINE
  8
_0-0_0
  6
CONTINUOUS
 62
    7
 10
-96.191391000000067
 20
770.054169
 11
-96.218215999999984
 21
770.06176800000003
  0
LINE
  8
_0-0_0
  6
CONTINUOUS
 62
    7
 10
-96.218215999999984
 20
770.06176800000003
 11
-96.243866000000025
 21
770.07312000000002
  0
LINE
  8
_0-0_0
  6
CONTINUOUS
 62
    7
 10
-96.243866000000025
 20
770.07312000000002
 11
-96.267670000000066
 21
770.08801300000005
  0
LINE
  8
_0-0_0
  6
CONTINUOUS
 62
    7
 10
-96.267670000000066
 20
770.08801300000005
 11
-96.284424000000058
 21
770.10150099999998
  0
LINE
  8
_0-0_0
  6
CONTINUOUS
 62
    7
 10
-96.284424000000058
 20
770.10150099999998
 11
-96.299927000000025
 21
770.11676
  0
LINE
  8
_0-0_0
  6
CONTINUOUS
 62
    7
 10
-96.299927000000025
 20
770.11676
 11
-96.326827999999978
 21
770.15139799999997
  0
LINE
  8
_0-0_0
  6
CONTINUOUS
 62
    7
 10
-96.326827999999978
 20
770.15139799999997
 11
-96.347854999999981
 21
770.18972800000006
  0
LINE
  8
_0-0_0
  6
CONTINUOUS
 62
    7
 10
-96.347854999999981
 20
770.18972800000006
 11
-96.359863000000018
 21
770.21963499999993
  0
LINE
  8
_0-0_0
  6
CONTINUOUS
 62
    7
 10
-96.359863000000018
 20
770.21963499999993
 11
-96.368912000000023
 21
770.25
  0
LINE
  8
_0-0_0
  6
CONTINUOUS
 62
    7
 10
-91.468903000000068
 20
774.15002400000003
 11
-91.468903000000068
 21
775.25
  0
LINE
  8
_0-0_0
  6
CONTINUOUS
 62
    7
 10
-96.968903000000068
 20
771.60000600000001
 11
-96.468903000000068
 21
771.60000600000001
  0
LINE
  8
_0-0_0
  6
CONTINUOUS
 62
    7
 10
-96.968903000000068
 20
774.15002400000003
 11
-91.468903000000068
 21
774.15002400000003
  0
ARC
  8
_0-0_0
  6
CONTINUOUS
 62
    7
 10
7.5310969999999315
 20
771.95001200000002
 40
0.5
 50
269.99999700000001
 51
0
  0
ARC
  8
_0-0_0
  6
CONTINUOUS
 62
    7
 10
-4.9689030000000685
 20
772.75
 40
0.5
 50
90.000003000000007
 51
179.99999099999999
  0
LINE
  8
_0-0_0
  6
CONTINUOUS
 62
    7
 10
-5.4689030000000685
 20
771.95001200000002
 11
-5.4689030000000685
 21
772.75
  0
LINE
  8
_0-0_0
  6
CONTINUOUS
 62
    7
 10
-85.268906000000015
 20
748.13284299999998
 11
-85.268906000000015
 21
746.15002400000003
  0
LINE
  8
_0-0_0
  6
CONTINUOUS
 62
    7
 10
-85.268906000000015
 20
746.15002400000003
 11
-84.268906000000015
 21
746.15002400000003
  0
LINE
  8
_0-0_0
  6
CONTINUOUS
 62
    7
 10
-83.968903000000068
 20
748.15002400000003
 11
-16.968903000000068
 21
748.15002400000003
  0
LINE
  8
_0-0_0
  6
CONTINUOUS
 62
    7
 10
-84.268906000000015
 20
746.15002400000003
 11
-16.668900000000008
 21
746.15002400000003
  0
LINE
  8
_0-0_0
  6
CONTINUOUS
 62
    7
 10
-16.668900000000008
 20
746.15002400000003
 11
-15.668900000000008
 21
746.15002400000003
  0
LINE
  8
_0-0_0
  6
CONTINUOUS
 62
    7
 10
-15.668900000000008
 20
748.13284299999998
 11
-15.668900000000008
 21
746.15002400000003
  0
LINE
  8
_0-0_0
  6
CONTINUOUS
 62
    7
 10
-5.4689030000000685
 20
746.25
 11
-5.9689030000000685
 21
745.75
  0
ARC
  8
_0-0_0
  6
CONTINUOUS
 62
    7
 10
-5.2689060000000154
 20
746.45001200000002
 40
0.2
 50
90.000003000000007
 51
179.99999099999999
  0
ARC
  8
_0-0_0
  6
CONTINUOUS
 62
    7
 10
-0.9689030000000684
 20
747.15002400000003
 40
0.5
 50
269.99999700000001
 51
0
  0
LINE
  8
_0-0_0
  6
CONTINUOUS
 62
    7
 10
-0.7871549999999842
 20
749.85000600000001
 11
-0.7668000000001029
 21
749.84899900000005
  0
LINE
  8
_0-0_0
  6
CONTINUOUS
 62
    7
 10
-0.7668000000001029
 20
749.84899900000005
 11
-0.7463989999999967
 21
749.84585600000003
  0
LINE
  8
_0-0_0
  6
CONTINUOUS
 62
    7
 10
-0.7463989999999967
 20
749.84585600000003
 11
-0.7195740000000796
 21
749.838257
  0
LINE
  8
_0-0_0
  6
CONTINUOUS
 62
    7
 10
-0.7195740000000796
 20
749.838257
 11
-0.6939390000000003
 21
749.82690400000001
  0
LINE
  8
_0-0_0
  6
CONTINUOUS
 62
    7
 10
-0.6939390000000003
 20
749.82690400000001
 11
-0.6701360000000704
 21
749.81201199999998
  0
LINE
  8
_0-0_0
  6
CONTINUOUS
 62
    7
 10
-0.6701360000000704
 20
749.81201199999998
 11
-0.6533810000000812
 21
749.79849200000001
  0
LINE
  8
_0-0_0
  6
CONTINUOUS
 62
    7
 10
-0.6533810000000812
 20
749.79849200000001
 11
-0.6378780000000006
 21
749.78326399999992
  0
LINE
  8
_0-0_0
  6
CONTINUOUS
 62
    7
 10
-0.6378780000000006
 20
749.78326399999992
 11
-0.610977000000048
 21
749.74862699999994
  0
LINE
  8
_0-0_0
  6
CONTINUOUS
 62
    7
 10
-0.610977000000048
 20
749.74862699999994
 11
-0.5899350000000822
 21
749.71029700000008
  0
LINE
  8
_0-0_0
  6
CONTINUOUS
 62
    7
 10
-0.5899350000000822
 20
749.71029700000008
 11
-0.5779420000000072
 21
749.68035899999995
  0
LINE
  8
_0-0_0
  6
CONTINUOUS
 62
    7
 10
-0.5779420000000072
 20
749.68035899999995
 11
-0.5688930000000027
 21
749.65002400000003
  0
LINE
  8
_0-0_0
  6
CONTINUOUS
 62
    7
 10
-0.7871549999999842
 20
749.85000600000001
 11
-0.9689030000000684
 21
749.85000600000001
  0
LINE
  8
_0-0_0
  6
CONTINUOUS
 62
    7
 10
-5.4689030000000685
 20
751.15002400000003
 11
-5.4689030000000685
 21
750.09643600000004
  0
LINE
  8
_0-0_0
  6
CONTINUOUS
 62
    7
 10
-5.4689030000000685
 20
751.15002400000003
 11
-5.4689030000000685
 21
768.75
  0
LINE
  8
_0-0_0
  6
CONTINUOUS
 62
    7
 10
-5.4689030000000685
 20
770.72738600000002
 11
-5.4689030000000685
 21
768.75
  0
ARC
  8
_0-0_0
  6
CONTINUOUS
 62
    7
 10
-5.9689030000000685
 20
769.50500499999998
 40
0.5
 50
0
 51
123.74898500000002
  0
ARC
  8
_0-0_0
  6
CONTINUOUS
 62
    7
 10
-5.2986150000000407
 20
750.02331500000003
 40
0.1734229999999999
 50
181.12417600000003
 51
270.64883800000007
  0
LINE
  8
_0-0_0
  6
CONTINUOUS
 62
    7
 10
-5.4729460000000927
 20
750.05001800000002
 11
-5.4728549999999814
 21
750.01986699999998
  0
ARC
  8
_0-0_0
  6
CONTINUOUS
 62
    7
 10
-10.168900000000008
 20
772.75
 40
0.5
 50
0
 51
90.000003000000007
  0
ARC
  8
_0-0_0
  6
CONTINUOUS
 62
    7
 10
-86.468903000000068
 20
771.75
 40
2.7000000000000002
 50
285.68033600000007
 51
0.0000000000000381
  0
ARC
  8
_0-0_0
  6
CONTINUOUS
 62
    7
 10
-69.468903000000068
 20
755.95001200000002
 40
3
 50
269.99999700000001
 51
0
  0
LINE
  8
_0-0_0
  6
CONTINUOUS
 62
    7
 10
-66.468903000000068
 20
755.95001200000002
 11
-66.468903000000068
 21
769.55001800000002
  0
ARC
  8
_0-0_0
  6
CONTINUOUS
 62
    7
 10
-69.468903000000068
 20
769.55001800000002
 40
3
 50
0
 51
90.000003000000007
  0
ARC
  8
_0-0_0
  6
CONTINUOUS
 62
    7
 10
-73.968903000000068
 20
765.25
 40
4.5
 50
269.99999700000001
 51
90.000002999999992
  0
LINE
  8
_0-0_0
  6
CONTINUOUS
 62
    7
 10
-73.968903000000068
 20
760.75
 11
-78.968903000000068
 21
760.75
  0
ARC
  8
_0-0_0
  6
CONTINUOUS
 62
    7
 10
-78.968903000000068
 20
765.25
 40
4.5
 50
90.000003000000007
 51
269.99999700000006
  0
LINE
  8
_0-0_0
  6
CONTINUOUS
 62
    7
 10
-78.968903000000068
 20
769.75
 11
-73.968903000000068
 21
769.75
  0
ARC
  8
_0-0_0
  6
CONTINUOUS
 62
    7
 10
-27.468903000000068
 20
755.95001200000002
 40
3
 50
179.99999099999999
 51
269.99999700000001
  0
LINE
  8
_0-0_0
  6
CONTINUOUS
 62
    7
 10
-30.468903000000068
 20
769.55001800000002
 11
-30.468903000000068
 21
755.95001200000002
  0
ARC
  8
_0-0_0
  6
CONTINUOUS
 62
    7
 10
-27.468903000000068
 20
769.55001800000002
 40
3
 50
90.000003000000007
 51
179.99999099999999
  0
ARC
  8
_0-0_0
  6
CONTINUOUS
 62
    7
 10
-17.968903000000068
 20
765.25
 40
4.5
 50
269.99999700000001
 51
90.000002999999992
  0
LINE
  8
_0-0_0
  6
CONTINUOUS
 62
    7
 10
-17.968903000000068
 20
760.75
 11
-22.968903000000068
 21
760.75
  0
ARC
  8
_0-0_0
  6
CONTINUOUS
 62
    7
 10
-22.968903000000068
 20
765.25
 40
4.5
 50
90.000003000000007
 51
269.99999700000006
  0
LINE
  8
_0-0_0
  6
CONTINUOUS
 62
    7
 10
-22.968903000000068
 20
769.75
 11
-17.968903000000068
 21
769.75
  0
LINE
  8
_0-0_0
  6
CONTINUOUS
 62
    7
 10
-95.968903000000068
 20
770.05001800000002
 11
-96.150650000000041
 21
770.05001800000002
  0
LINE
  8
_0-0_0
  6
CONTINUOUS
 62
    7
 10
-91.468903000000068
 20
751.95001200000002
 11
-91.468903000000068
 21
750.29168700000002
  0
LINE
  8
_0-0_0
  6
CONTINUOUS
 62
    7
 10
-91.468903000000068
 20
751.95001200000002
 11
-91.468903000000068
 21
768.45001200000002
  0
LINE
  8
_0-0_0
  6
CONTINUOUS
 62
    7
 10
-91.468903000000068
 20
769.91629
 11
-91.468903000000068
 21
768.45001200000002
  0
ARC
  8
_0-0_0
  6
CONTINUOUS
 62
    7
 10
-91.639190999999983
 20
750.02328499999999
 40
0.1734209999999999
 50
269.35085600000002
 51
358.87625300000002
  0
LINE
  8
_0-0_0
  6
CONTINUOUS
 62
    7
 10
-91.464859000000047
 20
750.05001800000002
 11
-91.464935000000082
 21
750.01986699999998
  0
LINE
  8
_0-0_0
  6
CONTINUOUS
 62
    7
 10
-91.464859000000047
 20
769.85000600000001
 11
-91.464935000000082
 21
769.88012700000002
  0
ARC
  8
_0-0_0
  6
CONTINUOUS
 62
    7
 10
-91.639190999999983
 20
769.87670900000001
 40
0.1734219999999999
 50
1.1236539999999999
 51
90.649110000000007
  0
LINE
  8
_0-0_0
  6
CONTINUOUS
 62
    7
 10
-95.968903000000068
 20
749.85000600000001
 11
-96.150650000000041
 21
749.85000600000001
  0
LINE
  8
_0-0_0
  6
CONTINUOUS
 62
    7
 10
-96.150650000000041
 20
749.85000600000001
 11
-96.171005000000036
 21
749.84899900000005
  0
LINE
  8
_0-0_0
  6
CONTINUOUS
 62
    7
 10
-96.171005000000036
 20
749.84899900000005
 11
-96.191406000000029
 21
749.84582499999999
  0
LINE
  8
_0-0_0
  6
CONTINUOUS
 62
    7
 10
-96.191406000000029
 20
749.84582499999999
 11
-96.218215999999984
 21
749.838257
  0
LINE
  8
_0-0_0
  6
CONTINUOUS
 62
    7
 10
-96.218215999999984
 20
749.838257
 11
-96.243866000000025
 21
749.82690400000001
  0
LINE
  8
_0-0_0
  6
CONTINUOUS
 62
    7
 10
-96.243866000000025
 20
749.82690400000001
 11
-96.267670000000066
 21
749.81201199999998
  0
LINE
  8
_0-0_0
  6
CONTINUOUS
 62
    7
 10
-96.267670000000066
 20
749.81201199999998
 11
-96.284424000000058
 21
749.79849200000001
  0
LINE
  8
_0-0_0
  6
CONTINUOUS
 62
    7
 10
-96.284424000000058
 20
749.79849200000001
 11
-96.299927000000025
 21
749.78326399999992
  0
LINE
  8
_0-0_0
  6
CONTINUOUS
 62
    7
 10
-96.299927000000025
 20
749.78326399999992
 11
-96.326827999999978
 21
749.74862699999994
  0
LINE
  8
_0-0_0
  6
CONTINUOUS
 62
    7
 10
-96.326827999999978
 20
749.74862699999994
 11
-96.347854999999981
 21
749.71029700000008
  0
LINE
  8
_0-0_0
  6
CONTINUOUS
 62
    7
 10
-96.347854999999981
 20
749.71029700000008
 11
-96.359863000000018
 21
749.68035899999995
  0
LINE
  8
_0-0_0
  6
CONTINUOUS
 62
    7
 10
-96.359863000000018
 20
749.68035899999995
 11
-96.368912000000023
 21
749.65002400000003
  0
ARC
  8
_0-0_0
  6
CONTINUOUS
 62
    7
 10
-95.968903000000068
 20
747.15002400000003
 40
0.5
 50
179.99999099999999
 51
269.99999700000001
  0
ARC
  8
_0-0_0
  6
CONTINUOUS
 62
    7
 10
-91.668900000000008
 20
746.45001200000002
 40
0.2
 50
0
 51
90.000003000000007
  0
LINE
  8
_0-0_0
  6
CONTINUOUS
 62
    7
 10
-91.468903000000068
 20
746.25
 11
-90.968903000000068
 21
745.75
  0
LINE
  8
_0-0_0
  6
CONTINUOUS
 62
    7
 10
-97.468903000000068
 20
772.09429899999998
 11
-97.468903000000068
 21
773.65002400000003
  0
ARC
  8
_0-0_0
  6
CONTINUOUS
 62
    7
 10
-96.981995000000097
 20
772.09765599999992
 40
0.4869939999999999
 50
180.39493000000002
 51
203.93946700000001
  0
ARC
  8
_0-0_0
  6
CONTINUOUS
 62
    7
 10
-96.968903000000068
 20
772.10000600000001
 40
0.5
 50
203.57823099999999
 51
269.99999700000001
  0
ARC
  8
_0-0_0
  6
CONTINUOUS
 62
    7
 10
-96.968903000000068
 20
773.65002400000003
 40
0.5
 50
90.000003000000007
 51
179.99999099999999
  0
LINE
  8
_0-0_0
  6
CONTINUOUS
 62
    7
 10
-5.4689030000000685
 20
771.45001200000002
 11
-4.9689030000000685
 21
771.45001200000002
  0
LINE
  8
_0-0_0
  6
CONTINUOUS
 62
    7
 10
-4.9689030000000685
 20
771.45001200000002
 11
7.5310969999999315
 21
771.45001200000002
  0
ARC
  8
_0-0_0
  6
CONTINUOUS
 62
    7
 10
-4.9689030000000685
 20
771.95001200000002
 40
0.5
 50
179.99999099999999
 51
269.99999700000001
  0
LINE
  8
_0-0_0
  6
CONTINUOUS
 62
    7
 10
-5.4689030000000685
 20
771.08398399999999
 11
-5.4689030000000685
 21
771.45001200000002
  0
LINE
  8
_0-0_0
  6
CONTINUOUS
 62
    7
 10
-5.4689030000000685
 20
770.83349599999997
 11
-5.4689030000000685
 21
770.72738600000002
  0
LINE
  8
_0-0_0
  6
CONTINUOUS
 62
    7
 10
-5.4689030000000685
 20
771.08398399999999
 11
-5.4689030000000685
 21
770.83349599999997
  0
CIRCLE
  8
_0-0_0
  6
CONTINUOUS
 62
    7
 10
-86.468903000000068
 20
771.75
 40
1.4750000000000001
  0
CIRCLE
  8
_0-0_0
  6
CONTINUOUS
 62
    7
 10
-7.4689030000000685
 20
771.75
 40
1.4750000000000001
  0
LINE
  8
_0-0_0
  6
CONTINUOUS
 62
    7
 10
-97.468903000000068
 20
751.95001200000002
 11
-97.468903000000068
 21
749.45001200000002
  0
LINE
  8
_0-0_0
  6
CONTINUOUS
 62
    7
 10
-97.468903000000068
 20
751.95001200000002
 11
-97.468903000000068
 21
764.75
  0
LINE
  8
_0-0_0
  6
CONTINUOUS
 62
    7
 10
-97.468903000000068
 20
768.25
 11
-97.468903000000068
 21
764.75
  0
LINE
  8
_0-0_0
  6
CONTINUOUS
 62
    7
 10
-97.468903000000068
 20
768.25
 11
-97.468903000000068
 21
768.60000600000001
  0
LINE
  8
_0-0_0
  6
CONTINUOUS
 62
    7
 10
-97.468903000000068
 20
772.09429899999998
 11
-97.468903000000068
 21
768.60000600000001
  0
LINE
  8
_0-0_0
  6
CONTINUOUS
 62
    7
 10
-97.468903000000068
 20
773.942902
 11
-97.468903000000068
 21
773.65002400000003
  0
LINE
  8
_0-0_0
  6
CONTINUOUS
 62
    7
 10
-97.468903000000068
 20
773.942902
 11
-97.468903000000068
 21
774
  0
LINE
  8
_0-0_0
  6
CONTINUOUS
 62
    7
 10
-96.468369000000052
 20
748.95001200000002
 11
-96.968903000000068
 21
748.95001200000002
  0
LINE
  8
_0-0_0
  6
CONTINUOUS
 62
    7
 10
-0.4801030000000992
 20
749.15002400000003
 11
6.5310969999999315
 21
749.15002400000003
  0
LINE
  8
_0-0_0
  6
CONTINUOUS
 62
    7
 10
6.5310969999999315
 20
749.15002400000003
 11
11.206543000000011
 21
749.15002400000003
  0
LINE
  8
_0-0_0
  6
CONTINUOUS
 62
    7
 10
6.5310969999999315
 20
749.15002400000003
 11
6.5310969999999315
 21
751.15002400000003
  0
LINE
  8
_0-0_0
  6
CONTINUOUS
 62
    7
 10
6.5310969999999315
 20
754.65002400000003
 11
6.5310969999999315
 21
751.65002400000003
  0
LINE
  8
_0-0_0
  6
CONTINUOUS
 62
    7
 10
6.5310969999999315
 20
751.65002400000003
 11
6.5310969999999315
 21
751.15002400000003
  0
LINE
  8
_0-0_0
  6
CONTINUOUS
 62
    7
 10
6.5310969999999315
 20
754.65002400000003
 11
6.5310969999999315
 21
755.15002400000003
  0
ARC
  8
_0-0_0
  6
CONTINUOUS
 62
    7
 10
0.5310819999999694
 20
754.45001200000002
 40
0.500016
 50
180.00117
 51
359.995611
  0
LINE
  8
_0-0_0
  6
CONTINUOUS
 62
    7
 10
1.0310969999999315
 20
754.45001200000002
 11
1.0310969999999315
 21
766.45001200000002
  0
ARC
  8
_0-0_0
  6
CONTINUOUS
 62
    7
 10
0.5310819999999694
 20
766.45001200000002
 40
0.500016
 50
0.001164
 51
179.99560600000004
  0
LINE
  8
_0-0_0
  6
CONTINUOUS
 62
    7
 10
0.0310969999999315
 20
754.45001200000002
 11
0.0310969999999315
 21
766.45001200000002
  0
ARC
  8
_0-0_0
  6
CONTINUOUS
 62
    7
 10
2.0310819999999694
 20
754.45001200000002
 40
0.500016
 50
180.00117
 51
359.995611
  0
LINE
  8
_0-0_0
  6
CONTINUOUS
 62
    7
 10
2.5310969999999315
 20
754.45001200000002
 11
2.5310969999999315
 21
766.45001200000002
  0
ARC
  8
_0-0_0
  6
CONTINUOUS
 62
    7
 10
2.0310819999999694
 20
766.45001200000002
 40
0.500016
 50
0.001164
 51
179.99560600000004
  0
LINE
  8
_0-0_0
  6
CONTINUOUS
 62
    7
 10
1.5310969999999315
 20
754.45001200000002
 11
1.5310969999999315
 21
766.45001200000002
  0
ARC
  8
_0-0_0
  6
CONTINUOUS
 62
    7
 10
3.5310819999999694
 20
754.45001200000002
 40
0.500016
 50
180.00117
 51
359.995611
  0
LINE
  8
_0-0_0
  6
CONTINUOUS
 62
    7
 10
4.0310969999999315
 20
754.45001200000002
 11
4.0310969999999315
 21
766.45001200000002
  0
ARC
  8
_0-0_0
  6
CONTINUOUS
 62
    7
 10
3.5310819999999694
 20
766.45001200000002
 40
0.500016
 50
0.001164
 51
179.99560600000004
  0
LINE
  8
_0-0_0
  6
CONTINUOUS
 62
    7
 10
3.0310969999999315
 20
754.45001200000002
 11
3.0310969999999315
 21
766.45001200000002
  0
ARC
  8
_0-0_0
  6
CONTINUOUS
 62
    7
 10
5.0310819999999694
 20
754.45001200000002
 40
0.500016
 50
180.00117
 51
359.995611
  0
LINE
  8
_0-0_0
  6
CONTINUOUS
 62
    7
 10
5.5310969999999315
 20
754.45001200000002
 11
5.5310969999999315
 21
766.45001200000002
  0
ARC
  8
_0-0_0
  6
CONTINUOUS
 62
    7
 10
5.0310819999999694
 20
766.45001200000002
 40
0.500016
 50
0.001164
 51
179.99560600000004
  0
LINE
  8
_0-0_0
  6
CONTINUOUS
 62
    7
 10
4.5310969999999315
 20
754.45001200000002
 11
4.5310969999999315
 21
766.45001200000002
  0
LINE
  8
_0-0_0
  6
CONTINUOUS
 62
    7
 10
-5.4689030000000685
 20
770.75
 11
11.206543000000011
 21
770.75
  0
LINE
  8
_0-0_0
  6
CONTINUOUS
 62
    7
 10
-96.968903000000068
 20
774.5
 11
-91.468903000000068
 21
774.5
  0
ARC
  8
_0-0_0
  6
CONTINUOUS
 62
    7
 10
-96.968903000000068
 20
774
 40
0.5
 50
90.000003000000007
 51
179.99999099999999
  0
ARC
  8
_0-0_0
  6
CONTINUOUS
 62
    7
 10
-96.968903000000068
 20
749.45001200000002
 40
0.5
 50
179.99999099999999
 51
269.99999700000001
  0
ARC
  8
_0-0_0
  6
CONTINUOUS
 62
    7
 10
-96.968903000000068
 20
764.75
 40
0.5
 50
90.000003000000007
 51
179.99999099999999
  0
ARC
  8
_0-0_0
  6
CONTINUOUS
 62
    7
 10
11.206543000000011
 20
751.15002400000003
 40
2
 50
269.99999700000001
 51
288.43501300000003
  0
LINE
  8
_0-0_0
  6
CONTINUOUS
 62
    7
 10
6.5310969999999315
 20
749.15002400000003
 11
6.5310969999999315
 21
749.40008499999999
  0
LINE
  8
_0-0_0
  6
CONTINUOUS
 62
    7
 10
6.5310969999999315
 20
754.65002400000003
 11
11.206543000000011
 21
754.65002400000003
  0
LINE
  8
_0-0_0
  6
CONTINUOUS
 62
    7
 10
11.839003999999932
 20
770.64736900000003
 11
11.71949799999993
 21
770.68298299999992
  0
LINE
  8
_0-0_0
  6
CONTINUOUS
 62
    7
 10
11.71949799999993
 20
770.68298299999992
 11
11.597945999999979
 21
770.71087599999998
  0
LINE
  8
_0-0_0
  6
CONTINUOUS
 62
    7
 10
11.597945999999979
 20
770.71087599999998
 11
11.474807999999939
 21
770.73092700000007
  0
LINE
  8
_0-0_0
  6
CONTINUOUS
 62
    7
 10
11.474807999999939
 20
770.73092700000007
 11
11.350586000000021
 21
770.74304200000006
  0
LINE
  8
_0-0_0
  6
CONTINUOUS
 62
    7
 10
11.350586000000021
 20
770.74304200000006
 11
11.2257689999999
 21
770.747162
  0
LINE
  8
_0-0_0
  6
CONTINUOUS
 62
    7
 10
11.2257689999999
 20
770.747162
 11
11.206543000000011
 21
770.74710099999993
  0
ARC
  8
_0-0_0
  6
CONTINUOUS
 62
    7
 10
11.206543000000011
 20
768.75
 40
2
 50
71.565000999999995
 51
90.000003000000007
  0
LINE
  8
_0-0_0
  6
CONTINUOUS
 62
    7
 10
-72.497360000000072
 20
761.15002400000003
 11
-80.440445000000068
 21
761.15002400000003
  0
ARC
  8
_0-0_0
  6
CONTINUOUS
 62
    7
 10
-80.440445000000068
 20
761.65002400000003
 40
0.5
 50
210.00000299999999
 51
269.99999700000001
  0
LINE
  8
_0-0_0
  6
CONTINUOUS
 62
    7
 10
-80.873459000000025
 20
761.40002400000003
 11
-82.951919999999973
 21
765
  0
ARC
  8
_0-0_0
  6
CONTINUOUS
 62
    7
 10
-82.518906000000015
 20
765.25
 40
0.5
 50
149.99999700000001
 51
210.00000299999996
  0
LINE
  8
_0-0_0
  6
CONTINUOUS
 62
    7
 10
-82.951919999999973
 20
765.5
 11
-80.873459000000025
 21
769.10000600000001
  0
ARC
  8
_0-0_0
  6
CONTINUOUS
 62
    7
 10
-80.440445000000068
 20
768.85000600000001
 40
0.5
 50
90.000003000000007
 51
149.99999700000001
  0
LINE
  8
_0-0_0
  6
CONTINUOUS
 62
    7
 10
-80.440445000000068
 20
769.35000600000001
 11
-72.497360000000072
 21
769.35000600000001
  0
ARC
  8
_0-0_0
  6
CONTINUOUS
 62
    7
 10
-72.497360000000072
 20
768.85000600000001
 40
0.5
 50
30.000001000000001
 51
90.000003000000007
  0
LINE
  8
_0-0_0
  6
CONTINUOUS
 62
    7
 10
-72.064346
 20
769.10000600000001
 11
-69.98588600000005
 21
765.5
  0
ARC
  8
_0-0_0
  6
CONTINUOUS
 62
    7
 10
-70.418900000000008
 20
765.25
 40
0.5
 50
329.99998900000003
 51
30.000000999999983
  0
LINE
  8
_0-0_0
  6
CONTINUOUS
 62
    7
 10
-69.98588600000005
 20
765
 11
-72.064346
 21
761.40002400000003
  0
ARC
  8
_0-0_0
  6
CONTINUOUS
 62
    7
 10
-72.497360000000072
 20
761.65002400000003
 40
0.5
 50
269.99999700000001
 51
329.99998900000003
  0
ARC
  8
_0-0_0
  6
CONTINUOUS
 62
    7
 10
-24.498169000000075
 20
761.75
 40
0.5
 50
210.00000299999999
 51
269.99999700000001
  0
LINE
  8
_0-0_0
  6
CONTINUOUS
 62
    7
 10
-24.931183000000033
 20
761.5
 11
-26.951904000000013
 21
765
  0
ARC
  8
_0-0_0
  6
CONTINUOUS
 62
    7
 10
-26.518906000000015
 20
765.25
 40
0.5
 50
149.99999700000001
 51
210.00000299999996
  0
LINE
  8
_0-0_0
  6
CONTINUOUS
 62
    7
 10
-26.951904000000013
 20
765.5
 11
-24.931183000000033
 21
769
  0
ARC
  8
_0-0_0
  6
CONTINUOUS
 62
    7
 10
-24.498169000000075
 20
768.75
 40
0.5
 50
90.000003000000007
 51
149.99999700000001
  0
LINE
  8
_0-0_0
  6
CONTINUOUS
 62
    7
 10
-24.498169000000075
 20
769.25
 11
-16.439620999999988
 21
769.25
  0
ARC
  8
_0-0_0
  6
CONTINUOUS
 62
    7
 10
-16.439620999999988
 20
768.75
 40
0.5
 50
30.000001000000001
 51
90.000003000000007
  0
LINE
  8
_0-0_0
  6
CONTINUOUS
 62
    7
 10
-16.006607000000031
 20
769
 11
-13.98588600000005
 21
765.5
  0
ARC
  8
_0-0_0
  6
CONTINUOUS
 62
    7
 10
-14.418900000000008
 20
765.25
 40
0.5
 50
329.99998900000003
 51
30.000000999999983
  0
LINE
  8
_0-0_0
  6
CONTINUOUS
 62
    7
 10
-13.98588600000005
 20
765
 11
-16.006607000000031
 21
761.5
  0
ARC
  8
_0-0_0
  6
CONTINUOUS
 62
    7
 10
-16.439620999999988
 20
761.75
 40
0.5
 50
269.99999700000001
 51
329.99998900000003
  0
LINE
  8
_0-0_0
  6
CONTINUOUS
 62
    7
 10
-16.439620999999988
 20
761.25
 11
-24.498169000000075
 21
761.25
  0
LINE
  8
_0-0_0
  6
CONTINUOUS
 62
    7
 10
-94.468903000000068
 20
769.88043199999993
 11
-94.468903000000068
 21
769.05419899999993
  0
LINE
  8
_0-0_0
  6
CONTINUOUS
 62
    7
 10
-96.968903000000068
 20
765.25
 11
-94.768906000000015
 21
765.25
  0
LINE
  8
_0-0_0
  6
CONTINUOUS
 62
    7
 10
-94.468903000000068
 20
765.55001800000002
 11
-94.468903000000068
 21
767.77832000000001
  0
LINE
  8
_0-0_0
  6
CONTINUOUS
 62
    7
 10
-94.468903000000068
 20
770.04968299999996
 11
-94.468903000000068
 21
769.88043199999993
  0
LINE
  8
_0-0_0
  6
CONTINUOUS
 62
    7
 10
-86.268906000000015
 20
770.65002400000003
 11
-86.668900000000008
 21
770.65002400000003
  0
LINE
  8
_0-0_0
  6
CONTINUOUS
 62
    7
 10
-86.268906000000015
 20
770.65002400000003
 11
-86.268906000000015
 21
771.30001800000002
  0
ARC
  8
_0-0_0
  6
CONTINUOUS
 62
    7
 10
-86.018906000000015
 20
771.30001800000002
 40
0.25
 50
90.000003000000007
 51
179.99999099999999
  0
LINE
  8
_0-0_0
  6
CONTINUOUS
 62
    7
 10
-86.018906000000015
 20
771.55001800000002
 11
-85.368912000000023
 21
771.55001800000002
  0
LINE
  8
_0-0_0
  6
CONTINUOUS
 62
    7
 10
-85.368912000000023
 20
771.55001800000002
 11
-85.368912000000023
 21
771.95001200000002
  0
LINE
  8
_0-0_0
  6
CONTINUOUS
 62
    7
 10
-86.018906000000015
 20
771.95001200000002
 11
-85.368912000000023
 21
771.95001200000002
  0
ARC
  8
_0-0_0
  6
CONTINUOUS
 62
    7
 10
-86.018906000000015
 20
772.20001200000002
 40
0.25
 50
179.99999099999999
 51
269.99999700000001
  0
LINE
  8
_0-0_0
  6
CONTINUOUS
 62
    7
 10
-86.268906000000015
 20
772.85000600000001
 11
-86.268906000000015
 21
772.20001200000002
  0
LINE
  8
_0-0_0
  6
CONTINUOUS
 62
    7
 10
-86.268906000000015
 20
772.85000600000001
 11
-86.668900000000008
 21
772.85000600000001
  0
LINE
  8
_0-0_0
  6
CONTINUOUS
 62
    7
 10
-86.668900000000008
 20
772.85000600000001
 11
-86.668900000000008
 21
772.20001200000002
  0
ARC
  8
_0-0_0
  6
CONTINUOUS
 62
    7
 10
-86.918900000000008
 20
772.20001200000002
 40
0.25
 50
269.99999700000001
 51
0
  0
LINE
  8
_0-0_0
  6
CONTINUOUS
 62
    7
 10
-86.918900000000008
 20
771.95001200000002
 11
-87.568893000000003
 21
771.95001200000002
  0
LINE
  8
_0-0_0
  6
CONTINUOUS
 62
    7
 10
-87.568893000000003
 20
771.55001800000002
 11
-87.568893000000003
 21
771.95001200000002
  0
LINE
  8
_0-0_0
  6
CONTINUOUS
 62
    7
 10
-86.918900000000008
 20
771.55001800000002
 11
-87.568893000000003
 21
771.55001800000002
  0
ARC
  8
_0-0_0
  6
CONTINUOUS
 62
    7
 10
-86.918900000000008
 20
771.30001800000002
 40
0.25
 50
0
 51
90.000003000000007
  0
LINE
  8
_0-0_0
  6
CONTINUOUS
 62
    7
 10
-86.668900000000008
 20
770.65002400000003
 11
-86.668900000000008
 21
771.30001800000002
  0
LINE
  8
_0-0_0
  6
CONTINUOUS
 62
    7
 10
-7.2689060000000154
 20
770.65002400000003
 11
-7.6689000000000078
 21
770.65002400000003
  0
LINE
  8
_0-0_0
  6
CONTINUOUS
 62
    7
 10
-7.2689060000000154
 20
770.65002400000003
 11
-7.2689060000000154
 21
771.30001800000002
  0
ARC
  8
_0-0_0
  6
CONTINUOUS
 62
    7
 10
-7.0189060000000154
 20
771.30001800000002
 40
0.25
 50
90.000003000000007
 51
179.99999099999999
  0
LINE
  8
_0-0_0
  6
CONTINUOUS
 62
    7
 10
-7.0189060000000154
 20
771.55001800000002
 11
-6.3688970000000609
 21
771.55001800000002
  0
LINE
  8
_0-0_0
  6
CONTINUOUS
 62
    7
 10
-6.3688970000000609
 20
771.55001800000002
 11
-6.3688970000000609
 21
771.95001200000002
  0
LINE
  8
_0-0_0
  6
CONTINUOUS
 62
    7
 10
-7.0189060000000154
 20
771.95001200000002
 11
-6.3688970000000609
 21
771.95001200000002
  0
ARC
  8
_0-0_0
  6
CONTINUOUS
 62
    7
 10
-7.0189060000000154
 20
772.20001200000002
 40
0.25
 50
179.99999099999999
 51
269.99999700000001
  0
LINE
  8
_0-0_0
  6
CONTINUOUS
 62
    7
 10
-7.2689060000000154
 20
772.85000600000001
 11
-7.2689060000000154
 21
772.20001200000002
  0
LINE
  8
_0-0_0
  6
CONTINUOUS
 62
    7
 10
-7.2689060000000154
 20
772.85000600000001
 11
-7.6689000000000078
 21
772.85000600000001
  0
LINE
  8
_0-0_0
  6
CONTINUOUS
 62
    7
 10
-7.6689000000000078
 20
772.85000600000001
 11
-7.6689000000000078
 21
772.20001200000002
  0
ARC
  8
_0-0_0
  6
CONTINUOUS
 62
    7
 10
-7.9189000000000078
 20
772.20001200000002
 40
0.25
 50
269.99999700000001
 51
0
  0
LINE
  8
_0-0_0
  6
CONTINUOUS
 62
    7
 10
-7.9189000000000078
 20
771.95001200000002
 11
-8.5688930000000028
 21
771.95001200000002
  0
LINE
  8
_0-0_0
  6
CONTINUOUS
 62
    7
 10
-8.5688930000000028
 20
771.55001800000002
 11
-8.5688930000000028
 21
771.95001200000002
  0
LINE
  8
_0-0_0
  6
CONTINUOUS
 62
    7
 10
-7.9189000000000078
 20
771.55001800000002
 11
-8.5688930000000028
 21
771.55001800000002
  0
ARC
  8
_0-0_0
  6
CONTINUOUS
 62
    7
 10
-7.9189000000000078
 20
771.30001800000002
 40
0.25
 50
0
 51
90.000003000000007
  0
LINE
  8
_0-0_0
  6
CONTINUOUS
 62
    7
 10
-7.6689000000000078
 20
770.65002400000003
 11
-7.6689000000000078
 21
771.30001800000002
  0
LINE
  8
_0-0_0
  6
CONTINUOUS
 62
    7
 10
12.281096999999932
 20
749.39999399999999
 11
11.839003999999932
 21
749.25262500000008
  0
LINE
  8
_0-0_0
  6
CONTINUOUS
 62
    7
 10
16.005447000000004
 20
754.65002400000003
 11
16.698806999999988
 21
754.65002400000003
  0
LINE
  8
_0-0_0
  6
CONTINUOUS
 62
    7
 10
16.005447000000004
 20
754.65002400000003
 11
11.680892999999969
 21
754.65002400000003
  0
LINE
  8
_0-0_0
  6
CONTINUOUS
 62
    7
 10
11.206543000000011
 20
754.65002400000003
 11
11.680892999999969
 21
754.65002400000003
  0
LINE
  8
_0-0_0
  6
CONTINUOUS
 62
    7
 10
16.163558999999964
 20
769.20584099999996
 11
11.839003999999932
 21
770.64736900000003
  0
LINE
  8
_0-0_0
  6
CONTINUOUS
 62
    7
 10
-94.468903000000068
 20
769.05419899999993
 11
-94.468903000000068
 21
767.77832000000001
  0
ARC
  8
_0-0_0
  6
CONTINUOUS
 62
    7
 10
-94.768906000000015
 20
765.55001800000002
 40
0.2999999999999999
 50
269.99999700000001
 51
0
  0
LINE
  8
_0-0_0
  6
CONTINUOUS
 62
    7
 10
-96.924576000000002
 20
769.32870500000001
 11
-96.924576000000002
 21
766
  0
LINE
  8
_0-0_0
  6
CONTINUOUS
 62
    7
 10
-96.924576000000002
 20
770.5
 11
-96.924576000000002
 21
769.32870500000001
  0
LINE
  8
_0-0_0
  6
CONTINUOUS
 62
    7
 10
17.531096999999932
 20
753.89996300000007
 11
17.531096999999932
 21
755.02099599999997
  0
LINE
  8
_0-0_0
  6
CONTINUOUS
 62
    7
 10
17.531096999999932
 20
755.94232199999999
 11
17.531096999999932
 21
755.02099599999997
  0
LINE
  8
_0-0_0
  6
CONTINUOUS
 62
    7
 10
17.231093999999985
 20
757.73800699999993
 11
17.289901999999984
 21
757.49117999999999
  0
LINE
  8
_0-0_0
  6
CONTINUOUS
 62
    7
 10
17.289901999999984
 20
757.49117999999999
 11
17.339660999999978
 21
757.29882799999996
  0
LINE
  8
_0-0_0
  6
CONTINUOUS
 62
    7
 10
17.339660999999978
 20
757.29882799999996
 11
17.410797000000002
 21
757.033051
  0
LINE
  8
_0-0_0
  6
CONTINUOUS
 62
    7
 10
17.410797000000002
 20
757.033051
 11
17.443756000000008
 21
756.906342
  0
LINE
  8
_0-0_0
  6
CONTINUOUS
 62
    7
 10
17.443756000000008
 20
756.906342
 11
17.469008999999915
 21
756.80291699999998
  0
LINE
  8
_0-0_0
  6
CONTINUOUS
 62
    7
 10
17.469008999999915
 20
756.80291699999998
 11
17.491042999999991
 21
756.70297200000005
  0
LINE
  8
_0-0_0
  6
CONTINUOUS
 62
    7
 10
17.491042999999991
 20
756.70297200000005
 11
17.512420999999904
 21
756.58526600000005
  0
LINE
  8
_0-0_0
  6
CONTINUOUS
 62
    7
 10
17.512420999999904
 20
756.58526600000005
 11
17.520995999999968
 21
756.52313200000003
  0
LINE
  8
_0-0_0
  6
CONTINUOUS
 62
    7
 10
17.520995999999968
 20
756.52313200000003
 11
17.527068999999983
 21
756.46252400000003
  0
LINE
  8
_0-0_0
  6
CONTINUOUS
 62
    7
 10
17.527068999999983
 20
756.46252400000003
 11
17.530074999999897
 21
756.41329999999994
  0
LINE
  8
_0-0_0
  6
CONTINUOUS
 62
    7
 10
17.530074999999897
 20
756.41329999999994
 11
17.531096999999932
 21
756.36505099999999
  0
LINE
  8
_0-0_0
  6
CONTINUOUS
 62
    7
 10
17.231093999999985
 20
762.16204800000003
 11
17.1476439999999
 21
761.78335600000003
  0
LINE
  8
_0-0_0
  6
CONTINUOUS
 62
    7
 10
17.1476439999999
 20
761.78335600000003
 11
17.107543999999962
 21
761.59182699999997
  0
LINE
  8
_0-0_0
  6
CONTINUOUS
 62
    7
 10
17.107543999999962
 20
761.59182699999997
 11
17.051468
 21
761.30181900000002
  0
LINE
  8
_0-0_0
  6
CONTINUOUS
 62
    7
 10
17.051468
 20
761.30181900000002
 11
17.013869999999997
 21
761.08221400000002
  0
LINE
  8
_0-0_0
  6
CONTINUOUS
 62
    7
 10
17.013869999999997
 20
761.08221400000002
 11
16.981215999999904
 21
760.86096199999997
  0
LINE
  8
_0-0_0
  6
CONTINUOUS
 62
    7
 10
16.981215999999904
 20
760.86096199999997
 11
16.954055999999923
 21
760.63415499999996
  0
LINE
  8
_0-0_0
  6
CONTINUOUS
 62
    7
 10
16.954055999999923
 20
760.63415499999996
 11
16.933989999999994
 21
760.40676899999994
  0
LINE
  8
_0-0_0
  6
CONTINUOUS
 62
    7
 10
16.933989999999994
 20
760.40676899999994
 11
16.926833999999985
 21
760.29303000000004
  0
LINE
  8
_0-0_0
  6
CONTINUOUS
 62
    7
 10
16.926833999999985
 20
760.29303000000004
 11
16.921676999999931
 21
760.17935199999999
  0
LINE
  8
_0-0_0
  6
CONTINUOUS
 62
    7
 10
16.921676999999931
 20
760.17935199999999
 11
16.917968999999971
 21
760.02792399999998
  0
LINE
  8
_0-0_0
  6
CONTINUOUS
 62
    7
 10
16.917968999999971
 20
760.02792399999998
 11
16.917907999999898
 21
759.87667800000008
  0
LINE
  8
_0-0_0
  6
CONTINUOUS
 62
    7
 10
16.917907999999898
 20
759.87667800000008
 11
16.921477999999979
 21
759.72561599999995
  0
LINE
  8
_0-0_0
  6
CONTINUOUS
 62
    7
 10
16.921477999999979
 20
759.72561599999995
 11
16.930983999999967
 21
759.53707899999995
  0
LINE
  8
_0-0_0
  6
CONTINUOUS
 62
    7
 10
16.930983999999967
 20
759.53707899999995
 11
16.94586199999992
 21
759.34881599999994
  0
LINE
  8
_0-0_0
  6
CONTINUOUS
 62
    7
 10
16.94586199999992
 20
759.34881599999994
 11
16.965775000000008
 21
759.160889
  0
LINE
  8
_0-0_0
  6
CONTINUOUS
 62
    7
 10
16.965775000000008
 20
759.160889
 11
16.982162000000017
 21
759.03201300000001
  0
LINE
  8
_0-0_0
  6
CONTINUOUS
 62
    7
 10
16.982162000000017
 20
759.03201300000001
 11
17.0005799999999
 21
758.90335099999993
  0
LINE
  8
_0-0_0
  6
CONTINUOUS
 62
    7
 10
17.0005799999999
 20
758.90335099999993
 11
17.024733999999967
 21
758.75140399999998
  0
LINE
  8
_0-0_0
  6
CONTINUOUS
 62
    7
 10
17.024733999999967
 20
758.75140399999998
 11
17.051131999999939
 21
758.60006700000008
  0
LINE
  8
_0-0_0
  6
CONTINUOUS
 62
    7
 10
17.051131999999939
 20
758.60006700000008
 11
17.107300000000009
 21
758.30944799999997
  0
LINE
  8
_0-0_0
  6
CONTINUOUS
 62
    7
 10
17.107300000000009
 20
758.30944799999997
 11
17.147461000000021
 21
758.11749299999997
  0
LINE
  8
_0-0_0
  6
CONTINUOUS
 62
    7
 10
17.147461000000021
 20
758.11749299999997
 11
17.231093999999985
 21
757.73800699999993
  0
LINE
  8
_0-0_0
  6
CONTINUOUS
 62
    7
 10
17.231109999999944
 20
762.16204800000003
 11
17.289901999999984
 21
762.40887500000008
  0
LINE
  8
_0-0_0
  6
CONTINUOUS
 62
    7
 10
17.289901999999984
 20
762.40887500000008
 11
17.339660999999978
 21
762.60119600000007
  0
LINE
  8
_0-0_0
  6
CONTINUOUS
 62
    7
 10
17.339660999999978
 20
762.60119600000007
 11
17.410781999999926
 21
762.86694299999999
  0
LINE
  8
_0-0_0
  6
CONTINUOUS
 62
    7
 10
17.410781999999926
 20
762.86694299999999
 11
17.443740999999932
 21
762.993652
  0
LINE
  8
_0-0_0
  6
CONTINUOUS
 62
    7
 10
17.443740999999932
 20
762.993652
 11
17.469008999999915
 21
763.09707600000002
  0
LINE
  8
_0-0_0
  6
CONTINUOUS
 62
    7
 10
17.469008999999915
 20
763.09707600000002
 11
17.491042999999991
 21
763.19705199999999
  0
LINE
  8
_0-0_0
  6
CONTINUOUS
 62
    7
 10
17.491042999999991
 20
763.19705199999999
 11
17.512420999999904
 21
763.31475799999998
  0
LINE
  8
_0-0_0
  6
CONTINUOUS
 62
    7
 10
17.512420999999904
 20
763.31475799999998
 11
17.520995999999968
 21
763.376892
  0
LINE
  8
_0-0_0
  6
CONTINUOUS
 62
    7
 10
17.520995999999968
 20
763.376892
 11
17.527068999999983
 21
763.4375
  0
LINE
  8
_0-0_0
  6
CONTINUOUS
 62
    7
 10
17.527068999999983
 20
763.4375
 11
17.530074999999897
 21
763.48672499999998
  0
LINE
  8
_0-0_0
  6
CONTINUOUS
 62
    7
 10
17.530074999999897
 20
763.48672499999998
 11
17.531096999999932
 21
763.534943
  0
LINE
  8
_0-0_0
  6
CONTINUOUS
 62
    7
 10
17.531096999999932
 20
767.30847199999994
 11
17.531096999999932
 21
763.95770300000004
  0
ARC
  8
_0-0_0
  6
CONTINUOUS
 62
    7
 10
15.531096999999932
 20
767.30847199999994
 40
2
 50
0
 51
71.565000999999995
  0
CIRCLE
  8
_0-0_0
  6
CONTINUOUS
 62
    7
 10
-76.468903000000068
 20
765.25
 40
2.5
  0
CIRCLE
  8
_0-0_0
  6
CONTINUOUS
 62
    7
 10
-20.468903000000068
 20
765.25
 40
2.5
  0
LINE
  8
_0-0_0
  6
CONTINUOUS
 62
    7
 10
-97.068893000000003
 20
769.20886199999995
 11
-97.068893000000003
 21
766.25
  0
LINE
  8
_0-0_0
  6
CONTINUOUS
 62
    7
 10
-97.068893000000003
 20
770.25
 11
-97.068893000000003
 21
769.20886199999995
  0
LINE
  8
_0-0_0
  6
CONTINUOUS
 62
    7
 10
32.531096999999932
 20
750.42456100000004
 11
32.531096999999932
 21
750.57128899999998
  0
LINE
  8
_0-0_0
  6
CONTINUOUS
 62
    7
 10
32.531096999999932
 20
750.23403899999994
 11
32.531096999999932
 21
750.42456100000004
  0
LINE
  8
_0-0_0
  6
CONTINUOUS
 62
    7
 10
32.531096999999932
 20
750.05902100000003
 11
32.531096999999932
 21
750.23403899999994
  0
LINE
  8
_0-0_0
  6
CONTINUOUS
 62
    7
 10
32.531096999999932
 20
749.90142800000001
 11
32.531096999999932
 21
750.05902100000003
  0
LINE
  8
_0-0_0
  6
CONTINUOUS
 62
    7
 10
32.531096999999932
 20
749.76299999999992
 11
32.531096999999932
 21
749.90142800000001
  0
LINE
  8
_0-0_0
  6
CONTINUOUS
 62
    7
 10
32.531096999999932
 20
749.64523299999996
 11
32.531096999999932
 21
749.76299999999992
  0
LINE
  8
_0-0_0
  6
CONTINUOUS
 62
    7
 10
32.531096999999932
 20
749.54943800000001
 11
32.531096999999932
 21
749.64523299999996
  0
LINE
  8
_0-0_0
  6
CONTINUOUS
 62
    7
 10
32.531096999999932
 20
749.40002400000003
 11
32.531096999999932
 21
749.54943800000001
  0
LINE
  8
_0-0_0
  6
CONTINUOUS
 62
    7
 10
32.531096999999932
 20
749.42770399999995
 11
32.531096999999932
 21
749.47668499999997
  0
LINE
  8
_0-0_0
  6
CONTINUOUS
 62
    7
 10
32.531096999999932
 20
749.40307600000006
 11
32.531096999999932
 21
749.42770399999995
  0
LINE
  8
_0-0_0
  6
CONTINUOUS
 62
    7
 10
32.531096999999932
 20
749.40002400000003
 11
32.531096999999932
 21
749.40307600000006
  0
LINE
  8
_0-0_0
  6
CONTINUOUS
 62
    7
 10
32.531096999999932
 20
753.89691199999993
 11
32.531096999999932
 21
753.90002400000003
  0
LINE
  8
_0-0_0
  6
CONTINUOUS
 62
    7
 10
32.531096999999932
 20
753.87231399999996
 11
32.531096999999932
 21
753.89691199999993
  0
LINE
  8
_0-0_0
  6
CONTINUOUS
 62
    7
 10
32.531096999999932
 20
753.82333399999993
 11
32.531096999999932
 21
753.87231399999996
  0
LINE
  8
_0-0_0
  6
CONTINUOUS
 62
    7
 10
32.531096999999932
 20
753.75054899999998
 11
32.531096999999932
 21
753.82333399999993
  0
LINE
  8
_0-0_0
  6
CONTINUOUS
 62
    7
 10
32.531096999999932
 20
753.65478499999995
 11
32.531096999999932
 21
753.75054899999998
  0
LINE
  8
_0-0_0
  6
CONTINUOUS
 62
    7
 10
32.531096999999932
 20
753.62457300000005
 11
32.531096999999932
 21
753.65478499999995
  0
LINE
  8
_0-0_0
  6
CONTINUOUS
 62
    7
 10
32.531096999999932
 20
753.53701799999999
 11
32.531096999999932
 21
753.62457300000005
  0
LINE
  8
_0-0_0
  6
CONTINUOUS
 62
    7
 10
32.531096999999932
 20
753.39859000000001
 11
32.531096999999932
 21
753.53701799999999
  0
LINE
  8
_0-0_0
  6
CONTINUOUS
 62
    7
 10
32.531096999999932
 20
753.24099699999999
 11
32.531096999999932
 21
753.39859000000001
  0
LINE
  8
_0-0_0
  6
CONTINUOUS
 62
    7
 10
32.531096999999932
 20
753.06597899999997
 11
32.531096999999932
 21
753.24099699999999
  0
LINE
  8
_0-0_0
  6
CONTINUOUS
 62
    7
 10
32.531096999999932
 20
752.87542699999995
 11
32.531096999999932
 21
753.06597899999997
  0
LINE
  8
_0-0_0
  6
CONTINUOUS
 62
    7
 10
32.531096999999932
 20
752.67147799999998
 11
32.531096999999932
 21
752.87542699999995
  0
LINE
  8
_0-0_0
  6
CONTINUOUS
 62
    7
 10
32.531096999999932
 20
752.45632899999998
 11
32.531096999999932
 21
752.67147799999998
  0
LINE
  8
_0-0_0
  6
CONTINUOUS
 62
    7
 10
32.531096999999932
 20
752.23236100000008
 11
32.531096999999932
 21
752.45632899999998
  0
LINE
  8
_0-0_0
  6
CONTINUOUS
 62
    7
 10
32.531096999999932
 20
752.00198399999999
 11
32.531096999999932
 21
752.23236100000008
  0
LINE
  8
_0-0_0
  6
CONTINUOUS
 62
    7
 10
32.531096999999932
 20
751.76776100000006
 11
32.531096999999932
 21
752.00198399999999
  0
LINE
  8
_0-0_0
  6
CONTINUOUS
 62
    7
 10
32.531096999999932
 20
751.53225700000007
 11
32.531096999999932
 21
751.76776100000006
  0
LINE
  8
_0-0_0
  6
CONTINUOUS
 62
    7
 10
32.531096999999932
 20
751.29803500000003
 11
32.531096999999932
 21
751.53225700000007
  0
LINE
  8
_0-0_0
  6
CONTINUOUS
 62
    7
 10
32.531096999999932
 20
751.06765700000005
 11
32.531096999999932
 21
751.29803500000003
  0
LINE
  8
_0-0_0
  6
CONTINUOUS
 62
    7
 10
32.531096999999932
 20
750.84368900000004
 11
32.531096999999932
 21
751.06765700000005
  0
LINE
  8
_0-0_0
  6
CONTINUOUS
 62
    7
 10
32.531096999999932
 20
750.62853999999993
 11
32.531096999999932
 21
750.84368900000004
  0
LINE
  8
_0-0_0
  6
CONTINUOUS
 62
    7
 10
32.531096999999932
 20
750.57128899999998
 11
32.531096999999932
 21
750.62853999999993
  0
LINE
  8
_0-0_0
  6
CONTINUOUS
 62
    7
 10
17.531096999999932
 20
758.38797
 11
17.531096999999932
 21
757.34231599999998
  0
LINE
  8
_0-0_0
  6
CONTINUOUS
 62
    7
 10
17.531096999999932
 20
756.05770899999993
 11
17.531096999999932
 21
757.34231599999998
  0
LINE
  8
_0-0_0
  6
CONTINUOUS
 62
    7
 10
17.531096999999932
 20
755.94232199999999
 11
17.531096999999932
 21
756.05770899999993
  0
LINE
  8
_0-0_0
  6
CONTINUOUS
 62
    7
 10
17.531096999999932
 20
758.38797
 11
17.531096999999932
 21
761.51205400000003
  0
LINE
  8
_0-0_0
  6
CONTINUOUS
 62
    7
 10
17.531096999999932
 20
763.95770300000004
 11
17.531096999999932
 21
763.84231599999998
  0
LINE
  8
_0-0_0
  6
CONTINUOUS
 62
    7
 10
17.531096999999932
 20
762.55770899999993
 11
17.531096999999932
 21
763.84231599999998
  0
LINE
  8
_0-0_0
  6
CONTINUOUS
 62
    7
 10
17.531096999999932
 20
762.55770899999993
 11
17.531096999999932
 21
761.51205400000003
  0
LINE
  8
_0-0_0
  6
CONTINUOUS
 62
    7
 10
17.531096999999932
 20
763.84231599999998
 11
27.238922000000002
 21
763.84231599999998
  0
LINE
  8
_0-0_0
  6
CONTINUOUS
 62
    7
 10
27.238922000000002
 20
766.45001200000002
 11
27.293410999999992
 21
766.38006599999994
  0
LINE
  8
_0-0_0
  6
CONTINUOUS
 62
    7
 10
27.293410999999992
 20
766.38006599999994
 11
27.344513000000006
 21
766.31124899999998
  0
LINE
  8
_0-0_0
  6
CONTINUOUS
 62
    7
 10
27.344513000000006
 20
766.31124899999998
 11
27.392151000000013
 21
766.24374399999999
  0
LINE
  8
_0-0_0
  6
CONTINUOUS
 62
    7
 10
27.392151000000013
 20
766.24374399999999
 11
27.436644999999999
 21
766.17718500000001
  0
LINE
  8
_0-0_0
  6
CONTINUOUS
 62
    7
 10
27.436644999999999
 20
766.17718500000001
 11
27.491362999999978
 21
766.08966099999998
  0
LINE
  8
_0-0_0
  6
CONTINUOUS
 62
    7
 10
27.491362999999978
 20
766.08966099999998
 11
27.540878000000021
 21
766.00353999999993
  0
LINE
  8
_0-0_0
  6
CONTINUOUS
 62
    7
 10
27.540878000000021
 20
766.00353999999993
 11
27.585341999999969
 21
765.91870100000006
  0
LINE
  8
_0-0_0
  6
CONTINUOUS
 62
    7
 10
27.585341999999969
 20
765.91870100000006
 11
27.632308999999964
 21
765.81839000000002
  0
LINE
  8
_0-0_0
  6
CONTINUOUS
 62
    7
 10
27.632308999999964
 20
765.81839000000002
 11
27.672515999999973
 21
765.71948199999997
  0
LINE
  8
_0-0_0
  6
CONTINUOUS
 62
    7
 10
27.672515999999973
 20
765.71948199999997
 11
27.706176999999911
 21
765.62170400000002
  0
LINE
  8
_0-0_0
  6
CONTINUOUS
 62
    7
 10
27.706176999999911
 20
765.62170400000002
 11
27.733474999999999
 21
765.524902
  0
LINE
  8
_0-0_0
  6
CONTINUOUS
 62
    7
 10
27.733474999999999
 20
765.524902
 11
27.754516999999964
 21
765.42886399999998
  0
LINE
  8
_0-0_0
  6
CONTINUOUS
 62
    7
 10
27.754516999999964
 20
765.42886399999998
 11
27.77044699999999
 21
765.32501200000002
  0
LINE
  8
_0-0_0
  6
CONTINUOUS
 62
    7
 10
27.77044699999999
 20
765.32501200000002
 11
27.779204999999934
 21
765.221588
  0
LINE
  8
_0-0_0
  6
CONTINUOUS
 62
    7
 10
27.779204999999934
 20
765.221588
 11
27.780837999999903
 21
765.11834700000009
  0
LINE
  8
_0-0_0
  6
CONTINUOUS
 62
    7
 10
27.780837999999903
 20
765.11834700000009
 11
27.77537499999994
 21
765.01504499999999
  0
LINE
  8
_0-0_0
  6
CONTINUOUS
 62
    7
 10
27.77537499999994
 20
765.01504499999999
 11
27.762755999999968
 21
764.91146900000001
  0
LINE
  8
_0-0_0
  6
CONTINUOUS
 62
    7
 10
27.762755999999968
 20
764.91146900000001
 11
27.742949999999951
 21
764.80731200000002
  0
LINE
  8
_0-0_0
  6
CONTINUOUS
 62
    7
 10
27.742949999999951
 20
764.80731200000002
 11
27.715804999999932
 21
764.70236199999999
  0
LINE
  8
_0-0_0
  6
CONTINUOUS
 62
    7
 10
27.715804999999932
 20
764.70236199999999
 11
27.681151999999997
 21
764.59631300000001
  0
LINE
  8
_0-0_0
  6
CONTINUOUS
 62
    7
 10
27.681151999999997
 20
764.59631300000001
 11
27.638808999999924
 21
764.48895300000004
  0
LINE
  8
_0-0_0
  6
CONTINUOUS
 62
    7
 10
27.638808999999924
 20
764.48895300000004
 11
27.588485999999989
 21
764.37994400000002
  0
LINE
  8
_0-0_0
  6
CONTINUOUS
 62
    7
 10
27.588485999999989
 20
764.37994400000002
 11
27.534240999999952
 21
764.276794
  0
LINE
  8
_0-0_0
  6
CONTINUOUS
 62
    7
 10
27.534240999999952
 20
764.276794
 11
27.472533999999996
 21
764.17175300000008
  0
LINE
  8
_0-0_0
  6
CONTINUOUS
 62
    7
 10
27.472533999999996
 20
764.17175300000008
 11
27.403014999999982
 21
764.06451399999992
  0
LINE
  8
_0-0_0
  6
CONTINUOUS
 62
    7
 10
27.403014999999982
 20
764.06451399999992
 11
27.325301999999965
 21
763.95480300000008
  0
LINE
  8
_0-0_0
  6
CONTINUOUS
 62
    7
 10
27.325301999999965
 20
763.95480300000008
 11
27.238922000000002
 21
763.84231599999998
  0
LINE
  8
_0-0_0
  6
CONTINUOUS
 62
    7
 10
17.531096999999932
 20
766.45001200000002
 11
27.238922000000002
 21
766.45001200000002
  0
LINE
  8
_0-0_0
  6
CONTINUOUS
 62
    7
 10
27.281096999999932
 20
766.45001200000002
 11
27.238922000000002
 21
766.45001200000002
  0
LINE
  8
_0-0_0
  6
CONTINUOUS
 62
    7
 10
17.531096999999932
 20
756.05770899999993
 11
27.238922000000002
 21
756.05770899999993
  0
LINE
  8
_0-0_0
  6
CONTINUOUS
 62
    7
 10
27.238922000000002
 20
756.05770899999993
 11
27.293410999999992
 21
755.98776199999998
  0
LINE
  8
_0-0_0
  6
CONTINUOUS
 62
    7
 10
27.293410999999992
 20
755.98776199999998
 11
27.344513000000006
 21
755.91894500000001
  0
LINE
  8
_0-0_0
  6
CONTINUOUS
 62
    7
 10
27.344513000000006
 20
755.91894500000001
 11
27.392151000000013
 21
755.85144000000003
  0
LINE
  8
_0-0_0
  6
CONTINUOUS
 62
    7
 10
27.392151000000013
 20
755.85144000000003
 11
27.436644999999999
 21
755.78488199999993
  0
LINE
  8
_0-0_0
  6
CONTINUOUS
 62
    7
 10
27.436644999999999
 20
755.78488199999993
 11
27.491362999999978
 21
755.69735700000001
  0
LINE
  8
_0-0_0
  6
CONTINUOUS
 62
    7
 10
27.491362999999978
 20
755.69735700000001
 11
27.540878000000021
 21
755.61123700000007
  0
LINE
  8
_0-0_0
  6
CONTINUOUS
 62
    7
 10
27.540878000000021
 20
755.61123700000007
 11
27.585341999999969
 21
755.52642800000001
  0
LINE
  8
_0-0_0
  6
CONTINUOUS
 62
    7
 10
27.585341999999969
 20
755.52642800000001
 11
27.632308999999964
 21
755.42608599999994
  0
LINE
  8
_0-0_0
  6
CONTINUOUS
 62
    7
 10
27.632308999999964
 20
755.42608599999994
 11
27.672515999999973
 21
755.327179
  0
LINE
  8
_0-0_0
  6
CONTINUOUS
 62
    7
 10
27.672515999999973
 20
755.327179
 11
27.706176999999911
 21
755.22940100000005
  0
LINE
  8
_0-0_0
  6
CONTINUOUS
 62
    7
 10
27.706176999999911
 20
755.22940100000005
 11
27.733474999999999
 21
755.13259900000003
  0
LINE
  8
_0-0_0
  6
CONTINUOUS
 62
    7
 10
27.733474999999999
 20
755.13259900000003
 11
27.754516999999964
 21
755.03656000000001
  0
LINE
  8
_0-0_0
  6
CONTINUOUS
 62
    7
 10
27.754516999999964
 20
755.03656000000001
 11
27.77044699999999
 21
754.93270899999993
  0
LINE
  8
_0-0_0
  6
CONTINUOUS
 62
    7
 10
27.77044699999999
 20
754.93270899999993
 11
27.779204999999934
 21
754.82928500000003
  0
LINE
  8
_0-0_0
  6
CONTINUOUS
 62
    7
 10
27.779204999999934
 20
754.82928500000003
 11
27.780837999999903
 21
754.726044
  0
LINE
  8
_0-0_0
  6
CONTINUOUS
 62
    7
 10
27.780837999999903
 20
754.726044
 11
27.77537499999994
 21
754.62274200000002
  0
LINE
  8
_0-0_0
  6
CONTINUOUS
 62
    7
 10
27.77537499999994
 20
754.62274200000002
 11
27.762755999999968
 21
754.51916499999993
  0
LINE
  8
_0-0_0
  6
CONTINUOUS
 62
    7
 10
27.762755999999968
 20
754.51916499999993
 11
27.742949999999951
 21
754.41500900000005
  0
LINE
  8
_0-0_0
  6
CONTINUOUS
 62
    7
 10
27.742949999999951
 20
754.41500900000005
 11
27.715804999999932
 21
754.31005900000002
  0
LINE
  8
_0-0_0
  6
CONTINUOUS
 62
    7
 10
27.715804999999932
 20
754.31005900000002
 11
27.681151999999997
 21
754.20400999999993
  0
LINE
  8
_0-0_0
  6
CONTINUOUS
 62
    7
 10
27.681151999999997
 20
754.20400999999993
 11
27.638808999999924
 21
754.09661899999992
  0
LINE
  8
_0-0_0
  6
CONTINUOUS
 62
    7
 10
27.638808999999924
 20
754.09661899999992
 11
27.588485999999989
 21
753.98764000000006
  0
LINE
  8
_0-0_0
  6
CONTINUOUS
 62
    7
 10
27.588485999999989
 20
753.98764000000006
 11
27.54280099999994
 21
753.89996300000007
  0
LINE
  8
_0-0_0
  6
CONTINUOUS
 62
    7
 10
32.531096999999932
 20
750.42456100000004
 11
32.781096999999932
 21
750.40002400000003
  0
LINE
  8
_0-0_0
  6
CONTINUOUS
 62
    7
 10
32.531096999999932
 20
750.62853999999993
 11
32.781096999999932
 21
750.40002400000003
  0
LINE
  8
_0-0_0
  6
CONTINUOUS
 62
    7
 10
32.531096999999932
 20
750.23403899999994
 11
32.781096999999932
 21
750.18054200000006
  0
LINE
  8
_0-0_0
  6
CONTINUOUS
 62
    7
 10
32.531096999999932
 20
750.42456100000004
 11
32.781096999999932
 21
750.18054200000006
  0
LINE
  8
_0-0_0
  6
CONTINUOUS
 62
    7
 10
32.531096999999932
 20
750.05902100000003
 11
32.781096999999932
 21
749.97717299999999
  0
LINE
  8
_0-0_0
  6
CONTINUOUS
 62
    7
 10
32.531096999999932
 20
750.23403899999994
 11
32.781096999999932
 21
749.97717299999999
  0
LINE
  8
_0-0_0
  6
CONTINUOUS
 62
    7
 10
32.531096999999932
 20
749.90142800000001
 11
32.781096999999932
 21
749.792145
  0
LINE
  8
_0-0_0
  6
CONTINUOUS
 62
    7
 10
32.531096999999932
 20
750.05902100000003
 11
32.781096999999932
 21
749.792145
  0
LINE
  8
_0-0_0
  6
CONTINUOUS
 62
    7
 10
32.531096999999932
 20
749.76299999999992
 11
32.781096999999932
 21
749.62747200000001
  0
LINE
  8
_0-0_0
  6
CONTINUOUS
 62
    7
 10
32.531096999999932
 20
749.90142800000001
 11
32.781096999999932
 21
749.62747200000001
  0
LINE
  8
_0-0_0
  6
CONTINUOUS
 62
    7
 10
32.531096999999932
 20
749.64523299999996
 11
32.781096999999932
 21
749.48495500000001
  0
LINE
  8
_0-0_0
  6
CONTINUOUS
 62
    7
 10
32.531096999999932
 20
749.76299999999992
 11
32.781096999999932
 21
749.48495500000001
  0
LINE
  8
_0-0_0
  6
CONTINUOUS
 62
    7
 10
32.531096999999932
 20
749.54943800000001
 11
32.781096999999932
 21
749.36615000000006
  0
LINE
  8
_0-0_0
  6
CONTINUOUS
 62
    7
 10
32.531096999999932
 20
749.64523299999996
 11
32.781096999999932
 21
749.36615000000006
  0
LINE
  8
_0-0_0
  6
CONTINUOUS
 62
    7
 10
32.531096999999932
 20
749.47668499999997
 11
32.781096999999932
 21
749.27236900000003
  0
LINE
  8
_0-0_0
  6
CONTINUOUS
 62
    7
 10
32.531096999999932
 20
749.54943800000001
 11
32.781096999999932
 21
749.27236900000003
  0
LINE
  8
_0-0_0
  6
CONTINUOUS
 62
    7
 10
32.531096999999932
 20
749.42770399999995
 11
32.781096999999932
 21
749.20465100000001
  0
LINE
  8
_0-0_0
  6
CONTINUOUS
 62
    7
 10
32.531096999999932
 20
749.47668499999997
 11
32.781096999999932
 21
749.20465100000001
  0
LINE
  8
_0-0_0
  6
CONTINUOUS
 62
    7
 10
32.531096999999932
 20
749.40307600000006
 11
32.781096999999932
 21
749.16369600000007
  0
LINE
  8
_0-0_0
  6
CONTINUOUS
 62
    7
 10
32.531096999999932
 20
749.42770399999995
 11
32.781096999999932
 21
749.16369600000007
  0
LINE
  8
_0-0_0
  6
CONTINUOUS
 62
    7
 10
32.531096999999932
 20
749.40307600000006
 11
32.781096999999932
 21
749.15002400000003
  0
LINE
  8
_0-0_0
  6
CONTINUOUS
 62
    7
 10
32.531096999999932
 20
753.89691199999993
 11
32.781096999999932
 21
754.15002400000003
  0
LINE
  8
_0-0_0
  6
CONTINUOUS
 62
    7
 10
32.531096999999932
 20
753.87231399999996
 11
32.781096999999932
 21
754.13632200000006
  0
LINE
  8
_0-0_0
  6
CONTINUOUS
 62
    7
 10
32.531096999999932
 20
753.89691199999993
 11
32.781096999999932
 21
754.13632200000006
  0
LINE
  8
_0-0_0
  6
CONTINUOUS
 62
    7
 10
32.531096999999932
 20
753.82333399999993
 11
32.781096999999932
 21
754.09536700000001
  0
LINE
  8
_0-0_0
  6
CONTINUOUS
 62
    7
 10
32.531096999999932
 20
753.87231399999996
 11
32.781096999999932
 21
754.09536700000001
  0
LINE
  8
_0-0_0
  6
CONTINUOUS
 62
    7
 10
32.531096999999932
 20
753.75054899999998
 11
32.781096999999932
 21
754.027649
  0
LINE
  8
_0-0_0
  6
CONTINUOUS
 62
    7
 10
32.531096999999932
 20
753.82333399999993
 11
32.781096999999932
 21
754.027649
  0
LINE
  8
_0-0_0
  6
CONTINUOUS
 62
    7
 10
32.531096999999932
 20
753.65478499999995
 11
32.781096999999932
 21
753.93386800000007
  0
LINE
  8
_0-0_0
  6
CONTINUOUS
 62
    7
 10
32.531096999999932
 20
753.75054899999998
 11
32.781096999999932
 21
753.93386800000007
  0
LINE
  8
_0-0_0
  6
CONTINUOUS
 62
    7
 10
32.531096999999932
 20
753.65478499999995
 11
32.66107199999999
 21
753.73861699999998
  0
LINE
  8
_0-0_0
  6
CONTINUOUS
 62
    7
 10
32.531096999999932
 20
753.53701799999999
 11
32.781096999999932
 21
753.81506300000001
  0
LINE
  8
_0-0_0
  6
CONTINUOUS
 62
    7
 10
32.66107199999999
 20
753.73861699999998
 11
32.781096999999932
 21
753.81506300000001
  0
LINE
  8
_0-0_0
  6
CONTINUOUS
 62
    7
 10
32.531096999999932
 20
753.39859000000001
 11
32.781096999999932
 21
753.67254600000001
  0
LINE
  8
_0-0_0
  6
CONTINUOUS
 62
    7
 10
32.531096999999932
 20
753.53701799999999
 11
32.781096999999932
 21
753.67254600000001
  0
LINE
  8
_0-0_0
  6
CONTINUOUS
 62
    7
 10
32.531096999999932
 20
753.24099699999999
 11
32.781096999999932
 21
753.50787400000002
  0
LINE
  8
_0-0_0
  6
CONTINUOUS
 62
    7
 10
32.531096999999932
 20
753.39859000000001
 11
32.781096999999932
 21
753.50787400000002
  0
LINE
  8
_0-0_0
  6
CONTINUOUS
 62
    7
 10
32.531096999999932
 20
753.06597899999997
 11
32.781096999999932
 21
753.32284499999992
  0
LINE
  8
_0-0_0
  6
CONTINUOUS
 62
    7
 10
32.531096999999932
 20
753.24099699999999
 11
32.781096999999932
 21
753.32284499999992
  0
LINE
  8
_0-0_0
  6
CONTINUOUS
 62
    7
 10
32.531096999999932
 20
752.87542699999995
 11
32.781096999999932
 21
753.11947600000008
  0
LINE
  8
_0-0_0
  6
CONTINUOUS
 62
    7
 10
32.531096999999932
 20
753.06597899999997
 11
32.781096999999932
 21
753.11947600000008
  0
LINE
  8
_0-0_0
  6
CONTINUOUS
 62
    7
 10
32.531096999999932
 20
752.67147799999998
 11
32.781096999999932
 21
752.90002400000003
  0
LINE
  8
_0-0_0
  6
CONTINUOUS
 62
    7
 10
32.531096999999932
 20
752.87542699999995
 11
32.781096999999932
 21
752.90002400000003
  0
LINE
  8
_0-0_0
  6
CONTINUOUS
 62
    7
 10
32.531096999999932
 20
752.45632899999998
 11
32.781096999999932
 21
752.66683999999998
  0
LINE
  8
_0-0_0
  6
CONTINUOUS
 62
    7
 10
32.531096999999932
 20
752.67147799999998
 11
32.781096999999932
 21
752.66683999999998
  0
LINE
  8
_0-0_0
  6
CONTINUOUS
 62
    7
 10
32.531096999999932
 20
752.23236100000008
 11
32.781096999999932
 21
752.42254600000001
  0
LINE
  8
_0-0_0
  6
CONTINUOUS
 62
    7
 10
32.531096999999932
 20
752.45632899999998
 11
32.781096999999932
 21
752.42254600000001
  0
LINE
  8
_0-0_0
  6
CONTINUOUS
 62
    7
 10
32.531096999999932
 20
752.00198399999999
 11
32.781096999999932
 21
752.16980000000001
  0
LINE
  8
_0-0_0
  6
CONTINUOUS
 62
    7
 10
32.531096999999932
 20
752.23236100000008
 11
32.781096999999932
 21
752.16980000000001
  0
LINE
  8
_0-0_0
  6
CONTINUOUS
 62
    7
 10
32.531096999999932
 20
751.76776100000006
 11
32.781096999999932
 21
751.91131599999994
  0
LINE
  8
_0-0_0
  6
CONTINUOUS
 62
    7
 10
32.531096999999932
 20
752.00198399999999
 11
32.781096999999932
 21
751.91131599999994
  0
LINE
  8
_0-0_0
  6
CONTINUOUS
 62
    7
 10
32.531096999999932
 20
751.53225700000007
 11
32.781096999999932
 21
751.65002400000003
  0
LINE
  8
_0-0_0
  6
CONTINUOUS
 62
    7
 10
32.531096999999932
 20
751.76776100000006
 11
32.781096999999932
 21
751.65002400000003
  0
LINE
  8
_0-0_0
  6
CONTINUOUS
 62
    7
 10
32.531096999999932
 20
751.29803500000003
 11
32.781096999999932
 21
751.38867200000004
  0
LINE
  8
_0-0_0
  6
CONTINUOUS
 62
    7
 10
32.531096999999932
 20
751.53225700000007
 11
32.781096999999932
 21
751.38867200000004
  0
LINE
  8
_0-0_0
  6
CONTINUOUS
 62
    7
 10
32.531096999999932
 20
751.06765700000005
 11
32.781096999999932
 21
751.13021900000001
  0
LINE
  8
_0-0_0
  6
CONTINUOUS
 62
    7
 10
32.531096999999932
 20
751.29803500000003
 11
32.781096999999932
 21
751.13021900000001
  0
LINE
  8
_0-0_0
  6
CONTINUOUS
 62
    7
 10
32.531096999999932
 20
750.84368900000004
 11
32.781096999999932
 21
750.87747200000001
  0
LINE
  8
_0-0_0
  6
CONTINUOUS
 62
    7
 10
32.531096999999932
 20
751.06765700000005
 11
32.781096999999932
 21
750.87747200000001
  0
LINE
  8
_0-0_0
  6
CONTINUOUS
 62
    7
 10
32.531096999999932
 20
750.62853999999993
 11
32.781096999999932
 21
750.63317899999993
  0
LINE
  8
_0-0_0
  6
CONTINUOUS
 62
    7
 10
32.531096999999932
 20
750.84368900000004
 11
32.781096999999932
 21
750.63317899999993
  0
LINE
  8
_0-0_0
  6
CONTINUOUS
 62
    7
 10
17.531096999999932
 20
757.34231599999998
 11
27.238922000000002
 21
757.34231599999998
  0
LINE
  8
_0-0_0
  6
CONTINUOUS
 62
    7
 10
27.238922000000002
 20
757.34231599999998
 11
27.333251999999902
 21
757.58892800000001
  0
LINE
  8
_0-0_0
  6
CONTINUOUS
 62
    7
 10
27.333251999999902
 20
757.58892800000001
 11
27.417205999999965
 21
757.82891799999993
  0
LINE
  8
_0-0_0
  6
CONTINUOUS
 62
    7
 10
27.417205999999965
 20
757.82891799999993
 11
27.491362999999978
 21
758.06301899999994
  0
LINE
  8
_0-0_0
  6
CONTINUOUS
 62
    7
 10
27.491362999999978
 20
758.06301899999994
 11
27.556243999999992
 21
758.29205300000001
  0
LINE
  8
_0-0_0
  6
CONTINUOUS
 62
    7
 10
27.556243999999992
 20
758.29205300000001
 11
27.612288999999919
 21
758.51672400000007
  0
LINE
  8
_0-0_0
  6
CONTINUOUS
 62
    7
 10
27.612288999999919
 20
758.51672400000007
 11
27.659851000000003
 21
758.73770100000002
  0
LINE
  8
_0-0_0
  6
CONTINUOUS
 62
    7
 10
27.659851000000003
 20
758.73770100000002
 11
27.699249000000009
 21
758.95562700000005
  0
LINE
  8
_0-0_0
  6
CONTINUOUS
 62
    7
 10
27.699249000000009
 20
758.95562700000005
 11
27.730742999999961
 21
759.17108200000007
  0
LINE
  8
_0-0_0
  6
CONTINUOUS
 62
    7
 10
27.730742999999961
 20
759.17108200000007
 11
27.754516999999964
 21
759.38461299999994
  0
LINE
  8
_0-0_0
  6
CONTINUOUS
 62
    7
 10
27.754516999999964
 20
759.38461299999994
 11
27.77044699999999
 21
759.59231599999998
  0
LINE
  8
_0-0_0
  6
CONTINUOUS
 62
    7
 10
27.77044699999999
 20
759.59231599999998
 11
27.779204999999934
 21
759.79916400000002
  0
LINE
  8
_0-0_0
  6
CONTINUOUS
 62
    7
 10
27.779204999999934
 20
759.79916400000002
 11
27.780837999999903
 21
760.00564600000007
  0
LINE
  8
_0-0_0
  6
CONTINUOUS
 62
    7
 10
27.780837999999903
 20
760.00564600000007
 11
27.77537499999994
 21
760.212219
  0
LINE
  8
_0-0_0
  6
CONTINUOUS
 62
    7
 10
27.77537499999994
 20
760.212219
 11
27.762755999999968
 21
760.41940299999999
  0
LINE
  8
_0-0_0
  6
CONTINUOUS
 62
    7
 10
27.762755999999968
 20
760.41940299999999
 11
27.742949999999951
 21
760.62771599999996
  0
LINE
  8
_0-0_0
  6
CONTINUOUS
 62
    7
 10
27.742949999999951
 20
760.62771599999996
 11
27.715804999999932
 21
760.83761600000003
  0
LINE
  8
_0-0_0
  6
CONTINUOUS
 62
    7
 10
27.715804999999932
 20
760.83761600000003
 11
27.681151999999997
 21
761.04968299999996
  0
LINE
  8
_0-0_0
  6
CONTINUOUS
 62
    7
 10
27.681151999999997
 20
761.04968299999996
 11
27.638808999999924
 21
761.26443500000005
  0
LINE
  8
_0-0_0
  6
CONTINUOUS
 62
    7
 10
27.638808999999924
 20
761.26443500000005
 11
27.588485999999989
 21
761.48245199999997
  0
LINE
  8
_0-0_0
  6
CONTINUOUS
 62
    7
 10
27.588485999999989
 20
761.48245199999997
 11
27.534240999999952
 21
761.68872099999999
  0
LINE
  8
_0-0_0
  6
CONTINUOUS
 62
    7
 10
27.534240999999952
 20
761.68872099999999
 11
27.472533999999996
 21
761.89883400000008
  0
LINE
  8
_0-0_0
  6
CONTINUOUS
 62
    7
 10
27.472533999999996
 20
761.89883400000008
 11
27.403014999999982
 21
762.11331199999995
  0
LINE
  8
_0-0_0
  6
CONTINUOUS
 62
    7
 10
27.403014999999982
 20
762.11331199999995
 11
27.325301999999965
 21
762.33273299999996
  0
LINE
  8
_0-0_0
  6
CONTINUOUS
 62
    7
 10
27.325301999999965
 20
762.33273299999996
 11
27.238922000000002
 21
762.55770899999993
  0
LINE
  8
_0-0_0
  6
CONTINUOUS
 62
    7
 10
17.531096999999932
 20
762.55770899999993
 11
27.238922000000002
 21
762.55770899999993
  0
ARC
  8
_0-0_0
  6
CONTINUOUS
 62
    7
 10
22.367370999999935
 20
756.70001200000002
 40
4.9136889999999998
 50
352.48898799999995
 51
7.5110139999999577
  0
ARC
  8
_0-0_0
  6
CONTINUOUS
 62
    7
 10
22.3572079999999
 20
763.20089699999994
 40
4.9238749999999998
 50
352.49423299999995
 51
1.5359699999999901
  0
ARC
  8
_0-0_0
  6
CONTINUOUS
 62
    7
 10
22.319182999999953
 20
763.19595299999992
 40
4.9620009999999999
 50
1.5813010000000001
 51
7.4847919999999997
  0
LINE
  8
_0-0_0
  6
CONTINUOUS
 62
    7
 10
28.531096999999932
 20
762.68154900000002
 11
28.531096999999932
 21
765.20001200000002
  0
LINE
  8
_0-0_0
  6
CONTINUOUS
 62
    7
 10
28.531096999999932
 20
754.70001200000002
 11
28.531096999999932
 21
762.68154900000002
  0
LINE
  8
_0-0_0
  6
CONTINUOUS
 62
    7
 10
42.281096999999932
 20
750.42456100000004
 11
42.031096999999932
 21
750.40002400000003
  0
LINE
  8
_0-0_0
  6
CONTINUOUS
 62
    7
 10
42.031096999999932
 20
750.40002400000003
 11
32.781096999999932
 21
750.40002400000003
  0
LINE
  8
_0-0_0
  6
CONTINUOUS
 62
    7
 10
42.281096999999932
 20
750.62853999999993
 11
42.031096999999932
 21
750.40002400000003
  0
LINE
  8
_0-0_0
  6
CONTINUOUS
 62
    7
 10
42.281096999999932
 20
750.62853999999993
 11
32.531096999999932
 21
750.62853999999993
  0
LINE
  8
_0-0_0
  6
CONTINUOUS
 62
    7
 10
42.281096999999932
 20
750.23403899999994
 11
42.031096999999932
 21
750.18054200000006
  0
LINE
  8
_0-0_0
  6
CONTINUOUS
 62
    7
 10
42.031096999999932
 20
750.18054200000006
 11
32.781096999999932
 21
750.18054200000006
  0
LINE
  8
_0-0_0
  6
CONTINUOUS
 62
    7
 10
42.281096999999932
 20
750.42456100000004
 11
42.031096999999932
 21
750.18054200000006
  0
LINE
  8
_0-0_0
  6
CONTINUOUS
 62
    7
 10
42.281096999999932
 20
750.05902100000003
 11
42.031096999999932
 21
749.97717299999999
  0
LINE
  8
_0-0_0
  6
CONTINUOUS
 62
    7
 10
42.031096999999932
 20
749.97717299999999
 11
32.781096999999932
 21
749.97717299999999
  0
LINE
  8
_0-0_0
  6
CONTINUOUS
 62
    7
 10
42.281096999999932
 20
750.23403899999994
 11
42.031096999999932
 21
749.97717299999999
  0
LINE
  8
_0-0_0
  6
CONTINUOUS
 62
    7
 10
42.281096999999932
 20
749.90142800000001
 11
42.031096999999932
 21
749.792145
  0
LINE
  8
_0-0_0
  6
CONTINUOUS
 62
    7
 10
42.031096999999932
 20
749.792145
 11
32.781096999999932
 21
749.792145
  0
LINE
  8
_0-0_0
  6
CONTINUOUS
 62
    7
 10
42.281096999999932
 20
750.05902100000003
 11
42.031096999999932
 21
749.792145
  0
LINE
  8
_0-0_0
  6
CONTINUOUS
 62
    7
 10
42.281096999999932
 20
749.76299999999992
 11
42.031096999999932
 21
749.62747200000001
  0
LINE
  8
_0-0_0
  6
CONTINUOUS
 62
    7
 10
42.031096999999932
 20
749.62747200000001
 11
32.781096999999932
 21
749.62747200000001
  0
LINE
  8
_0-0_0
  6
CONTINUOUS
 62
    7
 10
42.281096999999932
 20
749.90142800000001
 11
42.031096999999932
 21
749.62747200000001
  0
LINE
  8
_0-0_0
  6
CONTINUOUS
 62
    7
 10
42.281096999999932
 20
749.64523299999996
 11
42.031096999999932
 21
749.48495500000001
  0
LINE
  8
_0-0_0
  6
CONTINUOUS
 62
    7
 10
42.031096999999932
 20
749.48495500000001
 11
32.781096999999932
 21
749.48495500000001
  0
LINE
  8
_0-0_0
  6
CONTINUOUS
 62
    7
 10
42.281096999999932
 20
749.76299999999992
 11
42.031096999999932
 21
749.48495500000001
  0
LINE
  8
_0-0_0
  6
CONTINUOUS
 62
    7
 10
42.281096999999932
 20
749.54943800000001
 11
42.031096999999932
 21
749.36615000000006
  0
LINE
  8
_0-0_0
  6
CONTINUOUS
 62
    7
 10
42.031096999999932
 20
749.36615000000006
 11
32.781096999999932
 21
749.36615000000006
  0
LINE
  8
_0-0_0
  6
CONTINUOUS
 62
    7
 10
42.281096999999932
 20
749.64523299999996
 11
42.031096999999932
 21
749.36615000000006
  0
LINE
  8
_0-0_0
  6
CONTINUOUS
 62
    7
 10
42.281096999999932
 20
749.47668499999997
 11
42.031096999999932
 21
749.27236900000003
  0
LINE
  8
_0-0_0
  6
CONTINUOUS
 62
    7
 10
42.031096999999932
 20
749.27236900000003
 11
32.781096999999932
 21
749.27236900000003
  0
LINE
  8
_0-0_0
  6
CONTINUOUS
 62
    7
 10
42.281096999999932
 20
749.54943800000001
 11
42.031096999999932
 21
749.27236900000003
  0
LINE
  8
_0-0_0
  6
CONTINUOUS
 62
    7
 10
42.281096999999932
 20
749.42770399999995
 11
42.031096999999932
 21
749.20465100000001
  0
LINE
  8
_0-0_0
  6
CONTINUOUS
 62
    7
 10
42.031096999999932
 20
749.20465100000001
 11
32.781096999999932
 21
749.20465100000001
  0
LINE
  8
_0-0_0
  6
CONTINUOUS
 62
    7
 10
42.281096999999932
 20
749.47668499999997
 11
42.031096999999932
 21
749.20465100000001
  0
LINE
  8
_0-0_0
  6
CONTINUOUS
 62
    7
 10
42.281096999999932
 20
749.40307600000006
 11
42.031096999999932
 21
749.16369600000007
  0
LINE
  8
_0-0_0
  6
CONTINUOUS
 62
    7
 10
42.031096999999932
 20
749.16369600000007
 11
32.781096999999932
 21
749.16369600000007
  0
LINE
  8
_0-0_0
  6
CONTINUOUS
 62
    7
 10
42.281096999999932
 20
749.42770399999995
 11
42.031096999999932
 21
749.16369600000007
  0
LINE
  8
_0-0_0
  6
CONTINUOUS
 62
    7
 10
42.031096999999932
 20
749.15002400000003
 11
32.781096999999932
 21
749.15002400000003
  0
LINE
  8
_0-0_0
  6
CONTINUOUS
 62
    7
 10
42.281096999999932
 20
749.40307600000006
 11
42.031096999999932
 21
749.15002400000003
  0
LINE
  8
_0-0_0
  6
CONTINUOUS
 62
    7
 10
42.281096999999932
 20
753.89691199999993
 11
42.031096999999932
 21
754.15002400000003
  0
LINE
  8
_0-0_0
  6
CONTINUOUS
 62
    7
 10
42.031096999999932
 20
754.15002400000003
 11
32.781096999999932
 21
754.15002400000003
  0
LINE
  8
_0-0_0
  6
CONTINUOUS
 62
    7
 10
42.281096999999932
 20
753.87231399999996
 11
42.031096999999932
 21
754.13632200000006
  0
LINE
  8
_0-0_0
  6
CONTINUOUS
 62
    7
 10
42.031096999999932
 20
754.13632200000006
 11
32.781096999999932
 21
754.13632200000006
  0
LINE
  8
_0-0_0
  6
CONTINUOUS
 62
    7
 10
42.281096999999932
 20
753.89691199999993
 11
42.031096999999932
 21
754.13632200000006
  0
LINE
  8
_0-0_0
  6
CONTINUOUS
 62
    7
 10
42.281096999999932
 20
753.82333399999993
 11
42.031096999999932
 21
754.09536700000001
  0
LINE
  8
_0-0_0
  6
CONTINUOUS
 62
    7
 10
42.031096999999932
 20
754.09536700000001
 11
32.781096999999932
 21
754.09536700000001
  0
LINE
  8
_0-0_0
  6
CONTINUOUS
 62
    7
 10
42.281096999999932
 20
753.87231399999996
 11
42.031096999999932
 21
754.09536700000001
  0
LINE
  8
_0-0_0
  6
CONTINUOUS
 62
    7
 10
42.281096999999932
 20
753.75054899999998
 11
42.031096999999932
 21
754.027649
  0
LINE
  8
_0-0_0
  6
CONTINUOUS
 62
    7
 10
42.031096999999932
 20
754.027649
 11
32.781096999999932
 21
754.027649
  0
LINE
  8
_0-0_0
  6
CONTINUOUS
 62
    7
 10
42.281096999999932
 20
753.82333399999993
 11
42.031096999999932
 21
754.027649
  0
LINE
  8
_0-0_0
  6
CONTINUOUS
 62
    7
 10
42.281096999999932
 20
753.65478499999995
 11
42.031096999999932
 21
753.93386800000007
  0
LINE
  8
_0-0_0
  6
CONTINUOUS
 62
    7
 10
42.031096999999932
 20
753.93386800000007
 11
32.781096999999932
 21
753.93386800000007
  0
LINE
  8
_0-0_0
  6
CONTINUOUS
 62
    7
 10
42.281096999999932
 20
753.75054899999998
 11
42.031096999999932
 21
753.93386800000007
  0
LINE
  8
_0-0_0
  6
CONTINUOUS
 62
    7
 10
42.031096999999932
 20
753.81506300000001
 11
32.781096999999932
 21
753.81506300000001
  0
LINE
  8
_0-0_0
  6
CONTINUOUS
 62
    7
 10
42.151137999999946
 20
753.73861699999998
 11
42.031096999999932
 21
753.81506300000001
  0
LINE
  8
_0-0_0
  6
CONTINUOUS
 62
    7
 10
42.281096999999932
 20
753.65478499999995
 11
42.151137999999946
 21
753.73861699999998
  0
LINE
  8
_0-0_0
  6
CONTINUOUS
 62
    7
 10
42.281096999999932
 20
753.53701799999999
 11
42.031096999999932
 21
753.81506300000001
  0
LINE
  8
_0-0_0
  6
CONTINUOUS
 62
    7
 10
42.281096999999932
 20
753.39859000000001
 11
42.031096999999932
 21
753.67254600000001
  0
LINE
  8
_0-0_0
  6
CONTINUOUS
 62
    7
 10
42.031096999999932
 20
753.67254600000001
 11
32.781096999999932
 21
753.67254600000001
  0
LINE
  8
_0-0_0
  6
CONTINUOUS
 62
    7
 10
42.281096999999932
 20
753.53701799999999
 11
42.031096999999932
 21
753.67254600000001
  0
LINE
  8
_0-0_0
  6
CONTINUOUS
 62
    7
 10
42.281096999999932
 20
753.24099699999999
 11
42.031096999999932
 21
753.50787400000002
  0
LINE
  8
_0-0_0
  6
CONTINUOUS
 62
    7
 10
42.031096999999932
 20
753.50787400000002
 11
32.781096999999932
 21
753.50787400000002
  0
LINE
  8
_0-0_0
  6
CONTINUOUS
 62
    7
 10
42.281096999999932
 20
753.39859000000001
 11
42.031096999999932
 21
753.50787400000002
  0
LINE
  8
_0-0_0
  6
CONTINUOUS
 62
    7
 10
42.281096999999932
 20
753.06597899999997
 11
42.031096999999932
 21
753.32284499999992
  0
LINE
  8
_0-0_0
  6
CONTINUOUS
 62
    7
 10
42.031096999999932
 20
753.32284499999992
 11
32.781096999999932
 21
753.32284499999992
  0
LINE
  8
_0-0_0
  6
CONTINUOUS
 62
    7
 10
42.281096999999932
 20
753.24099699999999
 11
42.031096999999932
 21
753.32284499999992
  0
LINE
  8
_0-0_0
  6
CONTINUOUS
 62
    7
 10
42.281096999999932
 20
752.87542699999995
 11
42.031096999999932
 21
753.11947600000008
  0
LINE
  8
_0-0_0
  6
CONTINUOUS
 62
    7
 10
42.031096999999932
 20
753.11947600000008
 11
32.781096999999932
 21
753.11947600000008
  0
LINE
  8
_0-0_0
  6
CONTINUOUS
 62
    7
 10
42.281096999999932
 20
753.06597899999997
 11
42.031096999999932
 21
753.11947600000008
  0
LINE
  8
_0-0_0
  6
CONTINUOUS
 62
    7
 10
42.281096999999932
 20
752.67147799999998
 11
42.031096999999932
 21
752.90002400000003
  0
LINE
  8
_0-0_0
  6
CONTINUOUS
 62
    7
 10
42.031096999999932
 20
752.90002400000003
 11
32.781096999999932
 21
752.90002400000003
  0
LINE
  8
_0-0_0
  6
CONTINUOUS
 62
    7
 10
42.281096999999932
 20
752.67147799999998
 11
32.531096999999932
 21
752.67147799999998
  0
LINE
  8
_0-0_0
  6
CONTINUOUS
 62
    7
 10
42.281096999999932
 20
752.87542699999995
 11
42.031096999999932
 21
752.90002400000003
  0
LINE
  8
_0-0_0
  6
CONTINUOUS
 62
    7
 10
42.281096999999932
 20
752.45632899999998
 11
42.031096999999932
 21
752.66683999999998
  0
LINE
  8
_0-0_0
  6
CONTINUOUS
 62
    7
 10
42.031096999999932
 20
752.66683999999998
 11
32.781096999999932
 21
752.66683999999998
  0
LINE
  8
_0-0_0
  6
CONTINUOUS
 62
    7
 10
42.281096999999932
 20
752.45632899999998
 11
32.531096999999932
 21
752.45632899999998
  0
LINE
  8
_0-0_0
  6
CONTINUOUS
 62
    7
 10
42.281096999999932
 20
752.67147799999998
 11
42.031096999999932
 21
752.66683999999998
  0
LINE
  8
_0-0_0
  6
CONTINUOUS
 62
    7
 10
42.281096999999932
 20
752.23236100000008
 11
42.031096999999932
 21
752.42254600000001
  0
LINE
  8
_0-0_0
  6
CONTINUOUS
 62
    7
 10
42.031096999999932
 20
752.42254600000001
 11
32.781096999999932
 21
752.42254600000001
  0
LINE
  8
_0-0_0
  6
CONTINUOUS
 62
    7
 10
42.281096999999932
 20
752.23236100000008
 11
32.531096999999932
 21
752.23236100000008
  0
LINE
  8
_0-0_0
  6
CONTINUOUS
 62
    7
 10
42.281096999999932
 20
752.45632899999998
 11
42.031096999999932
 21
752.42254600000001
  0
LINE
  8
_0-0_0
  6
CONTINUOUS
 62
    7
 10
42.281096999999932
 20
752.00198399999999
 11
42.031096999999932
 21
752.16980000000001
  0
LINE
  8
_0-0_0
  6
CONTINUOUS
 62
    7
 10
42.031096999999932
 20
752.16980000000001
 11
32.781096999999932
 21
752.16980000000001
  0
LINE
  8
_0-0_0
  6
CONTINUOUS
 62
    7
 10
42.281096999999932
 20
752.00198399999999
 11
32.531096999999932
 21
752.00198399999999
  0
LINE
  8
_0-0_0
  6
CONTINUOUS
 62
    7
 10
42.281096999999932
 20
752.23236100000008
 11
42.031096999999932
 21
752.16980000000001
  0
LINE
  8
_0-0_0
  6
CONTINUOUS
 62
    7
 10
42.281096999999932
 20
751.76776100000006
 11
42.031096999999932
 21
751.91131599999994
  0
LINE
  8
_0-0_0
  6
CONTINUOUS
 62
    7
 10
42.031096999999932
 20
751.91131599999994
 11
32.781096999999932
 21
751.91131599999994
  0
LINE
  8
_0-0_0
  6
CONTINUOUS
 62
    7
 10
42.281096999999932
 20
751.76776100000006
 11
32.531096999999932
 21
751.76776100000006
  0
LINE
  8
_0-0_0
  6
CONTINUOUS
 62
    7
 10
42.281096999999932
 20
752.00198399999999
 11
42.031096999999932
 21
751.91131599999994
  0
LINE
  8
_0-0_0
  6
CONTINUOUS
 62
    7
 10
42.281096999999932
 20
751.53225700000007
 11
42.031096999999932
 21
751.65002400000003
  0
LINE
  8
_0-0_0
  6
CONTINUOUS
 62
    7
 10
42.031096999999932
 20
751.65002400000003
 11
32.781096999999932
 21
751.65002400000003
  0
LINE
  8
_0-0_0
  6
CONTINUOUS
 62
    7
 10
42.281096999999932
 20
751.53225700000007
 11
32.531096999999932
 21
751.53225700000007
  0
LINE
  8
_0-0_0
  6
CONTINUOUS
 62
    7
 10
42.281096999999932
 20
751.76776100000006
 11
42.031096999999932
 21
751.65002400000003
  0
LINE
  8
_0-0_0
  6
CONTINUOUS
 62
    7
 10
42.281096999999932
 20
751.29803500000003
 11
42.031096999999932
 21
751.38867200000004
  0
LINE
  8
_0-0_0
  6
CONTINUOUS
 62
    7
 10
42.031096999999932
 20
751.38867200000004
 11
32.781096999999932
 21
751.38867200000004
  0
LINE
  8
_0-0_0
  6
CONTINUOUS
 62
    7
 10
42.281096999999932
 20
751.29803500000003
 11
32.531096999999932
 21
751.29803500000003
  0
LINE
  8
_0-0_0
  6
CONTINUOUS
 62
    7
 10
42.281096999999932
 20
751.53225700000007
 11
42.031096999999932
 21
751.38867200000004
  0
LINE
  8
_0-0_0
  6
CONTINUOUS
 62
    7
 10
42.281096999999932
 20
751.06765700000005
 11
42.031096999999932
 21
751.13021900000001
  0
LINE
  8
_0-0_0
  6
CONTINUOUS
 62
    7
 10
42.031096999999932
 20
751.13021900000001
 11
32.781096999999932
 21
751.13021900000001
  0
LINE
  8
_0-0_0
  6
CONTINUOUS
 62
    7
 10
42.281096999999932
 20
751.06765700000005
 11
32.531096999999932
 21
751.06765700000005
  0
LINE
  8
_0-0_0
  6
CONTINUOUS
 62
    7
 10
42.281096999999932
 20
751.29803500000003
 11
42.031096999999932
 21
751.13021900000001
  0
LINE
  8
_0-0_0
  6
CONTINUOUS
 62
    7
 10
42.281096999999932
 20
750.84368900000004
 11
42.031096999999932
 21
750.87747200000001
  0
LINE
  8
_0-0_0
  6
CONTINUOUS
 62
    7
 10
42.031096999999932
 20
750.87747200000001
 11
32.781096999999932
 21
750.87747200000001
  0
LINE
  8
_0-0_0
  6
CONTINUOUS
 62
    7
 10
42.281096999999932
 20
750.84368900000004
 11
32.531096999999932
 21
750.84368900000004
  0
LINE
  8
_0-0_0
  6
CONTINUOUS
 62
    7
 10
42.281096999999932
 20
751.06765700000005
 11
42.031096999999932
 21
750.87747200000001
  0
LINE
  8
_0-0_0
  6
CONTINUOUS
 62
    7
 10
42.281096999999932
 20
750.62853999999993
 11
42.031096999999932
 21
750.63317899999993
  0
LINE
  8
_0-0_0
  6
CONTINUOUS
 62
    7
 10
42.031096999999932
 20
750.63317899999993
 11
32.781096999999932
 21
750.63317899999993
  0
LINE
  8
_0-0_0
  6
CONTINUOUS
 62
    7
 10
42.281096999999932
 20
750.84368900000004
 11
42.031096999999932
 21
750.63317899999993
  0
LINE
  8
_0-0_0
  6
CONTINUOUS
 62
    7
 10
42.531096999999932
 20
749.65002400000003
 11
42.531096999999932
 21
753.40518199999997
  0
LINE
  8
_0-0_0
  6
CONTINUOUS
 62
    7
 10
42.531096999999932
 20
753.40518199999997
 11
42.531096999999932
 21
753.65002400000003
  0
LINE
  8
_0-0_0
  6
CONTINUOUS
 62
    7
 10
28.931090999999924
 20
754.95001200000002
 11
28.931090999999924
 21
757.45001200000002
  0
LINE
  8
_0-0_0
  6
CONTINUOUS
 62
    7
 10
28.931090999999924
 20
757.45001200000002
 11
28.931090999999924
 21
764.95001200000002
  0
LINE
  8
_0-0_0
  6
CONTINUOUS
 62
    7
 10
29.731093999999985
 20
755.41189600000007
 11
29.731093999999985
 21
757.68093900000008
  0
LINE
  8
_0-0_0
  6
CONTINUOUS
 62
    7
 10
29.731093999999985
 20
757.68093900000008
 11
29.731093999999985
 21
764.48812900000007
  0
LINE
  8
_0-0_0
  6
CONTINUOUS
 62
    7
 10
87.731093999999985
 20
755.95001200000002
 11
87.731093999999985
 21
755.95135499999992
  0
LINE
  8
_0-0_0
  6
CONTINUOUS
 62
    7
 10
87.731093999999985
 20
755.95135499999992
 11
87.731093999999985
 21
763.95001200000002
  0
LINE
  8
_0-0_0
  6
CONTINUOUS
 62
    7
 10
32.531096999999932
 20
770.49691800000005
 11
32.531096999999932
 21
770.5
  0
LINE
  8
_0-0_0
  6
CONTINUOUS
 62
    7
 10
32.531096999999932
 20
770.47228999999993
 11
32.531096999999932
 21
770.49691800000005
  0
LINE
  8
_0-0_0
  6
CONTINUOUS
 62
    7
 10
32.531096999999932
 20
770.42334000000005
 11
32.531096999999932
 21
770.5
  0
LINE
  8
_0-0_0
  6
CONTINUOUS
 62
    7
 10
32.531096999999932
 20
770.35055499999999
 11
32.531096999999932
 21
770.42334000000005
  0
LINE
  8
_0-0_0
  6
CONTINUOUS
 62
    7
 10
32.531096999999932
 20
770.25476099999992
 11
32.531096999999932
 21
770.35055499999999
  0
LINE
  8
_0-0_0
  6
CONTINUOUS
 62
    7
 10
32.531096999999932
 20
770.22457899999995
 11
32.531096999999932
 21
770.25476099999992
  0
LINE
  8
_0-0_0
  6
CONTINUOUS
 62
    7
 10
32.531096999999932
 20
770.137024
 11
32.531096999999932
 21
770.22457899999995
  0
LINE
  8
_0-0_0
  6
CONTINUOUS
 62
    7
 10
32.531096999999932
 20
769.99859600000002
 11
32.531096999999932
 21
770.137024
  0
LINE
  8
_0-0_0
  6
CONTINUOUS
 62
    7
 10
32.531096999999932
 20
769.841003
 11
32.531096999999932
 21
769.99859600000002
  0
LINE
  8
_0-0_0
  6
CONTINUOUS
 62
    7
 10
32.531096999999932
 20
769.66598499999998
 11
32.531096999999932
 21
769.841003
  0
LINE
  8
_0-0_0
  6
CONTINUOUS
 62
    7
 10
32.531096999999932
 20
769.47543300000007
 11
32.531096999999932
 21
769.66598499999998
  0
LINE
  8
_0-0_0
  6
CONTINUOUS
 62
    7
 10
32.531096999999932
 20
769.27148399999999
 11
32.531096999999932
 21
769.47543300000007
  0
LINE
  8
_0-0_0
  6
CONTINUOUS
 62
    7
 10
32.531096999999932
 20
769.05633499999999
 11
32.531096999999932
 21
769.27148399999999
  0
LINE
  8
_0-0_0
  6
CONTINUOUS
 62
    7
 10
32.531096999999932
 20
768.83233599999994
 11
32.531096999999932
 21
769.05633499999999
  0
LINE
  8
_0-0_0
  6
CONTINUOUS
 62
    7
 10
32.531096999999932
 20
768.60199
 11
32.531096999999932
 21
768.83233599999994
  0
LINE
  8
_0-0_0
  6
CONTINUOUS
 62
    7
 10
32.531096999999932
 20
768.36776699999996
 11
32.531096999999932
 21
768.60199
  0
LINE
  8
_0-0_0
  6
CONTINUOUS
 62
    7
 10
32.531096999999932
 20
768.13226299999997
 11
32.531096999999932
 21
768.36776699999996
  0
LINE
  8
_0-0_0
  6
CONTINUOUS
 62
    7
 10
32.531096999999932
 20
767.89804099999992
 11
32.531096999999932
 21
768.13226299999997
  0
LINE
  8
_0-0_0
  6
CONTINUOUS
 62
    7
 10
32.531096999999932
 20
767.66766400000006
 11
32.531096999999932
 21
767.89804099999992
  0
LINE
  8
_0-0_0
  6
CONTINUOUS
 62
    7
 10
32.531096999999932
 20
767.44366500000001
 11
32.531096999999932
 21
767.66766400000006
  0
LINE
  8
_0-0_0
  6
CONTINUOUS
 62
    7
 10
32.531096999999932
 20
767.22851600000001
 11
32.531096999999932
 21
767.44366500000001
  0
LINE
  8
_0-0_0
  6
CONTINUOUS
 62
    7
 10
32.531096999999932
 20
767.17129499999999
 11
32.531096999999932
 21
767.22851600000001
  0
LINE
  8
_0-0_0
  6
CONTINUOUS
 62
    7
 10
32.531096999999932
 20
770.49691800000005
 11
32.781096999999932
 21
770.75
  0
LINE
  8
_0-0_0
  6
CONTINUOUS
 62
    7
 10
32.531096999999932
 20
770.47228999999993
 11
32.781096999999932
 21
770.73632799999996
  0
LINE
  8
_0-0_0
  6
CONTINUOUS
 62
    7
 10
32.531096999999932
 20
770.49691800000005
 11
32.781096999999932
 21
770.73632799999996
  0
LINE
  8
_0-0_0
  6
CONTINUOUS
 62
    7
 10
32.531096999999932
 20
770.42334000000005
 11
32.781096999999932
 21
770.69537400000002
  0
LINE
  8
_0-0_0
  6
CONTINUOUS
 62
    7
 10
32.531096999999932
 20
770.47228999999993
 11
32.781096999999932
 21
770.69537400000002
  0
LINE
  8
_0-0_0
  6
CONTINUOUS
 62
    7
 10
32.531096999999932
 20
770.35055499999999
 11
32.781096999999932
 21
770.627655
  0
LINE
  8
_0-0_0
  6
CONTINUOUS
 62
    7
 10
32.531096999999932
 20
770.42334000000005
 11
32.781096999999932
 21
770.627655
  0
LINE
  8
_0-0_0
  6
CONTINUOUS
 62
    7
 10
32.531096999999932
 20
770.25476099999992
 11
32.781096999999932
 21
770.53387500000008
  0
LINE
  8
_0-0_0
  6
CONTINUOUS
 62
    7
 10
32.531096999999932
 20
770.35055499999999
 11
32.781096999999932
 21
770.53387500000008
  0
LINE
  8
_0-0_0
  6
CONTINUOUS
 62
    7
 10
32.531096999999932
 20
770.25476099999992
 11
32.66107199999999
 21
770.33862299999998
  0
LINE
  8
_0-0_0
  6
CONTINUOUS
 62
    7
 10
32.531096999999932
 20
770.137024
 11
32.781096999999932
 21
770.41507000000001
  0
LINE
  8
_0-0_0
  6
CONTINUOUS
 62
    7
 10
32.66107199999999
 20
770.33862299999998
 11
32.781096999999932
 21
770.41507000000001
  0
LINE
  8
_0-0_0
  6
CONTINUOUS
 62
    7
 10
32.531096999999932
 20
769.99859600000002
 11
32.781096999999932
 21
770.27255200000002
  0
LINE
  8
_0-0_0
  6
CONTINUOUS
 62
    7
 10
32.531096999999932
 20
770.137024
 11
32.781096999999932
 21
770.27255200000002
  0
LINE
  8
_0-0_0
  6
CONTINUOUS
 62
    7
 10
32.531096999999932
 20
769.841003
 11
32.781096999999932
 21
770.10788000000002
  0
LINE
  8
_0-0_0
  6
CONTINUOUS
 62
    7
 10
32.531096999999932
 20
769.99859600000002
 11
32.781096999999932
 21
770.10788000000002
  0
LINE
  8
_0-0_0
  6
CONTINUOUS
 62
    7
 10
32.531096999999932
 20
769.66598499999998
 11
32.781096999999932
 21
769.922821
  0
LINE
  8
_0-0_0
  6
CONTINUOUS
 62
    7
 10
32.531096999999932
 20
769.841003
 11
32.781096999999932
 21
769.922821
  0
LINE
  8
_0-0_0
  6
CONTINUOUS
 62
    7
 10
32.531096999999932
 20
769.47543300000007
 11
32.781096999999932
 21
769.71948199999997
  0
LINE
  8
_0-0_0
  6
CONTINUOUS
 62
    7
 10
32.531096999999932
 20
769.66598499999998
 11
32.781096999999932
 21
769.71948199999997
  0
LINE
  8
_0-0_0
  6
CONTINUOUS
 62
    7
 10
32.531096999999932
 20
769.27148399999999
 11
32.781096999999932
 21
769.5
  0
LINE
  8
_0-0_0
  6
CONTINUOUS
 62
    7
 10
32.531096999999932
 20
769.47543300000007
 11
32.781096999999932
 21
769.5
  0
LINE
  8
_0-0_0
  6
CONTINUOUS
 62
    7
 10
32.531096999999932
 20
769.05633499999999
 11
32.781096999999932
 21
769.26684599999999
  0
LINE
  8
_0-0_0
  6
CONTINUOUS
 62
    7
 10
32.531096999999932
 20
769.27148399999999
 11
32.781096999999932
 21
769.26684599999999
  0
LINE
  8
_0-0_0
  6
CONTINUOUS
 62
    7
 10
32.531096999999932
 20
768.83233599999994
 11
32.781096999999932
 21
769.02255200000002
  0
LINE
  8
_0-0_0
  6
CONTINUOUS
 62
    7
 10
32.531096999999932
 20
769.05633499999999
 11
32.781096999999932
 21
769.02255200000002
  0
LINE
  8
_0-0_0
  6
CONTINUOUS
 62
    7
 10
32.531096999999932
 20
768.60199
 11
32.781096999999932
 21
768.76977499999998
  0
LINE
  8
_0-0_0
  6
CONTINUOUS
 62
    7
 10
32.531096999999932
 20
768.83233599999994
 11
32.781096999999932
 21
768.76977499999998
  0
LINE
  8
_0-0_0
  6
CONTINUOUS
 62
    7
 10
32.531096999999932
 20
768.36776699999996
 11
32.781096999999932
 21
768.51132200000006
  0
LINE
  8
_0-0_0
  6
CONTINUOUS
 62
    7
 10
32.531096999999932
 20
768.60199
 11
32.781096999999932
 21
768.51132200000006
  0
LINE
  8
_0-0_0
  6
CONTINUOUS
 62
    7
 10
32.531096999999932
 20
768.13226299999997
 11
32.781096999999932
 21
768.25
  0
LINE
  8
_0-0_0
  6
CONTINUOUS
 62
    7
 10
32.531096999999932
 20
768.36776699999996
 11
32.781096999999932
 21
768.25
  0
LINE
  8
_0-0_0
  6
CONTINUOUS
 62
    7
 10
32.531096999999932
 20
767.89804099999992
 11
32.781096999999932
 21
767.98867799999994
  0
LINE
  8
_0-0_0
  6
CONTINUOUS
 62
    7
 10
32.531096999999932
 20
768.13226299999997
 11
32.781096999999932
 21
767.98867799999994
  0
LINE
  8
_0-0_0
  6
CONTINUOUS
 62
    7
 10
32.531096999999932
 20
767.66766400000006
 11
32.781096999999932
 21
767.73022500000002
  0
LINE
  8
_0-0_0
  6
CONTINUOUS
 62
    7
 10
32.531096999999932
 20
767.89804099999992
 11
32.781096999999932
 21
767.73022500000002
  0
LINE
  8
_0-0_0
  6
CONTINUOUS
 62
    7
 10
32.531096999999932
 20
767.44366500000001
 11
32.781096999999932
 21
767.47747800000002
  0
LINE
  8
_0-0_0
  6
CONTINUOUS
 62
    7
 10
32.531096999999932
 20
767.66766400000006
 11
32.781096999999932
 21
767.47747800000002
  0
LINE
  8
_0-0_0
  6
CONTINUOUS
 62
    7
 10
32.531096999999932
 20
767.22851600000001
 11
32.781096999999932
 21
767.23315400000001
  0
LINE
  8
_0-0_0
  6
CONTINUOUS
 62
    7
 10
32.531096999999932
 20
767.44366500000001
 11
32.781096999999932
 21
767.23315400000001
  0
LINE
  8
_0-0_0
  6
CONTINUOUS
 62
    7
 10
32.531096999999932
 20
767.02456699999993
 11
32.531096999999932
 21
767.17129499999999
  0
LINE
  8
_0-0_0
  6
CONTINUOUS
 62
    7
 10
32.531096999999932
 20
767.02456699999993
 11
32.781096999999932
 21
767
  0
LINE
  8
_0-0_0
  6
CONTINUOUS
 62
    7
 10
32.531096999999932
 20
767.22851600000001
 11
32.781096999999932
 21
767
  0
LINE
  8
_0-0_0
  6
CONTINUOUS
 62
    7
 10
32.531096999999932
 20
766.83404500000006
 11
32.531096999999932
 21
767.02456699999993
  0
LINE
  8
_0-0_0
  6
CONTINUOUS
 62
    7
 10
32.531096999999932
 20
766.65902699999992
 11
32.531096999999932
 21
766.83404500000006
  0
LINE
  8
_0-0_0
  6
CONTINUOUS
 62
    7
 10
32.531096999999932
 20
766.50143400000002
 11
32.531096999999932
 21
766.65902699999992
  0
LINE
  8
_0-0_0
  6
CONTINUOUS
 62
    7
 10
32.531096999999932
 20
766.36300699999993
 11
32.531096999999932
 21
766.50143400000002
  0
LINE
  8
_0-0_0
  6
CONTINUOUS
 62
    7
 10
32.531096999999932
 20
766.24523900000008
 11
32.531096999999932
 21
766.36300699999993
  0
LINE
  8
_0-0_0
  6
CONTINUOUS
 62
    7
 10
32.531096999999932
 20
766.14944500000001
 11
32.531096999999932
 21
766.24523900000008
  0
LINE
  8
_0-0_0
  6
CONTINUOUS
 62
    7
 10
32.531096999999932
 20
766.07665999999995
 11
32.531096999999932
 21
766.14944500000001
  0
LINE
  8
_0-0_0
  6
CONTINUOUS
 62
    7
 10
32.531096999999932
 20
766
 11
32.531096999999932
 21
766.07665999999995
  0
LINE
  8
_0-0_0
  6
CONTINUOUS
 62
    7
 10
32.531096999999932
 20
766.00308199999995
 11
32.531096999999932
 21
766.02771000000007
  0
LINE
  8
_0-0_0
  6
CONTINUOUS
 62
    7
 10
32.531096999999932
 20
766
 11
32.531096999999932
 21
766.00308199999995
  0
LINE
  8
_0-0_0
  6
CONTINUOUS
 62
    7
 10
42.281096999999932
 20
770.49691800000005
 11
42.031096999999932
 21
770.75
  0
LINE
  8
_0-0_0
  6
CONTINUOUS
 62
    7
 10
42.031096999999932
 20
770.75
 11
32.781096999999932
 21
770.75
  0
LINE
  8
_0-0_0
  6
CONTINUOUS
 62
    7
 10
42.281096999999932
 20
770.47228999999993
 11
42.031096999999932
 21
770.73632799999996
  0
LINE
  8
_0-0_0
  6
CONTINUOUS
 62
    7
 10
42.031096999999932
 20
770.73632799999996
 11
32.781096999999932
 21
770.73632799999996
  0
LINE
  8
_0-0_0
  6
CONTINUOUS
 62
    7
 10
42.281096999999932
 20
770.49691800000005
 11
42.031096999999932
 21
770.73632799999996
  0
LINE
  8
_0-0_0
  6
CONTINUOUS
 62
    7
 10
42.281096999999932
 20
770.42334000000005
 11
42.031096999999932
 21
770.69537400000002
  0
LINE
  8
_0-0_0
  6
CONTINUOUS
 62
    7
 10
42.031096999999932
 20
770.69537400000002
 11
32.781096999999932
 21
770.69537400000002
  0
LINE
  8
_0-0_0
  6
CONTINUOUS
 62
    7
 10
42.281096999999932
 20
770.47228999999993
 11
42.031096999999932
 21
770.69537400000002
  0
LINE
  8
_0-0_0
  6
CONTINUOUS
 62
    7
 10
42.281096999999932
 20
770.35055499999999
 11
42.031096999999932
 21
770.627655
  0
LINE
  8
_0-0_0
  6
CONTINUOUS
 62
    7
 10
42.031096999999932
 20
770.627655
 11
32.781096999999932
 21
770.627655
  0
LINE
  8
_0-0_0
  6
CONTINUOUS
 62
    7
 10
42.281096999999932
 20
770.42334000000005
 11
42.031096999999932
 21
770.627655
  0
LINE
  8
_0-0_0
  6
CONTINUOUS
 62
    7
 10
42.281096999999932
 20
770.25476099999992
 11
42.031096999999932
 21
770.53387500000008
  0
LINE
  8
_0-0_0
  6
CONTINUOUS
 62
    7
 10
42.031096999999932
 20
770.53387500000008
 11
32.781096999999932
 21
770.53387500000008
  0
LINE
  8
_0-0_0
  6
CONTINUOUS
 62
    7
 10
42.281096999999932
 20
770.35055499999999
 11
42.031096999999932
 21
770.53387500000008
  0
LINE
  8
_0-0_0
  6
CONTINUOUS
 62
    7
 10
42.031096999999932
 20
770.41507000000001
 11
32.781096999999932
 21
770.41507000000001
  0
LINE
  8
_0-0_0
  6
CONTINUOUS
 62
    7
 10
42.151137999999946
 20
770.33862299999998
 11
42.031096999999932
 21
770.41507000000001
  0
LINE
  8
_0-0_0
  6
CONTINUOUS
 62
    7
 10
42.281096999999932
 20
770.25476099999992
 11
42.151137999999946
 21
770.33862299999998
  0
LINE
  8
_0-0_0
  6
CONTINUOUS
 62
    7
 10
42.281096999999932
 20
770.137024
 11
42.031096999999932
 21
770.41507000000001
  0
LINE
  8
_0-0_0
  6
CONTINUOUS
 62
    7
 10
42.281096999999932
 20
769.99859600000002
 11
42.031096999999932
 21
770.27255200000002
  0
LINE
  8
_0-0_0
  6
CONTINUOUS
 62
    7
 10
42.031096999999932
 20
770.27255200000002
 11
32.781096999999932
 21
770.27255200000002
  0
LINE
  8
_0-0_0
  6
CONTINUOUS
 62
    7
 10
42.281096999999932
 20
770.137024
 11
42.031096999999932
 21
770.27255200000002
  0
LINE
  8
_0-0_0
  6
CONTINUOUS
 62
    7
 10
42.281096999999932
 20
769.841003
 11
42.031096999999932
 21
770.10788000000002
  0
LINE
  8
_0-0_0
  6
CONTINUOUS
 62
    7
 10
42.031096999999932
 20
770.10788000000002
 11
32.781096999999932
 21
770.10788000000002
  0
LINE
  8
_0-0_0
  6
CONTINUOUS
 62
    7
 10
42.281096999999932
 20
769.99859600000002
 11
42.031096999999932
 21
770.10788000000002
  0
LINE
  8
_0-0_0
  6
CONTINUOUS
 62
    7
 10
42.281096999999932
 20
769.66598499999998
 11
42.031096999999932
 21
769.922821
  0
LINE
  8
_0-0_0
  6
CONTINUOUS
 62
    7
 10
42.031096999999932
 20
769.922821
 11
32.781096999999932
 21
769.922821
  0
LINE
  8
_0-0_0
  6
CONTINUOUS
 62
    7
 10
42.281096999999932
 20
769.841003
 11
42.031096999999932
 21
769.922821
  0
LINE
  8
_0-0_0
  6
CONTINUOUS
 62
    7
 10
42.281096999999932
 20
769.47543300000007
 11
42.031096999999932
 21
769.71948199999997
  0
LINE
  8
_0-0_0
  6
CONTINUOUS
 62
    7
 10
42.031096999999932
 20
769.71948199999997
 11
32.781096999999932
 21
769.71948199999997
  0
LINE
  8
_0-0_0
  6
CONTINUOUS
 62
    7
 10
42.281096999999932
 20
769.66598499999998
 11
42.031096999999932
 21
769.71948199999997
  0
LINE
  8
_0-0_0
  6
CONTINUOUS
 62
    7
 10
42.281096999999932
 20
769.27148399999999
 11
42.031096999999932
 21
769.5
  0
LINE
  8
_0-0_0
  6
CONTINUOUS
 62
    7
 10
42.031096999999932
 20
769.5
 11
32.781096999999932
 21
769.5
  0
LINE
  8
_0-0_0
  6
CONTINUOUS
 62
    7
 10
42.281096999999932
 20
769.27148399999999
 11
32.531096999999932
 21
769.27148399999999
  0
LINE
  8
_0-0_0
  6
CONTINUOUS
 62
    7
 10
42.281096999999932
 20
769.47543300000007
 11
42.031096999999932
 21
769.5
  0
LINE
  8
_0-0_0
  6
CONTINUOUS
 62
    7
 10
42.281096999999932
 20
769.05633499999999
 11
42.031096999999932
 21
769.26684599999999
  0
LINE
  8
_0-0_0
  6
CONTINUOUS
 62
    7
 10
42.031096999999932
 20
769.26684599999999
 11
32.781096999999932
 21
769.26684599999999
  0
LINE
  8
_0-0_0
  6
CONTINUOUS
 62
    7
 10
42.281096999999932
 20
769.05633499999999
 11
32.531096999999932
 21
769.05633499999999
  0
LINE
  8
_0-0_0
  6
CONTINUOUS
 62
    7
 10
42.281096999999932
 20
769.27148399999999
 11
42.031096999999932
 21
769.26684599999999
  0
LINE
  8
_0-0_0
  6
CONTINUOUS
 62
    7
 10
42.281096999999932
 20
768.83233599999994
 11
42.031096999999932
 21
769.02255200000002
  0
LINE
  8
_0-0_0
  6
CONTINUOUS
 62
    7
 10
42.031096999999932
 20
769.02255200000002
 11
32.781096999999932
 21
769.02255200000002
  0
LINE
  8
_0-0_0
  6
CONTINUOUS
 62
    7
 10
42.281096999999932
 20
768.83233599999994
 11
32.531096999999932
 21
768.83233599999994
  0
LINE
  8
_0-0_0
  6
CONTINUOUS
 62
    7
 10
42.281096999999932
 20
769.05633499999999
 11
42.031096999999932
 21
769.02255200000002
  0
LINE
  8
_0-0_0
  6
CONTINUOUS
 62
    7
 10
42.281096999999932
 20
768.60199
 11
42.031096999999932
 21
768.76977499999998
  0
LINE
  8
_0-0_0
  6
CONTINUOUS
 62
    7
 10
42.031096999999932
 20
768.76977499999998
 11
32.781096999999932
 21
768.76977499999998
  0
LINE
  8
_0-0_0
  6
CONTINUOUS
 62
    7
 10
42.281096999999932
 20
768.60199
 11
32.531096999999932
 21
768.60199
  0
LINE
  8
_0-0_0
  6
CONTINUOUS
 62
    7
 10
42.281096999999932
 20
768.83233599999994
 11
42.031096999999932
 21
768.76977499999998
  0
LINE
  8
_0-0_0
  6
CONTINUOUS
 62
    7
 10
42.281096999999932
 20
768.36776699999996
 11
42.031096999999932
 21
768.51132200000006
  0
LINE
  8
_0-0_0
  6
CONTINUOUS
 62
    7
 10
42.031096999999932
 20
768.51132200000006
 11
32.781096999999932
 21
768.51132200000006
  0
LINE
  8
_0-0_0
  6
CONTINUOUS
 62
    7
 10
42.281096999999932
 20
768.36776699999996
 11
32.531096999999932
 21
768.36776699999996
  0
LINE
  8
_0-0_0
  6
CONTINUOUS
 62
    7
 10
42.281096999999932
 20
768.60199
 11
42.031096999999932
 21
768.51132200000006
  0
LINE
  8
_0-0_0
  6
CONTINUOUS
 62
    7
 10
42.281096999999932
 20
768.13226299999997
 11
42.031096999999932
 21
768.25
  0
LINE
  8
_0-0_0
  6
CONTINUOUS
 62
    7
 10
42.031096999999932
 20
768.25
 11
32.781096999999932
 21
768.25
  0
LINE
  8
_0-0_0
  6
CONTINUOUS
 62
    7
 10
42.281096999999932
 20
768.13226299999997
 11
32.531096999999932
 21
768.13226299999997
  0
LINE
  8
_0-0_0
  6
CONTINUOUS
 62
    7
 10
42.281096999999932
 20
768.36776699999996
 11
42.031096999999932
 21
768.25
  0
LINE
  8
_0-0_0
  6
CONTINUOUS
 62
    7
 10
42.281096999999932
 20
767.89804099999992
 11
42.031096999999932
 21
767.98867799999994
  0
LINE
  8
_0-0_0
  6
CONTINUOUS
 62
    7
 10
42.031096999999932
 20
767.98867799999994
 11
32.781096999999932
 21
767.98867799999994
  0
LINE
  8
_0-0_0
  6
CONTINUOUS
 62
    7
 10
42.281096999999932
 20
767.89804099999992
 11
32.531096999999932
 21
767.89804099999992
  0
LINE
  8
_0-0_0
  6
CONTINUOUS
 62
    7
 10
42.281096999999932
 20
768.13226299999997
 11
42.031096999999932
 21
767.98867799999994
  0
LINE
  8
_0-0_0
  6
CONTINUOUS
 62
    7
 10
42.281096999999932
 20
767.66766400000006
 11
42.031096999999932
 21
767.73022500000002
  0
LINE
  8
_0-0_0
  6
CONTINUOUS
 62
    7
 10
42.031096999999932
 20
767.73022500000002
 11
32.781096999999932
 21
767.73022500000002
  0
LINE
  8
_0-0_0
  6
CONTINUOUS
 62
    7
 10
42.281096999999932
 20
767.66766400000006
 11
32.531096999999932
 21
767.66766400000006
  0
LINE
  8
_0-0_0
  6
CONTINUOUS
 62
    7
 10
42.281096999999932
 20
767.89804099999992
 11
42.031096999999932
 21
767.73022500000002
  0
LINE
  8
_0-0_0
  6
CONTINUOUS
 62
    7
 10
42.281096999999932
 20
767.44366500000001
 11
42.031096999999932
 21
767.47747800000002
  0
LINE
  8
_0-0_0
  6
CONTINUOUS
 62
    7
 10
42.031096999999932
 20
767.47747800000002
 11
32.781096999999932
 21
767.47747800000002
  0
LINE
  8
_0-0_0
  6
CONTINUOUS
 62
    7
 10
42.281096999999932
 20
767.44366500000001
 11
32.531096999999932
 21
767.44366500000001
  0
LINE
  8
_0-0_0
  6
CONTINUOUS
 62
    7
 10
42.281096999999932
 20
767.66766400000006
 11
42.031096999999932
 21
767.47747800000002
  0
LINE
  8
_0-0_0
  6
CONTINUOUS
 62
    7
 10
42.281096999999932
 20
767.22851600000001
 11
42.031096999999932
 21
767.23315400000001
  0
LINE
  8
_0-0_0
  6
CONTINUOUS
 62
    7
 10
42.031096999999932
 20
767.23315400000001
 11
32.781096999999932
 21
767.23315400000001
  0
LINE
  8
_0-0_0
  6
CONTINUOUS
 62
    7
 10
42.281096999999932
 20
767.22851600000001
 11
32.531096999999932
 21
767.22851600000001
  0
LINE
  8
_0-0_0
  6
CONTINUOUS
 62
    7
 10
42.281096999999932
 20
767.44366500000001
 11
42.031096999999932
 21
767.23315400000001
  0
LINE
  8
_0-0_0
  6
CONTINUOUS
 62
    7
 10
42.281096999999932
 20
767.02456699999993
 11
42.031096999999932
 21
767
  0
LINE
  8
_0-0_0
  6
CONTINUOUS
 62
    7
 10
42.031096999999932
 20
767
 11
32.781096999999932
 21
767
  0
LINE
  8
_0-0_0
  6
CONTINUOUS
 62
    7
 10
42.281096999999932
 20
767.22851600000001
 11
42.031096999999932
 21
767
  0
LINE
  8
_0-0_0
  6
CONTINUOUS
 62
    7
 10
32.531096999999932
 20
766.83404500000006
 11
32.781096999999932
 21
766.78054799999995
  0
LINE
  8
_0-0_0
  6
CONTINUOUS
 62
    7
 10
32.531096999999932
 20
767.02456699999993
 11
32.781096999999932
 21
766.78054799999995
  0
LINE
  8
_0-0_0
  6
CONTINUOUS
 62
    7
 10
32.531096999999932
 20
766.65902699999992
 11
32.781096999999932
 21
766.577179
  0
LINE
  8
_0-0_0
  6
CONTINUOUS
 62
    7
 10
32.531096999999932
 20
766.83404500000006
 11
32.781096999999932
 21
766.577179
  0
LINE
  8
_0-0_0
  6
CONTINUOUS
 62
    7
 10
32.531096999999932
 20
766.50143400000002
 11
32.781096999999932
 21
766.39215100000001
  0
LINE
  8
_0-0_0
  6
CONTINUOUS
 62
    7
 10
32.531096999999932
 20
766.65902699999992
 11
32.781096999999932
 21
766.39215100000001
  0
LINE
  8
_0-0_0
  6
CONTINUOUS
 62
    7
 10
32.531096999999932
 20
766.36300699999993
 11
32.781096999999932
 21
766.22747800000002
  0
LINE
  8
_0-0_0
  6
CONTINUOUS
 62
    7
 10
32.531096999999932
 20
766.50143400000002
 11
32.781096999999932
 21
766.22747800000002
  0
LINE
  8
_0-0_0
  6
CONTINUOUS
 62
    7
 10
32.531096999999932
 20
766.24523900000008
 11
32.781096999999932
 21
766.08496100000002
  0
LINE
  8
_0-0_0
  6
CONTINUOUS
 62
    7
 10
32.531096999999932
 20
766.36300699999993
 11
32.781096999999932
 21
766.08496100000002
  0
LINE
  8
_0-0_0
  6
CONTINUOUS
 62
    7
 10
32.531096999999932
 20
766.14944500000001
 11
32.781096999999932
 21
765.96615599999996
  0
LINE
  8
_0-0_0
  6
CONTINUOUS
 62
    7
 10
32.531096999999932
 20
766.24523900000008
 11
32.781096999999932
 21
765.96615599999996
  0
LINE
  8
_0-0_0
  6
CONTINUOUS
 62
    7
 10
32.531096999999932
 20
766.07665999999995
 11
32.781096999999932
 21
765.87237499999992
  0
LINE
  8
_0-0_0
  6
CONTINUOUS
 62
    7
 10
32.531096999999932
 20
766.14944500000001
 11
32.781096999999932
 21
765.87237499999992
  0
LINE
  8
_0-0_0
  6
CONTINUOUS
 62
    7
 10
32.531096999999932
 20
766.02771000000007
 11
32.781096999999932
 21
765.80462599999998
  0
LINE
  8
_0-0_0
  6
CONTINUOUS
 62
    7
 10
32.531096999999932
 20
766.07665999999995
 11
32.781096999999932
 21
765.80462599999998
  0
LINE
  8
_0-0_0
  6
CONTINUOUS
 62
    7
 10
32.531096999999932
 20
766.00308199999995
 11
32.781096999999932
 21
765.76370199999997
  0
LINE
  8
_0-0_0
  6
CONTINUOUS
 62
    7
 10
32.531096999999932
 20
766.02771000000007
 11
32.781096999999932
 21
765.76370199999997
  0
LINE
  8
_0-0_0
  6
CONTINUOUS
 62
    7
 10
32.531096999999932
 20
766.00308199999995
 11
32.781096999999932
 21
765.75
  0
LINE
  8
_0-0_0
  6
CONTINUOUS
 62
    7
 10
42.531096999999932
 20
770.00518799999998
 11
42.531096999999932
 21
770.25
  0
LINE
  8
_0-0_0
  6
CONTINUOUS
 62
    7
 10
42.281096999999932
 20
767.02456699999993
 11
42.031096999999932
 21
766.78054799999995
  0
LINE
  8
_0-0_0
  6
CONTINUOUS
 62
    7
 10
42.281096999999932
 20
766.83404500000006
 11
42.031096999999932
 21
766.78054799999995
  0
LINE
  8
_0-0_0
  6
CONTINUOUS
 62
    7
 10
42.281096999999932
 20
766.83404500000006
 11
42.031096999999932
 21
766.577179
  0
LINE
  8
_0-0_0
  6
CONTINUOUS
 62
    7
 10
42.281096999999932
 20
766.65902699999992
 11
42.031096999999932
 21
766.577179
  0
LINE
  8
_0-0_0
  6
CONTINUOUS
 62
    7
 10
42.281096999999932
 20
766.65902699999992
 11
42.031096999999932
 21
766.39215100000001
  0
LINE
  8
_0-0_0
  6
CONTINUOUS
 62
    7
 10
42.281096999999932
 20
766.50143400000002
 11
42.031096999999932
 21
766.39215100000001
  0
LINE
  8
_0-0_0
  6
CONTINUOUS
 62
    7
 10
42.281096999999932
 20
766.50143400000002
 11
42.031096999999932
 21
766.22747800000002
  0
LINE
  8
_0-0_0
  6
CONTINUOUS
 62
    7
 10
42.281096999999932
 20
766.36300699999993
 11
42.031096999999932
 21
766.22747800000002
  0
LINE
  8
_0-0_0
  6
CONTINUOUS
 62
    7
 10
42.281096999999932
 20
766.36300699999993
 11
42.031096999999932
 21
766.08496100000002
  0
LINE
  8
_0-0_0
  6
CONTINUOUS
 62
    7
 10
42.281096999999932
 20
766.24523900000008
 11
42.031096999999932
 21
766.08496100000002
  0
LINE
  8
_0-0_0
  6
CONTINUOUS
 62
    7
 10
42.281096999999932
 20
766.24523900000008
 11
42.031096999999932
 21
765.96615599999996
  0
LINE
  8
_0-0_0
  6
CONTINUOUS
 62
    7
 10
42.281096999999932
 20
766.14944500000001
 11
42.031096999999932
 21
765.96615599999996
  0
LINE
  8
_0-0_0
  6
CONTINUOUS
 62
    7
 10
42.281096999999932
 20
766.14944500000001
 11
42.031096999999932
 21
765.87237499999992
  0
LINE
  8
_0-0_0
  6
CONTINUOUS
 62
    7
 10
42.281096999999932
 20
766.07665999999995
 11
42.031096999999932
 21
765.87237499999992
  0
LINE
  8
_0-0_0
  6
CONTINUOUS
 62
    7
 10
42.281096999999932
 20
766.07665999999995
 11
42.031096999999932
 21
765.80462599999998
  0
LINE
  8
_0-0_0
  6
CONTINUOUS
 62
    7
 10
42.281096999999932
 20
766.02771000000007
 11
42.031096999999932
 21
765.80462599999998
  0
LINE
  8
_0-0_0
  6
CONTINUOUS
 62
    7
 10
42.281096999999932
 20
766.02771000000007
 11
42.031096999999932
 21
765.76370199999997
  0
LINE
  8
_0-0_0
  6
CONTINUOUS
 62
    7
 10
42.281096999999932
 20
766.00308199999995
 11
42.031096999999932
 21
765.76370199999997
  0
LINE
  8
_0-0_0
  6
CONTINUOUS
 62
    7
 10
42.281096999999932
 20
766.00308199999995
 11
42.031096999999932
 21
765.75
  0
LINE
  8
_0-0_0
  6
CONTINUOUS
 62
    7
 10
42.531096999999932
 20
766.25
 11
42.531096999999932
 21
770.00518799999998
  0
LINE
  8
_0-0_0
  6
CONTINUOUS
 62
    7
 10
42.031096999999932
 20
766.78054799999995
 11
32.781096999999932
 21
766.78054799999995
  0
LINE
  8
_0-0_0
  6
CONTINUOUS
 62
    7
 10
42.031096999999932
 20
766.577179
 11
32.781096999999932
 21
766.577179
  0
LINE
  8
_0-0_0
  6
CONTINUOUS
 62
    7
 10
42.031096999999932
 20
766.39215100000001
 11
32.781096999999932
 21
766.39215100000001
  0
LINE
  8
_0-0_0
  6
CONTINUOUS
 62
    7
 10
42.031096999999932
 20
766.22747800000002
 11
32.781096999999932
 21
766.22747800000002
  0
LINE
  8
_0-0_0
  6
CONTINUOUS
 62
    7
 10
42.031096999999932
 20
766.08496100000002
 11
32.781096999999932
 21
766.08496100000002
  0
LINE
  8
_0-0_0
  6
CONTINUOUS
 62
    7
 10
42.031096999999932
 20
765.96615599999996
 11
32.781096999999932
 21
765.96615599999996
  0
LINE
  8
_0-0_0
  6
CONTINUOUS
 62
    7
 10
42.031096999999932
 20
765.87237499999992
 11
32.781096999999932
 21
765.87237499999992
  0
LINE
  8
_0-0_0
  6
CONTINUOUS
 62
    7
 10
42.031096999999932
 20
765.80462599999998
 11
32.781096999999932
 21
765.80462599999998
  0
LINE
  8
_0-0_0
  6
CONTINUOUS
 62
    7
 10
42.031096999999932
 20
765.76370199999997
 11
32.781096999999932
 21
765.76370199999997
  0
LINE
  8
_0-0_0
  6
CONTINUOUS
 62
    7
 10
42.031096999999932
 20
765.75
 11
32.781096999999932
 21
765.75
  0
LINE
  8
_0-0_0
  6
CONTINUOUS
 62
    7
 10
-94.468903000000068
 20
766
 11
-96.924576000000002
 21
766
  0
LINE
  8
_0-0_0
  6
CONTINUOUS
 62
    7
 10
-96.42349200000001
 20
770.5
 11
-96.924576000000002
 21
770.5
  0
LINE
  8
_0-0_0
  6
CONTINUOUS
 62
    7
 10
-97.068893000000003
 20
766.25
 11
-96.924576000000002
 21
766
  0
LINE
  8
_0-0_0
  6
CONTINUOUS
 62
    7
 10
-97.068893000000003
 20
770.25
 11
-96.924576000000002
 21
770.5
  0
LINE
  8
_0-0_0
  6
CONTINUOUS
 62
    7
 10
6.5310969999999315
 20
749.40002400000003
 11
32.531096999999932
 21
749.40002400000003
  0
LINE
  8
_0-0_0
  6
CONTINUOUS
 62
    7
 10
6.5310969999999315
 20
753.90002400000003
 11
32.531096999999932
 21
753.90002400000003
  0
LINE
  8
_0-0_0
  6
CONTINUOUS
 62
    7
 10
32.531096999999932
 20
749.40002400000003
 11
32.781096999999932
 21
749.15002400000003
  0
LINE
  8
_0-0_0
  6
CONTINUOUS
 62
    7
 10
32.531096999999932
 20
753.90002400000003
 11
32.781096999999932
 21
754.15002400000003
  0
LINE
  8
_0-0_0
  6
CONTINUOUS
 62
    7
 10
28.531096999999932
 20
765.20001200000002
 11
27.281096999999932
 21
766.45001200000002
  0
LINE
  8
_0-0_0
  6
CONTINUOUS
 62
    7
 10
28.531096999999932
 20
754.70001200000002
 11
27.731093999999985
 21
753.89999399999999
  0
LINE
  8
_0-0_0
  6
CONTINUOUS
 62
    7
 10
42.531096999999932
 20
749.65002400000003
 11
42.031264999999962
 21
749.15014599999995
  0
LINE
  8
_0-0_0
  6
CONTINUOUS
 62
    7
 10
42.531096999999932
 20
753.65002400000003
 11
42.031264999999962
 21
754.14984099999992
  0
LINE
  8
_0-0_0
  6
CONTINUOUS
 62
    7
 10
28.531096999999932
 20
754.95001200000002
 11
28.931090999999924
 21
754.95001200000002
  0
LINE
  8
_0-0_0
  6
CONTINUOUS
 62
    7
 10
28.531096999999932
 20
764.95001200000002
 11
28.931090999999924
 21
764.95001200000002
  0
LINE
  8
_0-0_0
  6
CONTINUOUS
 62
    7
 10
29.731093999999985
 20
755.41189600000007
 11
28.931090999999924
 21
754.95001200000002
  0
LINE
  8
_0-0_0
  6
CONTINUOUS
 62
    7
 10
29.731093999999985
 20
764.48812900000007
 11
28.931090999999924
 21
764.95001200000002
  0
LINE
  8
_0-0_0
  6
CONTINUOUS
 62
    7
 10
29.731093999999985
 20
755.95001200000002
 11
87.731093999999985
 21
755.95001200000002
  0
LINE
  8
_0-0_0
  6
CONTINUOUS
 62
    7
 10
29.731093999999985
 20
763.95001200000002
 11
87.731093999999985
 21
763.95001200000002
  0
LINE
  8
_0-0_0
  6
CONTINUOUS
 62
    7
 10
12.281067000000007
 20
770.5
 11
32.531096999999932
 21
770.5
  0
LINE
  8
_0-0_0
  6
CONTINUOUS
 62
    7
 10
32.531096999999932
 20
770.5
 11
32.781096999999932
 21
770.75
  0
LINE
  8
_0-0_0
  6
CONTINUOUS
 62
    7
 10
27.731093999999985
 20
766
 11
32.531096999999932
 21
766
  0
LINE
  8
_0-0_0
  6
CONTINUOUS
 62
    7
 10
32.531096999999932
 20
766
 11
32.781096999999932
 21
765.75
  0
LINE
  8
_0-0_0
  6
CONTINUOUS
 62
    7
 10
42.531096999999932
 20
770.25
 11
42.031264999999962
 21
770.74984700000005
  0
LINE
  8
_0-0_0
  6
CONTINUOUS
 62
    7
 10
42.531096999999932
 20
766.25
 11
42.031264999999962
 21
765.75015299999995
  0
LINE
  8
_0-0_0
  6
CONTINUOUS
 62
    7
 10
1570.531189
 20
802.15002400000003
 11
1570.531189
 21
789.15002400000003
  0
LINE
  8
_0-0_0
  6
CONTINUOUS
 62
    7
 10
-102.46890300000007
 20
802.15002400000003
 11
-102.46890300000007
 21
789.15002400000003
  0
LINE
  8
_0-0_0
  6
CONTINUOUS
 62
    7
 10
-102.46890300000007
 20
802.15002400000003
 11
1570.531189
 21
802.15002400000003
  0
LINE
  8
_0-0_0
  6
CONTINUOUS
 62
    7
 10
-102.46890300000007
 20
802.15002400000003
 11
-102.46890300000007
 21
820.75
  0
LINE
  8
_0-0_0
  6
CONTINUOUS
 62
    7
 10
-102.46890300000007
 20
823.25
 11
-102.46890300000007
 21
820.75
  0
LINE
  8
_0-0_0
  6
CONTINUOUS
 62
    7
 10
-102.46890300000007
 20
823.75
 11
-102.46890300000007
 21
823.25
  0
LINE
  8
_0-0_0
  6
CONTINUOUS
 62
    7
 10
-102.46890300000007
 20
775.75
 11
-102.46890300000007
 21
775.25
  0
LINE
  8
_0-0_0
  6
CONTINUOUS
 62
    7
 10
-102.46890300000007
 20
780.75
 11
-102.46890300000007
 21
775.75
  0
LINE
  8
_0-0_0
  6
CONTINUOUS
 62
    7
 10
-102.46890300000007
 20
781.25
 11
-102.46890300000007
 21
780.75
  0
LINE
  8
_0-0_0
  6
CONTINUOUS
 62
    7
 10
-102.46890300000007
 20
781.75
 11
-102.46890300000007
 21
781.25
  0
LINE
  8
_0-0_0
  6
CONTINUOUS
 62
    7
 10
-102.46890300000007
 20
784.95001200000002
 11
-102.46890300000007
 21
781.75
  0
LINE
  8
_0-0_0
  6
CONTINUOUS
 62
    7
 10
-102.46890300000007
 20
784.95001200000002
 11
-102.46890300000007
 21
789.15002400000003
  0
LINE
  8
_0-0_0
  6
CONTINUOUS
 62
    7
 10
-102.46890300000007
 20
789.15002400000003
 11
1570.531189
 21
789.15002400000003
  0
LINE
  8
_0-0_0
  6
CONTINUOUS
 62
    7
 10
1570.531189
 20
784.95001200000002
 11
1570.531189
 21
789.15002400000003
  0
LINE
  8
_0-0_0
  6
CONTINUOUS
 62
    7
 10
1570.531189
 20
781.75
 11
1570.531189
 21
784.95001200000002
  0
LINE
  8
_0-0_0
  6
CONTINUOUS
 62
    7
 10
1570.531189
 20
781.75
 11
1570.531189
 21
781.25
  0
LINE
  8
_0-0_0
  6
CONTINUOUS
 62
    7
 10
1570.531189
 20
781.25
 11
1570.531189
 21
780.75
  0
LINE
  8
_0-0_0
  6
CONTINUOUS
 62
    7
 10
1570.531189
 20
780.75
 11
1570.531189
 21
775.75
  0
LINE
  8
_0-0_0
  6
CONTINUOUS
 62
    7
 10
1570.531189
 20
775.75
 11
1570.531189
 21
775.25
  0
LINE
  8
_0-0_0
  6
CONTINUOUS
 62
    7
 10
1570.531189
 20
823.75
 11
1570.531189
 21
823.25
  0
LINE
  8
_0-0_0
  6
CONTINUOUS
 62
    7
 10
1570.531189
 20
820.75
 11
1570.531189
 21
823.25
  0
LINE
  8
_0-0_0
  6
CONTINUOUS
 62
    7
 10
1570.531189
 20
802.15002400000003
 11
1570.531189
 21
820.75
  0
CIRCLE
  8
_0-0_0
  6
CONTINUOUS
 62
    7
 10
1534.031189
 20
811.25
 40
6
  0
CIRCLE
  8
_0-0_0
  6
CONTINUOUS
 62
    7
 10
1434.031189
 20
811.25
 40
6
  0
CIRCLE
  8
_0-0_0
  6
CONTINUOUS
 62
    7
 10
1334.031189
 20
811.25
 40
6
  0
CIRCLE
  8
_0-0_0
  6
CONTINUOUS
 62
    7
 10
1234.031189
 20
811.25
 40
6
  0
CIRCLE
  8
_0-0_0
  6
CONTINUOUS
 62
    7
 10
1134.031189
 20
811.25
 40
6
  0
CIRCLE
  8
_0-0_0
  6
CONTINUOUS
 62
    7
 10
1034.0311889999998
 20
811.25
 40
6
  0
CIRCLE
  8
_0-0_0
  6
CONTINUOUS
 62
    7
 10
934.03118899999993
 20
811.25
 40
6
  0
CIRCLE
  8
_0-0_0
  6
CONTINUOUS
 62
    7
 10
834.03106700000001
 20
811.25
 40
6
  0
CIRCLE
  8
_0-0_0
  6
CONTINUOUS
 62
    7
 10
734.03106700000001
 20
811.25
 40
6
  0
CIRCLE
  8
_0-0_0
  6
CONTINUOUS
 62
    7
 10
634.03106700000001
 20
811.25
 40
6
  0
CIRCLE
  8
_0-0_0
  6
CONTINUOUS
 62
    7
 10
534.03106699999989
 20
811.25
 40
6
  0
CIRCLE
  8
_0-0_0
  6
CONTINUOUS
 62
    7
 10
434.03106699999995
 20
811.25
 40
6
  0
CIRCLE
  8
_0-0_0
  6
CONTINUOUS
 62
    7
 10
334.03111299999995
 20
811.25
 40
6
  0
CIRCLE
  8
_0-0_0
  6
CONTINUOUS
 62
    7
 10
234.031113
 20
811.25
 40
6
  0
CIRCLE
  8
_0-0_0
  6
CONTINUOUS
 62
    7
 10
134.031113
 20
811.25
 40
6
  0
CIRCLE
  8
_0-0_0
  6
CONTINUOUS
 62
    7
 10
34.031096999999932
 20
811.25
 40
6
  0
CIRCLE
  8
_0-0_0
  6
CONTINUOUS
 62
    7
 10
-65.968903000000068
 20
811.25
 40
6
  0
LINE
  8
_0-0_0
  6
CONTINUOUS
 62
    7
 10
-102.46890300000007
 20
820.75
 11
1570.531189
 21
820.75
  0
LINE
  8
_0-0_0
  6
CONTINUOUS
 62
    7
 10
-102.46890300000007
 20
823.75
 11
1570.531189
 21
823.75
  0
LINE
  8
_0-0_0
  6
CONTINUOUS
 62
    7
 10
-102.46890300000007
 20
823.25
 11
-104.96890300000007
 21
823.25
  0
LINE
  8
_0-0_0
  6
CONTINUOUS
 62
    7
 10
-104.96890300000007
 20
823.25
 11
-104.96890300000007
 21
822.75
  0
LINE
  8
_0-0_0
  6
CONTINUOUS
 62
    7
 10
-104.96890300000007
 20
822.75
 11
-104.96890300000007
 21
782.25
  0
LINE
  8
_0-0_0
  6
CONTINUOUS
 62
    7
 10
-102.46890300000007
 20
781.75
 11
-104.96890300000007
 21
781.75
  0
LINE
  8
_0-0_0
  6
CONTINUOUS
 62
    7
 10
-104.96890300000007
 20
782.25
 11
-104.96890300000007
 21
781.75
  0
LINE
  8
_0-0_0
  6
CONTINUOUS
 62
    7
 10
-104.96890300000007
 20
781.75
 11
-104.96890300000007
 21
780.75
  0
LINE
  8
_0-0_0
  6
CONTINUOUS
 62
    7
 10
-104.96890300000007
 20
780.75
 11
-104.96890300000007
 21
776.25
  0
LINE
  8
_0-0_0
  6
CONTINUOUS
 62
    7
 10
-102.46890300000007
 20
775.75
 11
-104.96890300000007
 21
775.75
  0
LINE
  8
_0-0_0
  6
CONTINUOUS
 62
    7
 10
-104.96890300000007
 20
776.25
 11
-104.96890300000007
 21
775.75
  0
LINE
  8
_0-0_0
  6
CONTINUOUS
 62
    7
 10
-102.46890300000007
 20
775.25
 11
1570.531189
 21
775.25
  0
LINE
  8
_0-0_0
  6
CONTINUOUS
 62
    7
 10
-102.46890300000007
 20
781.25
 11
1570.531189
 21
781.25
  0
LINE
  8
_0-0_0
  6
CONTINUOUS
 62
    7
 10
-102.46890300000007
 20
784.95001200000002
 11
1570.531189
 21
784.95001200000002
  0
LINE
  8
_0-0_0
  6
CONTINUOUS
 62
    7
 10
1570.531189
 20
823.25
 11
1573.031189
 21
823.25
  0
LINE
  8
_0-0_0
  6
CONTINUOUS
 62
    7
 10
1573.031189
 20
823.25
 11
1573.031189
 21
822.75
  0
LINE
  8
_0-0_0
  6
CONTINUOUS
 62
    7
 10
1573.031189
 20
822.75
 11
1573.031189
 21
782.25
  0
LINE
  8
_0-0_0
  6
CONTINUOUS
 62
    7
 10
1570.531189
 20
781.75
 11
1573.031189
 21
781.75
  0
LINE
  8
_0-0_0
  6
CONTINUOUS
 62
    7
 10
1573.031189
 20
782.25
 11
1573.031189
 21
781.75
  0
LINE
  8
_0-0_0
  6
CONTINUOUS
 62
    7
 10
1573.031189
 20
781.75
 11
1573.031189
 21
780.75
  0
LINE
  8
_0-0_0
  6
CONTINUOUS
 62
    7
 10
1573.031189
 20
780.75
 11
1573.031189
 21
776.25
  0
LINE
  8
_0-0_0
  6
CONTINUOUS
 62
    7
 10
1570.531189
 20
775.75
 11
1573.031189
 21
775.75
  0
LINE
  8
_0-0_0
  6
CONTINUOUS
 62
    7
 10
1573.031189
 20
776.25
 11
1573.031189
 21
775.75
  0
ARC
  8
_0-0_0
  6
CONTINUOUS
 62
    7
 10
-44.968903000000068
 20
776.25
 40
0.5
 50
269.99999700000001
 51
0
  0
LINE
  8
_0-0_0
  6
CONTINUOUS
 62
    7
 10
-44.968903000000068
 20
775.75
 11
-51.968903000000068
 21
775.75
  0
ARC
  8
_0-0_0
  6
CONTINUOUS
 62
    7
 10
-51.968903000000068
 20
776.25
 40
0.5
 50
179.99999099999999
 51
269.99999700000001
  0
LINE
  8
_0-0_0
  6
CONTINUOUS
 62
    7
 10
-52.468903000000068
 20
780.25
 11
-52.468903000000068
 21
776.25
  0
ARC
  8
_0-0_0
  6
CONTINUOUS
 62
    7
 10
-51.968903000000068
 20
780.25
 40
0.5
 50
90.000003000000007
 51
179.99999099999999
  0
ARC
  8
_0-0_0
  6
CONTINUOUS
 62
    7
 10
-44.968903000000068
 20
780.25
 40
0.5
 50
0
 51
90.000003000000007
  0
LINE
  8
_0-0_0
  6
CONTINUOUS
 62
    7
 10
-51.968903000000068
 20
780.75
 11
-44.968903000000068
 21
780.75
  0
LINE
  8
_0-0_0
  6
CONTINUOUS
 62
    7
 10
1570.531189
 20
823.75
 11
1570.531189
 21
823.45001200000002
  0
LINE
  8
_0-0_0
  6
CONTINUOUS
 62
    7
 10
1570.531189
 20
823.45001200000002
 11
1570.531189
 21
823.25
  0
CIRCLE
  8
_0-0_0
  6
CONTINUOUS
 62
    7
 10
1534.031189
 20
811.25
 40
5.5
  0
CIRCLE
  8
_0-0_0
  6
CONTINUOUS
 62
    7
 10
1434.031189
 20
811.25
 40
5.5
  0
CIRCLE
  8
_0-0_0
  6
CONTINUOUS
 62
    7
 10
1334.031189
 20
811.25
 40
5.5
  0
CIRCLE
  8
_0-0_0
  6
CONTINUOUS
 62
    7
 10
1234.031189
 20
811.25
 40
5.5
  0
CIRCLE
  8
_0-0_0
  6
CONTINUOUS
 62
    7
 10
1134.031189
 20
811.25
 40
5.5
  0
CIRCLE
  8
_0-0_0
  6
CONTINUOUS
 62
    7
 10
1034.0311889999998
 20
811.25
 40
5.5
  0
CIRCLE
  8
_0-0_0
  6
CONTINUOUS
 62
    7
 10
934.03118899999993
 20
811.25
 40
5.5
  0
CIRCLE
  8
_0-0_0
  6
CONTINUOUS
 62
    7
 10
834.03106700000001
 20
811.25
 40
5.5
  0
CIRCLE
  8
_0-0_0
  6
CONTINUOUS
 62
    7
 10
734.03106700000001
 20
811.25
 40
5.5
  0
CIRCLE
  8
_0-0_0
  6
CONTINUOUS
 62
    7
 10
634.03106700000001
 20
811.25
 40
5.5
  0
CIRCLE
  8
_0-0_0
  6
CONTINUOUS
 62
    7
 10
534.03106699999989
 20
811.25
 40
5.5
  0
CIRCLE
  8
_0-0_0
  6
CONTINUOUS
 62
    7
 10
434.03106699999995
 20
811.25
 40
5.5
  0
CIRCLE
  8
_0-0_0
  6
CONTINUOUS
 62
    7
 10
334.03111299999995
 20
811.25
 40
5.5
  0
CIRCLE
  8
_0-0_0
  6
CONTINUOUS
 62
    7
 10
234.031113
 20
811.25
 40
5.5
  0
CIRCLE
  8
_0-0_0
  6
CONTINUOUS
 62
    7
 10
134.031113
 20
811.25
 40
5.5
  0
CIRCLE
  8
_0-0_0
  6
CONTINUOUS
 62
    7
 10
34.031096999999932
 20
811.25
 40
5.5
  0
CIRCLE
  8
_0-0_0
  6
CONTINUOUS
 62
    7
 10
-65.968903000000068
 20
811.25
 40
5.5
  0
LINE
  8
_0-0_0
  6
CONTINUOUS
 62
    7
 10
-44.468903000000068
 20
776.25
 11
-44.468903000000068
 21
780.25
  0
CIRCLE
  8
_0-0_0
  6
CONTINUOUS
 62
    7
 10
1534.031189
 20
811.25
 40
3.5
  0
CIRCLE
  8
_0-0_0
  6
CONTINUOUS
 62
    7
 10
1434.031189
 20
811.25
 40
3.5
  0
CIRCLE
  8
_0-0_0
  6
CONTINUOUS
 62
    7
 10
1334.031189
 20
811.25
 40
3.5
  0
CIRCLE
  8
_0-0_0
  6
CONTINUOUS
 62
    7
 10
1234.031189
 20
811.25
 40
3.5
  0
CIRCLE
  8
_0-0_0
  6
CONTINUOUS
 62
    7
 10
1134.031189
 20
811.25
 40
3.5
  0
CIRCLE
  8
_0-0_0
  6
CONTINUOUS
 62
    7
 10
1034.0311889999998
 20
811.25
 40
3.5
  0
CIRCLE
  8
_0-0_0
  6
CONTINUOUS
 62
    7
 10
934.03118899999993
 20
811.25
 40
3.5
  0
CIRCLE
  8
_0-0_0
  6
CONTINUOUS
 62
    7
 10
834.03106700000001
 20
811.25
 40
3.5
  0
CIRCLE
  8
_0-0_0
  6
CONTINUOUS
 62
    7
 10
734.03106700000001
 20
811.25
 40
3.5
  0
CIRCLE
  8
_0-0_0
  6
CONTINUOUS
 62
    7
 10
634.03106700000001
 20
811.25
 40
3.5
  0
CIRCLE
  8
_0-0_0
  6
CONTINUOUS
 62
    7
 10
534.03106699999989
 20
811.25
 40
3.5
  0
CIRCLE
  8
_0-0_0
  6
CONTINUOUS
 62
    7
 10
434.03106699999995
 20
811.25
 40
3.5
  0
CIRCLE
  8
_0-0_0
  6
CONTINUOUS
 62
    7
 10
334.03111299999995
 20
811.25
 40
3.5
  0
CIRCLE
  8
_0-0_0
  6
CONTINUOUS
 62
    7
 10
234.031113
 20
811.25
 40
3.5
  0
CIRCLE
  8
_0-0_0
  6
CONTINUOUS
 62
    7
 10
134.031113
 20
811.25
 40
3.5
  0
CIRCLE
  8
_0-0_0
  6
CONTINUOUS
 62
    7
 10
34.031096999999932
 20
811.25
 40
3.5
  0
CIRCLE
  8
_0-0_0
  6
CONTINUOUS
 62
    7
 10
-65.968903000000068
 20
811.25
 40
3.5
  0
ARC
  8
_0-0_0
  6
CONTINUOUS
 62
    7
 10
-47.168900000000008
 20
779.95001200000002
 40
0.2
 50
339.62356199999999
 51
90.000002999999978
  0
LINE
  8
_0-0_0
  6
CONTINUOUS
 62
    7
 10
-46.98141499999997
 20
779.88037099999997
 11
-48.281418000000031
 21
776.38037099999997
  0
ARC
  8
_0-0_0
  6
CONTINUOUS
 62
    7
 10
-48.468903000000068
 20
776.45001200000002
 40
0.2
 50
200.37643
 51
339.62356199999999
  0
LINE
  8
_0-0_0
  6
CONTINUOUS
 62
    7
 10
-49.95637499999998
 20
779.88037099999997
 11
-48.656386999999995
 21
776.38037099999997
  0
ARC
  8
_0-0_0
  6
CONTINUOUS
 62
    7
 10
-49.768906000000015
 20
779.95001200000002
 40
0.2
 50
90.000003000000007
 51
200.37643
  0
LINE
  8
_0-0_0
  6
CONTINUOUS
 62
    7
 10
-49.768906000000015
 20
780.15002400000003
 11
-47.168900000000008
 21
780.15002400000003
  0
ARC
  8
_0-0_0
  6
CONTINUOUS
 62
    7
 10
1490.2311399999999
 20
779.95001200000002
 40
0.2
 50
90.000003000000007
 51
200.37643
  0
LINE
  8
_0-0_0
  6
CONTINUOUS
 62
    7
 10
1490.2311399999999
 20
780.15002400000003
 11
1492.831238
 21
780.15002400000003
  0
ARC
  8
_0-0_0
  6
CONTINUOUS
 62
    7
 10
1488.031189
 20
780.25
 40
0.5
 50
90.000003000000007
 51
179.99999099999999
  0
LINE
  8
_0-0_0
  6
CONTINUOUS
 62
    7
 10
1487.531189
 20
780.25
 11
1487.531189
 21
776.25
  0
ARC
  8
_0-0_0
  6
CONTINUOUS
 62
    7
 10
1488.031189
 20
776.25
 40
0.5
 50
179.99999099999999
 51
269.99999700000001
  0
LINE
  8
_0-0_0
  6
CONTINUOUS
 62
    7
 10
1495.031189
 20
775.75
 11
1488.031189
 21
775.75
  0
ARC
  8
_0-0_0
  6
CONTINUOUS
 62
    7
 10
1495.031189
 20
776.25
 40
0.5
 50
269.99999700000001
 51
0
  0
LINE
  8
_0-0_0
  6
CONTINUOUS
 62
    7
 10
1495.531189
 20
776.25
 11
1495.531189
 21
780.25
  0
ARC
  8
_0-0_0
  6
CONTINUOUS
 62
    7
 10
1495.031189
 20
780.25
 40
0.5
 50
0
 51
90.000003000000007
  0
LINE
  8
_0-0_0
  6
CONTINUOUS
 62
    7
 10
1488.031189
 20
780.75
 11
1495.031189
 21
780.75
  0
LINE
  8
_0-0_0
  6
CONTINUOUS
 62
    7
 10
1490.043762
 20
779.88037099999997
 11
1491.343689
 21
776.38037099999997
  0
ARC
  8
_0-0_0
  6
CONTINUOUS
 62
    7
 10
1491.531189
 20
776.45001200000002
 40
0.2
 50
200.37643
 51
339.62356199999999
  0
LINE
  8
_0-0_0
  6
CONTINUOUS
 62
    7
 10
1493.0186160000001
 20
779.88037099999997
 11
1491.718689
 21
776.38037099999997
  0
ARC
  8
_0-0_0
  6
CONTINUOUS
 62
    7
 10
1492.831238
 20
779.95001200000002
 40
0.2
 50
339.62356199999999
 51
90.000002999999978
  0
LINE
  8
_0-0_0
  6
CONTINUOUS
 62
    7
 10
-160.39355500000011
 20
773.25
 11
-160.29357900000002
 21
773.25
  0
LINE
  8
_0-0_0
  6
CONTINUOUS
 62
    7
 10
-144.59355200000005
 20
773.25
 11
-145.29356400000006
 21
773.25
  0
LINE
  8
_0-0_0
  6
CONTINUOUS
 62
    7
 10
-144.59355200000005
 20
773.25
 11
-143.39355500000011
 21
773.25
  0
ARC
  8
_0-0_0
  6
CONTINUOUS
 62
    7
 10
-143.39355500000011
 20
772.75
 40
0.5
 50
0
 51
90.000003000000007
  0
ARC
  8
_0-0_0
  6
CONTINUOUS
 62
    7
 10
-144.59355200000005
 20
772.75
 40
0.5
 50
90.000003000000007
 51
179.99999099999999
  0
ARC
  8
_0-0_0
  6
CONTINUOUS
 62
    7
 10
-160.39355500000011
 20
772.75
 40
0.5
 50
90.000003000000007
 51
179.99999099999999
  0
ARC
  8
_0-0_0
  6
CONTINUOUS
 62
    7
 10
-158.89355500000011
 20
773.75
 40
0.5
 50
90.000003000000007
 51
126.868797
  0
LINE
  8
_0-0_0
  6
CONTINUOUS
 62
    7
 10
-157.39355500000011
 20
774.25
 11
-158.89355500000011
 21
774.25
  0
ARC
  8
_0-0_0
  6
CONTINUOUS
 62
    7
 10
-157.39355500000011
 20
775.25
 40
1
 50
269.99999700000001
 51
0
  0
LINE
  8
_0-0_0
  6
CONTINUOUS
 62
    7
 10
-156.39355500000011
 20
775.75
 11
-156.39355500000011
 21
775.25
  0
LINE
  8
_0-0_0
  6
CONTINUOUS
 62
    7
 10
-155.89355500000011
 20
775.75
 11
-155.89355500000011
 21
774.75
  0
ARC
  8
_0-0_0
  6
CONTINUOUS
 62
    7
 10
-157.39355500000011
 20
774.75
 40
1.5
 50
336.42205899999999
 51
0
  0
ARC
  8
_0-0_0
  6
CONTINUOUS
 62
    7
 10
-145.79354899999998
 20
774.75
 40
1.5
 50
179.99999099999999
 51
203.57793100000001
  0
LINE
  8
_0-0_0
  6
CONTINUOUS
 62
    7
 10
-143.79354899999998
 20
773.75
 11
-143.79354899999998
 21
773.25
  0
ARC
  8
_0-0_0
  6
CONTINUOUS
 62
    7
 10
-144.29354899999998
 20
773.75
 40
0.5
 50
0
 51
90.000003000000007
  0
LINE
  8
_0-0_0
  6
CONTINUOUS
 62
    7
 10
-145.79354899999998
 20
774.25
 11
-144.29354899999998
 21
774.25
  0
ARC
  8
_0-0_0
  6
CONTINUOUS
 62
    7
 10
-145.79354899999998
 20
775.25
 40
1
 50
179.99999099999999
 51
269.99999700000001
  0
LINE
  8
_0-0_0
  6
CONTINUOUS
 62
    7
 10
-146.79354899999998
 20
775.75
 11
-146.79354899999998
 21
775.25
  0
LINE
  8
_0-0_0
  6
CONTINUOUS
 62
    7
 10
-147.29357900000002
 20
775.75
 11
-147.29357900000002
 21
774.75
  0
LINE
  8
_0-0_0
  6
CONTINUOUS
 62
    7
 10
-142.89355500000011
 20
746.25
 11
-142.89355500000011
 21
747.15002400000003
  0
LINE
  8
_0-0_0
  6
CONTINUOUS
 62
    7
 10
-142.89355500000011
 20
747.15002400000003
 11
-142.89355500000011
 21
749.65002400000003
  0
LINE
  8
_0-0_0
  6
CONTINUOUS
 62
    7
 10
-142.89355500000011
 20
749.65002400000003
 11
-142.89355500000011
 21
770.25
  0
LINE
  8
_0-0_0
  6
CONTINUOUS
 62
    7
 10
-142.89355500000011
 20
770.25
 11
-142.89355500000011
 21
772.75
  0
LINE
  8
_0-0_0
  6
CONTINUOUS
 62
    7
 10
-145.09355200000005
 20
772.75
 11
-145.09355200000005
 21
771.50500499999998
  0
LINE
  8
_0-0_0
  6
CONTINUOUS
 62
    7
 10
-147.49352999999996
 20
774.15002400000003
 11
-147.49352999999996
 21
775.55001800000002
  0
ARC
  8
_0-0_0
  6
CONTINUOUS
 62
    7
 10
-147.99352999999996
 20
775.55001800000002
 40
0.5
 50
0
 51
23.579369
  0
LINE
  8
_0-0_0
  6
CONTINUOUS
 62
    7
 10
-155.69354300000009
 20
774.15002400000003
 11
-155.69354300000009
 21
775.55001800000002
  0
ARC
  8
_0-0_0
  6
CONTINUOUS
 62
    7
 10
-155.19354300000009
 20
775.55001800000002
 40
0.5
 50
156.420635
 51
179.99999099999999
  0
LINE
  8
_0-0_0
  6
CONTINUOUS
 62
    7
 10
-160.89355500000011
 20
746.25
 11
-160.89355500000011
 21
756.45001200000002
  0
LINE
  8
_0-0_0
  6
CONTINUOUS
 62
    7
 10
-160.89355500000011
 20
756.45001200000002
 11
-160.89355500000011
 21
757.45001200000002
  0
LINE
  8
_0-0_0
  6
CONTINUOUS
 62
    7
 10
-160.89355500000011
 20
757.45001200000002
 11
-160.89355500000011
 21
762.45001200000002
  0
LINE
  8
_0-0_0
  6
CONTINUOUS
 62
    7
 10
-160.89355500000011
 20
762.45001200000002
 11
-160.89355500000011
 21
763.45001200000002
  0
LINE
  8
_0-0_0
  6
CONTINUOUS
 62
    7
 10
-160.89355500000011
 20
772.75
 11
-160.89355500000011
 21
763.45001200000002
  0
ARC
  8
_0-0_0
  6
CONTINUOUS
 62
    7
 10
-159.79357900000002
 20
762.45001200000002
 40
0.5
 50
0
 51
90.000003000000007
  0
LINE
  8
_0-0_0
  6
CONTINUOUS
 62
    7
 10
-159.69354300000009
 20
763.40002400000003
 11
-159.79357900000002
 21
763.40002400000003
  0
ARC
  8
_0-0_0
  6
CONTINUOUS
 62
    7
 10
-159.69354300000009
 20
762.90002400000003
 40
0.5
 50
0
 51
90.000003000000007
  0
LINE
  8
_0-0_0
  6
CONTINUOUS
 62
    7
 10
-159.29357900000002
 20
762.45001200000002
 11
-159.29357900000002
 21
757.45001200000002
  0
ARC
  8
_0-0_0
  6
CONTINUOUS
 62
    7
 10
-159.79357900000002
 20
757.45001200000002
 40
0.5
 50
269.99999700000001
 51
0
  0
ARC
  8
_0-0_0
  6
CONTINUOUS
 62
    7
 10
-159.69354300000009
 20
757.35000600000001
 40
0.5
 50
269.99999700000001
 51
0
  0
LINE
  8
_0-0_0
  6
CONTINUOUS
 62
    7
 10
-159.79357900000002
 20
756.85000600000001
 11
-159.69354300000009
 21
756.85000600000001
  0
LINE
  8
_0-0_0
  6
CONTINUOUS
 62
    7
 10
-142.09355200000005
 20
771.75
 11
-142.89355500000011
 21
771.75
  0
LINE
  8
_0-0_0
  6
CONTINUOUS
 62
    7
 10
-142.09355200000005
 20
772.55001800000002
 11
-142.89355500000011
 21
772.55001800000002
  0
LINE
  8
_0-0_0
  6
CONTINUOUS
 62
    7
 10
-142.09355200000005
 20
771.55001800000002
 11
-142.09355200000005
 21
772.55001800000002
  0
LINE
  8
_0-0_0
  6
CONTINUOUS
 62
    7
 10
-142.09355200000005
 20
752.95001200000002
 11
-142.89355500000011
 21
752.95001200000002
  0
LINE
  8
_0-0_0
  6
CONTINUOUS
 62
    7
 10
-142.09355200000005
 20
752.95001200000002
 11
-142.09355200000005
 21
755.95001200000002
  0
LINE
  8
_0-0_0
  6
CONTINUOUS
 62
    7
 10
-142.09355200000005
 20
768.18771400000003
 11
-142.09355200000005
 21
755.95001200000002
  0
LINE
  8
_0-0_0
  6
CONTINUOUS
 62
    7
 10
-142.09355200000005
 20
768.18771400000003
 11
-142.09355200000005
 21
769.15048200000001
  0
LINE
  8
_0-0_0
  6
CONTINUOUS
 62
    7
 10
-142.89355500000011
 20
769.15048200000001
 11
-142.89355500000011
 21
771.75
  0
ARC
  8
_0-0_0
  6
CONTINUOUS
 62
    7
 10
-148.50848400000007
 20
768.43206800000007
 40
5.7120379999999997
 50
18.558475999999999
 51
26.433648000000002
  0
ARC
  8
_0-0_0
  6
CONTINUOUS
 62
    7
 10
-143.09355200000005
 20
770.25
 40
0.2
 50
269.99999700000001
 51
0
  0
ARC
  8
_0-0_0
  6
CONTINUOUS
 62
    7
 10
-143.09355200000005
 20
749.65002400000003
 40
0.2
 50
0
 51
90.000003000000007
  0
ARC
  8
_0-0_0
  6
CONTINUOUS
 62
    7
 10
-148.50836200000003
 20
751.46804799999995
 40
5.711964
 50
333.565022
 51
341.44031000000001
  0
ARC
  8
_0-0_0
  6
CONTINUOUS
 62
    7
 10
-143.39355500000011
 20
747.15002400000003
 40
0.5
 50
269.99999700000001
 51
0
  0
LINE
  8
_0-0_0
  6
CONTINUOUS
 62
    7
 10
-143.39355500000011
 20
746.25
 11
-142.89355500000011
 21
746.25
  0
LINE
  8
_0-0_0
  6
CONTINUOUS
 62
    7
 10
-142.89355500000011
 20
746.25
 11
-143.39355500000011
 21
745.75
  0
ARC
  8
_0-0_0
  6
CONTINUOUS
 62
    7
 10
-145.09355200000005
 20
768.75
 40
2.2999999999999998
 50
34.417387999999995
 51
79.713437000000013
  0
LINE
  8
_0-0_0
  6
CONTINUOUS
 62
    7
 10
-143.15486099999998
 20
770.05001800000002
 11
-143.19618200000002
 21
770.05001800000002
  0
LINE
  8
_0-0_0
  6
CONTINUOUS
 62
    7
 10
-143.15486099999998
 20
770.05001800000002
 11
-143.145309
 21
770.05102499999998
  0
LINE
  8
_0-0_0
  6
CONTINUOUS
 62
    7
 10
-143.145309
 20
770.05102499999998
 11
-143.13581900000008
 21
770.05422999999996
  0
LINE
  8
_0-0_0
  6
CONTINUOUS
 62
    7
 10
-143.13581900000008
 20
770.05422999999996
 11
-143.12657200000001
 21
770.05963100000008
  0
LINE
  8
_0-0_0
  6
CONTINUOUS
 62
    7
 10
-143.12657200000001
 20
770.05963100000008
 11
-143.11776700000007
 21
770.067139
  0
LINE
  8
_0-0_0
  6
CONTINUOUS
 62
    7
 10
-143.11776700000007
 20
770.067139
 11
-143.10237100000006
 21
770.08776899999998
  0
LINE
  8
_0-0_0
  6
CONTINUOUS
 62
    7
 10
-143.10237100000006
 20
770.08776899999998
 11
-143.09059100000002
 21
770.11505099999999
  0
LINE
  8
_0-0_0
  6
CONTINUOUS
 62
    7
 10
-143.09059100000002
 20
770.11505099999999
 11
-143.08340500000008
 21
770.14718599999992
  0
LINE
  8
_0-0_0
  6
CONTINUOUS
 62
    7
 10
-143.08340500000008
 20
770.14718599999992
 11
-143.08151199999998
 21
770.18225099999995
  0
LINE
  8
_0-0_0
  6
CONTINUOUS
 62
    7
 10
-143.08151199999998
 20
770.18225099999995
 11
-143.085373
 21
770.21841399999994
  0
LINE
  8
_0-0_0
  6
CONTINUOUS
 62
    7
 10
-143.085373
 20
770.21841399999994
 11
-143.09355200000005
 21
770.25
  0
ARC
  8
_0-0_0
  6
CONTINUOUS
 62
    7
 10
-144.59355200000005
 20
771.50500499999998
 40
0.5
 50
179.99999099999999
 51
259.71343899999994
  0
LINE
  8
_0-0_0
  6
CONTINUOUS
 62
    7
 10
-145.29354899999998
 20
771.60000600000001
 11
-145.29354899999998
 21
771.30657999999994
  0
LINE
  8
_0-0_0
  6
CONTINUOUS
 62
    7
 10
-145.29354899999998
 20
771.60000600000001
 11
-145.29354899999998
 21
773.65002400000003
  0
ARC
  8
_0-0_0
  6
CONTINUOUS
 62
    7
 10
-145.79354899999998
 20
773.65002400000003
 40
0.5
 50
0
 51
90.000003000000007
  0
LINE
  8
_0-0_0
  6
CONTINUOUS
 62
    7
 10
-145.79354899999998
 20
774.15002400000003
 11
-148.53643800000009
 21
774.15002400000003
  0
ARC
  8
_0-0_0
  6
CONTINUOUS
 62
    7
 10
-159.79357900000002
 20
763.90002400000003
 40
0.5
 50
179.99999099999999
 51
269.99999700000001
  0
LINE
  8
_0-0_0
  6
CONTINUOUS
 62
    7
 10
-160.29357900000002
 20
773.65002400000003
 11
-160.29357900000002
 21
763.90002400000003
  0
LINE
  8
_0-0_0
  6
CONTINUOUS
 62
    7
 10
-154.65063499999997
 20
774.15002400000003
 11
-159.79357900000002
 21
774.15002400000003
  0
ARC
  8
_0-0_0
  6
CONTINUOUS
 62
    7
 10
-159.79357900000002
 20
773.65002400000003
 40
0.5
 50
90.000003000000007
 51
179.99999099999999
  0
LINE
  8
_0-0_0
  6
CONTINUOUS
 62
    7
 10
-161.09356700000012
 20
771.75
 11
-160.89355500000011
 21
771.75
  0
LINE
  8
_0-0_0
  6
CONTINUOUS
 62
    7
 10
-161.09356700000012
 20
772.55001800000002
 11
-160.89355500000011
 21
772.55001800000002
  0
LINE
  8
_0-0_0
  6
CONTINUOUS
 62
    7
 10
-161.09356700000012
 20
772.55001800000002
 11
-161.09356700000012
 21
771.75012199999992
  0
LINE
  8
_0-0_0
  6
CONTINUOUS
 62
    7
 10
-161.09356700000012
 20
752.95001200000002
 11
-160.89355500000011
 21
752.95001200000002
  0
LINE
  8
_0-0_0
  6
CONTINUOUS
 62
    7
 10
-161.09356700000012
 20
755.95001200000002
 11
-161.09356700000012
 21
752.95001200000002
  0
LINE
  8
_0-0_0
  6
CONTINUOUS
 62
    7
 10
-161.09356700000012
 20
768.18771400000003
 11
-161.09356700000012
 21
755.95001200000002
  0
LINE
  8
_0-0_0
  6
CONTINUOUS
 62
    7
 10
-161.09356700000012
 20
769.15048200000001
 11
-161.09356700000012
 21
768.18771400000003
  0
ARC
  8
_0-0_0
  6
CONTINUOUS
 62
    7
 10
-160.39355500000011
 20
762.45001200000002
 40
0.5
 50
90.000003000000007
 51
179.99999099999999
  0
ARC
  8
_0-0_0
  6
CONTINUOUS
 62
    7
 10
-160.39355500000011
 20
757.45001200000002
 40
0.5
 50
179.99999099999999
 51
269.99999700000001
  0
LINE
  8
_0-0_0
  6
CONTINUOUS
 62
    7
 10
-160.89355500000011
 20
746.25
 11
-160.39355500000011
 21
746.25
  0
LINE
  8
_0-0_0
  6
CONTINUOUS
 62
    7
 10
-160.89355500000011
 20
746.25
 11
-160.39355500000011
 21
745.75
  0
LINE
  8
_0-0_0
  6
CONTINUOUS
 62
    7
 10
-159.79357900000002
 20
762.95001200000002
 11
-160.39355500000011
 21
762.95001200000002
  0
LINE
  8
_0-0_0
  6
CONTINUOUS
 62
    7
 10
-159.19354300000009
 20
762.90002400000003
 11
-159.19354300000009
 21
757.35000600000001
  0
LINE
  8
_0-0_0
  6
CONTINUOUS
 62
    7
 10
-143.39355500000011
 20
746.25
 11
-160.39355500000011
 21
746.25
  0
LINE
  8
_0-0_0
  6
CONTINUOUS
 62
    7
 10
-160.39355500000011
 20
756.95001200000002
 11
-159.79357900000002
 21
756.95001200000002
  0
ARC
  8
_0-0_0
  6
CONTINUOUS
 62
    7
 10
-159.79357900000002
 20
756.35000600000001
 40
0.5
 50
90.000003000000007
 51
179.99999099999999
  0
LINE
  8
_0-0_0
  6
CONTINUOUS
 62
    7
 10
-142.09355200000005
 20
769.15048200000001
 11
-142.09355200000005
 21
771.75
  0
LINE
  8
_0-0_0
  6
CONTINUOUS
 62
    7
 10
-143.09355200000005
 20
770.05001800000002
 11
-143.15486099999998
 21
770.05001800000002
  0
LINE
  8
_0-0_0
  6
CONTINUOUS
 62
    7
 10
-143.19618200000002
 20
770.05001800000002
 11
-143.19841000000008
 21
770.05001800000002
  0
LINE
  8
_0-0_0
  6
CONTINUOUS
 62
    7
 10
-143.33007800000007
 20
750.05001800000002
 11
-143.29316700000004
 21
749.97976700000004
  0
LINE
  8
_0-0_0
  6
CONTINUOUS
 62
    7
 10
-143.29316700000004
 20
749.97976700000004
 11
-143.27356000000009
 21
749.94531299999994
  0
LINE
  8
_0-0_0
  6
CONTINUOUS
 62
    7
 10
-143.27356000000009
 20
749.94531299999994
 11
-143.24746700000003
 21
749.90344200000004
  0
LINE
  8
_0-0_0
  6
CONTINUOUS
 62
    7
 10
-143.24746700000003
 20
749.90344200000004
 11
-143.23416100000009
 21
749.88439900000003
  0
LINE
  8
_0-0_0
  6
CONTINUOUS
 62
    7
 10
-143.23416100000009
 20
749.88439900000003
 11
-143.21580500000005
 21
749.86203
  0
LINE
  8
_0-0_0
  6
CONTINUOUS
 62
    7
 10
-143.21580500000005
 20
749.86203
 11
-143.20301800000004
 21
749.85140999999999
  0
LINE
  8
_0-0_0
  6
CONTINUOUS
 62
    7
 10
-143.20301800000004
 20
749.85140999999999
 11
-143.19841000000008
 21
749.85000600000001
  0
LINE
  8
_0-0_0
  6
CONTINUOUS
 62
    7
 10
-143.19618200000002
 20
749.85000600000001
 11
-143.19841000000008
 21
749.85000600000001
  0
LINE
  8
_0-0_0
  6
CONTINUOUS
 62
    7
 10
-143.33007800000007
 20
769.85000600000001
 11
-143.29316700000004
 21
769.92022700000007
  0
LINE
  8
_0-0_0
  6
CONTINUOUS
 62
    7
 10
-143.29316700000004
 20
769.92022700000007
 11
-143.27356000000009
 21
769.95471199999997
  0
LINE
  8
_0-0_0
  6
CONTINUOUS
 62
    7
 10
-143.27356000000009
 20
769.95471199999997
 11
-143.24746700000003
 21
769.99655200000007
  0
LINE
  8
_0-0_0
  6
CONTINUOUS
 62
    7
 10
-143.24746700000003
 20
769.99655200000007
 11
-143.23416100000009
 21
770.01559399999996
  0
LINE
  8
_0-0_0
  6
CONTINUOUS
 62
    7
 10
-143.23416100000009
 20
770.01559399999996
 11
-143.21580500000005
 21
770.03799400000003
  0
LINE
  8
_0-0_0
  6
CONTINUOUS
 62
    7
 10
-143.21580500000005
 20
770.03799400000003
 11
-143.20301800000004
 21
770.04861499999993
  0
LINE
  8
_0-0_0
  6
CONTINUOUS
 62
    7
 10
-143.20301800000004
 20
770.04861499999993
 11
-143.19841000000008
 21
770.05001800000002
  0
LINE
  8
_0-0_0
  6
CONTINUOUS
 62
    7
 10
-143.19618200000002
 20
749.85000600000001
 11
-143.15486099999998
 21
749.85000600000001
  0
LINE
  8
_0-0_0
  6
CONTINUOUS
 62
    7
 10
-143.09355200000005
 20
749.85000600000001
 11
-143.15486099999998
 21
749.85000600000001
  0
LINE
  8
_0-0_0
  6
CONTINUOUS
 62
    7
 10
-143.15486099999998
 20
749.85000600000001
 11
-143.145309
 21
749.84896900000001
  0
LINE
  8
_0-0_0
  6
CONTINUOUS
 62
    7
 10
-143.145309
 20
749.84896900000001
 11
-143.13581900000008
 21
749.84576399999992
  0
LINE
  8
_0-0_0
  6
CONTINUOUS
 62
    7
 10
-143.13581900000008
 20
749.84576399999992
 11
-143.12657200000001
 21
749.84039299999995
  0
LINE
  8
_0-0_0
  6
CONTINUOUS
 62
    7
 10
-143.12657200000001
 20
749.84039299999995
 11
-143.11776700000007
 21
749.83288599999992
  0
LINE
  8
_0-0_0
  6
CONTINUOUS
 62
    7
 10
-143.11776700000007
 20
749.83288599999992
 11
-143.10237100000006
 21
749.81225599999993
  0
LINE
  8
_0-0_0
  6
CONTINUOUS
 62
    7
 10
-143.10237100000006
 20
749.81225599999993
 11
-143.09059100000002
 21
749.78497300000004
  0
LINE
  8
_0-0_0
  6
CONTINUOUS
 62
    7
 10
-143.09059100000002
 20
749.78497300000004
 11
-143.08340500000008
 21
749.752838
  0
LINE
  8
_0-0_0
  6
CONTINUOUS
 62
    7
 10
-143.08340500000008
 20
749.752838
 11
-143.08151199999998
 21
749.71777300000008
  0
LINE
  8
_0-0_0
  6
CONTINUOUS
 62
    7
 10
-143.08151199999998
 20
749.71777300000008
 11
-143.085373
 21
749.68160999999998
  0
LINE
  8
_0-0_0
  6
CONTINUOUS
 62
    7
 10
-143.085373
 20
749.68160999999998
 11
-143.09355200000005
 21
749.65002400000003
  0
ARC
  8
_0-0_0
  6
CONTINUOUS
 62
    7
 10
-145.09355200000005
 20
751.15002400000003
 40
2.2999999999999998
 50
280.28656300000006
 51
325.58260500000006
  0
LINE
  8
_0-0_0
  6
CONTINUOUS
 62
    7
 10
-143.39355500000011
 20
746.65002400000003
 11
-144.59355200000005
 21
746.65002400000003
  0
LINE
  8
_0-0_0
  6
CONTINUOUS
 62
    7
 10
-143.39355500000011
 20
745.75
 11
-160.39355500000011
 21
745.75
  0
LINE
  8
_0-0_0
  6
CONTINUOUS
 62
    7
 10
-145.29354899999998
 20
771.30657999999994
 11
-145.29328900000007
 21
771.29016100000001
  0
ARC
  8
_0-0_0
  6
CONTINUOUS
 62
    7
 10
-144.79354899999998
 20
771.30657999999994
 40
0.5
 50
181.88290099999998
 51
260.07179799999994
  0
LINE
  8
_0-0_0
  6
CONTINUOUS
 62
    7
 10
-145.79354899999998
 20
772.09429899999998
 11
-145.59355200000005
 21
771.89999399999999
  0
LINE
  8
_0-0_0
  6
CONTINUOUS
 62
    7
 10
-145.59355200000005
 20
771.89999399999999
 11
-145.29354899999998
 21
771.60000600000001
  0
LINE
  8
_0-0_0
  6
CONTINUOUS
 62
    7
 10
-145.29354899999998
 20
771.60000600000001
 11
-145.59355200000005
 21
771.60000600000001
  0
ARC
  8
_0-0_0
  6
CONTINUOUS
 62
    7
 10
-148.53643800000009
 20
774.65002400000003
 40
0.5
 50
225
 51
269.99999700000001
  0
ARC
  8
_0-0_0
  6
CONTINUOUS
 62
    7
 10
-154.65063499999997
 20
774.65002400000003
 40
0.5
 50
269.99999700000001
 51
314.99999200000002
  0
LINE
  8
_0-0_0
  6
CONTINUOUS
 62
    7
 10
-161.09356700000012
 20
771.75
 11
-161.09356700000012
 21
769.15048200000001
  0
LINE
  8
_0-0_0
  6
CONTINUOUS
 62
    7
 10
-142.89355500000011
 20
772.55004899999994
 11
-142.89355500000011
 21
772.75
  0
CIRCLE
  8
_0-0_0
  6
CONTINUOUS
 62
    7
 10
-151.59356700000012
 20
771.75
 40
2.25
  0
ARC
  8
_0-0_0
  6
CONTINUOUS
 62
    7
 10
-151.59356700000012
 20
751.65002400000003
 40
1.75
 50
179.99999099999999
 51
359.99998299999993
  0
LINE
  8
_0-0_0
  6
CONTINUOUS
 62
    7
 10
-153.34356700000012
 20
751.90002400000003
 11
-153.34356700000012
 21
751.65002400000003
  0
ARC
  8
_0-0_0
  6
CONTINUOUS
 62
    7
 10
-151.59356700000012
 20
751.90002400000003
 40
1.75
 50
0
 51
179.99999099999999
  0
LINE
  8
_0-0_0
  6
CONTINUOUS
 62
    7
 10
-149.84356700000012
 20
751.65002400000003
 11
-149.84356700000012
 21
751.90002400000003
  0
ARC
  8
_0-0_0
  6
CONTINUOUS
 62
    7
 10
-145.89355500000011
 20
751.95001200000002
 40
3
 50
269.99999700000001
 51
0
  0
LINE
  8
_0-0_0
  6
CONTINUOUS
 62
    7
 10
-160.29357900000002
 20
756.35000600000001
 11
-160.29357900000002
 21
755.5
  0
LINE
  8
_0-0_0
  6
CONTINUOUS
 62
    7
 10
-160.29357900000002
 20
749.45001200000002
 11
-160.29357900000002
 21
755.5
  0
ARC
  8
_0-0_0
  6
CONTINUOUS
 62
    7
 10
-145.29354899999998
 20
768.45001200000002
 40
2.3999999999999999
 50
0
 51
80.071809999999985
  0
LINE
  8
_0-0_0
  6
CONTINUOUS
 62
    7
 10
-142.89355500000011
 20
751.95001200000002
 11
-142.89355500000011
 21
764.75
  0
LINE
  8
_0-0_0
  6
CONTINUOUS
 62
    7
 10
-142.89355500000011
 20
764.75
 11
-142.89355500000011
 21
768.45001200000002
  0
ARC
  8
_0-0_0
  6
CONTINUOUS
 62
    7
 10
-144.59355200000005
 20
748.39501999999993
 40
0.5
 50
100.28656100000001
 51
179.99999099999999
  0
LINE
  8
_0-0_0
  6
CONTINUOUS
 62
    7
 10
-145.09355200000005
 20
747.15002400000003
 11
-145.09355200000005
 21
748.39501999999993
  0
ARC
  8
_0-0_0
  6
CONTINUOUS
 62
    7
 10
-144.59355200000005
 20
747.15002400000003
 40
0.5
 50
179.99999099999999
 51
269.99999700000001
  0
LINE
  8
_0-0_0
  6
CONTINUOUS
 62
    7
 10
-154.29711900000007
 20
774.29644800000005
 11
-154.23999000000003
 21
774.35357699999997
  0
ARC
  8
_0-0_0
  6
CONTINUOUS
 62
    7
 10
-153.88647500000002
 20
774
 40
0.5
 50
90.000003000000007
 51
135
  0
LINE
  8
_0-0_0
  6
CONTINUOUS
 62
    7
 10
-149.300659
 20
774.5
 11
-153.88647500000002
 21
774.5
  0
ARC
  8
_0-0_0
  6
CONTINUOUS
 62
    7
 10
-149.300659
 20
774
 40
0.5
 50
45.00000099999999
 51
90.000002999999992
  0
LINE
  8
_0-0_0
  6
CONTINUOUS
 62
    7
 10
-148.89001500000006
 20
774.29644800000005
 11
-148.94708300000002
 21
774.35357699999997
  0
ARC
  8
_0-0_0
  6
CONTINUOUS
 62
    7
 10
-145.59355200000005
 20
768.60000600000001
 40
3
 50
90.000003000000007
 51
179.99999099999999
  0
LINE
  8
_0-0_0
  6
CONTINUOUS
 62
    7
 10
-157.59356700000012
 20
755
 11
-159.79357900000002
 21
755
  0
ARC
  8
_0-0_0
  6
CONTINUOUS
 62
    7
 10
-157.59356700000012
 20
752
 40
3
 50
0
 51
90.000003000000007
  0
LINE
  8
_0-0_0
  6
CONTINUOUS
 62
    7
 10
-154.59356700000012
 20
752
 11
-154.59356700000012
 21
749.45001200000002
  0
LINE
  8
_0-0_0
  6
CONTINUOUS
 62
    7
 10
-154.09356700000012
 20
748.95001200000002
 11
-145.89355500000011
 21
748.95001200000002
  0
LINE
  8
_0-0_0
  6
CONTINUOUS
 62
    7
 10
-145.59355200000005
 20
765.25
 11
-143.39355500000011
 21
765.25
  0
ARC
  8
_0-0_0
  6
CONTINUOUS
 62
    7
 10
-145.59355200000005
 20
768.25
 40
3
 50
179.99999099999999
 51
269.99999700000001
  0
LINE
  8
_0-0_0
  6
CONTINUOUS
 62
    7
 10
-148.59356700000012
 20
768.25
 11
-148.59356700000012
 21
768.60000600000001
  0
CIRCLE
  8
_0-0_0
  6
CONTINUOUS
 62
    7
 10
-151.59356700000012
 20
771.75
 40
2.0499999999999998
  0
ARC
  8
_0-0_0
  6
CONTINUOUS
 62
    7
 10
-151.59356700000012
 20
751.65002400000003
 40
1.55
 50
179.99999099999999
 51
0
  0
LINE
  8
_0-0_0
  6
CONTINUOUS
 62
    7
 10
-153.14355500000011
 20
751.90002400000003
 11
-153.14355500000011
 21
751.65002400000003
  0
ARC
  8
_0-0_0
  6
CONTINUOUS
 62
    7
 10
-151.59356700000012
 20
751.90002400000003
 40
1.55
 50
0
 51
179.99999099999999
  0
LINE
  8
_0-0_0
  6
CONTINUOUS
 62
    7
 10
-150.04357900000002
 20
751.65002400000003
 11
-150.04357900000002
 21
751.90002400000003
  0
LINE
  8
_0-0_0
  6
CONTINUOUS
 62
    7
 10
-159.79357900000002
 20
748.95001200000002
 11
-154.09356700000012
 21
748.95001200000002
  0
ARC
  8
_0-0_0
  6
CONTINUOUS
 62
    7
 10
-159.79357900000002
 20
749.45001200000002
 40
0.5
 50
179.99999099999999
 51
269.99999700000001
  0
ARC
  8
_0-0_0
  6
CONTINUOUS
 62
    7
 10
-159.79357900000002
 20
755.5
 40
0.5
 50
179.99999099999999
 51
269.99999700000001
  0
ARC
  8
_0-0_0
  6
CONTINUOUS
 62
    7
 10
-143.39355500000011
 20
764.75
 40
0.5
 50
0
 51
90.000003000000007
  0
ARC
  8
_0-0_0
  6
CONTINUOUS
 62
    7
 10
-154.09356700000012
 20
749.45001200000002
 40
0.5
 50
179.99999099999999
 51
269.99999700000001
  0
CIRCLE
  8
_0-0_0
  6
CONTINUOUS
 62
    7
 10
-145.59355200000005
 20
768.25
 40
2.25
  0
CIRCLE
  8
_0-0_0
  6
CONTINUOUS
 62
    7
 10
-157.59356700000012
 20
751.65002400000003
 40
2.25
  0
CIRCLE
  8
_0-0_0
  6
CONTINUOUS
 62
    7
 10
-145.59355200000005
 20
768.25
 40
2
  0
CIRCLE
  8
_0-0_0
  6
CONTINUOUS
 62
    7
 10
-157.59356700000012
 20
751.65002400000003
 40
2
  0
LINE
  8
_0-0_0
  6
CONTINUOUS
 62
    7
 10
-146.74354600000004
 20
768.25
 11
-146.175659
 21
769.25
  0
LINE
  8
_0-0_0
  6
CONTINUOUS
 62
    7
 10
-146.175659
 20
767.25
 11
-146.74354600000004
 21
768.25
  0
LINE
  8
_0-0_0
  6
CONTINUOUS
 62
    7
 10
-145.01144399999998
 20
767.25
 11
-146.175659
 21
767.25
  0
LINE
  8
_0-0_0
  6
CONTINUOUS
 62
    7
 10
-144.44355800000005
 20
768.25
 11
-145.01144399999998
 21
767.25
  0
LINE
  8
_0-0_0
  6
CONTINUOUS
 62
    7
 10
-145.01144399999998
 20
769.25
 11
-144.44355800000005
 21
768.25
  0
LINE
  8
_0-0_0
  6
CONTINUOUS
 62
    7
 10
-146.175659
 20
769.25
 11
-145.01144399999998
 21
769.25
  0
LINE
  8
_0-0_0
  6
CONTINUOUS
 62
    7
 10
-158.74352999999996
 20
751.65002400000003
 11
-158.175659
 21
752.65002400000003
  0
LINE
  8
_0-0_0
  6
CONTINUOUS
 62
    7
 10
-158.175659
 20
750.65002400000003
 11
-158.74352999999996
 21
751.65002400000003
  0
LINE
  8
_0-0_0
  6
CONTINUOUS
 62
    7
 10
-157.01141400000006
 20
750.65002400000003
 11
-158.175659
 21
750.65002400000003
  0
LINE
  8
_0-0_0
  6
CONTINUOUS
 62
    7
 10
-156.44354300000009
 20
751.65002400000003
 11
-157.01141400000006
 21
750.65002400000003
  0
LINE
  8
_0-0_0
  6
CONTINUOUS
 62
    7
 10
-157.01141400000006
 20
752.65002400000003
 11
-156.44354300000009
 21
751.65002400000003
  0
LINE
  8
_0-0_0
  6
CONTINUOUS
 62
    7
 10
-158.175659
 20
752.65002400000003
 11
-157.01141400000006
 21
752.65002400000003
  0
LINE
  8
_0-0_0
  6
CONTINUOUS
 62
    7
 10
-142.89355500000011
 20
769.05032299999993
 11
-142.89355500000011
 21
769.05630500000007
  0
LINE
  8
_0-0_0
  6
CONTINUOUS
 62
    7
 10
-142.89355500000011
 20
770.25
 11
-142.89392100000009
 21
770.23791499999993
  0
LINE
  8
_0-0_0
  6
CONTINUOUS
 62
    7
 10
-142.89392100000009
 20
749.66210899999999
 11
-142.89355500000011
 21
749.65002400000003
  0
LINE
  8
_0-0_0
  6
CONTINUOUS
 62
    7
 10
-142.894272
 20
764.77673299999992
 11
-142.89355500000011
 21
764.75
  0
LINE
  8
_0-0_0
  6
CONTINUOUS
 62
    7
 10
-137.39355500000011
 20
802.15002400000003
 11
-137.39355500000011
 21
789.15002400000003
  0
LINE
  8
_0-0_0
  6
CONTINUOUS
 62
    7
 10
-137.19355800000005
 20
802.15002400000003
 11
-137.39355500000011
 21
802.15002400000003
  0
LINE
  8
_0-0_0
  6
CONTINUOUS
 62
    7
 10
-137.19355800000005
 20
789.15002400000003
 11
-137.39355500000011
 21
789.15002400000003
  0
LINE
  8
_0-0_0
  6
CONTINUOUS
 62
    7
 10
-137.19355800000005
 20
802.15002400000003
 11
-137.19355800000005
 21
820.75
  0
LINE
  8
_0-0_0
  6
CONTINUOUS
 62
    7
 10
-137.09355200000005
 20
820.75
 11
-137.19355800000005
 21
820.75
  0
LINE
  8
_0-0_0
  6
CONTINUOUS
 62
    7
 10
-137.09355200000005
 20
823.25
 11
-137.09355200000005
 21
820.75
  0
ARC
  8
_0-0_0
  6
CONTINUOUS
 62
    7
 10
-137.59355200000005
 20
823.25
 40
0.5
 50
0
 51
90.000003000000007
  0
LINE
  8
_0-0_0
  6
CONTINUOUS
 62
    7
 10
-137.59355200000005
 20
823.75
 11
-140.59355200000005
 21
823.75
  0
ARC
  8
_0-0_0
  6
CONTINUOUS
 62
    7
 10
-140.59355200000005
 20
823.25
 40
0.5
 50
90.000003000000007
 51
179.99999099999999
  0
ARC
  8
_0-0_0
  6
CONTINUOUS
 62
    7
 10
-145.09355200000005
 20
775.75
 40
0.5
 50
179.99999099999999
 51
269.99999700000001
  0
LINE
  8
_0-0_0
  6
CONTINUOUS
 62
    7
 10
-142.59355200000005
 20
775.25
 11
-145.09355200000005
 21
775.25
  0
ARC
  8
_0-0_0
  6
CONTINUOUS
 62
    7
 10
-142.59355200000005
 20
775.75
 40
0.5
 50
269.99999700000001
 51
0
  0
LINE
  8
_0-0_0
  6
CONTINUOUS
 62
    7
 10
-142.09355200000005
 20
780.75
 11
-142.09355200000005
 21
775.75
  0
ARC
  8
_0-0_0
  6
CONTINUOUS
 62
    7
 10
-141.59355200000005
 20
780.75
 40
0.5
 50
90.000003000000007
 51
179.99999099999999
  0
LINE
  8
_0-0_0
  6
CONTINUOUS
 62
    7
 10
-137.59355200000005
 20
781.25
 11
-141.59355200000005
 21
781.25
  0
ARC
  8
_0-0_0
  6
CONTINUOUS
 62
    7
 10
-137.59355200000005
 20
781.75
 40
0.5
 50
269.99999700000001
 51
0
  0
LINE
  8
_0-0_0
  6
CONTINUOUS
 62
    7
 10
-137.09355200000005
 20
784.95001200000002
 11
-137.09355200000005
 21
781.75
  0
LINE
  8
_0-0_0
  6
CONTINUOUS
 62
    7
 10
-137.19355800000005
 20
784.95001200000002
 11
-137.09355200000005
 21
784.95001200000002
  0
LINE
  8
_0-0_0
  6
CONTINUOUS
 62
    7
 10
-137.19355800000005
 20
784.95001200000002
 11
-137.19355800000005
 21
789.15002400000003
  0
LINE
  8
_0-0_0
  6
CONTINUOUS
 62
    7
 10
-138.09355200000005
 20
823.25
 11
-155.89355500000011
 21
823.25
  0
ARC
  8
_0-0_0
  6
CONTINUOUS
 62
    7
 10
-138.09355200000005
 20
822.75
 40
0.5
 50
0
 51
90.000003000000007
  0
LINE
  8
_0-0_0
  6
CONTINUOUS
 62
    7
 10
-137.59355200000005
 20
822.75
 11
-137.59355200000005
 21
782.25
  0
ARC
  8
_0-0_0
  6
CONTINUOUS
 62
    7
 10
-138.09355200000005
 20
782.25
 40
0.5
 50
269.99999700000001
 51
0
  0
LINE
  8
_0-0_0
  6
CONTINUOUS
 62
    7
 10
-141.59355200000005
 20
781.75
 11
-138.09355200000005
 21
781.75
  0
ARC
  8
_0-0_0
  6
CONTINUOUS
 62
    7
 10
-141.59355200000005
 20
780.75
 40
1
 50
90.000003000000007
 51
179.99999099999999
  0
LINE
  8
_0-0_0
  6
CONTINUOUS
 62
    7
 10
-142.59355200000005
 20
780.75
 11
-142.59355200000005
 21
776.25
  0
ARC
  8
_0-0_0
  6
CONTINUOUS
 62
    7
 10
-143.09355200000005
 20
776.25
 40
0.5
 50
269.99999700000001
 51
0
  0
LINE
  8
_0-0_0
  6
CONTINUOUS
 62
    7
 10
-160.09356700000012
 20
775.75
 11
-143.09355200000005
 21
775.75
  0
LINE
  8
_0-0_0
  6
CONTINUOUS
 62
    7
 10
-141.59355200000005
 20
823.45001200000002
 11
-141.59355200000005
 21
823.25
  0
ARC
  8
_0-0_0
  6
CONTINUOUS
 62
    7
 10
-141.89355500000011
 20
823.45001200000002
 40
0.2999999999999999
 50
0
 51
90.000003000000007
  0
LINE
  8
_0-0_0
  6
CONTINUOUS
 62
    7
 10
-141.89355500000011
 20
823.75
 11
-156.59356700000012
 21
823.75
  0
ARC
  8
_0-0_0
  6
CONTINUOUS
 62
    7
 10
-156.59356700000012
 20
823.45001200000002
 40
0.2999999999999999
 50
90.000003000000007
 51
179.99999099999999
  0
LINE
  8
_0-0_0
  6
CONTINUOUS
 62
    7
 10
-156.89355500000011
 20
823.45001200000002
 11
-156.89355500000011
 21
820.25
  0
LINE
  8
_0-0_0
  6
CONTINUOUS
 62
    7
 10
-156.89355500000011
 20
820.25
 11
-162.59356700000012
 21
820.25
  0
LINE
  8
_0-0_0
  6
CONTINUOUS
 62
    7
 10
-162.59356700000012
 20
820.25
 11
-163.39355500000011
 21
819.45001200000002
  0
ARC
  8
_0-0_0
  6
CONTINUOUS
 62
    7
 10
-155.89355500000011
 20
822.75
 40
0.5
 50
90.000003000000007
 51
179.99999099999999
  0
LINE
  8
_0-0_0
  6
CONTINUOUS
 62
    7
 10
-156.39355500000011
 20
822.75
 11
-156.39355500000011
 21
819.95001200000002
  0
ARC
  8
_0-0_0
  6
CONTINUOUS
 62
    7
 10
-156.89355500000011
 20
819.95001200000002
 40
0.5
 50
269.99999700000001
 51
0
  0
LINE
  8
_0-0_0
  6
CONTINUOUS
 62
    7
 10
-156.89355500000011
 20
819.45001200000002
 11
-165.09356700000012
 21
819.45001200000002
  0
ARC
  8
_0-0_0
  6
CONTINUOUS
 62
    7
 10
-165.09356700000012
 20
818.95001200000002
 40
0.5
 50
90.000003000000007
 51
179.99999099999999
  0
LINE
  8
_0-0_0
  6
CONTINUOUS
 62
    7
 10
-165.59356700000012
 20
782.25
 11
-165.59356700000012
 21
818.95001200000002
  0
ARC
  8
_0-0_0
  6
CONTINUOUS
 62
    7
 10
-165.09356700000012
 20
782.25
 40
0.5
 50
179.99999099999999
 51
269.99999700000001
  0
LINE
  8
_0-0_0
  6
CONTINUOUS
 62
    7
 10
-165.09356700000012
 20
781.75
 11
-161.59356700000012
 21
781.75
  0
ARC
  8
_0-0_0
  6
CONTINUOUS
 62
    7
 10
-161.59356700000012
 20
780.75
 40
1
 50
0
 51
90.000003000000007
  0
LINE
  8
_0-0_0
  6
CONTINUOUS
 62
    7
 10
-160.59356700000012
 20
776.25
 11
-160.59356700000012
 21
780.75
  0
ARC
  8
_0-0_0
  6
CONTINUOUS
 62
    7
 10
-160.09356700000012
 20
776.25
 40
0.5
 50
179.99999099999999
 51
269.99999700000001
  0
CIRCLE
  8
_0-0_0
  6
CONTINUOUS
 62
    7
 10
-151.59356700000012
 20
784.75
 40
2.0670000000000002
  0
LINE
  8
_0-0_0
  6
CONTINUOUS
 62
    7
 10
-163.59356700000012
 20
819.75
 11
-163.59356700000012
 21
819.45001200000002
  0
LINE
  8
_0-0_0
  6
CONTINUOUS
 62
    7
 10
-163.59356700000012
 20
819.75
 11
-165.59356700000012
 21
819.75
  0
ARC
  8
_0-0_0
  6
CONTINUOUS
 62
    7
 10
-165.59356700000012
 20
819.25
 40
0.5
 50
90.000003000000007
 51
179.99999099999999
  0
LINE
  8
_0-0_0
  6
CONTINUOUS
 62
    7
 10
-166.09356700000012
 20
819.25
 11
-166.09356700000012
 21
781.75
  0
ARC
  8
_0-0_0
  6
CONTINUOUS
 62
    7
 10
-165.59356700000012
 20
781.75
 40
0.5
 50
179.99999099999999
 51
269.99999700000001
  0
LINE
  8
_0-0_0
  6
CONTINUOUS
 62
    7
 10
-161.59356700000012
 20
781.25
 11
-165.59356700000012
 21
781.25
  0
ARC
  8
_0-0_0
  6
CONTINUOUS
 62
    7
 10
-161.59356700000012
 20
780.75
 40
0.5
 50
0
 51
90.000003000000007
  0
LINE
  8
_0-0_0
  6
CONTINUOUS
 62
    7
 10
-161.09356700000012
 20
775.75
 11
-161.09356700000012
 21
780.75
  0
ARC
  8
_0-0_0
  6
CONTINUOUS
 62
    7
 10
-160.59356700000012
 20
775.75
 40
0.5
 50
179.99999099999999
 51
269.99999700000001
  0
LINE
  8
_0-0_0
  6
CONTINUOUS
 62
    7
 10
-160.59356700000012
 20
775.25
 11
-158.09356700000012
 21
775.25
  0
ARC
  8
_0-0_0
  6
CONTINUOUS
 62
    7
 10
-158.09356700000012
 20
775.75
 40
0.5
 50
269.99999700000001
 51
0
  0
LINE
  8
_0-0_0
  6
CONTINUOUS
 62
    7
 10
-142.09355200000005
 20
775.75
 11
-141.99354600000004
 21
775.75
  0
LINE
  8
_0-0_0
  6
CONTINUOUS
 62
    7
 10
-141.99354600000004
 20
775.75
 11
-141.99354600000004
 21
776.25
  0
LINE
  8
_0-0_0
  6
CONTINUOUS
 62
    7
 10
-141.99354600000004
 20
780.25
 11
-141.99354600000004
 21
776.25
  0
LINE
  8
_0-0_0
  6
CONTINUOUS
 62
    7
 10
-142.09355200000005
 20
780.75
 11
-141.99354600000004
 21
780.75
  0
LINE
  8
_0-0_0
  6
CONTINUOUS
 62
    7
 10
-141.99354600000004
 20
780.25
 11
-141.99354600000004
 21
780.75
  0
LINE
  8
_0-0_0
  6
CONTINUOUS
 62
    7
 10
-141.89355500000011
 20
776.25
 11
-141.89355500000011
 21
776.38037099999997
  0
LINE
  8
_0-0_0
  6
CONTINUOUS
 62
    7
 10
-141.89355500000011
 20
779.88037099999997
 11
-141.89355500000011
 21
776.38037099999997
  0
LINE
  8
_0-0_0
  6
CONTINUOUS
 62
    7
 10
-141.99354600000004
 20
780.15002400000003
 11
-141.89355500000011
 21
780.15002400000003
  0
LINE
  8
_0-0_0
  6
CONTINUOUS
 62
    7
 10
-141.89355500000011
 20
779.88037099999997
 11
-141.89355500000011
 21
780.15002400000003
  0
LINE
  8
_0-0_0
  6
CONTINUOUS
 62
    7
 10
-141.99354600000004
 20
776.25
 11
-141.89355500000011
 21
776.25
  0
LINE
  8
_0-0_0
  6
CONTINUOUS
 62
    7
 10
-141.99354600000004
 20
776.25
 11
-141.89355500000011
 21
776.25
  0
ENDSEC
  0
EOF
