  0
SECTION
  2
HEADER
  9
$ACADVER
  1
AC1009
  9
$INSBASE
 10
0
 20
0
 30
0
  9
$EXTMIN
 10
0
 20
0
  9
$EXTMAX
 10
841
 20
594
  9
$LIMMIN
 10
0
 20
0
  9
$LIMMAX
 10
841
 20
594
  9
$LTSCALE
 40
1
  0
ENDSEC
  0
SECTION
  2
TABLES
  0
TABLE
  2
LTYPE
 70
     9
  0
LTYPE
  2
CONTINUOUS
 70
    64
  3
実線
 72
    65
 73
     0
 40
0.0
  0
LTYPE
  2
DASHED1
 70
    64
  3
--  --  --  --  --  --  --  --  
 72
    65
 73
     2
 40
2.5
 49
1.25
 49
-1.25
  0
LTYPE
  2
DASHED2
 70
    64
  3
----    ----    ----    ----    
 72
    65
 73
     2
 40
5.0
 49
2.5
 49
-2.5
  0
LTYPE
  2
DASHED3
 70
    64
  3
------  ------  ------  ------  
 72
    65
 73
     2
 40
5.0
 49
3.75
 49
-1.25
  0
LTYPE
  2
CENTER1
 70
    64
  3
----- - ----- - ----- - ----- - 
 72
    65
 73
     4
 40
10.0
 49
6.25
 49
-1.25
 49
1.25
 49
-1.25
  0
LTYPE
  2
CENTER2
 70
    64
  3
----------  --  ----------  --  
 72
    65
 73
     4
 40
20.0
 49
12.5
 49
-2.5
 49
2.5
 49
-2.5
  0
LTYPE
  2
PHANTOM1
 70
    64
  3
--- - - --- - - --- - - --- - - 
 72
    65
 73
     6
 40
10.0
 49
3.25
 49
-1.25
 49
1.25
 49
-1.25
 49
1.25
 49
-1.25
  0
LTYPE
  2
PHANTOM2
 70
    64
  3
--------  -  -  --------  -  -  
 72
    65
 73
     6
 40
20.0
 49
10.0
 49
-2.5
 49
1.25
 49
-2.5
 49
1.25
 49
-2.5
  0
LTYPE
  2
DOT
 70
    64
  3
-   -   -   -   -   -   -   -   
 72
    65
 73
     2
 40
2.5
 49
0.625
 49
-1.875
  0
LTYPE
  2
DUMMY
 70
    64
  3
ダミー
 72
    65
 73
     0
 40
0.0
  0
LTYPE
  2
RAND1
 70
    64
  3
ランダム線1
 72
    65
 73
     4
 40
10.0
 49
1.0
 49
-2.0
 49
3.0
 49
-4.0
  0
LTYPE
  2
RAND2
 70
    64
  3
ランダム線2
 72
    65
 73
     4
 40
14.0
 49
2.0
 49
-3.0
 49
4.0
 49
-5.0
  0
LTYPE
  2
RAND3
 70
    64
  3
ランダム線3
 72
    65
 73
     4
 40
18.0
 49
3.0
 49
-4.0
 49
5.0
 49
-6.0
  0
LTYPE
  2
RAND4
 70
    64
  3
ランダム線4
 72
    65
 73
     4
 40
22.0
 49
4.0
 49
-5.0
 49
6.0
 49
-7.0
  0
LTYPE
  2
RAND5
 70
    64
  3
ランダム線5
 72
    65
 73
     4
 40
26.0
 49
5.0
 49
-6.0
 49
7.0
 49
-8.0
  0
LTYPE
  2
LONG1
 70
    64
  3
----------  --  ----------  --  
 72
    65
 73
     4
 40
40.0
 49
32.5
 49
-2.5
 49
2.5
 49
-2.5
  0
LTYPE
  2
LONG2
 70
    64
  3
--------  -  -  --------  -  -  
 72
    65
 73
     6
 40
40.0
 49
30.0
 49
-2.5
 49
1.25
 49
-2.5
 49
1.25
 49
-2.5
  0
LTYPE
  2
LONG3
 70
    64
  3
+++++++++++++++..+++++++++++++++
 72
    65
 73
     2
 40
40.0
 49
37.5
 49
-2.5
  0
LTYPE
  2
LONG4
 70
    64
  3
+++++++++++++++..+++++++++++++++
 72
    65
 73
     2
 40
80.0
 49
75.0
 49
-5.0
  0
LTYPE
  2
LONG5
 70
    64
  3
----------  --  ----------  --  
 72
    65
 73
     4
 40
60.0
 49
37.5
 49
-7.5
 49
7.5
 49
-7.5
  0
LTYPE
  2
dashed
 70
   64
  3
-------   -------------   ------
 72
   65
 73
    2
 40
7.5
 49
6
 49
-1.5
  0
LTYPE
  2
dashed_spaced
 70
   64
  3
----        --------        ----
 72
   65
 73
    2
 40
12
 49
6
 49
-6
  0
LTYPE
  2
long_dashed_dotted
 70
   64
  3
------------- --- --------------
 72
   65
 73
    4
 40
15.25
 49
12
 49
-1.5
 49
0.25
 49
-1.5
  0
LTYPE
  2
long_dashed_double-dotted
 70
   64
  3
----------- --- --- ------------
 72
   65
 73
    6
 40
17
 49
12
 49
-1.5
 49
0.25
 49
-1.5
 49
0.25
 49
-1.5
  0
LTYPE
  2
long_dashed_triplicate-dotted
 70
   64
  3
--------- --- --- --- ----------
 72
   65
 73
    8
 40
18.75
 49
12
 49
-1.5
 49
0.25
 49
-1.5
 49
0.25
 49
-1.5
 49
0.25
 49
-1.5
  0
LTYPE
  2
dotted
 70
   64
  3
   -       -       -       -    
 72
   65
 73
    2
 40
1.75
 49
0.25
 49
-1.5
  0
LTYPE
  2
chain
 70
   64
  3
-------------- -- --------------
 72
   65
 73
    4
 40
18.5
 49
12
 49
-1.5
 49
3.5
 49
-1.5
  0
LTYPE
  2
chain_double_dash
 70
   64
  3
------------ -- -- -------------
 72
   65
 73
    6
 40
23.5
 49
12
 49
-1.5
 49
3.5
 49
-1.5
 49
3.5
 49
-1.5
  0
LTYPE
  2
dashed_dotted
 70
   64
  3
-----------     -     ----------
 72
   65
 73
    4
 40
9.25
 49
6
 49
-1.5
 49
0.25
 49
-1.5
  0
LTYPE
  2
double-dashed_dotted
 70
   64
  3
------   -----------   -   -----
 72
   65
 73
    6
 40
16.75
 49
6
 49
-1.5
 49
6
 49
-1.5
 49
0.25
 49
-1.5
  0
LTYPE
  2
dashed_double-dotted
 70
   64
  3
---------    -    -    ---------
 72
   65
 73
    6
 40
11
 49
6
 49
-1.5
 49
0.25
 49
-1.5
 49
0.25
 49
-1.5
  0
LTYPE
  2
double-dashed_double-dotted
 70
   64
  3
-----   ---------   -   -   ----
 72
   65
 73
    8
 40
18.5
 49
6
 49
-1.5
 49
6
 49
-1.5
 49
0.25
 49
-1.5
 49
0.25
 49
-1.5
  0
LTYPE
  2
dashed_triplicate-dotted
 70
   64
  3
-------    -    -    -    ------
 72
   65
 73
    8
 40
12.75
 49
6
 49
-1.5
 49
0.25
 49
-1.5
 49
0.25
 49
-1.5
 49
0.25
 49
-1.5
  0
LTYPE
  2
double-dashed_triplicate-dotted
 70
   64
  3
-----  ---------  -  -  -  -----
 72
   65
 73
   10
 40
20.25
 49
6
 49
-1.5
 49
6
 49
-1.5
 49
0.25
 49
-1.5
 49
0.25
 49
-1.5
 49
0.25
 49
-1.5
  0
LTYPE
  2
undefined
 70
   64
  3
--------------------------------
 72
   65
 73
    0
 40
0
  0
ENDTAB
  0
TABLE
  2
STYLE
  5
3
100
AcDbSymbolTable
 70
     1
  0
STYLE
  5
10
100
AcDbSymbolTableRecord
100
AcDbTextStyleTableRecord
  2
STANDARD
 70
     0
 40
0.0
 41
1.0
 50
0.0
 71
     0
 42
0.2
  3
txt
  4
bigfont.shx
  0
STYLE
  5
26
100
AcDbSymbolTableRecord
100
AcDbTextStyleTableRecord
  2
TATEGAKI
 70
    68
 40
0.0
 41
1.0
 50
0.0
 71
     0
 42
1.0
  3
txt
  4
bigfont.shx
  0
ENDTAB
  0
TABLE
  2
LAYER
 70
    2
  0
LAYER
  2
_0-0_0
 70
   64
 62
    7
  6
CONTINUOUS
  0
LAYER
  2
ADD_LINE
 70
   64
 62
    7
  6
CONTINUOUS
  0
ENDTAB
  0
ENDSEC
  0
SECTION
  2
BLOCKS
  0
ENDSEC
  0
SECTION
  2
ENTITIES
  0
ARC
  8
_0-0_0
  6
CONTINUOUS
 62
    7
 10
120.33117649999997
 20
406.60000600000001
 40
0.2
 50
269.99999700000001
 51
20.376440000000013
  0
LINE
  8
_0-0_0
  6
CONTINUOUS
 62
    7
 10
120.51866150000001
 20
406.669647
 11
119.2186585
 21
410.169647
  0
ARC
  8
_0-0_0
  6
CONTINUOUS
 62
    7
 10
119.03117350000002
 20
410.10000600000001
 40
0.2
 50
20.376439999999999
 51
159.62355600000001
  0
LINE
  8
_0-0_0
  6
CONTINUOUS
 62
    7
 10
117.54369350000002
 20
406.669647
 11
118.84368849999998
 21
410.169647
  0
ARC
  8
_0-0_0
  6
CONTINUOUS
 62
    7
 10
117.7311785
 20
406.60000600000001
 40
0.2
 50
159.62355600000001
 51
269.99999700000001
  0
LINE
  8
_0-0_0
  6
CONTINUOUS
 62
    7
 10
117.7311785
 20
406.40002399999997
 11
120.33117649999997
 21
406.40002399999997
  0
LINE
  8
_0-0_0
  6
CONTINUOUS
 62
    7
 10
42.217719499999987
 20
461.000519
 11
42.217719499999987
 21
460.99951199999998
  0
LINE
  8
_0-0_0
  6
CONTINUOUS
 62
    7
 10
71.531173500000023
 20
414.5
 11
76.531173500000023
 21
414.5
  0
LINE
  8
_0-0_0
  6
CONTINUOUS
 62
    7
 10
76.531173500000023
 20
414.5
 11
78.33117649999997
 21
414.5
  0
LINE
  8
_0-0_0
  6
CONTINUOUS
 62
    7
 10
78.33117649999997
 20
414.5
 11
79.031173500000023
 21
414.5
  0
ARC
  8
_0-0_0
  6
CONTINUOUS
 62
    7
 10
78.33117649999997
 20
414
 40
0.5
 50
0
 51
90.000003000000007
  0
ARC
  8
_0-0_0
  6
CONTINUOUS
 62
    7
 10
71.531173500000023
 20
414
 40
0.5
 50
90.000003000000007
 51
179.99999099999999
  0
ARC
  8
_0-0_0
  6
CONTINUOUS
 62
    7
 10
175.03117349999999
 20
414
 40
0.5
 50
0
 51
90.000003000000007
  0
LINE
  8
_0-0_0
  6
CONTINUOUS
 62
    7
 10
79.031173500000023
 20
414.5
 11
79.031173500000023
 21
413
  0
LINE
  8
_0-0_0
  6
CONTINUOUS
 62
    7
 10
79.031173500000023
 20
415
 11
79.031173500000023
 21
414.5
  0
LINE
  8
_0-0_0
  6
CONTINUOUS
 62
    7
 10
79.031173500000023
 20
415.5
 11
79.031173500000023
 21
415
  0
LINE
  8
_0-0_0
  6
CONTINUOUS
 62
    7
 10
79.031173500000023
 20
416.5
 11
79.031173500000023
 21
415.5
  0
LINE
  8
_0-0_0
  6
CONTINUOUS
 62
    7
 10
83.031173500000023
 20
414.5
 11
83.731178499999999
 21
414.5
  0
LINE
  8
_0-0_0
  6
CONTINUOUS
 62
    7
 10
78.83117649999997
 20
414
 11
78.83117649999997
 21
413
  0
LINE
  8
_0-0_0
  6
CONTINUOUS
 62
    7
 10
82.031173500000023
 20
387.5
 11
82.031173500000023
 21
389.10000600000001
  0
LINE
  8
_0-0_0
  6
CONTINUOUS
 62
    7
 10
82.031173500000023
 20
387.5
 11
76.531173500000023
 21
387.5
  0
LINE
  8
_0-0_0
  6
CONTINUOUS
 62
    7
 10
98.031173500000023
 20
394.20001200000002
 11
140.03117350000002
 21
394.20001200000002
  0
LINE
  8
_0-0_0
  6
CONTINUOUS
 62
    7
 10
98.031173500000023
 20
413.80001800000002
 11
140.03117350000002
 21
413.80001800000002
  0
LINE
  8
_0-0_0
  6
CONTINUOUS
 62
    7
 10
161.53117350000002
 20
387.5
 11
152.03117350000002
 21
387.5
  0
LINE
  8
_0-0_0
  6
CONTINUOUS
 62
    7
 10
152.03117350000002
 20
387.5
 11
152.03117350000002
 21
389.10000600000001
  0
ARC
  8
_0-0_0
  6
CONTINUOUS
 62
    7
 10
151.73117049999996
 20
389.10000600000001
 40
0.2999999999999999
 50
0
 51
90.000003000000007
  0
LINE
  8
_0-0_0
  6
CONTINUOUS
 62
    7
 10
151.03117350000002
 20
389.40002399999997
 11
151.73117049999996
 21
389.40002399999997
  0
LINE
  8
_0-0_0
  6
CONTINUOUS
 62
    7
 10
150.53117350000002
 20
389.80001800000002
 11
151.03117350000002
 21
389.80001800000002
  0
LINE
  8
_0-0_0
  6
CONTINUOUS
 62
    7
 10
137.03117350000002
 20
389.80001800000002
 11
150.53117350000002
 21
389.80001800000002
  0
ARC
  8
_0-0_0
  6
CONTINUOUS
 62
    7
 10
134.53117350000002
 20
389.80001800000002
 40
2.5
 50
0
 51
90.000003000000007
  0
LINE
  8
_0-0_0
  6
CONTINUOUS
 62
    7
 10
103.53117350000002
 20
392.30001800000002
 11
134.53117350000002
 21
392.30001800000002
  0
ARC
  8
_0-0_0
  6
CONTINUOUS
 62
    7
 10
103.53117350000002
 20
389.80001800000002
 40
2.5
 50
90.000003000000007
 51
179.99999099999999
  0
LINE
  8
_0-0_0
  6
CONTINUOUS
 62
    7
 10
83.531173500000023
 20
389.80001800000002
 11
101.03117350000002
 21
389.80001800000002
  0
LINE
  8
_0-0_0
  6
CONTINUOUS
 62
    7
 10
83.031173500000023
 20
389.80001800000002
 11
83.531173500000023
 21
389.80001800000002
  0
LINE
  8
_0-0_0
  6
CONTINUOUS
 62
    7
 10
82.33117649999997
 20
389.40002399999997
 11
83.031173500000023
 21
389.40002399999997
  0
ARC
  8
_0-0_0
  6
CONTINUOUS
 62
    7
 10
82.33117649999997
 20
389.10000600000001
 40
0.2999999999999999
 50
90.000003000000007
 51
179.99999099999999
  0
LINE
  8
_0-0_0
  6
CONTINUOUS
 62
    7
 10
71.031173500000023
 20
412.22485399999999
 11
71.031173500000023
 21
414
  0
LINE
  8
_0-0_0
  6
CONTINUOUS
 62
    7
 10
76.031173500000023
 20
414.5
 11
76.031173500000023
 21
414.90002399999997
  0
LINE
  8
_0-0_0
  6
CONTINUOUS
 62
    7
 10
76.031173500000023
 20
415.40002399999997
 11
76.031173500000023
 21
414.90002399999997
  0
LINE
  8
_0-0_0
  6
CONTINUOUS
 62
    7
 10
175.53117349999999
 20
416.5
 11
175.53117349999999
 21
415
  0
LINE
  8
_0-0_0
  6
CONTINUOUS
 62
    7
 10
175.53117349999999
 20
415
 11
175.53117349999999
 21
414
  0
LINE
  8
_0-0_0
  6
CONTINUOUS
 62
    7
 10
175.53117349999999
 20
413.20001200000002
 11
175.53117349999999
 21
414
  0
LINE
  8
_0-0_0
  6
CONTINUOUS
 62
    7
 10
175.03117349999999
 20
414.5
 11
175.53117349999999
 21
414.5
  0
LINE
  8
_0-0_0
  6
CONTINUOUS
 62
    7
 10
162.53117350000002
 20
414.5
 11
175.03117349999999
 21
414.5
  0
LINE
  8
_0-0_0
  6
CONTINUOUS
 62
    7
 10
175.53117349999999
 20
416.5
 11
175.53117349999999
 21
415.5
  0
LINE
  8
_0-0_0
  6
CONTINUOUS
 62
    7
 10
175.53117349999999
 20
415
 11
175.53117349999999
 21
414.5
  0
LINE
  8
_0-0_0
  6
CONTINUOUS
 62
    7
 10
175.53117349999999
 20
415.5
 11
175.53117349999999
 21
415
  0
ARC
  8
_0-0_0
  6
CONTINUOUS
 62
    7
 10
81.031173500000023
 20
413
 40
2
 50
179.99999099999999
 51
0
  0
LINE
  8
_0-0_0
  6
CONTINUOUS
 62
    7
 10
162.03117350000002
 20
414.5
 11
162.53117350000002
 21
414.5
  0
LINE
  8
_0-0_0
  6
CONTINUOUS
 62
    7
 10
162.03117350000002
 20
414
 11
162.03117350000002
 21
414.5
  0
LINE
  8
_0-0_0
  6
CONTINUOUS
 62
    7
 10
162.03117350000002
 20
413
 11
162.03117350000002
 21
413.20001200000002
  0
ARC
  8
_0-0_0
  6
CONTINUOUS
 62
    7
 10
160.03117350000002
 20
413
 40
2
 50
179.99999099999999
 51
0
  0
LINE
  8
_0-0_0
  6
CONTINUOUS
 62
    7
 10
158.03117350000002
 20
414.5
 11
158.03117350000002
 21
413
  0
LINE
  8
_0-0_0
  6
CONTINUOUS
 62
    7
 10
157.33117649999997
 20
414.5
 11
158.03117350000002
 21
414.5
  0
LINE
  8
_0-0_0
  6
CONTINUOUS
 62
    7
 10
83.031173500000023
 20
413
 11
83.031173500000023
 21
414.5
  0
LINE
  8
_0-0_0
  6
CONTINUOUS
 62
    7
 10
79.031173500000023
 20
415.5
 11
175.53117349999999
 21
415.5
  0
ARC
  8
_0-0_0
  6
CONTINUOUS
 62
    7
 10
83.731178499999999
 20
414
 40
0.5
 50
90.000003000000007
 51
179.99999099999999
  0
ARC
  8
_0-0_0
  6
CONTINUOUS
 62
    7
 10
81.031173500000023
 20
413
 40
2.2000000000000002
 50
179.99999099999999
 51
0
  0
LINE
  8
_0-0_0
  6
CONTINUOUS
 62
    7
 10
83.031173500000023
 20
389.40002399999997
 11
83.531173500000023
 21
389.40002399999997
  0
LINE
  8
_0-0_0
  6
CONTINUOUS
 62
    7
 10
83.531173500000023
 20
389.80001800000002
 11
83.531173500000023
 21
389.40002399999997
  0
LINE
  8
_0-0_0
  6
CONTINUOUS
 62
    7
 10
101.03117350000002
 20
389.80001800000002
 11
137.03117350000002
 21
389.80001800000002
  0
LINE
  8
_0-0_0
  6
CONTINUOUS
 62
    7
 10
150.53117350000002
 20
389.40002399999997
 11
151.03117350000002
 21
389.40002399999997
  0
LINE
  8
_0-0_0
  6
CONTINUOUS
 62
    7
 10
150.53117350000002
 20
389.80001800000002
 11
150.53117350000002
 21
389.40002399999997
  0
LINE
  8
_0-0_0
  6
CONTINUOUS
 62
    7
 10
161.53117350000002
 20
387
 11
152.53117350000002
 21
387
  0
ARC
  8
_0-0_0
  6
CONTINUOUS
 62
    7
 10
152.53117350000002
 20
387.5
 40
0.5
 50
179.99999099999999
 51
269.99999700000001
  0
LINE
  8
_0-0_0
  6
CONTINUOUS
 62
    7
 10
161.53117350000002
 20
387.5
 11
162.03117350000002
 21
387.5
  0
LINE
  8
_0-0_0
  6
CONTINUOUS
 62
    7
 10
162.03117350000002
 20
387.5
 11
162.03117350000002
 21
387.70001200000002
  0
LINE
  8
_0-0_0
  6
CONTINUOUS
 62
    7
 10
166.53117349999999
 20
387.90002399999997
 11
162.23117049999996
 21
387.90002399999997
  0
LINE
  8
_0-0_0
  6
CONTINUOUS
 62
    7
 10
167.03117349999999
 20
388.40002399999997
 11
167.03117349999999
 21
390.17514
  0
ARC
  8
_0-0_0
  6
CONTINUOUS
 62
    7
 10
163.98321550000003
 20
390.11901899999998
 40
3.0490550000000001
 50
1.0548960000000001
 51
14.838094000000002
  0
LINE
  8
_0-0_0
  6
CONTINUOUS
 62
    7
 10
166.53117349999999
 20
391.10000600000001
 11
162.1636355
 21
391.10000600000001
  0
LINE
  8
_0-0_0
  6
CONTINUOUS
 62
    7
 10
162.03117350000002
 20
391.24145499999997
 11
162.03117350000002
 21
391.34643599999998
  0
ARC
  8
_0-0_0
  6
CONTINUOUS
 62
    7
 10
160.03117350000002
 20
413
 40
2.2000000000000002
 50
179.99999099999999
 51
303.74900400000001
  0
LINE
  8
_0-0_0
  6
CONTINUOUS
 62
    7
 10
157.83117649999997
 20
414
 11
157.83117649999997
 21
413
  0
LINE
  8
_0-0_0
  6
CONTINUOUS
 62
    7
 10
157.33117649999997
 20
414.5
 11
83.731178499999999
 21
414.5
  0
LINE
  8
_0-0_0
  6
CONTINUOUS
 62
    7
 10
83.231178499999999
 20
413
 11
83.231178499999999
 21
414
  0
LINE
  8
_0-0_0
  6
CONTINUOUS
 62
    7
 10
83.731178499999999
 20
412.80001800000002
 11
83.731178499999999
 21
413
  0
ARC
  8
_0-0_0
  6
CONTINUOUS
 62
    7
 10
84.731178499999999
 20
412.80001800000002
 40
1
 50
90.000003000000007
 51
179.99999099999999
  0
LINE
  8
_0-0_0
  6
CONTINUOUS
 62
    7
 10
84.731178499999999
 20
413.80001800000002
 11
98.031173500000023
 21
413.80001800000002
  0
LINE
  8
_0-0_0
  6
CONTINUOUS
 62
    7
 10
140.03117350000002
 20
413.80001800000002
 11
154.03117350000002
 21
413.80001800000002
  0
ARC
  8
_0-0_0
  6
CONTINUOUS
 62
    7
 10
154.03117350000002
 20
410.80001800000002
 40
3
 50
0
 51
90.000003000000007
  0
LINE
  8
_0-0_0
  6
CONTINUOUS
 62
    7
 10
157.03117350000002
 20
397.20001200000002
 11
157.03117350000002
 21
410.80001800000002
  0
ARC
  8
_0-0_0
  6
CONTINUOUS
 62
    7
 10
154.03117350000002
 20
397.20001200000002
 40
3
 50
269.99999700000001
 51
0
  0
LINE
  8
_0-0_0
  6
CONTINUOUS
 62
    7
 10
154.03117350000002
 20
394.20001200000002
 11
140.03117350000002
 21
394.20001200000002
  0
LINE
  8
_0-0_0
  6
CONTINUOUS
 62
    7
 10
98.031173500000023
 20
394.20001200000002
 11
84.031173500000023
 21
394.20001200000002
  0
ARC
  8
_0-0_0
  6
CONTINUOUS
 62
    7
 10
84.031173500000023
 20
397.20001200000002
 40
3
 50
179.99999099999999
 51
269.99999700000001
  0
LINE
  8
_0-0_0
  6
CONTINUOUS
 62
    7
 10
81.031173500000023
 20
409.43771400000003
 11
81.031173500000023
 21
397.20001200000002
  0
ARC
  8
_0-0_0
  6
CONTINUOUS
 62
    7
 10
82.031173500000023
 20
409.43771400000003
 40
1
 50
105.68034800000001
 51
179.99999100000002
  0
ARC
  8
_0-0_0
  6
CONTINUOUS
 62
    7
 10
74.079139499999997
 20
412.28100599999999
 40
3.0490550000000001
 50
181.05489
 51
194.838089
  0
LINE
  8
_0-0_0
  6
CONTINUOUS
 62
    7
 10
75.89871949999997
 20
411.30001800000002
 11
71.531173500000023
 21
411.30001800000002
  0
LINE
  8
_0-0_0
  6
CONTINUOUS
 62
    7
 10
76.031173500000023
 20
391.24145499999997
 11
76.031173500000023
 21
391.54168700000002
  0
LINE
  8
_0-0_0
  6
CONTINUOUS
 62
    7
 10
75.89871949999997
 20
391.10000600000001
 11
71.531173500000023
 21
391.10000600000001
  0
ARC
  8
_0-0_0
  6
CONTINUOUS
 62
    7
 10
74.080322499999966
 20
390.11834700000003
 40
3.050319
 50
165.15540799999999
 51
178.932897
  0
LINE
  8
_0-0_0
  6
CONTINUOUS
 62
    7
 10
71.031173500000023
 20
388.40002399999997
 11
71.031173500000023
 21
390.17514
  0
LINE
  8
_0-0_0
  6
CONTINUOUS
 62
    7
 10
75.83117649999997
 20
387.90002399999997
 11
71.531173500000023
 21
387.90002399999997
  0
LINE
  8
_0-0_0
  6
CONTINUOUS
 62
    7
 10
76.031173500000023
 20
387.5
 11
76.031173500000023
 21
387.70001200000002
  0
LINE
  8
_0-0_0
  6
CONTINUOUS
 62
    7
 10
76.031173500000023
 20
387.5
 11
76.531173500000023
 21
387.5
  0
LINE
  8
_0-0_0
  6
CONTINUOUS
 62
    7
 10
81.531173500000023
 20
387
 11
76.531173500000023
 21
387
  0
ARC
  8
_0-0_0
  6
CONTINUOUS
 62
    7
 10
81.531173500000023
 20
387.5
 40
0.5
 50
269.99999700000001
 51
0
  0
LINE
  8
_0-0_0
  6
CONTINUOUS
 62
    7
 10
71.349433499999975
 20
411.30001800000002
 11
71.32907849999998
 21
411.30102499999998
  0
LINE
  8
_0-0_0
  6
CONTINUOUS
 62
    7
 10
71.32907849999998
 20
411.30102499999998
 11
71.308677499999988
 21
411.304169
  0
LINE
  8
_0-0_0
  6
CONTINUOUS
 62
    7
 10
71.308677499999988
 20
411.304169
 11
71.281852500000014
 21
411.31176799999997
  0
LINE
  8
_0-0_0
  6
CONTINUOUS
 62
    7
 10
71.281852500000014
 20
411.31176799999997
 11
71.256210500000009
 21
411.32312000000002
  0
LINE
  8
_0-0_0
  6
CONTINUOUS
 62
    7
 10
71.256210500000009
 20
411.32312000000002
 11
71.232406500000025
 21
411.33801299999999
  0
LINE
  8
_0-0_0
  6
CONTINUOUS
 62
    7
 10
71.232406500000025
 20
411.33801299999999
 11
71.215652499999976
 21
411.35150099999998
  0
LINE
  8
_0-0_0
  6
CONTINUOUS
 62
    7
 10
71.215652499999976
 20
411.35150099999998
 11
71.200149500000009
 21
411.36676
  0
LINE
  8
_0-0_0
  6
CONTINUOUS
 62
    7
 10
71.200149500000009
 20
411.36676
 11
71.173255499999982
 21
411.40139799999997
  0
LINE
  8
_0-0_0
  6
CONTINUOUS
 62
    7
 10
71.173255499999982
 20
411.40139799999997
 11
71.152213500000016
 21
411.439728
  0
LINE
  8
_0-0_0
  6
CONTINUOUS
 62
    7
 10
71.152213500000016
 20
411.439728
 11
71.140212499999961
 21
411.46963499999998
  0
LINE
  8
_0-0_0
  6
CONTINUOUS
 62
    7
 10
71.140212499999961
 20
411.46963499999998
 11
71.131172499999991
 21
411.5
  0
LINE
  8
_0-0_0
  6
CONTINUOUS
 62
    7
 10
76.031173500000023
 20
415.40002399999997
 11
76.031173500000023
 21
416.5
  0
LINE
  8
_0-0_0
  6
CONTINUOUS
 62
    7
 10
70.531173500000023
 20
412.85000600000001
 11
71.031173500000023
 21
412.85000600000001
  0
LINE
  8
_0-0_0
  6
CONTINUOUS
 62
    7
 10
70.531173500000023
 20
415.40002399999997
 11
76.031173500000023
 21
415.40002399999997
  0
ARC
  8
_0-0_0
  6
CONTINUOUS
 62
    7
 10
175.03117349999999
 20
413.20001200000002
 40
0.5
 50
269.99999700000001
 51
0
  0
ARC
  8
_0-0_0
  6
CONTINUOUS
 62
    7
 10
162.53117350000002
 20
414
 40
0.5
 50
90.000003000000007
 51
179.99999099999999
  0
LINE
  8
_0-0_0
  6
CONTINUOUS
 62
    7
 10
162.03117350000002
 20
413.20001200000002
 11
162.03117350000002
 21
414
  0
LINE
  8
_0-0_0
  6
CONTINUOUS
 62
    7
 10
82.231178499999999
 20
389.38284299999998
 11
82.231178499999999
 21
387.40002399999997
  0
LINE
  8
_0-0_0
  6
CONTINUOUS
 62
    7
 10
82.231178499999999
 20
387.40002399999997
 11
83.231178499999999
 21
387.40002399999997
  0
LINE
  8
_0-0_0
  6
CONTINUOUS
 62
    7
 10
83.531173500000023
 20
389.40002399999997
 11
150.53117350000002
 21
389.40002399999997
  0
LINE
  8
_0-0_0
  6
CONTINUOUS
 62
    7
 10
83.231178499999999
 20
387.40002399999997
 11
150.83117649999997
 21
387.40002399999997
  0
LINE
  8
_0-0_0
  6
CONTINUOUS
 62
    7
 10
150.83117649999997
 20
387.40002399999997
 11
151.83117649999997
 21
387.40002399999997
  0
LINE
  8
_0-0_0
  6
CONTINUOUS
 62
    7
 10
151.83117649999997
 20
389.38284299999998
 11
151.83117649999997
 21
387.40002399999997
  0
LINE
  8
_0-0_0
  6
CONTINUOUS
 62
    7
 10
162.03117350000002
 20
387.5
 11
161.53117350000002
 21
387
  0
ARC
  8
_0-0_0
  6
CONTINUOUS
 62
    7
 10
162.23117049999996
 20
387.70001200000002
 40
0.2
 50
90.000003000000007
 51
179.99999099999999
  0
ARC
  8
_0-0_0
  6
CONTINUOUS
 62
    7
 10
166.53117349999999
 20
388.40002399999997
 40
0.5
 50
269.99999700000001
 51
0
  0
LINE
  8
_0-0_0
  6
CONTINUOUS
 62
    7
 10
166.71292149999999
 20
391.10000600000001
 11
166.73327649999999
 21
391.09899899999999
  0
LINE
  8
_0-0_0
  6
CONTINUOUS
 62
    7
 10
166.73327649999999
 20
391.09899899999999
 11
166.75367750000001
 21
391.09585600000003
  0
LINE
  8
_0-0_0
  6
CONTINUOUS
 62
    7
 10
166.75367750000001
 20
391.09585600000003
 11
166.78050249999998
 21
391.088257
  0
LINE
  8
_0-0_0
  6
CONTINUOUS
 62
    7
 10
166.78050249999998
 20
391.088257
 11
166.80613750000001
 21
391.07690400000001
  0
LINE
  8
_0-0_0
  6
CONTINUOUS
 62
    7
 10
166.80613750000001
 20
391.07690400000001
 11
166.82994049999999
 21
391.06201199999998
  0
LINE
  8
_0-0_0
  6
CONTINUOUS
 62
    7
 10
166.82994049999999
 20
391.06201199999998
 11
166.84669449999998
 21
391.04849200000001
  0
LINE
  8
_0-0_0
  6
CONTINUOUS
 62
    7
 10
166.84669449999998
 20
391.04849200000001
 11
166.86219750000001
 21
391.03326399999997
  0
LINE
  8
_0-0_0
  6
CONTINUOUS
 62
    7
 10
166.86219750000001
 20
391.03326399999997
 11
166.88909949999999
 21
390.998627
  0
LINE
  8
_0-0_0
  6
CONTINUOUS
 62
    7
 10
166.88909949999999
 20
390.998627
 11
166.91014049999998
 21
390.96029700000003
  0
LINE
  8
_0-0_0
  6
CONTINUOUS
 62
    7
 10
166.91014049999998
 20
390.96029700000003
 11
166.9221345
 21
390.93035900000001
  0
LINE
  8
_0-0_0
  6
CONTINUOUS
 62
    7
 10
166.9221345
 20
390.93035900000001
 11
166.93118250000001
 21
390.90002399999997
  0
LINE
  8
_0-0_0
  6
CONTINUOUS
 62
    7
 10
166.71292149999999
 20
391.10000600000001
 11
166.53117349999999
 21
391.10000600000001
  0
LINE
  8
_0-0_0
  6
CONTINUOUS
 62
    7
 10
162.03117350000002
 20
392.40002399999997
 11
162.03117350000002
 21
391.34643599999998
  0
LINE
  8
_0-0_0
  6
CONTINUOUS
 62
    7
 10
162.03117350000002
 20
392.40002399999997
 11
162.03117350000002
 21
410
  0
LINE
  8
_0-0_0
  6
CONTINUOUS
 62
    7
 10
162.03117350000002
 20
411.97738600000002
 11
162.03117350000002
 21
410
  0
ARC
  8
_0-0_0
  6
CONTINUOUS
 62
    7
 10
161.53117350000002
 20
410.75500499999998
 40
0.5
 50
0
 51
123.74898500000002
  0
ARC
  8
_0-0_0
  6
CONTINUOUS
 62
    7
 10
162.20146149999999
 20
391.27331500000003
 40
0.1734229999999999
 50
181.12417600000003
 51
270.64883800000007
  0
LINE
  8
_0-0_0
  6
CONTINUOUS
 62
    7
 10
162.0271305
 20
391.30001800000002
 11
162.0272215
 21
391.26986699999998
  0
ARC
  8
_0-0_0
  6
CONTINUOUS
 62
    7
 10
157.33117649999997
 20
414
 40
0.5
 50
0
 51
90.000003000000007
  0
ARC
  8
_0-0_0
  6
CONTINUOUS
 62
    7
 10
81.031173500000023
 20
413
 40
2.7000000000000002
 50
285.68033600000007
 51
0.0000000000000381
  0
ARC
  8
_0-0_0
  6
CONTINUOUS
 62
    7
 10
98.031173500000023
 20
397.20001200000002
 40
3
 50
269.99999700000001
 51
0
  0
LINE
  8
_0-0_0
  6
CONTINUOUS
 62
    7
 10
101.03117350000002
 20
397.20001200000002
 11
101.03117350000002
 21
410.80001800000002
  0
ARC
  8
_0-0_0
  6
CONTINUOUS
 62
    7
 10
98.031173500000023
 20
410.80001800000002
 40
3
 50
0
 51
90.000003000000007
  0
ARC
  8
_0-0_0
  6
CONTINUOUS
 62
    7
 10
93.531173500000023
 20
406.5
 40
4.5
 50
269.99999700000001
 51
90.000002999999992
  0
LINE
  8
_0-0_0
  6
CONTINUOUS
 62
    7
 10
93.531173500000023
 20
402
 11
88.531173500000023
 21
402
  0
ARC
  8
_0-0_0
  6
CONTINUOUS
 62
    7
 10
88.531173500000023
 20
406.5
 40
4.5
 50
90.000003000000007
 51
269.99999700000006
  0
LINE
  8
_0-0_0
  6
CONTINUOUS
 62
    7
 10
88.531173500000023
 20
411
 11
93.531173500000023
 21
411
  0
ARC
  8
_0-0_0
  6
CONTINUOUS
 62
    7
 10
140.03117350000002
 20
397.20001200000002
 40
3
 50
179.99999099999999
 51
269.99999700000001
  0
LINE
  8
_0-0_0
  6
CONTINUOUS
 62
    7
 10
137.03117350000002
 20
410.80001800000002
 11
137.03117350000002
 21
397.20001200000002
  0
ARC
  8
_0-0_0
  6
CONTINUOUS
 62
    7
 10
140.03117350000002
 20
410.80001800000002
 40
3
 50
90.000003000000007
 51
179.99999099999999
  0
ARC
  8
_0-0_0
  6
CONTINUOUS
 62
    7
 10
149.53117350000002
 20
406.5
 40
4.5
 50
269.99999700000001
 51
90.000002999999992
  0
LINE
  8
_0-0_0
  6
CONTINUOUS
 62
    7
 10
149.53117350000002
 20
402
 11
144.53117350000002
 21
402
  0
ARC
  8
_0-0_0
  6
CONTINUOUS
 62
    7
 10
144.53117350000002
 20
406.5
 40
4.5
 50
90.000003000000007
 51
269.99999700000006
  0
LINE
  8
_0-0_0
  6
CONTINUOUS
 62
    7
 10
144.53117350000002
 20
411
 11
149.53117350000002
 21
411
  0
LINE
  8
_0-0_0
  6
CONTINUOUS
 62
    7
 10
71.531173500000023
 20
411.30001800000002
 11
71.349433499999975
 21
411.30001800000002
  0
LINE
  8
_0-0_0
  6
CONTINUOUS
 62
    7
 10
76.031173500000023
 20
393.20001200000002
 11
76.031173500000023
 21
391.54168700000002
  0
LINE
  8
_0-0_0
  6
CONTINUOUS
 62
    7
 10
76.031173500000023
 20
393.20001200000002
 11
76.031173500000023
 21
409.70001200000002
  0
LINE
  8
_0-0_0
  6
CONTINUOUS
 62
    7
 10
76.031173500000023
 20
411.16629
 11
76.031173500000023
 21
409.70001200000002
  0
ARC
  8
_0-0_0
  6
CONTINUOUS
 62
    7
 10
75.860885499999995
 20
391.27328499999999
 40
0.1734209999999999
 50
269.35085600000002
 51
358.87625300000002
  0
LINE
  8
_0-0_0
  6
CONTINUOUS
 62
    7
 10
76.035217499999987
 20
391.30001800000002
 11
76.035140500000011
 21
391.26986699999998
  0
LINE
  8
_0-0_0
  6
CONTINUOUS
 62
    7
 10
76.035217499999987
 20
411.10000600000001
 11
76.035140500000011
 21
411.13012700000002
  0
ARC
  8
_0-0_0
  6
CONTINUOUS
 62
    7
 10
75.860885499999995
 20
411.12670900000001
 40
0.1734219999999999
 50
1.1236539999999999
 51
90.649110000000007
  0
LINE
  8
_0-0_0
  6
CONTINUOUS
 62
    7
 10
71.531173500000023
 20
391.10000600000001
 11
71.349433499999975
 21
391.10000600000001
  0
LINE
  8
_0-0_0
  6
CONTINUOUS
 62
    7
 10
71.349426499999993
 20
391.10000600000001
 11
71.32907849999998
 21
391.09899899999999
  0
LINE
  8
_0-0_0
  6
CONTINUOUS
 62
    7
 10
71.32907849999998
 20
391.09899899999999
 11
71.308669500000008
 21
391.09582499999999
  0
LINE
  8
_0-0_0
  6
CONTINUOUS
 62
    7
 10
71.308669500000008
 20
391.09582499999999
 11
71.281852500000014
 21
391.088257
  0
LINE
  8
_0-0_0
  6
CONTINUOUS
 62
    7
 10
71.281852500000014
 20
391.088257
 11
71.256210500000009
 21
391.07690400000001
  0
LINE
  8
_0-0_0
  6
CONTINUOUS
 62
    7
 10
71.256210500000009
 20
391.07690400000001
 11
71.232406500000025
 21
391.06201199999998
  0
LINE
  8
_0-0_0
  6
CONTINUOUS
 62
    7
 10
71.232406500000025
 20
391.06201199999998
 11
71.215652499999976
 21
391.04849200000001
  0
LINE
  8
_0-0_0
  6
CONTINUOUS
 62
    7
 10
71.215652499999976
 20
391.04849200000001
 11
71.200149500000009
 21
391.03326399999997
  0
LINE
  8
_0-0_0
  6
CONTINUOUS
 62
    7
 10
71.200149500000009
 20
391.03326399999997
 11
71.173255499999982
 21
390.998627
  0
LINE
  8
_0-0_0
  6
CONTINUOUS
 62
    7
 10
71.173255499999982
 20
390.998627
 11
71.152213500000016
 21
390.96029700000003
  0
LINE
  8
_0-0_0
  6
CONTINUOUS
 62
    7
 10
71.152213500000016
 20
390.96029700000003
 11
71.140212499999961
 21
390.93035900000001
  0
LINE
  8
_0-0_0
  6
CONTINUOUS
 62
    7
 10
71.140212499999961
 20
390.93035900000001
 11
71.131172499999991
 21
390.90002399999997
  0
ARC
  8
_0-0_0
  6
CONTINUOUS
 62
    7
 10
71.531173500000023
 20
388.40002399999997
 40
0.5
 50
179.99999099999999
 51
269.99999700000001
  0
ARC
  8
_0-0_0
  6
CONTINUOUS
 62
    7
 10
75.83117649999997
 20
387.70001200000002
 40
0.2
 50
0
 51
90.000003000000007
  0
LINE
  8
_0-0_0
  6
CONTINUOUS
 62
    7
 10
76.031173500000023
 20
387.5
 11
76.531173500000023
 21
387
  0
LINE
  8
_0-0_0
  6
CONTINUOUS
 62
    7
 10
70.031173500000023
 20
413.34429899999998
 11
70.031173500000023
 21
414.90002399999997
  0
ARC
  8
_0-0_0
  6
CONTINUOUS
 62
    7
 10
70.518081499999994
 20
413.34765599999997
 40
0.4869939999999999
 50
180.39493000000002
 51
203.93946700000001
  0
ARC
  8
_0-0_0
  6
CONTINUOUS
 62
    7
 10
70.531173500000023
 20
413.35000600000001
 40
0.5
 50
203.57823099999999
 51
269.99999700000001
  0
ARC
  8
_0-0_0
  6
CONTINUOUS
 62
    7
 10
70.531173500000023
 20
414.90002399999997
 40
0.5
 50
90.000003000000007
 51
179.99999099999999
  0
LINE
  8
_0-0_0
  6
CONTINUOUS
 62
    7
 10
162.03117350000002
 20
412.70001200000002
 11
162.53117350000002
 21
412.70001200000002
  0
LINE
  8
_0-0_0
  6
CONTINUOUS
 62
    7
 10
162.53117350000002
 20
412.70001200000002
 11
175.03117349999999
 21
412.70001200000002
  0
ARC
  8
_0-0_0
  6
CONTINUOUS
 62
    7
 10
162.53117350000002
 20
413.20001200000002
 40
0.5
 50
179.99999099999999
 51
269.99999700000001
  0
LINE
  8
_0-0_0
  6
CONTINUOUS
 62
    7
 10
162.03117350000002
 20
412.33398399999999
 11
162.03117350000002
 21
412.70001200000002
  0
LINE
  8
_0-0_0
  6
CONTINUOUS
 62
    7
 10
162.03117350000002
 20
412.08349600000003
 11
162.03117350000002
 21
411.97738600000002
  0
LINE
  8
_0-0_0
  6
CONTINUOUS
 62
    7
 10
162.03117350000002
 20
412.33398399999999
 11
162.03117350000002
 21
412.08349600000003
  0
CIRCLE
  8
_0-0_0
  6
CONTINUOUS
 62
    7
 10
81.031173500000023
 20
413
 40
1.4750000000000001
  0
CIRCLE
  8
_0-0_0
  6
CONTINUOUS
 62
    7
 10
160.03117350000002
 20
413
 40
1.4750000000000001
  0
LINE
  8
_0-0_0
  6
CONTINUOUS
 62
    7
 10
70.031173500000023
 20
393.20001200000002
 11
70.031173500000023
 21
390.70001200000002
  0
LINE
  8
_0-0_0
  6
CONTINUOUS
 62
    7
 10
70.031173500000023
 20
393.20001200000002
 11
70.031173500000023
 21
406
  0
LINE
  8
_0-0_0
  6
CONTINUOUS
 62
    7
 10
70.031173500000023
 20
409.5
 11
70.031173500000023
 21
406
  0
LINE
  8
_0-0_0
  6
CONTINUOUS
 62
    7
 10
70.031173500000023
 20
409.5
 11
70.031173500000023
 21
409.85000600000001
  0
LINE
  8
_0-0_0
  6
CONTINUOUS
 62
    7
 10
70.031173500000023
 20
413.34429899999998
 11
70.031173500000023
 21
409.85000600000001
  0
LINE
  8
_0-0_0
  6
CONTINUOUS
 62
    7
 10
70.031173500000023
 20
415.192902
 11
70.031173500000023
 21
414.90002399999997
  0
LINE
  8
_0-0_0
  6
CONTINUOUS
 62
    7
 10
70.031173500000023
 20
415.192902
 11
70.031173500000023
 21
415.25
  0
LINE
  8
_0-0_0
  6
CONTINUOUS
 62
    7
 10
71.031707499999982
 20
390.20001200000002
 11
70.531173500000023
 21
390.20001200000002
  0
LINE
  8
_0-0_0
  6
CONTINUOUS
 62
    7
 10
167.01997349999999
 20
390.40002399999997
 11
174.03117349999999
 21
390.40002399999997
  0
LINE
  8
_0-0_0
  6
CONTINUOUS
 62
    7
 10
174.03117349999999
 20
390.40002399999997
 11
178.70661949999999
 21
390.40002399999997
  0
LINE
  8
_0-0_0
  6
CONTINUOUS
 62
    7
 10
174.03117349999999
 20
390.40002399999997
 11
174.03117349999999
 21
392.40002399999997
  0
LINE
  8
_0-0_0
  6
CONTINUOUS
 62
    7
 10
174.03117349999999
 20
395.90002399999997
 11
174.03117349999999
 21
392.90002399999997
  0
LINE
  8
_0-0_0
  6
CONTINUOUS
 62
    7
 10
174.03117349999999
 20
392.90002399999997
 11
174.03117349999999
 21
392.40002399999997
  0
LINE
  8
_0-0_0
  6
CONTINUOUS
 62
    7
 10
174.03117349999999
 20
395.90002399999997
 11
174.03117349999999
 21
396.40002399999997
  0
ARC
  8
_0-0_0
  6
CONTINUOUS
 62
    7
 10
168.0311585
 20
395.70001200000002
 40
0.500016
 50
180.00117
 51
359.995611
  0
LINE
  8
_0-0_0
  6
CONTINUOUS
 62
    7
 10
168.53117349999999
 20
395.70001200000002
 11
168.53117349999999
 21
407.70001200000002
  0
ARC
  8
_0-0_0
  6
CONTINUOUS
 62
    7
 10
168.0311585
 20
407.70001200000002
 40
0.500016
 50
0.001164
 51
179.99560600000004
  0
LINE
  8
_0-0_0
  6
CONTINUOUS
 62
    7
 10
167.53117349999999
 20
395.70001200000002
 11
167.53117349999999
 21
407.70001200000002
  0
ARC
  8
_0-0_0
  6
CONTINUOUS
 62
    7
 10
169.5311585
 20
395.70001200000002
 40
0.500016
 50
180.00117
 51
359.995611
  0
LINE
  8
_0-0_0
  6
CONTINUOUS
 62
    7
 10
170.03117349999999
 20
395.70001200000002
 11
170.03117349999999
 21
407.70001200000002
  0
ARC
  8
_0-0_0
  6
CONTINUOUS
 62
    7
 10
169.5311585
 20
407.70001200000002
 40
0.500016
 50
0.001164
 51
179.99560600000004
  0
LINE
  8
_0-0_0
  6
CONTINUOUS
 62
    7
 10
169.03117349999999
 20
395.70001200000002
 11
169.03117349999999
 21
407.70001200000002
  0
ARC
  8
_0-0_0
  6
CONTINUOUS
 62
    7
 10
171.0311585
 20
395.70001200000002
 40
0.500016
 50
180.00117
 51
359.995611
  0
LINE
  8
_0-0_0
  6
CONTINUOUS
 62
    7
 10
171.53117349999999
 20
395.70001200000002
 11
171.53117349999999
 21
407.70001200000002
  0
ARC
  8
_0-0_0
  6
CONTINUOUS
 62
    7
 10
171.0311585
 20
407.70001200000002
 40
0.500016
 50
0.001164
 51
179.99560600000004
  0
LINE
  8
_0-0_0
  6
CONTINUOUS
 62
    7
 10
170.53117349999999
 20
395.70001200000002
 11
170.53117349999999
 21
407.70001200000002
  0
ARC
  8
_0-0_0
  6
CONTINUOUS
 62
    7
 10
172.5311585
 20
395.70001200000002
 40
0.500016
 50
180.00117
 51
359.995611
  0
LINE
  8
_0-0_0
  6
CONTINUOUS
 62
    7
 10
173.03117349999999
 20
395.70001200000002
 11
173.03117349999999
 21
407.70001200000002
  0
ARC
  8
_0-0_0
  6
CONTINUOUS
 62
    7
 10
172.5311585
 20
407.70001200000002
 40
0.500016
 50
0.001164
 51
179.99560600000004
  0
LINE
  8
_0-0_0
  6
CONTINUOUS
 62
    7
 10
172.03117349999999
 20
395.70001200000002
 11
172.03117349999999
 21
407.70001200000002
  0
LINE
  8
_0-0_0
  6
CONTINUOUS
 62
    7
 10
162.03117350000002
 20
412
 11
178.70661949999999
 21
412
  0
LINE
  8
_0-0_0
  6
CONTINUOUS
 62
    7
 10
70.531173500000023
 20
415.75
 11
76.031173500000023
 21
415.75
  0
ARC
  8
_0-0_0
  6
CONTINUOUS
 62
    7
 10
70.531173500000023
 20
415.25
 40
0.5
 50
90.000003000000007
 51
179.99999099999999
  0
ARC
  8
_0-0_0
  6
CONTINUOUS
 62
    7
 10
70.531173500000023
 20
390.70001200000002
 40
0.5
 50
179.99999099999999
 51
269.99999700000001
  0
ARC
  8
_0-0_0
  6
CONTINUOUS
 62
    7
 10
70.531173500000023
 20
406
 40
0.5
 50
90.000003000000007
 51
179.99999099999999
  0
ARC
  8
_0-0_0
  6
CONTINUOUS
 62
    7
 10
178.70661949999999
 20
392.40002399999997
 40
2
 50
269.99999700000001
 51
288.43501300000003
  0
LINE
  8
_0-0_0
  6
CONTINUOUS
 62
    7
 10
174.03117349999999
 20
390.40002399999997
 11
174.03117349999999
 21
390.65008499999999
  0
LINE
  8
_0-0_0
  6
CONTINUOUS
 62
    7
 10
174.03117349999999
 20
395.90002399999997
 11
178.70661949999999
 21
395.90002399999997
  0
LINE
  8
_0-0_0
  6
CONTINUOUS
 62
    7
 10
179.33908049999999
 20
411.89736900000003
 11
179.2195735
 21
411.93298299999998
  0
LINE
  8
_0-0_0
  6
CONTINUOUS
 62
    7
 10
179.2195735
 20
411.93298299999998
 11
179.09802249999998
 21
411.96087599999998
  0
LINE
  8
_0-0_0
  6
CONTINUOUS
 62
    7
 10
179.09802249999998
 20
411.96087599999998
 11
178.9748835
 21
411.98092700000001
  0
LINE
  8
_0-0_0
  6
CONTINUOUS
 62
    7
 10
178.9748835
 20
411.98092700000001
 11
178.8506625
 21
411.993042
  0
LINE
  8
_0-0_0
  6
CONTINUOUS
 62
    7
 10
178.8506625
 20
411.993042
 11
178.72584549999999
 21
411.997162
  0
LINE
  8
_0-0_0
  6
CONTINUOUS
 62
    7
 10
178.72584549999999
 20
411.997162
 11
178.70661949999999
 21
411.99710099999999
  0
ARC
  8
_0-0_0
  6
CONTINUOUS
 62
    7
 10
178.70661949999999
 20
410
 40
2
 50
71.565000999999995
 51
90.000003000000007
  0
LINE
  8
_0-0_0
  6
CONTINUOUS
 62
    7
 10
95.00271650000002
 20
402.40002399999997
 11
87.059638500000005
 21
402.40002399999997
  0
ARC
  8
_0-0_0
  6
CONTINUOUS
 62
    7
 10
87.059638500000005
 20
402.90002399999997
 40
0.5
 50
210.00000299999999
 51
269.99999700000001
  0
LINE
  8
_0-0_0
  6
CONTINUOUS
 62
    7
 10
86.626625499999989
 20
402.65002399999997
 11
84.548164499999984
 21
406.25
  0
ARC
  8
_0-0_0
  6
CONTINUOUS
 62
    7
 10
84.981178499999999
 20
406.5
 40
0.5
 50
149.99999700000001
 51
210.00000299999996
  0
LINE
  8
_0-0_0
  6
CONTINUOUS
 62
    7
 10
84.548164499999984
 20
406.75
 11
86.626625499999989
 21
410.35000600000001
  0
ARC
  8
_0-0_0
  6
CONTINUOUS
 62
    7
 10
87.059638500000005
 20
410.10000600000001
 40
0.5
 50
90.000003000000007
 51
149.99999700000001
  0
LINE
  8
_0-0_0
  6
CONTINUOUS
 62
    7
 10
87.059638500000005
 20
410.60000600000001
 11
95.00271650000002
 21
410.60000600000001
  0
ARC
  8
_0-0_0
  6
CONTINUOUS
 62
    7
 10
95.00271650000002
 20
410.10000600000001
 40
0.5
 50
30.000001000000001
 51
90.000003000000007
  0
LINE
  8
_0-0_0
  6
CONTINUOUS
 62
    7
 10
95.435729499999979
 20
410.35000600000001
 11
97.514190499999984
 21
406.75
  0
ARC
  8
_0-0_0
  6
CONTINUOUS
 62
    7
 10
97.08117649999997
 20
406.5
 40
0.5
 50
329.99998900000003
 51
30.000000999999983
  0
LINE
  8
_0-0_0
  6
CONTINUOUS
 62
    7
 10
97.514190499999984
 20
406.25
 11
95.435729499999979
 21
402.65002399999997
  0
ARC
  8
_0-0_0
  6
CONTINUOUS
 62
    7
 10
95.00271650000002
 20
402.90002399999997
 40
0.5
 50
269.99999700000001
 51
329.99998900000003
  0
ARC
  8
_0-0_0
  6
CONTINUOUS
 62
    7
 10
143.00190750000002
 20
403
 40
0.5
 50
210.00000299999999
 51
269.99999700000001
  0
LINE
  8
_0-0_0
  6
CONTINUOUS
 62
    7
 10
142.5688935
 20
402.75
 11
140.54817149999997
 21
406.25
  0
ARC
  8
_0-0_0
  6
CONTINUOUS
 62
    7
 10
140.98117049999996
 20
406.5
 40
0.5
 50
149.99999700000001
 51
210.00000299999996
  0
LINE
  8
_0-0_0
  6
CONTINUOUS
 62
    7
 10
140.54817149999997
 20
406.75
 11
142.5688935
 21
410.25
  0
ARC
  8
_0-0_0
  6
CONTINUOUS
 62
    7
 10
143.00190750000002
 20
410
 40
0.5
 50
90.000003000000007
 51
149.99999700000001
  0
LINE
  8
_0-0_0
  6
CONTINUOUS
 62
    7
 10
143.00190750000002
 20
410.5
 11
151.06045549999999
 21
410.5
  0
ARC
  8
_0-0_0
  6
CONTINUOUS
 62
    7
 10
151.06045549999999
 20
410
 40
0.5
 50
30.000001000000001
 51
90.000003000000007
  0
LINE
  8
_0-0_0
  6
CONTINUOUS
 62
    7
 10
151.4934695
 20
410.25
 11
153.51419049999998
 21
406.75
  0
ARC
  8
_0-0_0
  6
CONTINUOUS
 62
    7
 10
153.08117649999997
 20
406.5
 40
0.5
 50
329.99998900000003
 51
30.000000999999983
  0
LINE
  8
_0-0_0
  6
CONTINUOUS
 62
    7
 10
153.51419049999998
 20
406.25
 11
151.4934695
 21
402.75
  0
ARC
  8
_0-0_0
  6
CONTINUOUS
 62
    7
 10
151.06045549999999
 20
403
 40
0.5
 50
269.99999700000001
 51
329.99998900000003
  0
LINE
  8
_0-0_0
  6
CONTINUOUS
 62
    7
 10
151.06045549999999
 20
402.5
 11
143.00190750000002
 21
402.5
  0
LINE
  8
_0-0_0
  6
CONTINUOUS
 62
    7
 10
73.031173500000023
 20
411.13043199999998
 11
73.031173500000023
 21
410.30419899999998
  0
LINE
  8
_0-0_0
  6
CONTINUOUS
 62
    7
 10
70.531173500000023
 20
406.5
 11
72.731170499999962
 21
406.5
  0
LINE
  8
_0-0_0
  6
CONTINUOUS
 62
    7
 10
73.031173500000023
 20
406.80001800000002
 11
73.031173500000023
 21
409.02832000000001
  0
LINE
  8
_0-0_0
  6
CONTINUOUS
 62
    7
 10
73.031173500000023
 20
411.29968300000002
 11
73.031173500000023
 21
411.13043199999998
  0
LINE
  8
_0-0_0
  6
CONTINUOUS
 62
    7
 10
81.231178499999999
 20
411.90002399999997
 11
80.83117649999997
 21
411.90002399999997
  0
LINE
  8
_0-0_0
  6
CONTINUOUS
 62
    7
 10
81.231178499999999
 20
411.90002399999997
 11
81.231178499999999
 21
412.55001800000002
  0
ARC
  8
_0-0_0
  6
CONTINUOUS
 62
    7
 10
81.481178499999999
 20
412.55001800000002
 40
0.25
 50
90.000003000000007
 51
179.99999099999999
  0
LINE
  8
_0-0_0
  6
CONTINUOUS
 62
    7
 10
81.481178499999999
 20
412.80001800000002
 11
82.131172499999991
 21
412.80001800000002
  0
LINE
  8
_0-0_0
  6
CONTINUOUS
 62
    7
 10
82.131172499999991
 20
412.80001800000002
 11
82.131172499999991
 21
413.20001200000002
  0
LINE
  8
_0-0_0
  6
CONTINUOUS
 62
    7
 10
81.481178499999999
 20
413.20001200000002
 11
82.131172499999991
 21
413.20001200000002
  0
ARC
  8
_0-0_0
  6
CONTINUOUS
 62
    7
 10
81.481178499999999
 20
413.45001200000002
 40
0.25
 50
179.99999099999999
 51
269.99999700000001
  0
LINE
  8
_0-0_0
  6
CONTINUOUS
 62
    7
 10
81.231178499999999
 20
414.10000600000001
 11
81.231178499999999
 21
413.45001200000002
  0
LINE
  8
_0-0_0
  6
CONTINUOUS
 62
    7
 10
81.231178499999999
 20
414.10000600000001
 11
80.83117649999997
 21
414.10000600000001
  0
LINE
  8
_0-0_0
  6
CONTINUOUS
 62
    7
 10
80.83117649999997
 20
414.10000600000001
 11
80.83117649999997
 21
413.45001200000002
  0
ARC
  8
_0-0_0
  6
CONTINUOUS
 62
    7
 10
80.58117649999997
 20
413.45001200000002
 40
0.25
 50
269.99999700000001
 51
0
  0
LINE
  8
_0-0_0
  6
CONTINUOUS
 62
    7
 10
80.58117649999997
 20
413.20001200000002
 11
79.931175499999995
 21
413.20001200000002
  0
LINE
  8
_0-0_0
  6
CONTINUOUS
 62
    7
 10
79.931175499999995
 20
412.80001800000002
 11
79.931175499999995
 21
413.20001200000002
  0
LINE
  8
_0-0_0
  6
CONTINUOUS
 62
    7
 10
80.58117649999997
 20
412.80001800000002
 11
79.931175499999995
 21
412.80001800000002
  0
ARC
  8
_0-0_0
  6
CONTINUOUS
 62
    7
 10
80.58117649999997
 20
412.55001800000002
 40
0.25
 50
0
 51
90.000003000000007
  0
LINE
  8
_0-0_0
  6
CONTINUOUS
 62
    7
 10
80.83117649999997
 20
411.90002399999997
 11
80.83117649999997
 21
412.55001800000002
  0
LINE
  8
_0-0_0
  6
CONTINUOUS
 62
    7
 10
160.23117049999996
 20
411.90002399999997
 11
159.83117649999997
 21
411.90002399999997
  0
LINE
  8
_0-0_0
  6
CONTINUOUS
 62
    7
 10
160.23117049999996
 20
411.90002399999997
 11
160.23117049999996
 21
412.55001800000002
  0
ARC
  8
_0-0_0
  6
CONTINUOUS
 62
    7
 10
160.48117049999996
 20
412.55001800000002
 40
0.25
 50
90.000003000000007
 51
179.99999099999999
  0
LINE
  8
_0-0_0
  6
CONTINUOUS
 62
    7
 10
160.48117049999996
 20
412.80001800000002
 11
161.13117950000003
 21
412.80001800000002
  0
LINE
  8
_0-0_0
  6
CONTINUOUS
 62
    7
 10
161.13117950000003
 20
412.80001800000002
 11
161.13117950000003
 21
413.20001200000002
  0
LINE
  8
_0-0_0
  6
CONTINUOUS
 62
    7
 10
160.48117049999996
 20
413.20001200000002
 11
161.13117950000003
 21
413.20001200000002
  0
ARC
  8
_0-0_0
  6
CONTINUOUS
 62
    7
 10
160.48117049999996
 20
413.45001200000002
 40
0.25
 50
179.99999099999999
 51
269.99999700000001
  0
LINE
  8
_0-0_0
  6
CONTINUOUS
 62
    7
 10
160.23117049999996
 20
414.10000600000001
 11
160.23117049999996
 21
413.45001200000002
  0
LINE
  8
_0-0_0
  6
CONTINUOUS
 62
    7
 10
160.23117049999996
 20
414.10000600000001
 11
159.83117649999997
 21
414.10000600000001
  0
LINE
  8
_0-0_0
  6
CONTINUOUS
 62
    7
 10
159.83117649999997
 20
414.10000600000001
 11
159.83117649999997
 21
413.45001200000002
  0
ARC
  8
_0-0_0
  6
CONTINUOUS
 62
    7
 10
159.58117649999997
 20
413.45001200000002
 40
0.25
 50
269.99999700000001
 51
0
  0
LINE
  8
_0-0_0
  6
CONTINUOUS
 62
    7
 10
159.58117649999997
 20
413.20001200000002
 11
158.93118249999998
 21
413.20001200000002
  0
LINE
  8
_0-0_0
  6
CONTINUOUS
 62
    7
 10
158.93118249999998
 20
412.80001800000002
 11
158.93118249999998
 21
413.20001200000002
  0
LINE
  8
_0-0_0
  6
CONTINUOUS
 62
    7
 10
159.58117649999997
 20
412.80001800000002
 11
158.93118249999998
 21
412.80001800000002
  0
ARC
  8
_0-0_0
  6
CONTINUOUS
 62
    7
 10
159.58117649999997
 20
412.55001800000002
 40
0.25
 50
0
 51
90.000003000000007
  0
LINE
  8
_0-0_0
  6
CONTINUOUS
 62
    7
 10
159.83117649999997
 20
411.90002399999997
 11
159.83117649999997
 21
412.55001800000002
  0
LINE
  8
_0-0_0
  6
CONTINUOUS
 62
    7
 10
179.78117349999999
 20
390.64999399999999
 11
179.33908049999999
 21
390.50262500000002
  0
LINE
  8
_0-0_0
  6
CONTINUOUS
 62
    7
 10
183.50552350000001
 20
395.90002399999997
 11
184.19888349999999
 21
395.90002399999997
  0
LINE
  8
_0-0_0
  6
CONTINUOUS
 62
    7
 10
183.50552350000001
 20
395.90002399999997
 11
179.1809695
 21
395.90002399999997
  0
LINE
  8
_0-0_0
  6
CONTINUOUS
 62
    7
 10
178.70661949999999
 20
395.90002399999997
 11
179.1809695
 21
395.90002399999997
  0
LINE
  8
_0-0_0
  6
CONTINUOUS
 62
    7
 10
183.6636355
 20
410.45584100000002
 11
179.33908049999999
 21
411.89736900000003
  0
LINE
  8
_0-0_0
  6
CONTINUOUS
 62
    7
 10
73.031173500000023
 20
410.30419899999998
 11
73.031173500000023
 21
409.02832000000001
  0
ARC
  8
_0-0_0
  6
CONTINUOUS
 62
    7
 10
72.731170499999962
 20
406.80001800000002
 40
0.2999999999999999
 50
269.99999700000001
 51
0
  0
LINE
  8
_0-0_0
  6
CONTINUOUS
 62
    7
 10
70.575508500000012
 20
410.57870500000001
 11
70.575508500000012
 21
407.25
  0
LINE
  8
_0-0_0
  6
CONTINUOUS
 62
    7
 10
70.575508500000012
 20
411.75
 11
70.575508500000012
 21
410.57870500000001
  0
LINE
  8
_0-0_0
  6
CONTINUOUS
 62
    7
 10
185.03117349999999
 20
395.14996300000001
 11
185.03117349999999
 21
396.27099600000003
  0
LINE
  8
_0-0_0
  6
CONTINUOUS
 62
    7
 10
185.03117349999999
 20
397.19232199999999
 11
185.03117349999999
 21
396.27099600000003
  0
LINE
  8
_0-0_0
  6
CONTINUOUS
 62
    7
 10
184.73117049999999
 20
398.98800699999998
 11
184.78997749999999
 21
398.74117999999999
  0
LINE
  8
_0-0_0
  6
CONTINUOUS
 62
    7
 10
184.78997749999999
 20
398.74117999999999
 11
184.83973649999999
 21
398.54882800000001
  0
LINE
  8
_0-0_0
  6
CONTINUOUS
 62
    7
 10
184.83973649999999
 20
398.54882800000001
 11
184.91087350000001
 21
398.283051
  0
LINE
  8
_0-0_0
  6
CONTINUOUS
 62
    7
 10
184.91087350000001
 20
398.283051
 11
184.94383249999998
 21
398.156342
  0
LINE
  8
_0-0_0
  6
CONTINUOUS
 62
    7
 10
184.94383249999998
 20
398.156342
 11
184.96908550000001
 21
398.05291699999998
  0
LINE
  8
_0-0_0
  6
CONTINUOUS
 62
    7
 10
184.96908550000001
 20
398.05291699999998
 11
184.9911195
 21
397.95297199999999
  0
LINE
  8
_0-0_0
  6
CONTINUOUS
 62
    7
 10
184.9911195
 20
397.95297199999999
 11
185.0124965
 21
397.83526599999999
  0
LINE
  8
_0-0_0
  6
CONTINUOUS
 62
    7
 10
185.0124965
 20
397.83526599999999
 11
185.0210725
 21
397.77313199999998
  0
LINE
  8
_0-0_0
  6
CONTINUOUS
 62
    7
 10
185.0210725
 20
397.77313199999998
 11
185.02714549999999
 21
397.71252399999997
  0
LINE
  8
_0-0_0
  6
CONTINUOUS
 62
    7
 10
185.02714549999999
 20
397.71252399999997
 11
185.03015149999999
 21
397.66329999999999
  0
LINE
  8
_0-0_0
  6
CONTINUOUS
 62
    7
 10
185.03015149999999
 20
397.66329999999999
 11
185.03117349999999
 21
397.61505099999999
  0
LINE
  8
_0-0_0
  6
CONTINUOUS
 62
    7
 10
184.73117049999999
 20
403.41204800000003
 11
184.64772049999999
 21
403.03335600000003
  0
LINE
  8
_0-0_0
  6
CONTINUOUS
 62
    7
 10
184.64772049999999
 20
403.03335600000003
 11
184.6076205
 21
402.84182700000002
  0
LINE
  8
_0-0_0
  6
CONTINUOUS
 62
    7
 10
184.6076205
 20
402.84182700000002
 11
184.55154450000001
 21
402.55181900000002
  0
LINE
  8
_0-0_0
  6
CONTINUOUS
 62
    7
 10
184.55154450000001
 20
402.55181900000002
 11
184.5139465
 21
402.33221400000002
  0
LINE
  8
_0-0_0
  6
CONTINUOUS
 62
    7
 10
184.5139465
 20
402.33221400000002
 11
184.4812925
 21
402.11096199999997
  0
LINE
  8
_0-0_0
  6
CONTINUOUS
 62
    7
 10
184.4812925
 20
402.11096199999997
 11
184.45413249999999
 21
401.88415500000002
  0
LINE
  8
_0-0_0
  6
CONTINUOUS
 62
    7
 10
184.45413249999999
 20
401.88415500000002
 11
184.4340665
 21
401.656769
  0
LINE
  8
_0-0_0
  6
CONTINUOUS
 62
    7
 10
184.4340665
 20
401.656769
 11
184.42691049999999
 21
401.54302999999999
  0
LINE
  8
_0-0_0
  6
CONTINUOUS
 62
    7
 10
184.42691049999999
 20
401.54302999999999
 11
184.4217525
 21
401.42935199999999
  0
LINE
  8
_0-0_0
  6
CONTINUOUS
 62
    7
 10
184.4217525
 20
401.42935199999999
 11
184.41804450000001
 21
401.27792399999998
  0
LINE
  8
_0-0_0
  6
CONTINUOUS
 62
    7
 10
184.41804450000001
 20
401.27792399999998
 11
184.41798349999999
 21
401.12667800000003
  0
LINE
  8
_0-0_0
  6
CONTINUOUS
 62
    7
 10
184.41798349999999
 20
401.12667800000003
 11
184.42155449999998
 21
400.975616
  0
LINE
  8
_0-0_0
  6
CONTINUOUS
 62
    7
 10
184.42155449999998
 20
400.975616
 11
184.4310605
 21
400.78707900000001
  0
LINE
  8
_0-0_0
  6
CONTINUOUS
 62
    7
 10
184.4310605
 20
400.78707900000001
 11
184.44593849999998
 21
400.598816
  0
LINE
  8
_0-0_0
  6
CONTINUOUS
 62
    7
 10
184.44593849999998
 20
400.598816
 11
184.46585049999999
 21
400.410889
  0
LINE
  8
_0-0_0
  6
CONTINUOUS
 62
    7
 10
184.46585049999999
 20
400.410889
 11
184.48223849999999
 21
400.28201300000001
  0
LINE
  8
_0-0_0
  6
CONTINUOUS
 62
    7
 10
184.48223849999999
 20
400.28201300000001
 11
184.50065649999999
 21
400.15335099999999
  0
LINE
  8
_0-0_0
  6
CONTINUOUS
 62
    7
 10
184.50065649999999
 20
400.15335099999999
 11
184.5248105
 21
400.00140399999998
  0
LINE
  8
_0-0_0
  6
CONTINUOUS
 62
    7
 10
184.5248105
 20
400.00140399999998
 11
184.5512085
 21
399.85006700000002
  0
LINE
  8
_0-0_0
  6
CONTINUOUS
 62
    7
 10
184.5512085
 20
399.85006700000002
 11
184.60737649999999
 21
399.55944799999997
  0
LINE
  8
_0-0_0
  6
CONTINUOUS
 62
    7
 10
184.60737649999999
 20
399.55944799999997
 11
184.6475375
 21
399.36749300000002
  0
LINE
  8
_0-0_0
  6
CONTINUOUS
 62
    7
 10
184.6475375
 20
399.36749300000002
 11
184.73117049999999
 21
398.98800699999998
  0
LINE
  8
_0-0_0
  6
CONTINUOUS
 62
    7
 10
184.73118550000001
 20
403.41204800000003
 11
184.78997749999999
 21
403.65887500000002
  0
LINE
  8
_0-0_0
  6
CONTINUOUS
 62
    7
 10
184.78997749999999
 20
403.65887500000002
 11
184.83973649999999
 21
403.85119600000002
  0
LINE
  8
_0-0_0
  6
CONTINUOUS
 62
    7
 10
184.83973649999999
 20
403.85119600000002
 11
184.91085849999999
 21
404.11694299999999
  0
LINE
  8
_0-0_0
  6
CONTINUOUS
 62
    7
 10
184.91085849999999
 20
404.11694299999999
 11
184.94381749999999
 21
404.243652
  0
LINE
  8
_0-0_0
  6
CONTINUOUS
 62
    7
 10
184.94381749999999
 20
404.243652
 11
184.96908550000001
 21
404.34707600000002
  0
LINE
  8
_0-0_0
  6
CONTINUOUS
 62
    7
 10
184.96908550000001
 20
404.34707600000002
 11
184.9911195
 21
404.44705199999999
  0
LINE
  8
_0-0_0
  6
CONTINUOUS
 62
    7
 10
184.9911195
 20
404.44705199999999
 11
185.0124965
 21
404.56475799999998
  0
LINE
  8
_0-0_0
  6
CONTINUOUS
 62
    7
 10
185.0124965
 20
404.56475799999998
 11
185.0210725
 21
404.626892
  0
LINE
  8
_0-0_0
  6
CONTINUOUS
 62
    7
 10
185.0210725
 20
404.626892
 11
185.02714549999999
 21
404.6875
  0
LINE
  8
_0-0_0
  6
CONTINUOUS
 62
    7
 10
185.02714549999999
 20
404.6875
 11
185.03015149999999
 21
404.73672499999998
  0
LINE
  8
_0-0_0
  6
CONTINUOUS
 62
    7
 10
185.03015149999999
 20
404.73672499999998
 11
185.03117349999999
 21
404.784943
  0
LINE
  8
_0-0_0
  6
CONTINUOUS
 62
    7
 10
185.03117349999999
 20
408.55847199999999
 11
185.03117349999999
 21
405.20770299999998
  0
ARC
  8
_0-0_0
  6
CONTINUOUS
 62
    7
 10
183.03117349999999
 20
408.55847199999999
 40
2
 50
0
 51
71.565000999999995
  0
CIRCLE
  8
_0-0_0
  6
CONTINUOUS
 62
    7
 10
91.031173500000023
 20
406.5
 40
2.5
  0
CIRCLE
  8
_0-0_0
  6
CONTINUOUS
 62
    7
 10
147.03117350000002
 20
406.5
 40
2.5
  0
LINE
  8
_0-0_0
  6
CONTINUOUS
 62
    7
 10
70.431175499999995
 20
410.45886200000001
 11
70.431175499999995
 21
407.5
  0
LINE
  8
_0-0_0
  6
CONTINUOUS
 62
    7
 10
70.431175499999995
 20
411.5
 11
70.431175499999995
 21
410.45886200000001
  0
LINE
  8
_0-0_0
  6
CONTINUOUS
 62
    7
 10
200.03117349999999
 20
391.67456099999998
 11
200.03117349999999
 21
391.82128899999998
  0
LINE
  8
_0-0_0
  6
CONTINUOUS
 62
    7
 10
200.03117349999999
 20
391.484039
 11
200.03117349999999
 21
391.67456099999998
  0
LINE
  8
_0-0_0
  6
CONTINUOUS
 62
    7
 10
200.03117349999999
 20
391.30902099999997
 11
200.03117349999999
 21
391.484039
  0
LINE
  8
_0-0_0
  6
CONTINUOUS
 62
    7
 10
200.03117349999999
 20
391.15142800000001
 11
200.03117349999999
 21
391.30902099999997
  0
LINE
  8
_0-0_0
  6
CONTINUOUS
 62
    7
 10
200.03117349999999
 20
391.01299999999998
 11
200.03117349999999
 21
391.15142800000001
  0
LINE
  8
_0-0_0
  6
CONTINUOUS
 62
    7
 10
200.03117349999999
 20
390.89523300000002
 11
200.03117349999999
 21
391.01299999999998
  0
LINE
  8
_0-0_0
  6
CONTINUOUS
 62
    7
 10
200.03117349999999
 20
390.79943800000001
 11
200.03117349999999
 21
390.89523300000002
  0
LINE
  8
_0-0_0
  6
CONTINUOUS
 62
    7
 10
200.03117349999999
 20
390.72668499999997
 11
200.03117349999999
 21
390.79943800000001
  0
LINE
  8
_0-0_0
  6
CONTINUOUS
 62
    7
 10
200.03117349999999
 20
390.67770400000001
 11
200.03117349999999
 21
390.72668499999997
  0
LINE
  8
_0-0_0
  6
CONTINUOUS
 62
    7
 10
200.03117349999999
 20
390.653076
 11
200.03117349999999
 21
390.67770400000001
  0
LINE
  8
_0-0_0
  6
CONTINUOUS
 62
    7
 10
200.03117349999999
 20
390.65002399999997
 11
200.03117349999999
 21
390.653076
  0
LINE
  8
_0-0_0
  6
CONTINUOUS
 62
    7
 10
200.03117349999999
 20
395.14691199999999
 11
200.03117349999999
 21
395.15002399999997
  0
LINE
  8
_0-0_0
  6
CONTINUOUS
 62
    7
 10
200.03117349999999
 20
395.12231400000002
 11
200.03117349999999
 21
395.14691199999999
  0
LINE
  8
_0-0_0
  6
CONTINUOUS
 62
    7
 10
200.03117349999999
 20
395.07333399999999
 11
200.03117349999999
 21
395.15002399999997
  0
LINE
  8
_0-0_0
  6
CONTINUOUS
 62
    7
 10
200.03117349999999
 20
395.00054899999998
 11
200.03117349999999
 21
395.07333399999999
  0
LINE
  8
_0-0_0
  6
CONTINUOUS
 62
    7
 10
200.03117349999999
 20
394.904785
 11
200.03117349999999
 21
395.00054899999998
  0
LINE
  8
_0-0_0
  6
CONTINUOUS
 62
    7
 10
200.03117349999999
 20
394.874573
 11
200.03117349999999
 21
394.904785
  0
LINE
  8
_0-0_0
  6
CONTINUOUS
 62
    7
 10
200.03117349999999
 20
394.78701799999999
 11
200.03117349999999
 21
394.874573
  0
LINE
  8
_0-0_0
  6
CONTINUOUS
 62
    7
 10
200.03117349999999
 20
394.64859000000001
 11
200.03117349999999
 21
394.78701799999999
  0
LINE
  8
_0-0_0
  6
CONTINUOUS
 62
    7
 10
200.03117349999999
 20
394.49099699999999
 11
200.03117349999999
 21
394.64859000000001
  0
LINE
  8
_0-0_0
  6
CONTINUOUS
 62
    7
 10
200.03117349999999
 20
394.31597900000003
 11
200.03117349999999
 21
394.49099699999999
  0
LINE
  8
_0-0_0
  6
CONTINUOUS
 62
    7
 10
200.03117349999999
 20
394.125427
 11
200.03117349999999
 21
394.31597900000003
  0
LINE
  8
_0-0_0
  6
CONTINUOUS
 62
    7
 10
200.03117349999999
 20
393.92147799999998
 11
200.03117349999999
 21
394.125427
  0
LINE
  8
_0-0_0
  6
CONTINUOUS
 62
    7
 10
200.03117349999999
 20
393.70632899999998
 11
200.03117349999999
 21
393.92147799999998
  0
LINE
  8
_0-0_0
  6
CONTINUOUS
 62
    7
 10
200.03117349999999
 20
393.48236100000003
 11
200.03117349999999
 21
393.70632899999998
  0
LINE
  8
_0-0_0
  6
CONTINUOUS
 62
    7
 10
200.03117349999999
 20
393.25198399999999
 11
200.03117349999999
 21
393.48236100000003
  0
LINE
  8
_0-0_0
  6
CONTINUOUS
 62
    7
 10
200.03117349999999
 20
393.01776100000001
 11
200.03117349999999
 21
393.25198399999999
  0
LINE
  8
_0-0_0
  6
CONTINUOUS
 62
    7
 10
200.03117349999999
 20
392.78225700000002
 11
200.03117349999999
 21
393.01776100000001
  0
LINE
  8
_0-0_0
  6
CONTINUOUS
 62
    7
 10
200.03117349999999
 20
392.54803500000003
 11
200.03117349999999
 21
392.78225700000002
  0
LINE
  8
_0-0_0
  6
CONTINUOUS
 62
    7
 10
200.03117349999999
 20
392.317657
 11
200.03117349999999
 21
392.54803500000003
  0
LINE
  8
_0-0_0
  6
CONTINUOUS
 62
    7
 10
200.03117349999999
 20
392.09368899999998
 11
200.03117349999999
 21
392.317657
  0
LINE
  8
_0-0_0
  6
CONTINUOUS
 62
    7
 10
200.03117349999999
 20
391.87853999999999
 11
200.03117349999999
 21
392.09368899999998
  0
LINE
  8
_0-0_0
  6
CONTINUOUS
 62
    7
 10
200.03117349999999
 20
391.82128899999998
 11
200.03117349999999
 21
391.87853999999999
  0
LINE
  8
_0-0_0
  6
CONTINUOUS
 62
    7
 10
185.03117349999999
 20
399.63797
 11
185.03117349999999
 21
398.59231599999998
  0
LINE
  8
_0-0_0
  6
CONTINUOUS
 62
    7
 10
185.03117349999999
 20
397.30770899999999
 11
185.03117349999999
 21
398.59231599999998
  0
LINE
  8
_0-0_0
  6
CONTINUOUS
 62
    7
 10
185.03117349999999
 20
397.19232199999999
 11
185.03117349999999
 21
397.30770899999999
  0
LINE
  8
_0-0_0
  6
CONTINUOUS
 62
    7
 10
185.03117349999999
 20
399.63797
 11
185.03117349999999
 21
402.76205399999998
  0
LINE
  8
_0-0_0
  6
CONTINUOUS
 62
    7
 10
185.03117349999999
 20
405.20770299999998
 11
185.03117349999999
 21
405.09231599999998
  0
LINE
  8
_0-0_0
  6
CONTINUOUS
 62
    7
 10
185.03117349999999
 20
403.80770899999999
 11
185.03117349999999
 21
405.09231599999998
  0
LINE
  8
_0-0_0
  6
CONTINUOUS
 62
    7
 10
185.03117349999999
 20
403.80770899999999
 11
185.03117349999999
 21
402.76205399999998
  0
LINE
  8
_0-0_0
  6
CONTINUOUS
 62
    7
 10
185.03117349999999
 20
405.09231599999998
 11
194.73899850000001
 21
405.09231599999998
  0
LINE
  8
_0-0_0
  6
CONTINUOUS
 62
    7
 10
194.73899850000001
 20
407.70001200000002
 11
194.7934875
 21
407.630066
  0
LINE
  8
_0-0_0
  6
CONTINUOUS
 62
    7
 10
194.7934875
 20
407.630066
 11
194.84458949999998
 21
407.56124899999998
  0
LINE
  8
_0-0_0
  6
CONTINUOUS
 62
    7
 10
194.84458949999998
 20
407.56124899999998
 11
194.89222749999999
 21
407.49374399999999
  0
LINE
  8
_0-0_0
  6
CONTINUOUS
 62
    7
 10
194.89222749999999
 20
407.49374399999999
 11
194.9367215
 21
407.42718500000001
  0
LINE
  8
_0-0_0
  6
CONTINUOUS
 62
    7
 10
194.9367215
 20
407.42718500000001
 11
194.99143949999998
 21
407.33966099999998
  0
LINE
  8
_0-0_0
  6
CONTINUOUS
 62
    7
 10
194.99143949999998
 20
407.33966099999998
 11
195.0409545
 21
407.25353999999999
  0
LINE
  8
_0-0_0
  6
CONTINUOUS
 62
    7
 10
195.0409545
 20
407.25353999999999
 11
195.0854185
 21
407.168701
  0
LINE
  8
_0-0_0
  6
CONTINUOUS
 62
    7
 10
195.0854185
 20
407.168701
 11
195.1323855
 21
407.06839000000002
  0
LINE
  8
_0-0_0
  6
CONTINUOUS
 62
    7
 10
195.1323855
 20
407.06839000000002
 11
195.17259250000001
 21
406.96948200000003
  0
LINE
  8
_0-0_0
  6
CONTINUOUS
 62
    7
 10
195.17259250000001
 20
406.96948200000003
 11
195.20625250000001
 21
406.87170400000002
  0
LINE
  8
_0-0_0
  6
CONTINUOUS
 62
    7
 10
195.20625250000001
 20
406.87170400000002
 11
195.23355050000001
 21
406.774902
  0
LINE
  8
_0-0_0
  6
CONTINUOUS
 62
    7
 10
195.23355050000001
 20
406.774902
 11
195.2545925
 21
406.67886399999998
  0
LINE
  8
_0-0_0
  6
CONTINUOUS
 62
    7
 10
195.2545925
 20
406.67886399999998
 11
195.2705235
 21
406.57501200000002
  0
LINE
  8
_0-0_0
  6
CONTINUOUS
 62
    7
 10
195.2705235
 20
406.57501200000002
 11
195.2792815
 21
406.471588
  0
LINE
  8
_0-0_0
  6
CONTINUOUS
 62
    7
 10
195.2792815
 20
406.471588
 11
195.28091449999999
 21
406.36834700000003
  0
LINE
  8
_0-0_0
  6
CONTINUOUS
 62
    7
 10
195.28091449999999
 20
406.36834700000003
 11
195.2754515
 21
406.26504499999999
  0
LINE
  8
_0-0_0
  6
CONTINUOUS
 62
    7
 10
195.2754515
 20
406.26504499999999
 11
195.2628325
 21
406.16146900000001
  0
LINE
  8
_0-0_0
  6
CONTINUOUS
 62
    7
 10
195.2628325
 20
406.16146900000001
 11
195.24302649999998
 21
406.05731200000002
  0
LINE
  8
_0-0_0
  6
CONTINUOUS
 62
    7
 10
195.24302649999998
 20
406.05731200000002
 11
195.21588149999999
 21
405.95236199999999
  0
LINE
  8
_0-0_0
  6
CONTINUOUS
 62
    7
 10
195.21588149999999
 20
405.95236199999999
 11
195.1812285
 21
405.84631300000001
  0
LINE
  8
_0-0_0
  6
CONTINUOUS
 62
    7
 10
195.1812285
 20
405.84631300000001
 11
195.13888549999999
 21
405.73895299999998
  0
LINE
  8
_0-0_0
  6
CONTINUOUS
 62
    7
 10
195.13888549999999
 20
405.73895299999998
 11
195.0885615
 21
405.62994400000002
  0
LINE
  8
_0-0_0
  6
CONTINUOUS
 62
    7
 10
195.0885615
 20
405.62994400000002
 11
195.03431649999999
 21
405.526794
  0
LINE
  8
_0-0_0
  6
CONTINUOUS
 62
    7
 10
195.03431649999999
 20
405.526794
 11
194.9726105
 21
405.42175300000002
  0
LINE
  8
_0-0_0
  6
CONTINUOUS
 62
    7
 10
194.9726105
 20
405.42175300000002
 11
194.90309149999999
 21
405.31451399999997
  0
LINE
  8
_0-0_0
  6
CONTINUOUS
 62
    7
 10
194.90309149999999
 20
405.31451399999997
 11
194.8253785
 21
405.20480300000003
  0
LINE
  8
_0-0_0
  6
CONTINUOUS
 62
    7
 10
194.8253785
 20
405.20480300000003
 11
194.73899850000001
 21
405.09231599999998
  0
LINE
  8
_0-0_0
  6
CONTINUOUS
 62
    7
 10
185.03117349999999
 20
407.70001200000002
 11
194.73899850000001
 21
407.70001200000002
  0
LINE
  8
_0-0_0
  6
CONTINUOUS
 62
    7
 10
194.78117349999999
 20
407.70001200000002
 11
194.73899850000001
 21
407.70001200000002
  0
LINE
  8
_0-0_0
  6
CONTINUOUS
 62
    7
 10
185.03117349999999
 20
397.30770899999999
 11
194.73899850000001
 21
397.30770899999999
  0
LINE
  8
_0-0_0
  6
CONTINUOUS
 62
    7
 10
194.73899850000001
 20
397.30770899999999
 11
194.7934875
 21
397.23776199999998
  0
LINE
  8
_0-0_0
  6
CONTINUOUS
 62
    7
 10
194.7934875
 20
397.23776199999998
 11
194.84458949999998
 21
397.16894500000001
  0
LINE
  8
_0-0_0
  6
CONTINUOUS
 62
    7
 10
194.84458949999998
 20
397.16894500000001
 11
194.89222749999999
 21
397.10144000000003
  0
LINE
  8
_0-0_0
  6
CONTINUOUS
 62
    7
 10
194.89222749999999
 20
397.10144000000003
 11
194.9367215
 21
397.03488199999998
  0
LINE
  8
_0-0_0
  6
CONTINUOUS
 62
    7
 10
194.9367215
 20
397.03488199999998
 11
194.99143949999998
 21
396.94735700000001
  0
LINE
  8
_0-0_0
  6
CONTINUOUS
 62
    7
 10
194.99143949999998
 20
396.94735700000001
 11
195.0409545
 21
396.86123700000002
  0
LINE
  8
_0-0_0
  6
CONTINUOUS
 62
    7
 10
195.0409545
 20
396.86123700000002
 11
195.0854185
 21
396.77642800000001
  0
LINE
  8
_0-0_0
  6
CONTINUOUS
 62
    7
 10
195.0854185
 20
396.77642800000001
 11
195.1323855
 21
396.676086
  0
LINE
  8
_0-0_0
  6
CONTINUOUS
 62
    7
 10
195.1323855
 20
396.676086
 11
195.17259250000001
 21
396.577179
  0
LINE
  8
_0-0_0
  6
CONTINUOUS
 62
    7
 10
195.17259250000001
 20
396.577179
 11
195.20625250000001
 21
396.479401
  0
LINE
  8
_0-0_0
  6
CONTINUOUS
 62
    7
 10
195.20625250000001
 20
396.479401
 11
195.23355050000001
 21
396.38259900000003
  0
LINE
  8
_0-0_0
  6
CONTINUOUS
 62
    7
 10
195.23355050000001
 20
396.38259900000003
 11
195.2545925
 21
396.28656000000001
  0
LINE
  8
_0-0_0
  6
CONTINUOUS
 62
    7
 10
195.2545925
 20
396.28656000000001
 11
195.2705235
 21
396.18270899999999
  0
LINE
  8
_0-0_0
  6
CONTINUOUS
 62
    7
 10
195.2705235
 20
396.18270899999999
 11
195.2792815
 21
396.07928500000003
  0
LINE
  8
_0-0_0
  6
CONTINUOUS
 62
    7
 10
195.2792815
 20
396.07928500000003
 11
195.28091449999999
 21
395.976044
  0
LINE
  8
_0-0_0
  6
CONTINUOUS
 62
    7
 10
195.28091449999999
 20
395.976044
 11
195.2754515
 21
395.87274200000002
  0
LINE
  8
_0-0_0
  6
CONTINUOUS
 62
    7
 10
195.2754515
 20
395.87274200000002
 11
195.2628325
 21
395.76916499999999
  0
LINE
  8
_0-0_0
  6
CONTINUOUS
 62
    7
 10
195.2628325
 20
395.76916499999999
 11
195.24302649999998
 21
395.665009
  0
LINE
  8
_0-0_0
  6
CONTINUOUS
 62
    7
 10
195.24302649999998
 20
395.665009
 11
195.21588149999999
 21
395.56005900000002
  0
LINE
  8
_0-0_0
  6
CONTINUOUS
 62
    7
 10
195.21588149999999
 20
395.56005900000002
 11
195.1812285
 21
395.45400999999998
  0
LINE
  8
_0-0_0
  6
CONTINUOUS
 62
    7
 10
195.1812285
 20
395.45400999999998
 11
195.13888549999999
 21
395.34661899999998
  0
LINE
  8
_0-0_0
  6
CONTINUOUS
 62
    7
 10
195.13888549999999
 20
395.34661899999998
 11
195.0885615
 21
395.23764
  0
LINE
  8
_0-0_0
  6
CONTINUOUS
 62
    7
 10
195.0885615
 20
395.23764
 11
195.0428775
 21
395.14996300000001
  0
LINE
  8
_0-0_0
  6
CONTINUOUS
 62
    7
 10
200.03117349999999
 20
391.67456099999998
 11
200.28117349999999
 21
391.65002399999997
  0
LINE
  8
_0-0_0
  6
CONTINUOUS
 62
    7
 10
200.03117349999999
 20
391.87853999999999
 11
200.28117349999999
 21
391.65002399999997
  0
LINE
  8
_0-0_0
  6
CONTINUOUS
 62
    7
 10
200.03117349999999
 20
391.484039
 11
200.28117349999999
 21
391.430542
  0
LINE
  8
_0-0_0
  6
CONTINUOUS
 62
    7
 10
200.03117349999999
 20
391.67456099999998
 11
200.28117349999999
 21
391.430542
  0
LINE
  8
_0-0_0
  6
CONTINUOUS
 62
    7
 10
200.03117349999999
 20
391.30902099999997
 11
200.28117349999999
 21
391.22717299999999
  0
LINE
  8
_0-0_0
  6
CONTINUOUS
 62
    7
 10
200.03117349999999
 20
391.484039
 11
200.28117349999999
 21
391.22717299999999
  0
LINE
  8
_0-0_0
  6
CONTINUOUS
 62
    7
 10
200.03117349999999
 20
391.15142800000001
 11
200.28117349999999
 21
391.042145
  0
LINE
  8
_0-0_0
  6
CONTINUOUS
 62
    7
 10
200.03117349999999
 20
391.30902099999997
 11
200.28117349999999
 21
391.042145
  0
LINE
  8
_0-0_0
  6
CONTINUOUS
 62
    7
 10
200.03117349999999
 20
391.01299999999998
 11
200.28117349999999
 21
390.87747200000001
  0
LINE
  8
_0-0_0
  6
CONTINUOUS
 62
    7
 10
200.03117349999999
 20
391.15142800000001
 11
200.28117349999999
 21
390.87747200000001
  0
LINE
  8
_0-0_0
  6
CONTINUOUS
 62
    7
 10
200.03117349999999
 20
390.89523300000002
 11
200.28117349999999
 21
390.73495500000001
  0
LINE
  8
_0-0_0
  6
CONTINUOUS
 62
    7
 10
200.03117349999999
 20
391.01299999999998
 11
200.28117349999999
 21
390.73495500000001
  0
LINE
  8
_0-0_0
  6
CONTINUOUS
 62
    7
 10
200.03117349999999
 20
390.79943800000001
 11
200.28117349999999
 21
390.61615
  0
LINE
  8
_0-0_0
  6
CONTINUOUS
 62
    7
 10
200.03117349999999
 20
390.89523300000002
 11
200.28117349999999
 21
390.61615
  0
LINE
  8
_0-0_0
  6
CONTINUOUS
 62
    7
 10
200.03117349999999
 20
390.72668499999997
 11
200.28117349999999
 21
390.52236900000003
  0
LINE
  8
_0-0_0
  6
CONTINUOUS
 62
    7
 10
200.03117349999999
 20
390.79943800000001
 11
200.28117349999999
 21
390.52236900000003
  0
LINE
  8
_0-0_0
  6
CONTINUOUS
 62
    7
 10
200.03117349999999
 20
390.67770400000001
 11
200.28117349999999
 21
390.45465100000001
  0
LINE
  8
_0-0_0
  6
CONTINUOUS
 62
    7
 10
200.03117349999999
 20
390.72668499999997
 11
200.28117349999999
 21
390.45465100000001
  0
LINE
  8
_0-0_0
  6
CONTINUOUS
 62
    7
 10
200.03117349999999
 20
390.653076
 11
200.28117349999999
 21
390.41369600000002
  0
LINE
  8
_0-0_0
  6
CONTINUOUS
 62
    7
 10
200.03117349999999
 20
390.67770400000001
 11
200.28117349999999
 21
390.41369600000002
  0
LINE
  8
_0-0_0
  6
CONTINUOUS
 62
    7
 10
200.03117349999999
 20
390.653076
 11
200.0342105
 21
390.65002399999997
  0
LINE
  8
_0-0_0
  6
CONTINUOUS
 62
    7
 10
200.03117349999999
 20
395.14691199999999
 11
200.28117349999999
 21
395.40002399999997
  0
LINE
  8
_0-0_0
  6
CONTINUOUS
 62
    7
 10
200.03117349999999
 20
395.12231400000002
 11
200.28117349999999
 21
395.38632200000001
  0
LINE
  8
_0-0_0
  6
CONTINUOUS
 62
    7
 10
200.03117349999999
 20
395.14691199999999
 11
200.28117349999999
 21
395.38632200000001
  0
LINE
  8
_0-0_0
  6
CONTINUOUS
 62
    7
 10
200.03117349999999
 20
395.07333399999999
 11
200.28117349999999
 21
395.34536700000001
  0
LINE
  8
_0-0_0
  6
CONTINUOUS
 62
    7
 10
200.03117349999999
 20
395.12231400000002
 11
200.28117349999999
 21
395.34536700000001
  0
LINE
  8
_0-0_0
  6
CONTINUOUS
 62
    7
 10
200.03117349999999
 20
395.00054899999998
 11
200.28117349999999
 21
395.277649
  0
LINE
  8
_0-0_0
  6
CONTINUOUS
 62
    7
 10
200.03117349999999
 20
395.07333399999999
 11
200.28117349999999
 21
395.277649
  0
LINE
  8
_0-0_0
  6
CONTINUOUS
 62
    7
 10
200.03117349999999
 20
394.904785
 11
200.28117349999999
 21
395.18386800000002
  0
LINE
  8
_0-0_0
  6
CONTINUOUS
 62
    7
 10
200.03117349999999
 20
395.00054899999998
 11
200.28117349999999
 21
395.18386800000002
  0
LINE
  8
_0-0_0
  6
CONTINUOUS
 62
    7
 10
200.03117349999999
 20
394.904785
 11
200.1611485
 21
394.98861699999998
  0
LINE
  8
_0-0_0
  6
CONTINUOUS
 62
    7
 10
200.03117349999999
 20
394.78701799999999
 11
200.28117349999999
 21
395.06506300000001
  0
LINE
  8
_0-0_0
  6
CONTINUOUS
 62
    7
 10
200.1611485
 20
394.98861699999998
 11
200.28117349999999
 21
395.06506300000001
  0
LINE
  8
_0-0_0
  6
CONTINUOUS
 62
    7
 10
200.03117349999999
 20
394.64859000000001
 11
200.28117349999999
 21
394.92254600000001
  0
LINE
  8
_0-0_0
  6
CONTINUOUS
 62
    7
 10
200.03117349999999
 20
394.78701799999999
 11
200.28117349999999
 21
394.92254600000001
  0
LINE
  8
_0-0_0
  6
CONTINUOUS
 62
    7
 10
200.03117349999999
 20
394.49099699999999
 11
200.28117349999999
 21
394.75787400000002
  0
LINE
  8
_0-0_0
  6
CONTINUOUS
 62
    7
 10
200.03117349999999
 20
394.64859000000001
 11
200.28117349999999
 21
394.75787400000002
  0
LINE
  8
_0-0_0
  6
CONTINUOUS
 62
    7
 10
200.03117349999999
 20
394.31597900000003
 11
200.28117349999999
 21
394.57284499999997
  0
LINE
  8
_0-0_0
  6
CONTINUOUS
 62
    7
 10
200.03117349999999
 20
394.49099699999999
 11
200.28117349999999
 21
394.57284499999997
  0
LINE
  8
_0-0_0
  6
CONTINUOUS
 62
    7
 10
200.03117349999999
 20
394.125427
 11
200.28117349999999
 21
394.36947600000002
  0
LINE
  8
_0-0_0
  6
CONTINUOUS
 62
    7
 10
200.03117349999999
 20
394.31597900000003
 11
200.28117349999999
 21
394.36947600000002
  0
LINE
  8
_0-0_0
  6
CONTINUOUS
 62
    7
 10
200.03117349999999
 20
393.92147799999998
 11
200.28117349999999
 21
394.15002399999997
  0
LINE
  8
_0-0_0
  6
CONTINUOUS
 62
    7
 10
200.03117349999999
 20
394.125427
 11
200.28117349999999
 21
394.15002399999997
  0
LINE
  8
_0-0_0
  6
CONTINUOUS
 62
    7
 10
200.03117349999999
 20
393.70632899999998
 11
200.28117349999999
 21
393.91683999999998
  0
LINE
  8
_0-0_0
  6
CONTINUOUS
 62
    7
 10
200.03117349999999
 20
393.92147799999998
 11
200.28117349999999
 21
393.91683999999998
  0
LINE
  8
_0-0_0
  6
CONTINUOUS
 62
    7
 10
200.03117349999999
 20
393.48236100000003
 11
200.28117349999999
 21
393.67254600000001
  0
LINE
  8
_0-0_0
  6
CONTINUOUS
 62
    7
 10
200.03117349999999
 20
393.70632899999998
 11
200.28117349999999
 21
393.67254600000001
  0
LINE
  8
_0-0_0
  6
CONTINUOUS
 62
    7
 10
200.03117349999999
 20
393.25198399999999
 11
200.28117349999999
 21
393.41980000000001
  0
LINE
  8
_0-0_0
  6
CONTINUOUS
 62
    7
 10
200.03117349999999
 20
393.48236100000003
 11
200.28117349999999
 21
393.41980000000001
  0
LINE
  8
_0-0_0
  6
CONTINUOUS
 62
    7
 10
200.03117349999999
 20
393.01776100000001
 11
200.28117349999999
 21
393.161316
  0
LINE
  8
_0-0_0
  6
CONTINUOUS
 62
    7
 10
200.03117349999999
 20
393.25198399999999
 11
200.28117349999999
 21
393.161316
  0
LINE
  8
_0-0_0
  6
CONTINUOUS
 62
    7
 10
200.03117349999999
 20
392.78225700000002
 11
200.28117349999999
 21
392.90002399999997
  0
LINE
  8
_0-0_0
  6
CONTINUOUS
 62
    7
 10
200.03117349999999
 20
393.01776100000001
 11
200.28117349999999
 21
392.90002399999997
  0
LINE
  8
_0-0_0
  6
CONTINUOUS
 62
    7
 10
200.03117349999999
 20
392.54803500000003
 11
200.28117349999999
 21
392.63867199999999
  0
LINE
  8
_0-0_0
  6
CONTINUOUS
 62
    7
 10
200.03117349999999
 20
392.78225700000002
 11
200.28117349999999
 21
392.63867199999999
  0
LINE
  8
_0-0_0
  6
CONTINUOUS
 62
    7
 10
200.03117349999999
 20
392.317657
 11
200.28117349999999
 21
392.38021900000001
  0
LINE
  8
_0-0_0
  6
CONTINUOUS
 62
    7
 10
200.03117349999999
 20
392.54803500000003
 11
200.28117349999999
 21
392.38021900000001
  0
LINE
  8
_0-0_0
  6
CONTINUOUS
 62
    7
 10
200.03117349999999
 20
392.09368899999998
 11
200.28117349999999
 21
392.12747200000001
  0
LINE
  8
_0-0_0
  6
CONTINUOUS
 62
    7
 10
200.03117349999999
 20
392.317657
 11
200.28117349999999
 21
392.12747200000001
  0
LINE
  8
_0-0_0
  6
CONTINUOUS
 62
    7
 10
200.03117349999999
 20
391.87853999999999
 11
200.28117349999999
 21
391.88317899999998
  0
LINE
  8
_0-0_0
  6
CONTINUOUS
 62
    7
 10
200.03117349999999
 20
392.09368899999998
 11
200.28117349999999
 21
391.88317899999998
  0
LINE
  8
_0-0_0
  6
CONTINUOUS
 62
    7
 10
185.03117349999999
 20
398.59231599999998
 11
194.73899850000001
 21
398.59231599999998
  0
LINE
  8
_0-0_0
  6
CONTINUOUS
 62
    7
 10
194.73899850000001
 20
398.59231599999998
 11
194.83332849999999
 21
398.83892800000001
  0
LINE
  8
_0-0_0
  6
CONTINUOUS
 62
    7
 10
194.83332849999999
 20
398.83892800000001
 11
194.9172825
 21
399.07891799999999
  0
LINE
  8
_0-0_0
  6
CONTINUOUS
 62
    7
 10
194.9172825
 20
399.07891799999999
 11
194.99143949999998
 21
399.313019
  0
LINE
  8
_0-0_0
  6
CONTINUOUS
 62
    7
 10
194.99143949999998
 20
399.313019
 11
195.0563205
 21
399.54205300000001
  0
LINE
  8
_0-0_0
  6
CONTINUOUS
 62
    7
 10
195.0563205
 20
399.54205300000001
 11
195.11236550000001
 21
399.76672400000001
  0
LINE
  8
_0-0_0
  6
CONTINUOUS
 62
    7
 10
195.11236550000001
 20
399.76672400000001
 11
195.15992750000001
 21
399.98770100000002
  0
LINE
  8
_0-0_0
  6
CONTINUOUS
 62
    7
 10
195.15992750000001
 20
399.98770100000002
 11
195.19932549999999
 21
400.20562699999999
  0
LINE
  8
_0-0_0
  6
CONTINUOUS
 62
    7
 10
195.19932549999999
 20
400.20562699999999
 11
195.2308195
 21
400.42108200000001
  0
LINE
  8
_0-0_0
  6
CONTINUOUS
 62
    7
 10
195.2308195
 20
400.42108200000001
 11
195.2545925
 21
400.634613
  0
LINE
  8
_0-0_0
  6
CONTINUOUS
 62
    7
 10
195.2545925
 20
400.634613
 11
195.2705235
 21
400.84231599999998
  0
LINE
  8
_0-0_0
  6
CONTINUOUS
 62
    7
 10
195.2705235
 20
400.84231599999998
 11
195.2792815
 21
401.04916400000002
  0
LINE
  8
_0-0_0
  6
CONTINUOUS
 62
    7
 10
195.2792815
 20
401.04916400000002
 11
195.28091449999999
 21
401.25564600000001
  0
LINE
  8
_0-0_0
  6
CONTINUOUS
 62
    7
 10
195.28091449999999
 20
401.25564600000001
 11
195.2754515
 21
401.462219
  0
LINE
  8
_0-0_0
  6
CONTINUOUS
 62
    7
 10
195.2754515
 20
401.462219
 11
195.2628325
 21
401.66940299999999
  0
LINE
  8
_0-0_0
  6
CONTINUOUS
 62
    7
 10
195.2628325
 20
401.66940299999999
 11
195.24302649999998
 21
401.87771600000002
  0
LINE
  8
_0-0_0
  6
CONTINUOUS
 62
    7
 10
195.24302649999998
 20
401.87771600000002
 11
195.21588149999999
 21
402.08761600000003
  0
LINE
  8
_0-0_0
  6
CONTINUOUS
 62
    7
 10
195.21588149999999
 20
402.08761600000003
 11
195.1812285
 21
402.29968300000002
  0
LINE
  8
_0-0_0
  6
CONTINUOUS
 62
    7
 10
195.1812285
 20
402.29968300000002
 11
195.13888549999999
 21
402.51443499999999
  0
LINE
  8
_0-0_0
  6
CONTINUOUS
 62
    7
 10
195.13888549999999
 20
402.51443499999999
 11
195.0885615
 21
402.73245200000002
  0
LINE
  8
_0-0_0
  6
CONTINUOUS
 62
    7
 10
195.0885615
 20
402.73245200000002
 11
195.03431649999999
 21
402.93872099999999
  0
LINE
  8
_0-0_0
  6
CONTINUOUS
 62
    7
 10
195.03431649999999
 20
402.93872099999999
 11
194.9726105
 21
403.14883400000002
  0
LINE
  8
_0-0_0
  6
CONTINUOUS
 62
    7
 10
194.9726105
 20
403.14883400000002
 11
194.90309149999999
 21
403.36331200000001
  0
LINE
  8
_0-0_0
  6
CONTINUOUS
 62
    7
 10
194.90309149999999
 20
403.36331200000001
 11
194.8253785
 21
403.58273300000002
  0
LINE
  8
_0-0_0
  6
CONTINUOUS
 62
    7
 10
194.8253785
 20
403.58273300000002
 11
194.73899850000001
 21
403.80770899999999
  0
LINE
  8
_0-0_0
  6
CONTINUOUS
 62
    7
 10
185.03117349999999
 20
403.80770899999999
 11
194.73899850000001
 21
403.80770899999999
  0
ARC
  8
_0-0_0
  6
CONTINUOUS
 62
    7
 10
189.8674465
 20
397.95001200000002
 40
4.9136889999999998
 50
352.48898799999995
 51
7.5110139999999577
  0
ARC
  8
_0-0_0
  6
CONTINUOUS
 62
    7
 10
189.85728449999999
 20
404.450897
 40
4.9238749999999998
 50
352.49423299999995
 51
1.5359699999999901
  0
ARC
  8
_0-0_0
  6
CONTINUOUS
 62
    7
 10
189.81925949999999
 20
404.44595299999997
 40
4.9620009999999999
 50
1.5813010000000001
 51
7.4847919999999997
  0
LINE
  8
_0-0_0
  6
CONTINUOUS
 62
    7
 10
196.03117349999999
 20
403.93154900000002
 11
196.03117349999999
 21
406.45001200000002
  0
LINE
  8
_0-0_0
  6
CONTINUOUS
 62
    7
 10
196.03117349999999
 20
395.95001200000002
 11
196.03117349999999
 21
403.93154900000002
  0
LINE
  8
_0-0_0
  6
CONTINUOUS
 62
    7
 10
209.78117349999999
 20
391.67456099999998
 11
209.53117349999999
 21
391.65002399999997
  0
LINE
  8
_0-0_0
  6
CONTINUOUS
 62
    7
 10
209.53117349999999
 20
391.65002399999997
 11
200.28117349999999
 21
391.65002399999997
  0
LINE
  8
_0-0_0
  6
CONTINUOUS
 62
    7
 10
209.78117349999999
 20
391.87853999999999
 11
209.53117349999999
 21
391.65002399999997
  0
LINE
  8
_0-0_0
  6
CONTINUOUS
 62
    7
 10
209.78117349999999
 20
391.87853999999999
 11
200.03117349999999
 21
391.87853999999999
  0
LINE
  8
_0-0_0
  6
CONTINUOUS
 62
    7
 10
209.78117349999999
 20
391.484039
 11
209.53117349999999
 21
391.430542
  0
LINE
  8
_0-0_0
  6
CONTINUOUS
 62
    7
 10
209.53117349999999
 20
391.430542
 11
200.28117349999999
 21
391.430542
  0
LINE
  8
_0-0_0
  6
CONTINUOUS
 62
    7
 10
209.78117349999999
 20
391.67456099999998
 11
209.53117349999999
 21
391.430542
  0
LINE
  8
_0-0_0
  6
CONTINUOUS
 62
    7
 10
209.78117349999999
 20
391.30902099999997
 11
209.53117349999999
 21
391.22717299999999
  0
LINE
  8
_0-0_0
  6
CONTINUOUS
 62
    7
 10
209.53117349999999
 20
391.22717299999999
 11
200.28117349999999
 21
391.22717299999999
  0
LINE
  8
_0-0_0
  6
CONTINUOUS
 62
    7
 10
209.78117349999999
 20
391.484039
 11
209.53117349999999
 21
391.22717299999999
  0
LINE
  8
_0-0_0
  6
CONTINUOUS
 62
    7
 10
209.78117349999999
 20
391.15142800000001
 11
209.53117349999999
 21
391.042145
  0
LINE
  8
_0-0_0
  6
CONTINUOUS
 62
    7
 10
209.53117349999999
 20
391.042145
 11
200.28117349999999
 21
391.042145
  0
LINE
  8
_0-0_0
  6
CONTINUOUS
 62
    7
 10
209.78117349999999
 20
391.30902099999997
 11
209.53117349999999
 21
391.042145
  0
LINE
  8
_0-0_0
  6
CONTINUOUS
 62
    7
 10
209.78117349999999
 20
391.01299999999998
 11
209.53117349999999
 21
390.87747200000001
  0
LINE
  8
_0-0_0
  6
CONTINUOUS
 62
    7
 10
209.53117349999999
 20
390.87747200000001
 11
200.28117349999999
 21
390.87747200000001
  0
LINE
  8
_0-0_0
  6
CONTINUOUS
 62
    7
 10
209.78117349999999
 20
391.15142800000001
 11
209.53117349999999
 21
390.87747200000001
  0
LINE
  8
_0-0_0
  6
CONTINUOUS
 62
    7
 10
209.78117349999999
 20
390.89523300000002
 11
209.53117349999999
 21
390.73495500000001
  0
LINE
  8
_0-0_0
  6
CONTINUOUS
 62
    7
 10
209.53117349999999
 20
390.73495500000001
 11
200.28117349999999
 21
390.73495500000001
  0
LINE
  8
_0-0_0
  6
CONTINUOUS
 62
    7
 10
209.78117349999999
 20
391.01299999999998
 11
209.53117349999999
 21
390.73495500000001
  0
LINE
  8
_0-0_0
  6
CONTINUOUS
 62
    7
 10
209.78117349999999
 20
390.79943800000001
 11
209.53117349999999
 21
390.61615
  0
LINE
  8
_0-0_0
  6
CONTINUOUS
 62
    7
 10
209.53117349999999
 20
390.61615
 11
200.28117349999999
 21
390.61615
  0
LINE
  8
_0-0_0
  6
CONTINUOUS
 62
    7
 10
209.78117349999999
 20
390.89523300000002
 11
209.53117349999999
 21
390.61615
  0
LINE
  8
_0-0_0
  6
CONTINUOUS
 62
    7
 10
209.78117349999999
 20
390.72668499999997
 11
209.53117349999999
 21
390.52236900000003
  0
LINE
  8
_0-0_0
  6
CONTINUOUS
 62
    7
 10
209.53117349999999
 20
390.52236900000003
 11
200.28117349999999
 21
390.52236900000003
  0
LINE
  8
_0-0_0
  6
CONTINUOUS
 62
    7
 10
209.78117349999999
 20
390.79943800000001
 11
209.53117349999999
 21
390.52236900000003
  0
LINE
  8
_0-0_0
  6
CONTINUOUS
 62
    7
 10
209.78117349999999
 20
390.67770400000001
 11
209.53117349999999
 21
390.45465100000001
  0
LINE
  8
_0-0_0
  6
CONTINUOUS
 62
    7
 10
209.53117349999999
 20
390.45465100000001
 11
200.28117349999999
 21
390.45465100000001
  0
LINE
  8
_0-0_0
  6
CONTINUOUS
 62
    7
 10
209.78117349999999
 20
390.72668499999997
 11
209.53117349999999
 21
390.45465100000001
  0
LINE
  8
_0-0_0
  6
CONTINUOUS
 62
    7
 10
209.78117349999999
 20
390.653076
 11
209.53117349999999
 21
390.41369600000002
  0
LINE
  8
_0-0_0
  6
CONTINUOUS
 62
    7
 10
209.53117349999999
 20
390.41369600000002
 11
200.28117349999999
 21
390.41369600000002
  0
LINE
  8
_0-0_0
  6
CONTINUOUS
 62
    7
 10
209.78117349999999
 20
390.67770400000001
 11
209.53117349999999
 21
390.41369600000002
  0
LINE
  8
_0-0_0
  6
CONTINUOUS
 62
    7
 10
209.53117349999999
 20
390.40002399999997
 11
200.28117349999999
 21
390.40002399999997
  0
LINE
  8
_0-0_0
  6
CONTINUOUS
 62
    7
 10
209.78117349999999
 20
390.653076
 11
209.53117349999999
 21
390.40002399999997
  0
LINE
  8
_0-0_0
  6
CONTINUOUS
 62
    7
 10
209.78117349999999
 20
395.14691199999999
 11
209.53117349999999
 21
395.40002399999997
  0
LINE
  8
_0-0_0
  6
CONTINUOUS
 62
    7
 10
209.53117349999999
 20
395.40002399999997
 11
200.28117349999999
 21
395.40002399999997
  0
LINE
  8
_0-0_0
  6
CONTINUOUS
 62
    7
 10
209.78117349999999
 20
395.12231400000002
 11
209.53117349999999
 21
395.38632200000001
  0
LINE
  8
_0-0_0
  6
CONTINUOUS
 62
    7
 10
209.53117349999999
 20
395.38632200000001
 11
200.28117349999999
 21
395.38632200000001
  0
LINE
  8
_0-0_0
  6
CONTINUOUS
 62
    7
 10
209.78117349999999
 20
395.14691199999999
 11
209.53117349999999
 21
395.38632200000001
  0
LINE
  8
_0-0_0
  6
CONTINUOUS
 62
    7
 10
209.78117349999999
 20
395.07333399999999
 11
209.53117349999999
 21
395.34536700000001
  0
LINE
  8
_0-0_0
  6
CONTINUOUS
 62
    7
 10
209.53117349999999
 20
395.34536700000001
 11
200.28117349999999
 21
395.34536700000001
  0
LINE
  8
_0-0_0
  6
CONTINUOUS
 62
    7
 10
209.78117349999999
 20
395.12231400000002
 11
209.53117349999999
 21
395.34536700000001
  0
LINE
  8
_0-0_0
  6
CONTINUOUS
 62
    7
 10
209.78117349999999
 20
395.00054899999998
 11
209.53117349999999
 21
395.277649
  0
LINE
  8
_0-0_0
  6
CONTINUOUS
 62
    7
 10
209.53117349999999
 20
395.277649
 11
200.28117349999999
 21
395.277649
  0
LINE
  8
_0-0_0
  6
CONTINUOUS
 62
    7
 10
209.78117349999999
 20
395.07333399999999
 11
209.53117349999999
 21
395.277649
  0
LINE
  8
_0-0_0
  6
CONTINUOUS
 62
    7
 10
209.78117349999999
 20
394.904785
 11
209.53117349999999
 21
395.18386800000002
  0
LINE
  8
_0-0_0
  6
CONTINUOUS
 62
    7
 10
209.53117349999999
 20
395.18386800000002
 11
200.28117349999999
 21
395.18386800000002
  0
LINE
  8
_0-0_0
  6
CONTINUOUS
 62
    7
 10
209.78117349999999
 20
395.00054899999998
 11
209.53117349999999
 21
395.18386800000002
  0
LINE
  8
_0-0_0
  6
CONTINUOUS
 62
    7
 10
209.53117349999999
 20
395.06506300000001
 11
200.28117349999999
 21
395.06506300000001
  0
LINE
  8
_0-0_0
  6
CONTINUOUS
 62
    7
 10
209.65121450000001
 20
394.98861699999998
 11
209.53117349999999
 21
395.06506300000001
  0
LINE
  8
_0-0_0
  6
CONTINUOUS
 62
    7
 10
209.78117349999999
 20
394.904785
 11
209.65121450000001
 21
394.98861699999998
  0
LINE
  8
_0-0_0
  6
CONTINUOUS
 62
    7
 10
209.78117349999999
 20
394.78701799999999
 11
209.53117349999999
 21
395.06506300000001
  0
LINE
  8
_0-0_0
  6
CONTINUOUS
 62
    7
 10
209.78117349999999
 20
394.64859000000001
 11
209.53117349999999
 21
394.92254600000001
  0
LINE
  8
_0-0_0
  6
CONTINUOUS
 62
    7
 10
209.53117349999999
 20
394.92254600000001
 11
200.28117349999999
 21
394.92254600000001
  0
LINE
  8
_0-0_0
  6
CONTINUOUS
 62
    7
 10
209.78117349999999
 20
394.78701799999999
 11
209.53117349999999
 21
394.92254600000001
  0
LINE
  8
_0-0_0
  6
CONTINUOUS
 62
    7
 10
209.78117349999999
 20
394.49099699999999
 11
209.53117349999999
 21
394.75787400000002
  0
LINE
  8
_0-0_0
  6
CONTINUOUS
 62
    7
 10
209.53117349999999
 20
394.75787400000002
 11
200.28117349999999
 21
394.75787400000002
  0
LINE
  8
_0-0_0
  6
CONTINUOUS
 62
    7
 10
209.78117349999999
 20
394.64859000000001
 11
209.53117349999999
 21
394.75787400000002
  0
LINE
  8
_0-0_0
  6
CONTINUOUS
 62
    7
 10
209.78117349999999
 20
394.31597900000003
 11
209.53117349999999
 21
394.57284499999997
  0
LINE
  8
_0-0_0
  6
CONTINUOUS
 62
    7
 10
209.53117349999999
 20
394.57284499999997
 11
200.28117349999999
 21
394.57284499999997
  0
LINE
  8
_0-0_0
  6
CONTINUOUS
 62
    7
 10
209.78117349999999
 20
394.49099699999999
 11
209.53117349999999
 21
394.57284499999997
  0
LINE
  8
_0-0_0
  6
CONTINUOUS
 62
    7
 10
209.78117349999999
 20
394.125427
 11
209.53117349999999
 21
394.36947600000002
  0
LINE
  8
_0-0_0
  6
CONTINUOUS
 62
    7
 10
209.53117349999999
 20
394.36947600000002
 11
200.28117349999999
 21
394.36947600000002
  0
LINE
  8
_0-0_0
  6
CONTINUOUS
 62
    7
 10
209.78117349999999
 20
394.31597900000003
 11
209.53117349999999
 21
394.36947600000002
  0
LINE
  8
_0-0_0
  6
CONTINUOUS
 62
    7
 10
209.78117349999999
 20
393.92147799999998
 11
209.53117349999999
 21
394.15002399999997
  0
LINE
  8
_0-0_0
  6
CONTINUOUS
 62
    7
 10
209.53117349999999
 20
394.15002399999997
 11
200.28117349999999
 21
394.15002399999997
  0
LINE
  8
_0-0_0
  6
CONTINUOUS
 62
    7
 10
209.78117349999999
 20
393.92147799999998
 11
200.03117349999999
 21
393.92147799999998
  0
LINE
  8
_0-0_0
  6
CONTINUOUS
 62
    7
 10
209.78117349999999
 20
394.125427
 11
209.53117349999999
 21
394.15002399999997
  0
LINE
  8
_0-0_0
  6
CONTINUOUS
 62
    7
 10
209.78117349999999
 20
393.70632899999998
 11
209.53117349999999
 21
393.91683999999998
  0
LINE
  8
_0-0_0
  6
CONTINUOUS
 62
    7
 10
209.53117349999999
 20
393.91683999999998
 11
200.28117349999999
 21
393.91683999999998
  0
LINE
  8
_0-0_0
  6
CONTINUOUS
 62
    7
 10
209.78117349999999
 20
393.70632899999998
 11
200.03117349999999
 21
393.70632899999998
  0
LINE
  8
_0-0_0
  6
CONTINUOUS
 62
    7
 10
209.78117349999999
 20
393.92147799999998
 11
209.53117349999999
 21
393.91683999999998
  0
LINE
  8
_0-0_0
  6
CONTINUOUS
 62
    7
 10
209.78117349999999
 20
393.48236100000003
 11
209.53117349999999
 21
393.67254600000001
  0
LINE
  8
_0-0_0
  6
CONTINUOUS
 62
    7
 10
209.53117349999999
 20
393.67254600000001
 11
200.28117349999999
 21
393.67254600000001
  0
LINE
  8
_0-0_0
  6
CONTINUOUS
 62
    7
 10
209.78117349999999
 20
393.48236100000003
 11
200.03117349999999
 21
393.48236100000003
  0
LINE
  8
_0-0_0
  6
CONTINUOUS
 62
    7
 10
209.78117349999999
 20
393.70632899999998
 11
209.53117349999999
 21
393.67254600000001
  0
LINE
  8
_0-0_0
  6
CONTINUOUS
 62
    7
 10
209.78117349999999
 20
393.25198399999999
 11
209.53117349999999
 21
393.41980000000001
  0
LINE
  8
_0-0_0
  6
CONTINUOUS
 62
    7
 10
209.53117349999999
 20
393.41980000000001
 11
200.28117349999999
 21
393.41980000000001
  0
LINE
  8
_0-0_0
  6
CONTINUOUS
 62
    7
 10
209.78117349999999
 20
393.25198399999999
 11
200.03117349999999
 21
393.25198399999999
  0
LINE
  8
_0-0_0
  6
CONTINUOUS
 62
    7
 10
209.78117349999999
 20
393.48236100000003
 11
209.53117349999999
 21
393.41980000000001
  0
LINE
  8
_0-0_0
  6
CONTINUOUS
 62
    7
 10
209.78117349999999
 20
393.01776100000001
 11
209.53117349999999
 21
393.161316
  0
LINE
  8
_0-0_0
  6
CONTINUOUS
 62
    7
 10
209.53117349999999
 20
393.161316
 11
200.28117349999999
 21
393.161316
  0
LINE
  8
_0-0_0
  6
CONTINUOUS
 62
    7
 10
209.78117349999999
 20
393.01776100000001
 11
200.03117349999999
 21
393.01776100000001
  0
LINE
  8
_0-0_0
  6
CONTINUOUS
 62
    7
 10
209.78117349999999
 20
393.25198399999999
 11
209.53117349999999
 21
393.161316
  0
LINE
  8
_0-0_0
  6
CONTINUOUS
 62
    7
 10
209.78117349999999
 20
392.78225700000002
 11
209.53117349999999
 21
392.90002399999997
  0
LINE
  8
_0-0_0
  6
CONTINUOUS
 62
    7
 10
209.53117349999999
 20
392.90002399999997
 11
200.28117349999999
 21
392.90002399999997
  0
LINE
  8
_0-0_0
  6
CONTINUOUS
 62
    7
 10
209.78117349999999
 20
392.78225700000002
 11
200.03117349999999
 21
392.78225700000002
  0
LINE
  8
_0-0_0
  6
CONTINUOUS
 62
    7
 10
209.78117349999999
 20
393.01776100000001
 11
209.53117349999999
 21
392.90002399999997
  0
LINE
  8
_0-0_0
  6
CONTINUOUS
 62
    7
 10
209.78117349999999
 20
392.54803500000003
 11
209.53117349999999
 21
392.63867199999999
  0
LINE
  8
_0-0_0
  6
CONTINUOUS
 62
    7
 10
209.53117349999999
 20
392.63867199999999
 11
200.28117349999999
 21
392.63867199999999
  0
LINE
  8
_0-0_0
  6
CONTINUOUS
 62
    7
 10
209.78117349999999
 20
392.54803500000003
 11
200.03117349999999
 21
392.54803500000003
  0
LINE
  8
_0-0_0
  6
CONTINUOUS
 62
    7
 10
209.78117349999999
 20
392.78225700000002
 11
209.53117349999999
 21
392.63867199999999
  0
LINE
  8
_0-0_0
  6
CONTINUOUS
 62
    7
 10
209.78117349999999
 20
392.317657
 11
209.53117349999999
 21
392.38021900000001
  0
LINE
  8
_0-0_0
  6
CONTINUOUS
 62
    7
 10
209.53117349999999
 20
392.38021900000001
 11
200.28117349999999
 21
392.38021900000001
  0
LINE
  8
_0-0_0
  6
CONTINUOUS
 62
    7
 10
209.78117349999999
 20
392.317657
 11
200.03117349999999
 21
392.317657
  0
LINE
  8
_0-0_0
  6
CONTINUOUS
 62
    7
 10
209.78117349999999
 20
392.54803500000003
 11
209.53117349999999
 21
392.38021900000001
  0
LINE
  8
_0-0_0
  6
CONTINUOUS
 62
    7
 10
209.78117349999999
 20
392.09368899999998
 11
209.53117349999999
 21
392.12747200000001
  0
LINE
  8
_0-0_0
  6
CONTINUOUS
 62
    7
 10
209.53117349999999
 20
392.12747200000001
 11
200.28117349999999
 21
392.12747200000001
  0
LINE
  8
_0-0_0
  6
CONTINUOUS
 62
    7
 10
209.78117349999999
 20
392.09368899999998
 11
200.03117349999999
 21
392.09368899999998
  0
LINE
  8
_0-0_0
  6
CONTINUOUS
 62
    7
 10
209.78117349999999
 20
392.317657
 11
209.53117349999999
 21
392.12747200000001
  0
LINE
  8
_0-0_0
  6
CONTINUOUS
 62
    7
 10
209.78117349999999
 20
391.87853999999999
 11
209.53117349999999
 21
391.88317899999998
  0
LINE
  8
_0-0_0
  6
CONTINUOUS
 62
    7
 10
209.53117349999999
 20
391.88317899999998
 11
200.28117349999999
 21
391.88317899999998
  0
LINE
  8
_0-0_0
  6
CONTINUOUS
 62
    7
 10
209.78117349999999
 20
392.09368899999998
 11
209.53117349999999
 21
391.88317899999998
  0
LINE
  8
_0-0_0
  6
CONTINUOUS
 62
    7
 10
210.03117349999999
 20
390.90002399999997
 11
210.03117349999999
 21
394.65518200000002
  0
LINE
  8
_0-0_0
  6
CONTINUOUS
 62
    7
 10
210.03117349999999
 20
394.65518200000002
 11
210.03117349999999
 21
394.90002399999997
  0
LINE
  8
_0-0_0
  6
CONTINUOUS
 62
    7
 10
196.43116749999999
 20
396.20001200000002
 11
196.43116749999999
 21
398.70001200000002
  0
LINE
  8
_0-0_0
  6
CONTINUOUS
 62
    7
 10
196.43116749999999
 20
398.70001200000002
 11
196.43116749999999
 21
406.20001200000002
  0
LINE
  8
_0-0_0
  6
CONTINUOUS
 62
    7
 10
197.23117049999999
 20
396.66189600000001
 11
197.23117049999999
 21
398.93093900000002
  0
LINE
  8
_0-0_0
  6
CONTINUOUS
 62
    7
 10
197.23117049999999
 20
398.93093900000002
 11
197.23117049999999
 21
405.73812900000001
  0
LINE
  8
_0-0_0
  6
CONTINUOUS
 62
    7
 10
255.23117049999999
 20
397.20001200000002
 11
255.23117049999999
 21
397.20135499999998
  0
LINE
  8
_0-0_0
  6
CONTINUOUS
 62
    7
 10
255.23117049999999
 20
397.20135499999998
 11
255.23117049999999
 21
405.20001200000002
  0
LINE
  8
_0-0_0
  6
CONTINUOUS
 62
    7
 10
200.03117349999999
 20
411.74691799999999
 11
200.03117349999999
 21
411.75
  0
LINE
  8
_0-0_0
  6
CONTINUOUS
 62
    7
 10
200.03117349999999
 20
411.72228999999999
 11
200.03117349999999
 21
411.75
  0
LINE
  8
_0-0_0
  6
CONTINUOUS
 62
    7
 10
200.03117349999999
 20
411.67334
 11
200.03117349999999
 21
411.72228999999999
  0
LINE
  8
_0-0_0
  6
CONTINUOUS
 62
    7
 10
200.03117349999999
 20
411.60055499999999
 11
200.03117349999999
 21
411.67334
  0
LINE
  8
_0-0_0
  6
CONTINUOUS
 62
    7
 10
200.03117349999999
 20
411.50476099999997
 11
200.03117349999999
 21
411.60055499999999
  0
LINE
  8
_0-0_0
  6
CONTINUOUS
 62
    7
 10
200.03117349999999
 20
411.47457900000001
 11
200.03117349999999
 21
411.50476099999997
  0
LINE
  8
_0-0_0
  6
CONTINUOUS
 62
    7
 10
200.03117349999999
 20
411.387024
 11
200.03117349999999
 21
411.47457900000001
  0
LINE
  8
_0-0_0
  6
CONTINUOUS
 62
    7
 10
200.03117349999999
 20
411.24859600000002
 11
200.03117349999999
 21
411.387024
  0
LINE
  8
_0-0_0
  6
CONTINUOUS
 62
    7
 10
200.03117349999999
 20
411.091003
 11
200.03117349999999
 21
411.24859600000002
  0
LINE
  8
_0-0_0
  6
CONTINUOUS
 62
    7
 10
200.03117349999999
 20
410.91598499999998
 11
200.03117349999999
 21
411.091003
  0
LINE
  8
_0-0_0
  6
CONTINUOUS
 62
    7
 10
200.03117349999999
 20
410.72543300000001
 11
200.03117349999999
 21
410.91598499999998
  0
LINE
  8
_0-0_0
  6
CONTINUOUS
 62
    7
 10
200.03117349999999
 20
410.52148399999999
 11
200.03117349999999
 21
410.72543300000001
  0
LINE
  8
_0-0_0
  6
CONTINUOUS
 62
    7
 10
200.03117349999999
 20
410.30633499999999
 11
200.03117349999999
 21
410.52148399999999
  0
LINE
  8
_0-0_0
  6
CONTINUOUS
 62
    7
 10
200.03117349999999
 20
410.082336
 11
200.03117349999999
 21
410.30633499999999
  0
LINE
  8
_0-0_0
  6
CONTINUOUS
 62
    7
 10
200.03117349999999
 20
409.85199
 11
200.03117349999999
 21
410.082336
  0
LINE
  8
_0-0_0
  6
CONTINUOUS
 62
    7
 10
200.03117349999999
 20
409.61776700000001
 11
200.03117349999999
 21
409.85199
  0
LINE
  8
_0-0_0
  6
CONTINUOUS
 62
    7
 10
200.03117349999999
 20
409.38226300000002
 11
200.03117349999999
 21
409.61776700000001
  0
LINE
  8
_0-0_0
  6
CONTINUOUS
 62
    7
 10
200.03117349999999
 20
409.14804099999998
 11
200.03117349999999
 21
409.38226300000002
  0
LINE
  8
_0-0_0
  6
CONTINUOUS
 62
    7
 10
200.03117349999999
 20
408.917664
 11
200.03117349999999
 21
409.14804099999998
  0
LINE
  8
_0-0_0
  6
CONTINUOUS
 62
    7
 10
200.03117349999999
 20
408.69366500000001
 11
200.03117349999999
 21
408.917664
  0
LINE
  8
_0-0_0
  6
CONTINUOUS
 62
    7
 10
200.03117349999999
 20
408.47851600000001
 11
200.03117349999999
 21
408.69366500000001
  0
LINE
  8
_0-0_0
  6
CONTINUOUS
 62
    7
 10
200.03117349999999
 20
408.42129499999999
 11
200.03117349999999
 21
408.47851600000001
  0
LINE
  8
_0-0_0
  6
CONTINUOUS
 62
    7
 10
200.03117349999999
 20
411.74691799999999
 11
200.28117349999999
 21
412
  0
LINE
  8
_0-0_0
  6
CONTINUOUS
 62
    7
 10
200.03117349999999
 20
411.72228999999999
 11
200.28117349999999
 21
411.98632800000001
  0
LINE
  8
_0-0_0
  6
CONTINUOUS
 62
    7
 10
200.03117349999999
 20
411.74691799999999
 11
200.28117349999999
 21
411.98632800000001
  0
LINE
  8
_0-0_0
  6
CONTINUOUS
 62
    7
 10
200.03117349999999
 20
411.67334
 11
200.28117349999999
 21
411.94537400000002
  0
LINE
  8
_0-0_0
  6
CONTINUOUS
 62
    7
 10
200.03117349999999
 20
411.72228999999999
 11
200.28117349999999
 21
411.94537400000002
  0
LINE
  8
_0-0_0
  6
CONTINUOUS
 62
    7
 10
200.03117349999999
 20
411.60055499999999
 11
200.28117349999999
 21
411.877655
  0
LINE
  8
_0-0_0
  6
CONTINUOUS
 62
    7
 10
200.03117349999999
 20
411.67334
 11
200.28117349999999
 21
411.877655
  0
LINE
  8
_0-0_0
  6
CONTINUOUS
 62
    7
 10
200.03117349999999
 20
411.50476099999997
 11
200.28117349999999
 21
411.78387500000002
  0
LINE
  8
_0-0_0
  6
CONTINUOUS
 62
    7
 10
200.03117349999999
 20
411.60055499999999
 11
200.28117349999999
 21
411.78387500000002
  0
LINE
  8
_0-0_0
  6
CONTINUOUS
 62
    7
 10
200.03117349999999
 20
411.50476099999997
 11
200.1611485
 21
411.58862299999998
  0
LINE
  8
_0-0_0
  6
CONTINUOUS
 62
    7
 10
200.03117349999999
 20
411.387024
 11
200.28117349999999
 21
411.66507000000001
  0
LINE
  8
_0-0_0
  6
CONTINUOUS
 62
    7
 10
200.1611485
 20
411.58862299999998
 11
200.28117349999999
 21
411.66507000000001
  0
LINE
  8
_0-0_0
  6
CONTINUOUS
 62
    7
 10
200.03117349999999
 20
411.24859600000002
 11
200.28117349999999
 21
411.52255200000002
  0
LINE
  8
_0-0_0
  6
CONTINUOUS
 62
    7
 10
200.03117349999999
 20
411.387024
 11
200.28117349999999
 21
411.52255200000002
  0
LINE
  8
_0-0_0
  6
CONTINUOUS
 62
    7
 10
200.03117349999999
 20
411.091003
 11
200.28117349999999
 21
411.35788000000002
  0
LINE
  8
_0-0_0
  6
CONTINUOUS
 62
    7
 10
200.03117349999999
 20
411.24859600000002
 11
200.28117349999999
 21
411.35788000000002
  0
LINE
  8
_0-0_0
  6
CONTINUOUS
 62
    7
 10
200.03117349999999
 20
410.91598499999998
 11
200.28117349999999
 21
411.172821
  0
LINE
  8
_0-0_0
  6
CONTINUOUS
 62
    7
 10
200.03117349999999
 20
411.091003
 11
200.28117349999999
 21
411.172821
  0
LINE
  8
_0-0_0
  6
CONTINUOUS
 62
    7
 10
200.03117349999999
 20
410.72543300000001
 11
200.28117349999999
 21
410.96948200000003
  0
LINE
  8
_0-0_0
  6
CONTINUOUS
 62
    7
 10
200.03117349999999
 20
410.91598499999998
 11
200.28117349999999
 21
410.96948200000003
  0
LINE
  8
_0-0_0
  6
CONTINUOUS
 62
    7
 10
200.03117349999999
 20
410.52148399999999
 11
200.28117349999999
 21
410.75
  0
LINE
  8
_0-0_0
  6
CONTINUOUS
 62
    7
 10
200.03117349999999
 20
410.72543300000001
 11
200.28117349999999
 21
410.75
  0
LINE
  8
_0-0_0
  6
CONTINUOUS
 62
    7
 10
200.03117349999999
 20
410.30633499999999
 11
200.28117349999999
 21
410.51684599999999
  0
LINE
  8
_0-0_0
  6
CONTINUOUS
 62
    7
 10
200.03117349999999
 20
410.52148399999999
 11
200.28117349999999
 21
410.51684599999999
  0
LINE
  8
_0-0_0
  6
CONTINUOUS
 62
    7
 10
200.03117349999999
 20
410.082336
 11
200.28117349999999
 21
410.27255200000002
  0
LINE
  8
_0-0_0
  6
CONTINUOUS
 62
    7
 10
200.03117349999999
 20
410.30633499999999
 11
200.28117349999999
 21
410.27255200000002
  0
LINE
  8
_0-0_0
  6
CONTINUOUS
 62
    7
 10
200.03117349999999
 20
409.85199
 11
200.28117349999999
 21
410.01977499999998
  0
LINE
  8
_0-0_0
  6
CONTINUOUS
 62
    7
 10
200.03117349999999
 20
410.082336
 11
200.28117349999999
 21
410.01977499999998
  0
LINE
  8
_0-0_0
  6
CONTINUOUS
 62
    7
 10
200.03117349999999
 20
409.61776700000001
 11
200.28117349999999
 21
409.76132200000001
  0
LINE
  8
_0-0_0
  6
CONTINUOUS
 62
    7
 10
200.03117349999999
 20
409.85199
 11
200.28117349999999
 21
409.76132200000001
  0
LINE
  8
_0-0_0
  6
CONTINUOUS
 62
    7
 10
200.03117349999999
 20
409.38226300000002
 11
200.28117349999999
 21
409.5
  0
LINE
  8
_0-0_0
  6
CONTINUOUS
 62
    7
 10
200.03117349999999
 20
409.61776700000001
 11
200.28117349999999
 21
409.5
  0
LINE
  8
_0-0_0
  6
CONTINUOUS
 62
    7
 10
200.03117349999999
 20
409.14804099999998
 11
200.28117349999999
 21
409.23867799999999
  0
LINE
  8
_0-0_0
  6
CONTINUOUS
 62
    7
 10
200.03117349999999
 20
409.38226300000002
 11
200.28117349999999
 21
409.23867799999999
  0
LINE
  8
_0-0_0
  6
CONTINUOUS
 62
    7
 10
200.03117349999999
 20
408.917664
 11
200.28117349999999
 21
408.98022500000002
  0
LINE
  8
_0-0_0
  6
CONTINUOUS
 62
    7
 10
200.03117349999999
 20
409.14804099999998
 11
200.28117349999999
 21
408.98022500000002
  0
LINE
  8
_0-0_0
  6
CONTINUOUS
 62
    7
 10
200.03117349999999
 20
408.69366500000001
 11
200.28117349999999
 21
408.72747800000002
  0
LINE
  8
_0-0_0
  6
CONTINUOUS
 62
    7
 10
200.03117349999999
 20
408.917664
 11
200.28117349999999
 21
408.72747800000002
  0
LINE
  8
_0-0_0
  6
CONTINUOUS
 62
    7
 10
200.03117349999999
 20
408.47851600000001
 11
200.28117349999999
 21
408.48315400000001
  0
LINE
  8
_0-0_0
  6
CONTINUOUS
 62
    7
 10
200.03117349999999
 20
408.69366500000001
 11
200.28117349999999
 21
408.48315400000001
  0
LINE
  8
_0-0_0
  6
CONTINUOUS
 62
    7
 10
200.03117349999999
 20
408.27456699999999
 11
200.03117349999999
 21
408.42129499999999
  0
LINE
  8
_0-0_0
  6
CONTINUOUS
 62
    7
 10
200.03117349999999
 20
408.27456699999999
 11
200.28117349999999
 21
408.25
  0
LINE
  8
_0-0_0
  6
CONTINUOUS
 62
    7
 10
200.03117349999999
 20
408.47851600000001
 11
200.28117349999999
 21
408.25
  0
LINE
  8
_0-0_0
  6
CONTINUOUS
 62
    7
 10
200.03117349999999
 20
408.084045
 11
200.03117349999999
 21
408.27456699999999
  0
LINE
  8
_0-0_0
  6
CONTINUOUS
 62
    7
 10
200.03117349999999
 20
407.90902699999998
 11
200.03117349999999
 21
408.084045
  0
LINE
  8
_0-0_0
  6
CONTINUOUS
 62
    7
 10
200.03117349999999
 20
407.75143400000002
 11
200.03117349999999
 21
407.90902699999998
  0
LINE
  8
_0-0_0
  6
CONTINUOUS
 62
    7
 10
200.03117349999999
 20
407.61300699999998
 11
200.03117349999999
 21
407.75143400000002
  0
LINE
  8
_0-0_0
  6
CONTINUOUS
 62
    7
 10
200.03117349999999
 20
407.49523900000003
 11
200.03117349999999
 21
407.61300699999998
  0
LINE
  8
_0-0_0
  6
CONTINUOUS
 62
    7
 10
200.03117349999999
 20
407.39944500000001
 11
200.03117349999999
 21
407.49523900000003
  0
LINE
  8
_0-0_0
  6
CONTINUOUS
 62
    7
 10
200.03117349999999
 20
407.32666
 11
200.03117349999999
 21
407.39944500000001
  0
LINE
  8
_0-0_0
  6
CONTINUOUS
 62
    7
 10
200.03117349999999
 20
407.27771000000001
 11
200.03117349999999
 21
407.32666
  0
LINE
  8
_0-0_0
  6
CONTINUOUS
 62
    7
 10
200.03117349999999
 20
407.25
 11
200.03117349999999
 21
407.27771000000001
  0
LINE
  8
_0-0_0
  6
CONTINUOUS
 62
    7
 10
200.03117349999999
 20
407.25
 11
200.03117349999999
 21
407.25308200000001
  0
LINE
  8
_0-0_0
  6
CONTINUOUS
 62
    7
 10
209.78117349999999
 20
411.74691799999999
 11
209.53117349999999
 21
412
  0
LINE
  8
_0-0_0
  6
CONTINUOUS
 62
    7
 10
209.53117349999999
 20
412
 11
200.28117349999999
 21
412
  0
LINE
  8
_0-0_0
  6
CONTINUOUS
 62
    7
 10
209.78117349999999
 20
411.72228999999999
 11
209.53117349999999
 21
411.98632800000001
  0
LINE
  8
_0-0_0
  6
CONTINUOUS
 62
    7
 10
209.53117349999999
 20
411.98632800000001
 11
200.28117349999999
 21
411.98632800000001
  0
LINE
  8
_0-0_0
  6
CONTINUOUS
 62
    7
 10
209.78117349999999
 20
411.74691799999999
 11
209.53117349999999
 21
411.98632800000001
  0
LINE
  8
_0-0_0
  6
CONTINUOUS
 62
    7
 10
209.78117349999999
 20
411.67334
 11
209.53117349999999
 21
411.94537400000002
  0
LINE
  8
_0-0_0
  6
CONTINUOUS
 62
    7
 10
209.53117349999999
 20
411.94537400000002
 11
200.28117349999999
 21
411.94537400000002
  0
LINE
  8
_0-0_0
  6
CONTINUOUS
 62
    7
 10
209.78117349999999
 20
411.72228999999999
 11
209.53117349999999
 21
411.94537400000002
  0
LINE
  8
_0-0_0
  6
CONTINUOUS
 62
    7
 10
209.78117349999999
 20
411.60055499999999
 11
209.53117349999999
 21
411.877655
  0
LINE
  8
_0-0_0
  6
CONTINUOUS
 62
    7
 10
209.53117349999999
 20
411.877655
 11
200.28117349999999
 21
411.877655
  0
LINE
  8
_0-0_0
  6
CONTINUOUS
 62
    7
 10
209.78117349999999
 20
411.67334
 11
209.53117349999999
 21
411.877655
  0
LINE
  8
_0-0_0
  6
CONTINUOUS
 62
    7
 10
209.78117349999999
 20
411.50476099999997
 11
209.53117349999999
 21
411.78387500000002
  0
LINE
  8
_0-0_0
  6
CONTINUOUS
 62
    7
 10
209.53117349999999
 20
411.78387500000002
 11
200.28117349999999
 21
411.78387500000002
  0
LINE
  8
_0-0_0
  6
CONTINUOUS
 62
    7
 10
209.78117349999999
 20
411.60055499999999
 11
209.53117349999999
 21
411.78387500000002
  0
LINE
  8
_0-0_0
  6
CONTINUOUS
 62
    7
 10
209.53117349999999
 20
411.66507000000001
 11
200.28117349999999
 21
411.66507000000001
  0
LINE
  8
_0-0_0
  6
CONTINUOUS
 62
    7
 10
209.65121450000001
 20
411.58862299999998
 11
209.53117349999999
 21
411.66507000000001
  0
LINE
  8
_0-0_0
  6
CONTINUOUS
 62
    7
 10
209.78117349999999
 20
411.50476099999997
 11
209.65121450000001
 21
411.58862299999998
  0
LINE
  8
_0-0_0
  6
CONTINUOUS
 62
    7
 10
209.78117349999999
 20
411.387024
 11
209.53117349999999
 21
411.66507000000001
  0
LINE
  8
_0-0_0
  6
CONTINUOUS
 62
    7
 10
209.78117349999999
 20
411.24859600000002
 11
209.53117349999999
 21
411.52255200000002
  0
LINE
  8
_0-0_0
  6
CONTINUOUS
 62
    7
 10
209.53117349999999
 20
411.52255200000002
 11
200.28117349999999
 21
411.52255200000002
  0
LINE
  8
_0-0_0
  6
CONTINUOUS
 62
    7
 10
209.78117349999999
 20
411.387024
 11
209.53117349999999
 21
411.52255200000002
  0
LINE
  8
_0-0_0
  6
CONTINUOUS
 62
    7
 10
209.78117349999999
 20
411.091003
 11
209.53117349999999
 21
411.35788000000002
  0
LINE
  8
_0-0_0
  6
CONTINUOUS
 62
    7
 10
209.53117349999999
 20
411.35788000000002
 11
200.28117349999999
 21
411.35788000000002
  0
LINE
  8
_0-0_0
  6
CONTINUOUS
 62
    7
 10
209.78117349999999
 20
411.24859600000002
 11
209.53117349999999
 21
411.35788000000002
  0
LINE
  8
_0-0_0
  6
CONTINUOUS
 62
    7
 10
209.78117349999999
 20
410.91598499999998
 11
209.53117349999999
 21
411.172821
  0
LINE
  8
_0-0_0
  6
CONTINUOUS
 62
    7
 10
209.53117349999999
 20
411.172821
 11
200.28117349999999
 21
411.172821
  0
LINE
  8
_0-0_0
  6
CONTINUOUS
 62
    7
 10
209.78117349999999
 20
411.091003
 11
209.53117349999999
 21
411.172821
  0
LINE
  8
_0-0_0
  6
CONTINUOUS
 62
    7
 10
209.78117349999999
 20
410.72543300000001
 11
209.53117349999999
 21
410.96948200000003
  0
LINE
  8
_0-0_0
  6
CONTINUOUS
 62
    7
 10
209.53117349999999
 20
410.96948200000003
 11
200.28117349999999
 21
410.96948200000003
  0
LINE
  8
_0-0_0
  6
CONTINUOUS
 62
    7
 10
209.78117349999999
 20
410.91598499999998
 11
209.53117349999999
 21
410.96948200000003
  0
LINE
  8
_0-0_0
  6
CONTINUOUS
 62
    7
 10
209.78117349999999
 20
410.52148399999999
 11
209.53117349999999
 21
410.75
  0
LINE
  8
_0-0_0
  6
CONTINUOUS
 62
    7
 10
209.53117349999999
 20
410.75
 11
200.28117349999999
 21
410.75
  0
LINE
  8
_0-0_0
  6
CONTINUOUS
 62
    7
 10
209.78117349999999
 20
410.52148399999999
 11
200.03117349999999
 21
410.52148399999999
  0
LINE
  8
_0-0_0
  6
CONTINUOUS
 62
    7
 10
209.78117349999999
 20
410.72543300000001
 11
209.53117349999999
 21
410.75
  0
LINE
  8
_0-0_0
  6
CONTINUOUS
 62
    7
 10
209.78117349999999
 20
410.30633499999999
 11
209.53117349999999
 21
410.51684599999999
  0
LINE
  8
_0-0_0
  6
CONTINUOUS
 62
    7
 10
209.53117349999999
 20
410.51684599999999
 11
200.28117349999999
 21
410.51684599999999
  0
LINE
  8
_0-0_0
  6
CONTINUOUS
 62
    7
 10
209.78117349999999
 20
410.30633499999999
 11
200.03117349999999
 21
410.30633499999999
  0
LINE
  8
_0-0_0
  6
CONTINUOUS
 62
    7
 10
209.78117349999999
 20
410.52148399999999
 11
209.53117349999999
 21
410.51684599999999
  0
LINE
  8
_0-0_0
  6
CONTINUOUS
 62
    7
 10
209.78117349999999
 20
410.082336
 11
209.53117349999999
 21
410.27255200000002
  0
LINE
  8
_0-0_0
  6
CONTINUOUS
 62
    7
 10
209.53117349999999
 20
410.27255200000002
 11
200.28117349999999
 21
410.27255200000002
  0
LINE
  8
_0-0_0
  6
CONTINUOUS
 62
    7
 10
209.78117349999999
 20
410.082336
 11
200.03117349999999
 21
410.082336
  0
LINE
  8
_0-0_0
  6
CONTINUOUS
 62
    7
 10
209.78117349999999
 20
410.30633499999999
 11
209.53117349999999
 21
410.27255200000002
  0
LINE
  8
_0-0_0
  6
CONTINUOUS
 62
    7
 10
209.78117349999999
 20
409.85199
 11
209.53117349999999
 21
410.01977499999998
  0
LINE
  8
_0-0_0
  6
CONTINUOUS
 62
    7
 10
209.53117349999999
 20
410.01977499999998
 11
200.28117349999999
 21
410.01977499999998
  0
LINE
  8
_0-0_0
  6
CONTINUOUS
 62
    7
 10
209.78117349999999
 20
409.85199
 11
200.03117349999999
 21
409.85199
  0
LINE
  8
_0-0_0
  6
CONTINUOUS
 62
    7
 10
209.78117349999999
 20
410.082336
 11
209.53117349999999
 21
410.01977499999998
  0
LINE
  8
_0-0_0
  6
CONTINUOUS
 62
    7
 10
209.78117349999999
 20
409.61776700000001
 11
209.53117349999999
 21
409.76132200000001
  0
LINE
  8
_0-0_0
  6
CONTINUOUS
 62
    7
 10
209.53117349999999
 20
409.76132200000001
 11
200.28117349999999
 21
409.76132200000001
  0
LINE
  8
_0-0_0
  6
CONTINUOUS
 62
    7
 10
209.78117349999999
 20
409.61776700000001
 11
200.03117349999999
 21
409.61776700000001
  0
LINE
  8
_0-0_0
  6
CONTINUOUS
 62
    7
 10
209.78117349999999
 20
409.85199
 11
209.53117349999999
 21
409.76132200000001
  0
LINE
  8
_0-0_0
  6
CONTINUOUS
 62
    7
 10
209.78117349999999
 20
409.38226300000002
 11
209.53117349999999
 21
409.5
  0
LINE
  8
_0-0_0
  6
CONTINUOUS
 62
    7
 10
209.53117349999999
 20
409.5
 11
200.28117349999999
 21
409.5
  0
LINE
  8
_0-0_0
  6
CONTINUOUS
 62
    7
 10
209.78117349999999
 20
409.38226300000002
 11
200.03117349999999
 21
409.38226300000002
  0
LINE
  8
_0-0_0
  6
CONTINUOUS
 62
    7
 10
209.78117349999999
 20
409.61776700000001
 11
209.53117349999999
 21
409.5
  0
LINE
  8
_0-0_0
  6
CONTINUOUS
 62
    7
 10
209.78117349999999
 20
409.14804099999998
 11
209.53117349999999
 21
409.23867799999999
  0
LINE
  8
_0-0_0
  6
CONTINUOUS
 62
    7
 10
209.53117349999999
 20
409.23867799999999
 11
200.28117349999999
 21
409.23867799999999
  0
LINE
  8
_0-0_0
  6
CONTINUOUS
 62
    7
 10
209.78117349999999
 20
409.14804099999998
 11
200.03117349999999
 21
409.14804099999998
  0
LINE
  8
_0-0_0
  6
CONTINUOUS
 62
    7
 10
209.78117349999999
 20
409.38226300000002
 11
209.53117349999999
 21
409.23867799999999
  0
LINE
  8
_0-0_0
  6
CONTINUOUS
 62
    7
 10
209.78117349999999
 20
408.917664
 11
209.53117349999999
 21
408.98022500000002
  0
LINE
  8
_0-0_0
  6
CONTINUOUS
 62
    7
 10
209.53117349999999
 20
408.98022500000002
 11
200.28117349999999
 21
408.98022500000002
  0
LINE
  8
_0-0_0
  6
CONTINUOUS
 62
    7
 10
209.78117349999999
 20
408.917664
 11
200.03117349999999
 21
408.917664
  0
LINE
  8
_0-0_0
  6
CONTINUOUS
 62
    7
 10
209.78117349999999
 20
409.14804099999998
 11
209.53117349999999
 21
408.98022500000002
  0
LINE
  8
_0-0_0
  6
CONTINUOUS
 62
    7
 10
209.78117349999999
 20
408.69366500000001
 11
209.53117349999999
 21
408.72747800000002
  0
LINE
  8
_0-0_0
  6
CONTINUOUS
 62
    7
 10
209.53117349999999
 20
408.72747800000002
 11
200.28117349999999
 21
408.72747800000002
  0
LINE
  8
_0-0_0
  6
CONTINUOUS
 62
    7
 10
209.78117349999999
 20
408.69366500000001
 11
200.03117349999999
 21
408.69366500000001
  0
LINE
  8
_0-0_0
  6
CONTINUOUS
 62
    7
 10
209.78117349999999
 20
408.917664
 11
209.53117349999999
 21
408.72747800000002
  0
LINE
  8
_0-0_0
  6
CONTINUOUS
 62
    7
 10
209.78117349999999
 20
408.47851600000001
 11
209.53117349999999
 21
408.48315400000001
  0
LINE
  8
_0-0_0
  6
CONTINUOUS
 62
    7
 10
209.53117349999999
 20
408.48315400000001
 11
200.28117349999999
 21
408.48315400000001
  0
LINE
  8
_0-0_0
  6
CONTINUOUS
 62
    7
 10
209.78117349999999
 20
408.47851600000001
 11
200.03117349999999
 21
408.47851600000001
  0
LINE
  8
_0-0_0
  6
CONTINUOUS
 62
    7
 10
209.78117349999999
 20
408.69366500000001
 11
209.53117349999999
 21
408.48315400000001
  0
LINE
  8
_0-0_0
  6
CONTINUOUS
 62
    7
 10
209.78117349999999
 20
408.27456699999999
 11
209.53117349999999
 21
408.25
  0
LINE
  8
_0-0_0
  6
CONTINUOUS
 62
    7
 10
209.53117349999999
 20
408.25
 11
200.28117349999999
 21
408.25
  0
LINE
  8
_0-0_0
  6
CONTINUOUS
 62
    7
 10
209.78117349999999
 20
408.47851600000001
 11
209.53117349999999
 21
408.25
  0
LINE
  8
_0-0_0
  6
CONTINUOUS
 62
    7
 10
200.03117349999999
 20
408.084045
 11
200.28117349999999
 21
408.03054800000001
  0
LINE
  8
_0-0_0
  6
CONTINUOUS
 62
    7
 10
200.03117349999999
 20
408.27456699999999
 11
200.28117349999999
 21
408.03054800000001
  0
LINE
  8
_0-0_0
  6
CONTINUOUS
 62
    7
 10
200.03117349999999
 20
407.90902699999998
 11
200.28117349999999
 21
407.827179
  0
LINE
  8
_0-0_0
  6
CONTINUOUS
 62
    7
 10
200.03117349999999
 20
408.084045
 11
200.28117349999999
 21
407.827179
  0
LINE
  8
_0-0_0
  6
CONTINUOUS
 62
    7
 10
200.03117349999999
 20
407.75143400000002
 11
200.28117349999999
 21
407.64215100000001
  0
LINE
  8
_0-0_0
  6
CONTINUOUS
 62
    7
 10
200.03117349999999
 20
407.90902699999998
 11
200.28117349999999
 21
407.64215100000001
  0
LINE
  8
_0-0_0
  6
CONTINUOUS
 62
    7
 10
200.03117349999999
 20
407.61300699999998
 11
200.28117349999999
 21
407.47747800000002
  0
LINE
  8
_0-0_0
  6
CONTINUOUS
 62
    7
 10
200.03117349999999
 20
407.75143400000002
 11
200.28117349999999
 21
407.47747800000002
  0
LINE
  8
_0-0_0
  6
CONTINUOUS
 62
    7
 10
200.03117349999999
 20
407.49523900000003
 11
200.28117349999999
 21
407.33496100000002
  0
LINE
  8
_0-0_0
  6
CONTINUOUS
 62
    7
 10
200.03117349999999
 20
407.61300699999998
 11
200.28117349999999
 21
407.33496100000002
  0
LINE
  8
_0-0_0
  6
CONTINUOUS
 62
    7
 10
200.03117349999999
 20
407.39944500000001
 11
200.28117349999999
 21
407.21615600000001
  0
LINE
  8
_0-0_0
  6
CONTINUOUS
 62
    7
 10
200.03117349999999
 20
407.49523900000003
 11
200.28117349999999
 21
407.21615600000001
  0
LINE
  8
_0-0_0
  6
CONTINUOUS
 62
    7
 10
200.03117349999999
 20
407.32666
 11
200.28117349999999
 21
407.12237499999998
  0
LINE
  8
_0-0_0
  6
CONTINUOUS
 62
    7
 10
200.03117349999999
 20
407.39944500000001
 11
200.28117349999999
 21
407.12237499999998
  0
LINE
  8
_0-0_0
  6
CONTINUOUS
 62
    7
 10
200.03117349999999
 20
407.27771000000001
 11
200.28117349999999
 21
407.05462599999998
  0
LINE
  8
_0-0_0
  6
CONTINUOUS
 62
    7
 10
200.03117349999999
 20
407.32666
 11
200.28117349999999
 21
407.05462599999998
  0
LINE
  8
_0-0_0
  6
CONTINUOUS
 62
    7
 10
200.03117349999999
 20
407.25308200000001
 11
200.28117349999999
 21
407.01370200000002
  0
LINE
  8
_0-0_0
  6
CONTINUOUS
 62
    7
 10
200.03117349999999
 20
407.27771000000001
 11
200.28117349999999
 21
407.01370200000002
  0
LINE
  8
_0-0_0
  6
CONTINUOUS
 62
    7
 10
200.03117349999999
 20
407.25308200000001
 11
200.28117349999999
 21
407
  0
LINE
  8
_0-0_0
  6
CONTINUOUS
 62
    7
 10
210.03117349999999
 20
411.25518799999998
 11
210.03117349999999
 21
411.5
  0
LINE
  8
_0-0_0
  6
CONTINUOUS
 62
    7
 10
209.78117349999999
 20
408.27456699999999
 11
209.53117349999999
 21
408.03054800000001
  0
LINE
  8
_0-0_0
  6
CONTINUOUS
 62
    7
 10
209.78117349999999
 20
408.084045
 11
209.53117349999999
 21
408.03054800000001
  0
LINE
  8
_0-0_0
  6
CONTINUOUS
 62
    7
 10
209.78117349999999
 20
408.084045
 11
209.53117349999999
 21
407.827179
  0
LINE
  8
_0-0_0
  6
CONTINUOUS
 62
    7
 10
209.78117349999999
 20
407.90902699999998
 11
209.53117349999999
 21
407.827179
  0
LINE
  8
_0-0_0
  6
CONTINUOUS
 62
    7
 10
209.78117349999999
 20
407.90902699999998
 11
209.53117349999999
 21
407.64215100000001
  0
LINE
  8
_0-0_0
  6
CONTINUOUS
 62
    7
 10
209.78117349999999
 20
407.75143400000002
 11
209.53117349999999
 21
407.64215100000001
  0
LINE
  8
_0-0_0
  6
CONTINUOUS
 62
    7
 10
209.78117349999999
 20
407.75143400000002
 11
209.53117349999999
 21
407.47747800000002
  0
LINE
  8
_0-0_0
  6
CONTINUOUS
 62
    7
 10
209.78117349999999
 20
407.61300699999998
 11
209.53117349999999
 21
407.47747800000002
  0
LINE
  8
_0-0_0
  6
CONTINUOUS
 62
    7
 10
209.78117349999999
 20
407.61300699999998
 11
209.53117349999999
 21
407.33496100000002
  0
LINE
  8
_0-0_0
  6
CONTINUOUS
 62
    7
 10
209.78117349999999
 20
407.49523900000003
 11
209.53117349999999
 21
407.33496100000002
  0
LINE
  8
_0-0_0
  6
CONTINUOUS
 62
    7
 10
209.78117349999999
 20
407.49523900000003
 11
209.53117349999999
 21
407.21615600000001
  0
LINE
  8
_0-0_0
  6
CONTINUOUS
 62
    7
 10
209.78117349999999
 20
407.39944500000001
 11
209.53117349999999
 21
407.21615600000001
  0
LINE
  8
_0-0_0
  6
CONTINUOUS
 62
    7
 10
209.78117349999999
 20
407.39944500000001
 11
209.53117349999999
 21
407.12237499999998
  0
LINE
  8
_0-0_0
  6
CONTINUOUS
 62
    7
 10
209.78117349999999
 20
407.32666
 11
209.53117349999999
 21
407.12237499999998
  0
LINE
  8
_0-0_0
  6
CONTINUOUS
 62
    7
 10
209.78117349999999
 20
407.32666
 11
209.53117349999999
 21
407.05462599999998
  0
LINE
  8
_0-0_0
  6
CONTINUOUS
 62
    7
 10
209.78117349999999
 20
407.27771000000001
 11
209.53117349999999
 21
407.05462599999998
  0
LINE
  8
_0-0_0
  6
CONTINUOUS
 62
    7
 10
209.78117349999999
 20
407.27771000000001
 11
209.53117349999999
 21
407.01370200000002
  0
LINE
  8
_0-0_0
  6
CONTINUOUS
 62
    7
 10
209.78117349999999
 20
407.25308200000001
 11
209.53117349999999
 21
407.01370200000002
  0
LINE
  8
_0-0_0
  6
CONTINUOUS
 62
    7
 10
209.78117349999999
 20
407.25308200000001
 11
209.53117349999999
 21
407
  0
LINE
  8
_0-0_0
  6
CONTINUOUS
 62
    7
 10
210.03117349999999
 20
407.5
 11
210.03117349999999
 21
411.25518799999998
  0
LINE
  8
_0-0_0
  6
CONTINUOUS
 62
    7
 10
209.53117349999999
 20
408.03054800000001
 11
200.28117349999999
 21
408.03054800000001
  0
LINE
  8
_0-0_0
  6
CONTINUOUS
 62
    7
 10
209.53117349999999
 20
407.827179
 11
200.28117349999999
 21
407.827179
  0
LINE
  8
_0-0_0
  6
CONTINUOUS
 62
    7
 10
209.53117349999999
 20
407.64215100000001
 11
200.28117349999999
 21
407.64215100000001
  0
LINE
  8
_0-0_0
  6
CONTINUOUS
 62
    7
 10
209.53117349999999
 20
407.47747800000002
 11
200.28117349999999
 21
407.47747800000002
  0
LINE
  8
_0-0_0
  6
CONTINUOUS
 62
    7
 10
209.53117349999999
 20
407.33496100000002
 11
200.28117349999999
 21
407.33496100000002
  0
LINE
  8
_0-0_0
  6
CONTINUOUS
 62
    7
 10
209.53117349999999
 20
407.21615600000001
 11
200.28117349999999
 21
407.21615600000001
  0
LINE
  8
_0-0_0
  6
CONTINUOUS
 62
    7
 10
209.53117349999999
 20
407.12237499999998
 11
200.28117349999999
 21
407.12237499999998
  0
LINE
  8
_0-0_0
  6
CONTINUOUS
 62
    7
 10
209.53117349999999
 20
407.05462599999998
 11
200.28117349999999
 21
407.05462599999998
  0
LINE
  8
_0-0_0
  6
CONTINUOUS
 62
    7
 10
209.53117349999999
 20
407.01370200000002
 11
200.28117349999999
 21
407.01370200000002
  0
LINE
  8
_0-0_0
  6
CONTINUOUS
 62
    7
 10
209.53117349999999
 20
407
 11
200.28117349999999
 21
407
  0
LINE
  8
_0-0_0
  6
CONTINUOUS
 62
    7
 10
73.031173500000023
 20
407.25
 11
70.575508500000012
 21
407.25
  0
LINE
  8
_0-0_0
  6
CONTINUOUS
 62
    7
 10
71.07658349999997
 20
411.75
 11
70.575508500000012
 21
411.75
  0
LINE
  8
_0-0_0
  6
CONTINUOUS
 62
    7
 10
70.431175499999995
 20
407.5
 11
70.575508500000012
 21
407.25
  0
LINE
  8
_0-0_0
  6
CONTINUOUS
 62
    7
 10
70.431175499999995
 20
411.5
 11
70.575508500000012
 21
411.75
  0
LINE
  8
_0-0_0
  6
CONTINUOUS
 62
    7
 10
174.03117349999999
 20
390.65002399999997
 11
200.0342105
 21
390.65002399999997
  0
LINE
  8
_0-0_0
  6
CONTINUOUS
 62
    7
 10
174.03117349999999
 20
395.15002399999997
 11
200.03117349999999
 21
395.15002399999997
  0
LINE
  8
_0-0_0
  6
CONTINUOUS
 62
    7
 10
200.03117349999999
 20
390.65002399999997
 11
200.28117349999999
 21
390.40002399999997
  0
LINE
  8
_0-0_0
  6
CONTINUOUS
 62
    7
 10
200.03117349999999
 20
395.15002399999997
 11
200.28117349999999
 21
395.40002399999997
  0
LINE
  8
_0-0_0
  6
CONTINUOUS
 62
    7
 10
196.03117349999999
 20
406.45001200000002
 11
194.78117349999999
 21
407.70001200000002
  0
LINE
  8
_0-0_0
  6
CONTINUOUS
 62
    7
 10
196.03117349999999
 20
395.95001200000002
 11
195.23117049999999
 21
395.14999399999999
  0
LINE
  8
_0-0_0
  6
CONTINUOUS
 62
    7
 10
210.03117349999999
 20
390.90002399999997
 11
209.5313415
 21
390.40014600000001
  0
LINE
  8
_0-0_0
  6
CONTINUOUS
 62
    7
 10
210.03117349999999
 20
394.90002399999997
 11
209.5313415
 21
395.39984099999998
  0
LINE
  8
_0-0_0
  6
CONTINUOUS
 62
    7
 10
196.03117349999999
 20
396.20001200000002
 11
196.43116749999999
 21
396.20001200000002
  0
LINE
  8
_0-0_0
  6
CONTINUOUS
 62
    7
 10
196.03117349999999
 20
406.20001200000002
 11
196.43116749999999
 21
406.20001200000002
  0
LINE
  8
_0-0_0
  6
CONTINUOUS
 62
    7
 10
197.23117049999999
 20
396.66189600000001
 11
196.43116749999999
 21
396.20001200000002
  0
LINE
  8
_0-0_0
  6
CONTINUOUS
 62
    7
 10
197.23117049999999
 20
405.73812900000001
 11
196.43116749999999
 21
406.20001200000002
  0
LINE
  8
_0-0_0
  6
CONTINUOUS
 62
    7
 10
197.23117049999999
 20
397.20001200000002
 11
255.23117049999999
 21
397.20001200000002
  0
LINE
  8
_0-0_0
  6
CONTINUOUS
 62
    7
 10
197.23117049999999
 20
405.20001200000002
 11
255.23117049999999
 21
405.20001200000002
  0
LINE
  8
_0-0_0
  6
CONTINUOUS
 62
    7
 10
179.78114349999998
 20
411.75
 11
200.03117349999999
 21
411.75
  0
LINE
  8
_0-0_0
  6
CONTINUOUS
 62
    7
 10
200.03117349999999
 20
411.75
 11
200.28117349999999
 21
412
  0
LINE
  8
_0-0_0
  6
CONTINUOUS
 62
    7
 10
195.23117049999999
 20
407.25
 11
200.03117349999999
 21
407.25
  0
LINE
  8
_0-0_0
  6
CONTINUOUS
 62
    7
 10
200.03117349999999
 20
407.25
 11
200.28117349999999
 21
407
  0
LINE
  8
_0-0_0
  6
CONTINUOUS
 62
    7
 10
210.03117349999999
 20
411.5
 11
209.5313415
 21
411.99984699999999
  0
LINE
  8
_0-0_0
  6
CONTINUOUS
 62
    7
 10
210.03117349999999
 20
407.5
 11
209.5313415
 21
407.00015300000001
  0
LINE
  8
_0-0_0
  6
CONTINUOUS
 62
    7
 10
838.03115849999995
 20
443.40002399999997
 11
838.03115849999995
 21
430.40002399999997
  0
LINE
  8
_0-0_0
  6
CONTINUOUS
 62
    7
 10
65.031173500000023
 20
443.40002399999997
 11
65.031173500000023
 21
430.40002399999997
  0
LINE
  8
_0-0_0
  6
CONTINUOUS
 62
    7
 10
65.031173500000023
 20
443.40002399999997
 11
838.03115849999995
 21
443.40002399999997
  0
LINE
  8
_0-0_0
  6
CONTINUOUS
 62
    7
 10
65.031173500000023
 20
443.40002399999997
 11
65.031173500000023
 21
462
  0
LINE
  8
_0-0_0
  6
CONTINUOUS
 62
    7
 10
65.031173500000023
 20
464.5
 11
65.031173500000023
 21
462
  0
LINE
  8
_0-0_0
  6
CONTINUOUS
 62
    7
 10
65.031173500000023
 20
465
 11
65.031173500000023
 21
464.5
  0
LINE
  8
_0-0_0
  6
CONTINUOUS
 62
    7
 10
65.031173500000023
 20
417
 11
65.031173500000023
 21
416.5
  0
LINE
  8
_0-0_0
  6
CONTINUOUS
 62
    7
 10
65.031173500000023
 20
422
 11
65.031173500000023
 21
417
  0
LINE
  8
_0-0_0
  6
CONTINUOUS
 62
    7
 10
65.031173500000023
 20
422.5
 11
65.031173500000023
 21
422
  0
LINE
  8
_0-0_0
  6
CONTINUOUS
 62
    7
 10
65.031173500000023
 20
423
 11
65.031173500000023
 21
422.5
  0
LINE
  8
_0-0_0
  6
CONTINUOUS
 62
    7
 10
65.031173500000023
 20
426.20001200000002
 11
65.031173500000023
 21
423
  0
LINE
  8
_0-0_0
  6
CONTINUOUS
 62
    7
 10
65.031173500000023
 20
426.20001200000002
 11
65.031173500000023
 21
430.40002399999997
  0
LINE
  8
_0-0_0
  6
CONTINUOUS
 62
    7
 10
65.031173500000023
 20
430.40002399999997
 11
838.03115849999995
 21
430.40002399999997
  0
LINE
  8
_0-0_0
  6
CONTINUOUS
 62
    7
 10
838.03115849999995
 20
426.20001200000002
 11
838.03115849999995
 21
430.40002399999997
  0
LINE
  8
_0-0_0
  6
CONTINUOUS
 62
    7
 10
838.03115849999995
 20
423
 11
838.03115849999995
 21
426.20001200000002
  0
LINE
  8
_0-0_0
  6
CONTINUOUS
 62
    7
 10
838.03115849999995
 20
423
 11
838.03115849999995
 21
422.5
  0
LINE
  8
_0-0_0
  6
CONTINUOUS
 62
    7
 10
838.03115849999995
 20
422.5
 11
838.03115849999995
 21
422
  0
LINE
  8
_0-0_0
  6
CONTINUOUS
 62
    7
 10
838.03115849999995
 20
422
 11
838.03115849999995
 21
417
  0
LINE
  8
_0-0_0
  6
CONTINUOUS
 62
    7
 10
838.03115849999995
 20
417
 11
838.03115849999995
 21
416.5
  0
LINE
  8
_0-0_0
  6
CONTINUOUS
 62
    7
 10
838.03115849999995
 20
465
 11
838.03115849999995
 21
464.5
  0
LINE
  8
_0-0_0
  6
CONTINUOUS
 62
    7
 10
838.03115849999995
 20
462
 11
838.03115849999995
 21
464.5
  0
LINE
  8
_0-0_0
  6
CONTINUOUS
 62
    7
 10
838.03115849999995
 20
443.40002399999997
 11
838.03115849999995
 21
462
  0
CIRCLE
  8
_0-0_0
  6
CONTINUOUS
 62
    7
 10
801.53115849999995
 20
452.5
 40
6
  0
CIRCLE
  8
_0-0_0
  6
CONTINUOUS
 62
    7
 10
701.53115849999995
 20
452.5
 40
6
  0
CIRCLE
  8
_0-0_0
  6
CONTINUOUS
 62
    7
 10
601.53115849999995
 20
452.5
 40
6
  0
CIRCLE
  8
_0-0_0
  6
CONTINUOUS
 62
    7
 10
501.53118849999998
 20
452.5
 40
6
  0
CIRCLE
  8
_0-0_0
  6
CONTINUOUS
 62
    7
 10
401.53118849999998
 20
452.5
 40
6
  0
CIRCLE
  8
_0-0_0
  6
CONTINUOUS
 62
    7
 10
301.53118849999998
 20
452.5
 40
6
  0
CIRCLE
  8
_0-0_0
  6
CONTINUOUS
 62
    7
 10
201.53117349999999
 20
452.5
 40
6
  0
CIRCLE
  8
_0-0_0
  6
CONTINUOUS
 62
    7
 10
101.53117350000002
 20
452.5
 40
6
  0
LINE
  8
_0-0_0
  6
CONTINUOUS
 62
    7
 10
65.031173500000023
 20
462
 11
838.03115849999995
 21
462
  0
LINE
  8
_0-0_0
  6
CONTINUOUS
 62
    7
 10
65.031173500000023
 20
465
 11
838.03115849999995
 21
465
  0
LINE
  8
_0-0_0
  6
CONTINUOUS
 62
    7
 10
65.031173500000023
 20
464.5
 11
62.531173500000023
 21
464.5
  0
LINE
  8
_0-0_0
  6
CONTINUOUS
 62
    7
 10
62.531173500000023
 20
464.5
 11
62.531173500000023
 21
464
  0
LINE
  8
_0-0_0
  6
CONTINUOUS
 62
    7
 10
62.531173500000023
 20
464
 11
62.531173500000023
 21
423.5
  0
LINE
  8
_0-0_0
  6
CONTINUOUS
 62
    7
 10
65.031173500000023
 20
423
 11
62.531173500000023
 21
423
  0
LINE
  8
_0-0_0
  6
CONTINUOUS
 62
    7
 10
62.531173500000023
 20
423.5
 11
62.531173500000023
 21
423
  0
LINE
  8
_0-0_0
  6
CONTINUOUS
 62
    7
 10
62.531173500000023
 20
423
 11
62.531173500000023
 21
422
  0
LINE
  8
_0-0_0
  6
CONTINUOUS
 62
    7
 10
62.531173500000023
 20
422
 11
62.531173500000023
 21
417.5
  0
LINE
  8
_0-0_0
  6
CONTINUOUS
 62
    7
 10
65.031173500000023
 20
417
 11
62.531173500000023
 21
417
  0
LINE
  8
_0-0_0
  6
CONTINUOUS
 62
    7
 10
62.531173500000023
 20
417.5
 11
62.531173500000023
 21
417
  0
LINE
  8
_0-0_0
  6
CONTINUOUS
 62
    7
 10
65.031173500000023
 20
416.5
 11
838.03115849999995
 21
416.5
  0
LINE
  8
_0-0_0
  6
CONTINUOUS
 62
    7
 10
65.031173500000023
 20
422.5
 11
838.03115849999995
 21
422.5
  0
LINE
  8
_0-0_0
  6
CONTINUOUS
 62
    7
 10
65.031173500000023
 20
426.20001200000002
 11
838.03115849999995
 21
426.20001200000002
  0
LINE
  8
_0-0_0
  6
CONTINUOUS
 62
    7
 10
838.03115849999995
 20
464.5
 11
840.53115849999995
 21
464.5
  0
LINE
  8
_0-0_0
  6
CONTINUOUS
 62
    7
 10
840.53115849999995
 20
464.5
 11
840.53115849999995
 21
464
  0
LINE
  8
_0-0_0
  6
CONTINUOUS
 62
    7
 10
840.53115849999995
 20
464
 11
840.53115849999995
 21
423.5
  0
LINE
  8
_0-0_0
  6
CONTINUOUS
 62
    7
 10
838.03115849999995
 20
423
 11
840.53115849999995
 21
423
  0
LINE
  8
_0-0_0
  6
CONTINUOUS
 62
    7
 10
840.53115849999995
 20
423.5
 11
840.53115849999995
 21
423
  0
LINE
  8
_0-0_0
  6
CONTINUOUS
 62
    7
 10
840.53115849999995
 20
423
 11
840.53115849999995
 21
422
  0
LINE
  8
_0-0_0
  6
CONTINUOUS
 62
    7
 10
840.53115849999995
 20
422
 11
840.53115849999995
 21
417.5
  0
LINE
  8
_0-0_0
  6
CONTINUOUS
 62
    7
 10
838.03115849999995
 20
417
 11
840.53115849999995
 21
417
  0
LINE
  8
_0-0_0
  6
CONTINUOUS
 62
    7
 10
840.53115849999995
 20
417.5
 11
840.53115849999995
 21
417
  0
ARC
  8
_0-0_0
  6
CONTINUOUS
 62
    7
 10
122.53117350000002
 20
417.5
 40
0.5
 50
269.99999700000001
 51
0
  0
LINE
  8
_0-0_0
  6
CONTINUOUS
 62
    7
 10
122.53117350000002
 20
417
 11
115.53117350000002
 21
417
  0
ARC
  8
_0-0_0
  6
CONTINUOUS
 62
    7
 10
115.53117350000002
 20
417.5
 40
0.5
 50
179.99999099999999
 51
269.99999700000001
  0
LINE
  8
_0-0_0
  6
CONTINUOUS
 62
    7
 10
115.03117350000002
 20
421.5
 11
115.03117350000002
 21
417.5
  0
ARC
  8
_0-0_0
  6
CONTINUOUS
 62
    7
 10
115.53117350000002
 20
421.5
 40
0.5
 50
90.000003000000007
 51
179.99999099999999
  0
ARC
  8
_0-0_0
  6
CONTINUOUS
 62
    7
 10
122.53117350000002
 20
421.5
 40
0.5
 50
0
 51
90.000003000000007
  0
LINE
  8
_0-0_0
  6
CONTINUOUS
 62
    7
 10
115.53117350000002
 20
422
 11
122.53117350000002
 21
422
  0
LINE
  8
_0-0_0
  6
CONTINUOUS
 62
    7
 10
838.03115849999995
 20
465
 11
838.03115849999995
 21
464.70001200000002
  0
LINE
  8
_0-0_0
  6
CONTINUOUS
 62
    7
 10
838.03115849999995
 20
464.70001200000002
 11
838.03115849999995
 21
464.5
  0
CIRCLE
  8
_0-0_0
  6
CONTINUOUS
 62
    7
 10
801.53115849999995
 20
452.5
 40
5.5
  0
CIRCLE
  8
_0-0_0
  6
CONTINUOUS
 62
    7
 10
701.53115849999995
 20
452.5
 40
5.5
  0
CIRCLE
  8
_0-0_0
  6
CONTINUOUS
 62
    7
 10
601.53115849999995
 20
452.5
 40
5.5
  0
CIRCLE
  8
_0-0_0
  6
CONTINUOUS
 62
    7
 10
501.53118849999998
 20
452.5
 40
5.5
  0
CIRCLE
  8
_0-0_0
  6
CONTINUOUS
 62
    7
 10
401.53118849999998
 20
452.5
 40
5.5
  0
CIRCLE
  8
_0-0_0
  6
CONTINUOUS
 62
    7
 10
301.53118849999998
 20
452.5
 40
5.5
  0
CIRCLE
  8
_0-0_0
  6
CONTINUOUS
 62
    7
 10
201.53117349999999
 20
452.5
 40
5.5
  0
CIRCLE
  8
_0-0_0
  6
CONTINUOUS
 62
    7
 10
101.53117350000002
 20
452.5
 40
5.5
  0
LINE
  8
_0-0_0
  6
CONTINUOUS
 62
    7
 10
123.03117350000002
 20
417.5
 11
123.03117350000002
 21
421.5
  0
CIRCLE
  8
_0-0_0
  6
CONTINUOUS
 62
    7
 10
801.53115849999995
 20
452.5
 40
3.5
  0
CIRCLE
  8
_0-0_0
  6
CONTINUOUS
 62
    7
 10
701.53115849999995
 20
452.5
 40
3.5
  0
CIRCLE
  8
_0-0_0
  6
CONTINUOUS
 62
    7
 10
601.53115849999995
 20
452.5
 40
3.5
  0
CIRCLE
  8
_0-0_0
  6
CONTINUOUS
 62
    7
 10
501.53118849999998
 20
452.5
 40
3.5
  0
CIRCLE
  8
_0-0_0
  6
CONTINUOUS
 62
    7
 10
401.53118849999998
 20
452.5
 40
3.5
  0
CIRCLE
  8
_0-0_0
  6
CONTINUOUS
 62
    7
 10
301.53118849999998
 20
452.5
 40
3.5
  0
CIRCLE
  8
_0-0_0
  6
CONTINUOUS
 62
    7
 10
201.53117349999999
 20
452.5
 40
3.5
  0
CIRCLE
  8
_0-0_0
  6
CONTINUOUS
 62
    7
 10
101.53117350000002
 20
452.5
 40
3.5
  0
ARC
  8
_0-0_0
  6
CONTINUOUS
 62
    7
 10
120.33117649999997
 20
421.20001200000002
 40
0.2
 50
339.62356199999999
 51
90.000002999999978
  0
LINE
  8
_0-0_0
  6
CONTINUOUS
 62
    7
 10
120.51866150000001
 20
421.13037100000003
 11
119.2186585
 21
417.63037100000003
  0
ARC
  8
_0-0_0
  6
CONTINUOUS
 62
    7
 10
119.03117350000002
 20
417.70001200000002
 40
0.2
 50
200.37643
 51
339.62356199999999
  0
LINE
  8
_0-0_0
  6
CONTINUOUS
 62
    7
 10
117.54369350000002
 20
421.13037100000003
 11
118.84368849999998
 21
417.63037100000003
  0
ARC
  8
_0-0_0
  6
CONTINUOUS
 62
    7
 10
117.7311785
 20
421.20001200000002
 40
0.2
 50
90.000003000000007
 51
200.37643
  0
LINE
  8
_0-0_0
  6
CONTINUOUS
 62
    7
 10
117.7311785
 20
421.40002399999997
 11
120.33117649999997
 21
421.40002399999997
  0
ARC
  8
_0-0_0
  6
CONTINUOUS
 62
    7
 10
757.73117049999996
 20
421.20001200000002
 40
0.2
 50
90.000003000000007
 51
200.37643
  0
LINE
  8
_0-0_0
  6
CONTINUOUS
 62
    7
 10
757.73117049999996
 20
421.40002399999997
 11
760.33114649999993
 21
421.40002399999997
  0
ARC
  8
_0-0_0
  6
CONTINUOUS
 62
    7
 10
755.53115849999995
 20
421.5
 40
0.5
 50
90.000003000000007
 51
179.99999099999999
  0
LINE
  8
_0-0_0
  6
CONTINUOUS
 62
    7
 10
755.03115849999995
 20
421.5
 11
755.03115849999995
 21
417.5
  0
ARC
  8
_0-0_0
  6
CONTINUOUS
 62
    7
 10
755.53115849999995
 20
417.5
 40
0.5
 50
179.99999099999999
 51
269.99999700000001
  0
LINE
  8
_0-0_0
  6
CONTINUOUS
 62
    7
 10
762.53115849999995
 20
417
 11
755.53115849999995
 21
417
  0
ARC
  8
_0-0_0
  6
CONTINUOUS
 62
    7
 10
762.53115849999995
 20
417.5
 40
0.5
 50
269.99999700000001
 51
0
  0
LINE
  8
_0-0_0
  6
CONTINUOUS
 62
    7
 10
763.03115849999995
 20
417.5
 11
763.03115849999995
 21
421.5
  0
ARC
  8
_0-0_0
  6
CONTINUOUS
 62
    7
 10
762.53115849999995
 20
421.5
 40
0.5
 50
0
 51
90.000003000000007
  0
LINE
  8
_0-0_0
  6
CONTINUOUS
 62
    7
 10
755.53115849999995
 20
422
 11
762.53115849999995
 21
422
  0
LINE
  8
_0-0_0
  6
CONTINUOUS
 62
    7
 10
757.54367049999996
 20
421.13037100000003
 11
758.84365849999995
 21
417.63037100000003
  0
ARC
  8
_0-0_0
  6
CONTINUOUS
 62
    7
 10
759.03115849999995
 20
417.70001200000002
 40
0.2
 50
200.37643
 51
339.62356199999999
  0
LINE
  8
_0-0_0
  6
CONTINUOUS
 62
    7
 10
760.51864649999993
 20
421.13037100000003
 11
759.21865849999995
 21
417.63037100000003
  0
ARC
  8
_0-0_0
  6
CONTINUOUS
 62
    7
 10
760.33114649999993
 20
421.20001200000002
 40
0.2
 50
339.62356199999999
 51
90.000002999999978
  0
LINE
  8
_0-0_0
  6
CONTINUOUS
 62
    7
 10
7.1065244999999777
 20
414.5
 11
7.2065205000000105
 21
414.5
  0
LINE
  8
_0-0_0
  6
CONTINUOUS
 62
    7
 10
22.906524499999989
 20
414.5
 11
22.206520500000011
 21
414.5
  0
LINE
  8
_0-0_0
  6
CONTINUOUS
 62
    7
 10
22.906524499999989
 20
414.5
 11
24.106525499999975
 21
414.5
  0
ARC
  8
_0-0_0
  6
CONTINUOUS
 62
    7
 10
24.106525499999975
 20
414
 40
0.5
 50
0
 51
90.000003000000007
  0
ARC
  8
_0-0_0
  6
CONTINUOUS
 62
    7
 10
22.906524499999989
 20
414
 40
0.5
 50
90.000003000000007
 51
179.99999099999999
  0
ARC
  8
_0-0_0
  6
CONTINUOUS
 62
    7
 10
7.1065244999999777
 20
414
 40
0.5
 50
90.000003000000007
 51
179.99999099999999
  0
ARC
  8
_0-0_0
  6
CONTINUOUS
 62
    7
 10
8.6065244999999777
 20
415
 40
0.5
 50
90.000003000000007
 51
126.868797
  0
LINE
  8
_0-0_0
  6
CONTINUOUS
 62
    7
 10
10.106524499999978
 20
415.5
 11
8.6065244999999777
 21
415.5
  0
ARC
  8
_0-0_0
  6
CONTINUOUS
 62
    7
 10
10.106524499999978
 20
416.5
 40
1
 50
269.99999700000001
 51
0
  0
LINE
  8
_0-0_0
  6
CONTINUOUS
 62
    7
 10
11.106524499999978
 20
417
 11
11.106524499999978
 21
416.5
  0
LINE
  8
_0-0_0
  6
CONTINUOUS
 62
    7
 10
11.606524499999978
 20
417
 11
11.606524499999978
 21
416
  0
ARC
  8
_0-0_0
  6
CONTINUOUS
 62
    7
 10
10.106524499999978
 20
416
 40
1.5
 50
336.42205899999999
 51
0
  0
ARC
  8
_0-0_0
  6
CONTINUOUS
 62
    7
 10
21.706523500000003
 20
416
 40
1.5
 50
179.99999099999999
 51
203.57793100000001
  0
LINE
  8
_0-0_0
  6
CONTINUOUS
 62
    7
 10
23.706523500000003
 20
415
 11
23.706523500000003
 21
414.5
  0
ARC
  8
_0-0_0
  6
CONTINUOUS
 62
    7
 10
23.206523500000003
 20
415
 40
0.5
 50
0
 51
90.000003000000007
  0
LINE
  8
_0-0_0
  6
CONTINUOUS
 62
    7
 10
21.706523500000003
 20
415.5
 11
23.206523500000003
 21
415.5
  0
ARC
  8
_0-0_0
  6
CONTINUOUS
 62
    7
 10
21.706523500000003
 20
416.5
 40
1
 50
179.99999099999999
 51
269.99999700000001
  0
LINE
  8
_0-0_0
  6
CONTINUOUS
 62
    7
 10
20.706523500000003
 20
417
 11
20.706523500000003
 21
416.5
  0
LINE
  8
_0-0_0
  6
CONTINUOUS
 62
    7
 10
20.206523500000003
 20
417
 11
20.206523500000003
 21
416
  0
LINE
  8
_0-0_0
  6
CONTINUOUS
 62
    7
 10
24.606525499999975
 20
387.5
 11
24.606525499999975
 21
388.40002399999997
  0
LINE
  8
_0-0_0
  6
CONTINUOUS
 62
    7
 10
24.606525499999975
 20
388.40002399999997
 11
24.606525499999975
 21
390.90002399999997
  0
LINE
  8
_0-0_0
  6
CONTINUOUS
 62
    7
 10
24.606525499999975
 20
390.90002399999997
 11
24.606525499999975
 21
411.5
  0
LINE
  8
_0-0_0
  6
CONTINUOUS
 62
    7
 10
24.606525499999975
 20
411.5
 11
24.606525499999975
 21
414
  0
LINE
  8
_0-0_0
  6
CONTINUOUS
 62
    7
 10
22.406524499999989
 20
414
 11
22.406524499999989
 21
412.75500499999998
  0
LINE
  8
_0-0_0
  6
CONTINUOUS
 62
    7
 10
20.006524500000012
 20
415.40002399999997
 11
20.006524500000012
 21
416.80001800000002
  0
ARC
  8
_0-0_0
  6
CONTINUOUS
 62
    7
 10
19.506524500000012
 20
416.80001800000002
 40
0.5
 50
0
 51
23.579369
  0
LINE
  8
_0-0_0
  6
CONTINUOUS
 62
    7
 10
11.806524500000023
 20
415.40002399999997
 11
11.806524500000023
 21
416.80001800000002
  0
ARC
  8
_0-0_0
  6
CONTINUOUS
 62
    7
 10
12.306524500000023
 20
416.80001800000002
 40
0.5
 50
156.420635
 51
179.99999099999999
  0
LINE
  8
_0-0_0
  6
CONTINUOUS
 62
    7
 10
6.6065244999999777
 20
387.5
 11
6.6065244999999777
 21
397.70001200000002
  0
LINE
  8
_0-0_0
  6
CONTINUOUS
 62
    7
 10
6.6065244999999777
 20
397.70001200000002
 11
6.6065244999999777
 21
398.70001200000002
  0
LINE
  8
_0-0_0
  6
CONTINUOUS
 62
    7
 10
6.6065244999999777
 20
398.70001200000002
 11
6.6065244999999777
 21
403.70001200000002
  0
LINE
  8
_0-0_0
  6
CONTINUOUS
 62
    7
 10
6.6065244999999777
 20
403.70001200000002
 11
6.6065244999999777
 21
404.70001200000002
  0
LINE
  8
_0-0_0
  6
CONTINUOUS
 62
    7
 10
6.6065244999999777
 20
414
 11
6.6065244999999777
 21
404.70001200000002
  0
ARC
  8
_0-0_0
  6
CONTINUOUS
 62
    7
 10
7.7065245000000004
 20
403.70001200000002
 40
0.5
 50
0
 51
90.000003000000007
  0
LINE
  8
_0-0_0
  6
CONTINUOUS
 62
    7
 10
7.8065245000000232
 20
404.65002399999997
 11
7.7065245000000004
 21
404.65002399999997
  0
ARC
  8
_0-0_0
  6
CONTINUOUS
 62
    7
 10
7.8065245000000232
 20
404.15002399999997
 40
0.5
 50
0
 51
90.000003000000007
  0
LINE
  8
_0-0_0
  6
CONTINUOUS
 62
    7
 10
8.2065245000000004
 20
403.70001200000002
 11
8.2065245000000004
 21
398.70001200000002
  0
ARC
  8
_0-0_0
  6
CONTINUOUS
 62
    7
 10
7.7065245000000004
 20
398.70001200000002
 40
0.5
 50
269.99999700000001
 51
0
  0
ARC
  8
_0-0_0
  6
CONTINUOUS
 62
    7
 10
7.8065245000000232
 20
398.60000600000001
 40
0.5
 50
269.99999700000001
 51
0
  0
LINE
  8
_0-0_0
  6
CONTINUOUS
 62
    7
 10
7.7065245000000004
 20
398.10000600000001
 11
7.8065245000000232
 21
398.10000600000001
  0
LINE
  8
_0-0_0
  6
CONTINUOUS
 62
    7
 10
25.406524499999989
 20
413
 11
24.606525499999975
 21
413
  0
LINE
  8
_0-0_0
  6
CONTINUOUS
 62
    7
 10
25.406524499999989
 20
413.80001800000002
 11
24.606525499999975
 21
413.80001800000002
  0
LINE
  8
_0-0_0
  6
CONTINUOUS
 62
    7
 10
25.406524499999989
 20
412.80001800000002
 11
25.406524499999989
 21
413.80001800000002
  0
LINE
  8
_0-0_0
  6
CONTINUOUS
 62
    7
 10
25.406524499999989
 20
394.20001200000002
 11
24.606525499999975
 21
394.20001200000002
  0
LINE
  8
_0-0_0
  6
CONTINUOUS
 62
    7
 10
25.406524499999989
 20
394.20001200000002
 11
25.406524499999989
 21
397.20001200000002
  0
LINE
  8
_0-0_0
  6
CONTINUOUS
 62
    7
 10
25.406524499999989
 20
409.43771400000003
 11
25.406524499999989
 21
397.20001200000002
  0
LINE
  8
_0-0_0
  6
CONTINUOUS
 62
    7
 10
25.406524499999989
 20
409.43771400000003
 11
25.406524499999989
 21
410.40048200000001
  0
LINE
  8
_0-0_0
  6
CONTINUOUS
 62
    7
 10
24.606525499999975
 20
410.40048200000001
 11
24.606525499999975
 21
413
  0
ARC
  8
_0-0_0
  6
CONTINUOUS
 62
    7
 10
18.991599500000007
 20
409.68206800000002
 40
5.7120379999999997
 50
18.558475999999999
 51
26.433648000000002
  0
ARC
  8
_0-0_0
  6
CONTINUOUS
 62
    7
 10
24.406524499999989
 20
411.5
 40
0.2
 50
269.99999700000001
 51
0
  0
ARC
  8
_0-0_0
  6
CONTINUOUS
 62
    7
 10
24.406524499999989
 20
390.90002399999997
 40
0.2
 50
0
 51
90.000003000000007
  0
ARC
  8
_0-0_0
  6
CONTINUOUS
 62
    7
 10
18.991716499999995
 20
392.71804800000001
 40
5.711964
 50
333.565022
 51
341.44031000000001
  0
ARC
  8
_0-0_0
  6
CONTINUOUS
 62
    7
 10
24.106525499999975
 20
388.40002399999997
 40
0.5
 50
269.99999700000001
 51
0
  0
LINE
  8
_0-0_0
  6
CONTINUOUS
 62
    7
 10
24.106525499999975
 20
387.5
 11
24.606525499999975
 21
387.5
  0
LINE
  8
_0-0_0
  6
CONTINUOUS
 62
    7
 10
24.606525499999975
 20
387.5
 11
24.106525499999975
 21
387
  0
ARC
  8
_0-0_0
  6
CONTINUOUS
 62
    7
 10
22.406524499999989
 20
410
 40
2.2999999999999998
 50
34.417387999999995
 51
79.713437000000013
  0
LINE
  8
_0-0_0
  6
CONTINUOUS
 62
    7
 10
24.345207500000015
 20
411.30001800000002
 11
24.303892500000018
 21
411.30001800000002
  0
LINE
  8
_0-0_0
  6
CONTINUOUS
 62
    7
 10
24.345207500000015
 20
411.30001800000002
 11
24.354766499999982
 21
411.30102499999998
  0
LINE
  8
_0-0_0
  6
CONTINUOUS
 62
    7
 10
24.354766499999982
 20
411.30102499999998
 11
24.364257500000008
 21
411.30423000000002
  0
LINE
  8
_0-0_0
  6
CONTINUOUS
 62
    7
 10
24.364257500000008
 20
411.30423000000002
 11
24.373512500000004
 21
411.30963100000002
  0
LINE
  8
_0-0_0
  6
CONTINUOUS
 62
    7
 10
24.373512500000004
 20
411.30963100000002
 11
24.382308500000022
 21
411.317139
  0
LINE
  8
_0-0_0
  6
CONTINUOUS
 62
    7
 10
24.382308500000022
 20
411.317139
 11
24.397708500000022
 21
411.33776899999998
  0
LINE
  8
_0-0_0
  6
CONTINUOUS
 62
    7
 10
24.397708500000022
 20
411.33776899999998
 11
24.409484500000019
 21
411.36505099999999
  0
LINE
  8
_0-0_0
  6
CONTINUOUS
 62
    7
 10
24.409484500000019
 20
411.36505099999999
 11
24.416665500000022
 21
411.39718599999998
  0
LINE
  8
_0-0_0
  6
CONTINUOUS
 62
    7
 10
24.416665500000022
 20
411.39718599999998
 11
24.418558500000017
 21
411.43225100000001
  0
LINE
  8
_0-0_0
  6
CONTINUOUS
 62
    7
 10
24.418558500000017
 20
411.43225100000001
 11
24.414709500000015
 21
411.468414
  0
LINE
  8
_0-0_0
  6
CONTINUOUS
 62
    7
 10
24.414709500000015
 20
411.468414
 11
24.406522499999994
 21
411.5
  0
ARC
  8
_0-0_0
  6
CONTINUOUS
 62
    7
 10
22.906524499999989
 20
412.75500499999998
 40
0.5
 50
179.99999099999999
 51
259.71343899999994
  0
LINE
  8
_0-0_0
  6
CONTINUOUS
 62
    7
 10
22.206523500000003
 20
412.85000600000001
 11
22.206523500000003
 21
412.55658
  0
LINE
  8
_0-0_0
  6
CONTINUOUS
 62
    7
 10
22.206523500000003
 20
412.85000600000001
 11
22.206523500000003
 21
414.90002399999997
  0
ARC
  8
_0-0_0
  6
CONTINUOUS
 62
    7
 10
21.706523500000003
 20
414.90002399999997
 40
0.5
 50
0
 51
90.000003000000007
  0
LINE
  8
_0-0_0
  6
CONTINUOUS
 62
    7
 10
21.706523500000003
 20
415.40002399999997
 11
18.963630500000022
 21
415.40002399999997
  0
ARC
  8
_0-0_0
  6
CONTINUOUS
 62
    7
 10
7.7065245000000004
 20
405.15002399999997
 40
0.5
 50
179.99999099999999
 51
269.99999700000001
  0
LINE
  8
_0-0_0
  6
CONTINUOUS
 62
    7
 10
7.2065245000000004
 20
414.90002399999997
 11
7.2065245000000004
 21
405.15002399999997
  0
LINE
  8
_0-0_0
  6
CONTINUOUS
 62
    7
 10
12.849417500000015
 20
415.40002399999997
 11
7.7065245000000004
 21
415.40002399999997
  0
ARC
  8
_0-0_0
  6
CONTINUOUS
 62
    7
 10
7.7065245000000004
 20
414.90002399999997
 40
0.5
 50
90.000003000000007
 51
179.99999099999999
  0
LINE
  8
_0-0_0
  6
CONTINUOUS
 62
    7
 10
6.4065244999999891
 20
413
 11
6.6065244999999777
 21
413
  0
LINE
  8
_0-0_0
  6
CONTINUOUS
 62
    7
 10
6.4065244999999891
 20
413.80001800000002
 11
6.6065244999999777
 21
413.80001800000002
  0
LINE
  8
_0-0_0
  6
CONTINUOUS
 62
    7
 10
6.4065244999999891
 20
413.80001800000002
 11
6.4065244999999891
 21
413.00012199999998
  0
LINE
  8
_0-0_0
  6
CONTINUOUS
 62
    7
 10
6.4065244999999891
 20
394.20001200000002
 11
6.6065244999999777
 21
394.20001200000002
  0
LINE
  8
_0-0_0
  6
CONTINUOUS
 62
    7
 10
6.4065244999999891
 20
397.20001200000002
 11
6.4065244999999891
 21
394.20001200000002
  0
LINE
  8
_0-0_0
  6
CONTINUOUS
 62
    7
 10
6.4065244999999891
 20
409.43771400000003
 11
6.4065244999999891
 21
397.20001200000002
  0
LINE
  8
_0-0_0
  6
CONTINUOUS
 62
    7
 10
6.4065244999999891
 20
410.40048200000001
 11
6.4065244999999891
 21
409.43771400000003
  0
ARC
  8
_0-0_0
  6
CONTINUOUS
 62
    7
 10
7.1065244999999777
 20
403.70001200000002
 40
0.5
 50
90.000003000000007
 51
179.99999099999999
  0
ARC
  8
_0-0_0
  6
CONTINUOUS
 62
    7
 10
7.1065244999999777
 20
398.70001200000002
 40
0.5
 50
179.99999099999999
 51
269.99999700000001
  0
LINE
  8
_0-0_0
  6
CONTINUOUS
 62
    7
 10
6.6065244999999777
 20
387.5
 11
7.1065244999999777
 21
387.5
  0
LINE
  8
_0-0_0
  6
CONTINUOUS
 62
    7
 10
6.6065244999999777
 20
387.5
 11
7.1065244999999777
 21
387
  0
LINE
  8
_0-0_0
  6
CONTINUOUS
 62
    7
 10
7.7065245000000004
 20
404.20001200000002
 11
7.1065244999999777
 21
404.20001200000002
  0
LINE
  8
_0-0_0
  6
CONTINUOUS
 62
    7
 10
8.3065245000000232
 20
404.15002399999997
 11
8.3065245000000232
 21
398.60000600000001
  0
LINE
  8
_0-0_0
  6
CONTINUOUS
 62
    7
 10
24.106525499999975
 20
387.5
 11
7.1065244999999777
 21
387.5
  0
LINE
  8
_0-0_0
  6
CONTINUOUS
 62
    7
 10
7.1065244999999777
 20
398.20001200000002
 11
7.7065245000000004
 21
398.20001200000002
  0
ARC
  8
_0-0_0
  6
CONTINUOUS
 62
    7
 10
7.7065245000000004
 20
397.60000600000001
 40
0.5
 50
90.000003000000007
 51
179.99999099999999
  0
LINE
  8
_0-0_0
  6
CONTINUOUS
 62
    7
 10
25.406524499999989
 20
410.40048200000001
 11
25.406524499999989
 21
413
  0
LINE
  8
_0-0_0
  6
CONTINUOUS
 62
    7
 10
24.406524499999989
 20
411.30001800000002
 11
24.345207500000015
 21
411.30001800000002
  0
LINE
  8
_0-0_0
  6
CONTINUOUS
 62
    7
 10
24.303892500000018
 20
411.30001800000002
 11
24.301668500000005
 21
411.30001800000002
  0
LINE
  8
_0-0_0
  6
CONTINUOUS
 62
    7
 10
24.169992499999978
 20
391.30001800000002
 11
24.206916499999977
 21
391.22976699999998
  0
LINE
  8
_0-0_0
  6
CONTINUOUS
 62
    7
 10
24.206916499999977
 20
391.22976699999998
 11
24.226520499999992
 21
391.195313
  0
LINE
  8
_0-0_0
  6
CONTINUOUS
 62
    7
 10
24.226520499999992
 20
391.195313
 11
24.252605500000016
 21
391.15344199999998
  0
LINE
  8
_0-0_0
  6
CONTINUOUS
 62
    7
 10
24.252605500000016
 20
391.15344199999998
 11
24.265914500000008
 21
391.13439899999997
  0
LINE
  8
_0-0_0
  6
CONTINUOUS
 62
    7
 10
24.265914500000008
 20
391.13439899999997
 11
24.284273499999983
 21
391.11203
  0
LINE
  8
_0-0_0
  6
CONTINUOUS
 62
    7
 10
24.284273499999983
 20
391.11203
 11
24.297065499999974
 21
391.10140999999999
  0
LINE
  8
_0-0_0
  6
CONTINUOUS
 62
    7
 10
24.297065499999974
 20
391.10140999999999
 11
24.301668500000005
 21
391.10000600000001
  0
LINE
  8
_0-0_0
  6
CONTINUOUS
 62
    7
 10
24.303892500000018
 20
391.10000600000001
 11
24.301668500000005
 21
391.10000600000001
  0
LINE
  8
_0-0_0
  6
CONTINUOUS
 62
    7
 10
24.169992499999978
 20
411.10000600000001
 11
24.206916499999977
 21
411.17022700000001
  0
LINE
  8
_0-0_0
  6
CONTINUOUS
 62
    7
 10
24.206916499999977
 20
411.17022700000001
 11
24.226522499999987
 21
411.20471199999997
  0
LINE
  8
_0-0_0
  6
CONTINUOUS
 62
    7
 10
24.226522499999987
 20
411.20471199999997
 11
24.252605500000016
 21
411.24655200000001
  0
LINE
  8
_0-0_0
  6
CONTINUOUS
 62
    7
 10
24.252605500000016
 20
411.24655200000001
 11
24.265912500000013
 21
411.26559400000002
  0
LINE
  8
_0-0_0
  6
CONTINUOUS
 62
    7
 10
24.265912500000013
 20
411.26559400000002
 11
24.284273499999983
 21
411.28799400000003
  0
LINE
  8
_0-0_0
  6
CONTINUOUS
 62
    7
 10
24.284273499999983
 20
411.28799400000003
 11
24.297065499999974
 21
411.29861499999998
  0
LINE
  8
_0-0_0
  6
CONTINUOUS
 62
    7
 10
24.297065499999974
 20
411.29861499999998
 11
24.301668500000005
 21
411.30001800000002
  0
LINE
  8
_0-0_0
  6
CONTINUOUS
 62
    7
 10
24.303892500000018
 20
391.10000600000001
 11
24.345207500000015
 21
391.10000600000001
  0
LINE
  8
_0-0_0
  6
CONTINUOUS
 62
    7
 10
24.406524499999989
 20
391.10000600000001
 11
24.345207500000015
 21
391.10000600000001
  0
LINE
  8
_0-0_0
  6
CONTINUOUS
 62
    7
 10
24.345207500000015
 20
391.10000600000001
 11
24.354768499999977
 21
391.09896900000001
  0
LINE
  8
_0-0_0
  6
CONTINUOUS
 62
    7
 10
24.354768499999977
 20
391.09896900000001
 11
24.364259500000003
 21
391.09576399999997
  0
LINE
  8
_0-0_0
  6
CONTINUOUS
 62
    7
 10
24.364259500000003
 20
391.09576399999997
 11
24.373512500000004
 21
391.09039300000001
  0
LINE
  8
_0-0_0
  6
CONTINUOUS
 62
    7
 10
24.373512500000004
 20
391.09039300000001
 11
24.382308500000022
 21
391.08288599999997
  0
LINE
  8
_0-0_0
  6
CONTINUOUS
 62
    7
 10
24.382308500000022
 20
391.08288599999997
 11
24.397708500000022
 21
391.06225599999999
  0
LINE
  8
_0-0_0
  6
CONTINUOUS
 62
    7
 10
24.397708500000022
 20
391.06225599999999
 11
24.409484500000019
 21
391.03497299999998
  0
LINE
  8
_0-0_0
  6
CONTINUOUS
 62
    7
 10
24.409484500000019
 20
391.03497299999998
 11
24.416665500000022
 21
391.002838
  0
LINE
  8
_0-0_0
  6
CONTINUOUS
 62
    7
 10
24.416665500000022
 20
391.002838
 11
24.418558500000017
 21
390.96777300000002
  0
LINE
  8
_0-0_0
  6
CONTINUOUS
 62
    7
 10
24.418558500000017
 20
390.96777300000002
 11
24.414709500000015
 21
390.93160999999998
  0
LINE
  8
_0-0_0
  6
CONTINUOUS
 62
    7
 10
24.414709500000015
 20
390.93160999999998
 11
24.406522499999994
 21
390.90002399999997
  0
ARC
  8
_0-0_0
  6
CONTINUOUS
 62
    7
 10
22.406524499999989
 20
392.40002399999997
 40
2.2999999999999998
 50
280.28656300000006
 51
325.58260500000006
  0
LINE
  8
_0-0_0
  6
CONTINUOUS
 62
    7
 10
24.106525499999975
 20
387.90002399999997
 11
22.906524499999989
 21
387.90002399999997
  0
LINE
  8
_0-0_0
  6
CONTINUOUS
 62
    7
 10
24.106525499999975
 20
387
 11
7.1065244999999777
 21
387
  0
LINE
  8
_0-0_0
  6
CONTINUOUS
 62
    7
 10
22.206523500000003
 20
412.55658
 11
22.206794500000001
 21
412.54016100000001
  0
ARC
  8
_0-0_0
  6
CONTINUOUS
 62
    7
 10
22.706523500000003
 20
412.55658
 40
0.5
 50
181.88290099999998
 51
260.07179799999994
  0
LINE
  8
_0-0_0
  6
CONTINUOUS
 62
    7
 10
21.706523500000003
 20
413.34429899999998
 11
21.906524499999989
 21
413.14999399999999
  0
LINE
  8
_0-0_0
  6
CONTINUOUS
 62
    7
 10
21.906524499999989
 20
413.14999399999999
 11
22.206523500000003
 21
412.85000600000001
  0
LINE
  8
_0-0_0
  6
CONTINUOUS
 62
    7
 10
22.206523500000003
 20
412.85000600000001
 11
21.906524499999989
 21
412.85000600000001
  0
ARC
  8
_0-0_0
  6
CONTINUOUS
 62
    7
 10
18.963630500000022
 20
415.90002399999997
 40
0.5
 50
225
 51
269.99999700000001
  0
ARC
  8
_0-0_0
  6
CONTINUOUS
 62
    7
 10
12.849417500000015
 20
415.90002399999997
 40
0.5
 50
269.99999700000001
 51
314.99999200000002
  0
LINE
  8
_0-0_0
  6
CONTINUOUS
 62
    7
 10
6.4065244999999891
 20
413
 11
6.4065244999999891
 21
410.40048200000001
  0
LINE
  8
_0-0_0
  6
CONTINUOUS
 62
    7
 10
24.606525499999975
 20
413.800049
 11
24.606525499999975
 21
414
  0
CIRCLE
  8
_0-0_0
  6
CONTINUOUS
 62
    7
 10
15.906524499999989
 20
413
 40
2.25
  0
ARC
  8
_0-0_0
  6
CONTINUOUS
 62
    7
 10
15.906524499999989
 20
392.90002399999997
 40
1.75
 50
179.99999099999999
 51
359.99998299999993
  0
LINE
  8
_0-0_0
  6
CONTINUOUS
 62
    7
 10
14.156524499999989
 20
393.15002399999997
 11
14.156524499999989
 21
392.90002399999997
  0
ARC
  8
_0-0_0
  6
CONTINUOUS
 62
    7
 10
15.906524499999989
 20
393.15002399999997
 40
1.75
 50
0
 51
179.99999099999999
  0
LINE
  8
_0-0_0
  6
CONTINUOUS
 62
    7
 10
17.656524499999989
 20
392.90002399999997
 11
17.656524499999989
 21
393.15002399999997
  0
ARC
  8
_0-0_0
  6
CONTINUOUS
 62
    7
 10
21.606525499999975
 20
393.20001200000002
 40
3
 50
269.99999700000001
 51
0
  0
LINE
  8
_0-0_0
  6
CONTINUOUS
 62
    7
 10
7.2065245000000004
 20
397.60000600000001
 11
7.2065245000000004
 21
396.75
  0
LINE
  8
_0-0_0
  6
CONTINUOUS
 62
    7
 10
7.2065245000000004
 20
390.70001200000002
 11
7.2065245000000004
 21
396.75
  0
ARC
  8
_0-0_0
  6
CONTINUOUS
 62
    7
 10
22.206523500000003
 20
409.70001200000002
 40
2.3999999999999999
 50
0
 51
80.071809999999985
  0
LINE
  8
_0-0_0
  6
CONTINUOUS
 62
    7
 10
24.606525499999975
 20
393.20001200000002
 11
24.606525499999975
 21
406
  0
LINE
  8
_0-0_0
  6
CONTINUOUS
 62
    7
 10
24.606525499999975
 20
406
 11
24.606525499999975
 21
409.70001200000002
  0
ARC
  8
_0-0_0
  6
CONTINUOUS
 62
    7
 10
22.906524499999989
 20
389.64501999999999
 40
0.5
 50
100.28656100000001
 51
179.99999099999999
  0
LINE
  8
_0-0_0
  6
CONTINUOUS
 62
    7
 10
22.406524499999989
 20
388.40002399999997
 11
22.406524499999989
 21
389.64501999999999
  0
ARC
  8
_0-0_0
  6
CONTINUOUS
 62
    7
 10
22.906524499999989
 20
388.40002399999997
 40
0.5
 50
179.99999099999999
 51
269.99999700000001
  0
LINE
  8
_0-0_0
  6
CONTINUOUS
 62
    7
 10
13.20297149999999
 20
415.546448
 11
13.26007850000002
 21
415.60357699999997
  0
ARC
  8
_0-0_0
  6
CONTINUOUS
 62
    7
 10
13.613631499999997
 20
415.25
 40
0.5
 50
90.000003000000007
 51
135
  0
LINE
  8
_0-0_0
  6
CONTINUOUS
 62
    7
 10
18.199417499999981
 20
415.75
 11
13.613631499999997
 21
415.75
  0
ARC
  8
_0-0_0
  6
CONTINUOUS
 62
    7
 10
18.199417499999981
 20
415.25
 40
0.5
 50
45.00000099999999
 51
90.000002999999992
  0
LINE
  8
_0-0_0
  6
CONTINUOUS
 62
    7
 10
18.610078499999986
 20
415.546448
 11
18.552970500000015
 21
415.60357699999997
  0
ARC
  8
_0-0_0
  6
CONTINUOUS
 62
    7
 10
21.906524499999989
 20
409.85000600000001
 40
3
 50
90.000003000000007
 51
179.99999099999999
  0
LINE
  8
_0-0_0
  6
CONTINUOUS
 62
    7
 10
9.9065244999999891
 20
396.25
 11
7.7065245000000004
 21
396.25
  0
ARC
  8
_0-0_0
  6
CONTINUOUS
 62
    7
 10
9.9065244999999891
 20
393.25
 40
3
 50
0
 51
90.000003000000007
  0
LINE
  8
_0-0_0
  6
CONTINUOUS
 62
    7
 10
12.906524499999989
 20
393.25
 11
12.906524499999989
 21
390.70001200000002
  0
LINE
  8
_0-0_0
  6
CONTINUOUS
 62
    7
 10
13.406524499999989
 20
390.20001200000002
 11
21.606525499999975
 21
390.20001200000002
  0
LINE
  8
_0-0_0
  6
CONTINUOUS
 62
    7
 10
21.906524499999989
 20
406.5
 11
24.106525499999975
 21
406.5
  0
ARC
  8
_0-0_0
  6
CONTINUOUS
 62
    7
 10
21.906524499999989
 20
409.5
 40
3
 50
179.99999099999999
 51
269.99999700000001
  0
LINE
  8
_0-0_0
  6
CONTINUOUS
 62
    7
 10
18.906524499999989
 20
409.5
 11
18.906524499999989
 21
409.85000600000001
  0
CIRCLE
  8
_0-0_0
  6
CONTINUOUS
 62
    7
 10
15.906524499999989
 20
413
 40
2.0499999999999998
  0
ARC
  8
_0-0_0
  6
CONTINUOUS
 62
    7
 10
15.906524499999989
 20
392.90002399999997
 40
1.55
 50
179.99999099999999
 51
0
  0
LINE
  8
_0-0_0
  6
CONTINUOUS
 62
    7
 10
14.356524499999978
 20
393.15002399999997
 11
14.356524499999978
 21
392.90002399999997
  0
ARC
  8
_0-0_0
  6
CONTINUOUS
 62
    7
 10
15.906524499999989
 20
393.15002399999997
 40
1.55
 50
0
 51
179.99999099999999
  0
LINE
  8
_0-0_0
  6
CONTINUOUS
 62
    7
 10
17.456523500000003
 20
392.90002399999997
 11
17.456523500000003
 21
393.15002399999997
  0
LINE
  8
_0-0_0
  6
CONTINUOUS
 62
    7
 10
7.7065245000000004
 20
390.20001200000002
 11
13.406524499999989
 21
390.20001200000002
  0
ARC
  8
_0-0_0
  6
CONTINUOUS
 62
    7
 10
7.7065245000000004
 20
390.70001200000002
 40
0.5
 50
179.99999099999999
 51
269.99999700000001
  0
ARC
  8
_0-0_0
  6
CONTINUOUS
 62
    7
 10
7.7065245000000004
 20
396.75
 40
0.5
 50
179.99999099999999
 51
269.99999700000001
  0
ARC
  8
_0-0_0
  6
CONTINUOUS
 62
    7
 10
24.106525499999975
 20
406
 40
0.5
 50
0
 51
90.000003000000007
  0
ARC
  8
_0-0_0
  6
CONTINUOUS
 62
    7
 10
13.406524499999989
 20
390.70001200000002
 40
0.5
 50
179.99999099999999
 51
269.99999700000001
  0
CIRCLE
  8
_0-0_0
  6
CONTINUOUS
 62
    7
 10
21.906524499999989
 20
409.5
 40
2.25
  0
CIRCLE
  8
_0-0_0
  6
CONTINUOUS
 62
    7
 10
9.9065244999999891
 20
392.90002399999997
 40
2.25
  0
CIRCLE
  8
_0-0_0
  6
CONTINUOUS
 62
    7
 10
21.906524499999989
 20
409.5
 40
2
  0
CIRCLE
  8
_0-0_0
  6
CONTINUOUS
 62
    7
 10
9.9065244999999891
 20
392.90002399999997
 40
2
  0
LINE
  8
_0-0_0
  6
CONTINUOUS
 62
    7
 10
20.756524500000012
 20
409.5
 11
21.324415499999986
 21
410.5
  0
LINE
  8
_0-0_0
  6
CONTINUOUS
 62
    7
 10
21.324415499999986
 20
408.5
 11
20.756524500000012
 21
409.5
  0
LINE
  8
_0-0_0
  6
CONTINUOUS
 62
    7
 10
22.488634499999989
 20
408.5
 11
21.324415499999986
 21
408.5
  0
LINE
  8
_0-0_0
  6
CONTINUOUS
 62
    7
 10
23.056524500000023
 20
409.5
 11
22.488634499999989
 21
408.5
  0
LINE
  8
_0-0_0
  6
CONTINUOUS
 62
    7
 10
22.488634499999989
 20
410.5
 11
23.056524500000023
 21
409.5
  0
LINE
  8
_0-0_0
  6
CONTINUOUS
 62
    7
 10
21.324415499999986
 20
410.5
 11
22.488634499999989
 21
410.5
  0
LINE
  8
_0-0_0
  6
CONTINUOUS
 62
    7
 10
8.7565245000000118
 20
392.90002399999997
 11
9.3244154999999864
 21
393.90002399999997
  0
LINE
  8
_0-0_0
  6
CONTINUOUS
 62
    7
 10
9.3244154999999864
 20
391.90002399999997
 11
8.7565245000000118
 21
392.90002399999997
  0
LINE
  8
_0-0_0
  6
CONTINUOUS
 62
    7
 10
10.488634499999989
 20
391.90002399999997
 11
9.3244154999999864
 21
391.90002399999997
  0
LINE
  8
_0-0_0
  6
CONTINUOUS
 62
    7
 10
11.056524500000023
 20
392.90002399999997
 11
10.488634499999989
 21
391.90002399999997
  0
LINE
  8
_0-0_0
  6
CONTINUOUS
 62
    7
 10
10.488634499999989
 20
393.90002399999997
 11
11.056524500000023
 21
392.90002399999997
  0
LINE
  8
_0-0_0
  6
CONTINUOUS
 62
    7
 10
9.3244154999999864
 20
393.90002399999997
 11
10.488634499999989
 21
393.90002399999997
  0
LINE
  8
_0-0_0
  6
CONTINUOUS
 62
    7
 10
24.60652349999998
 20
410.30032299999999
 11
24.606525499999975
 21
410.30630500000001
  0
LINE
  8
_0-0_0
  6
CONTINUOUS
 62
    7
 10
24.606525499999975
 20
411.5
 11
24.606157499999995
 21
411.48791499999999
  0
LINE
  8
_0-0_0
  6
CONTINUOUS
 62
    7
 10
24.606157499999995
 20
390.91210899999999
 11
24.606525499999975
 21
390.90002399999997
  0
LINE
  8
_0-0_0
  6
CONTINUOUS
 62
    7
 10
24.605808499999966
 20
406.02673299999998
 11
24.606525499999975
 21
406
  0
LINE
  8
_0-0_0
  6
CONTINUOUS
 62
    7
 10
30.106525499999975
 20
443.40002399999997
 11
30.106525499999975
 21
430.40002399999997
  0
LINE
  8
_0-0_0
  6
CONTINUOUS
 62
    7
 10
30.306524500000023
 20
443.40002399999997
 11
30.106525499999975
 21
443.40002399999997
  0
LINE
  8
_0-0_0
  6
CONTINUOUS
 62
    7
 10
30.306524500000023
 20
430.40002399999997
 11
30.106525499999975
 21
430.40002399999997
  0
LINE
  8
_0-0_0
  6
CONTINUOUS
 62
    7
 10
30.306524500000023
 20
443.40002399999997
 11
30.306524500000023
 21
462
  0
LINE
  8
_0-0_0
  6
CONTINUOUS
 62
    7
 10
30.406524499999989
 20
462
 11
30.306524500000023
 21
462
  0
LINE
  8
_0-0_0
  6
CONTINUOUS
 62
    7
 10
30.406524499999989
 20
464.5
 11
30.406524499999989
 21
462
  0
ARC
  8
_0-0_0
  6
CONTINUOUS
 62
    7
 10
29.906524499999989
 20
464.5
 40
0.5
 50
0
 51
90.000003000000007
  0
LINE
  8
_0-0_0
  6
CONTINUOUS
 62
    7
 10
29.906524499999989
 20
465
 11
26.906524499999989
 21
465
  0
ARC
  8
_0-0_0
  6
CONTINUOUS
 62
    7
 10
26.906524499999989
 20
464.5
 40
0.5
 50
90.000003000000007
 51
179.99999099999999
  0
ARC
  8
_0-0_0
  6
CONTINUOUS
 62
    7
 10
22.406524499999989
 20
417
 40
0.5
 50
179.99999099999999
 51
269.99999700000001
  0
LINE
  8
_0-0_0
  6
CONTINUOUS
 62
    7
 10
24.906524499999989
 20
416.5
 11
22.406524499999989
 21
416.5
  0
ARC
  8
_0-0_0
  6
CONTINUOUS
 62
    7
 10
24.906524499999989
 20
417
 40
0.5
 50
269.99999700000001
 51
0
  0
LINE
  8
_0-0_0
  6
CONTINUOUS
 62
    7
 10
25.406524499999989
 20
422
 11
25.406524499999989
 21
417
  0
ARC
  8
_0-0_0
  6
CONTINUOUS
 62
    7
 10
25.906524499999989
 20
422
 40
0.5
 50
90.000003000000007
 51
179.99999099999999
  0
LINE
  8
_0-0_0
  6
CONTINUOUS
 62
    7
 10
29.906524499999989
 20
422.5
 11
25.906524499999989
 21
422.5
  0
ARC
  8
_0-0_0
  6
CONTINUOUS
 62
    7
 10
29.906524499999989
 20
423
 40
0.5
 50
269.99999700000001
 51
0
  0
LINE
  8
_0-0_0
  6
CONTINUOUS
 62
    7
 10
30.406524499999989
 20
426.20001200000002
 11
30.406524499999989
 21
423
  0
LINE
  8
_0-0_0
  6
CONTINUOUS
 62
    7
 10
30.306524500000023
 20
426.20001200000002
 11
30.406524499999989
 21
426.20001200000002
  0
LINE
  8
_0-0_0
  6
CONTINUOUS
 62
    7
 10
30.306524500000023
 20
426.20001200000002
 11
30.306524500000023
 21
430.40002399999997
  0
LINE
  8
_0-0_0
  6
CONTINUOUS
 62
    7
 10
29.406524499999989
 20
464.5
 11
11.606524499999978
 21
464.5
  0
ARC
  8
_0-0_0
  6
CONTINUOUS
 62
    7
 10
29.406524499999989
 20
464
 40
0.5
 50
0
 51
90.000003000000007
  0
LINE
  8
_0-0_0
  6
CONTINUOUS
 62
    7
 10
29.906524499999989
 20
464
 11
29.906524499999989
 21
423.5
  0
ARC
  8
_0-0_0
  6
CONTINUOUS
 62
    7
 10
29.406524499999989
 20
423.5
 40
0.5
 50
269.99999700000001
 51
0
  0
LINE
  8
_0-0_0
  6
CONTINUOUS
 62
    7
 10
25.906524499999989
 20
423
 11
29.406524499999989
 21
423
  0
ARC
  8
_0-0_0
  6
CONTINUOUS
 62
    7
 10
25.906524499999989
 20
422
 40
1
 50
90.000003000000007
 51
179.99999099999999
  0
LINE
  8
_0-0_0
  6
CONTINUOUS
 62
    7
 10
24.906524499999989
 20
422
 11
24.906524499999989
 21
417.5
  0
ARC
  8
_0-0_0
  6
CONTINUOUS
 62
    7
 10
24.406524499999989
 20
417.5
 40
0.5
 50
269.99999700000001
 51
0
  0
LINE
  8
_0-0_0
  6
CONTINUOUS
 62
    7
 10
7.4065244999999891
 20
417
 11
24.406524499999989
 21
417
  0
LINE
  8
_0-0_0
  6
CONTINUOUS
 62
    7
 10
25.906524499999989
 20
464.70001200000002
 11
25.906524499999989
 21
464.5
  0
ARC
  8
_0-0_0
  6
CONTINUOUS
 62
    7
 10
25.606525499999975
 20
464.70001200000002
 40
0.2999999999999999
 50
0
 51
90.000003000000007
  0
LINE
  8
_0-0_0
  6
CONTINUOUS
 62
    7
 10
25.606525499999975
 20
465
 11
10.906524499999989
 21
465
  0
ARC
  8
_0-0_0
  6
CONTINUOUS
 62
    7
 10
10.906524499999989
 20
464.70001200000002
 40
0.2999999999999999
 50
90.000003000000007
 51
179.99999099999999
  0
LINE
  8
_0-0_0
  6
CONTINUOUS
 62
    7
 10
10.606524499999978
 20
464.70001200000002
 11
10.606524499999978
 21
461.5
  0
LINE
  8
_0-0_0
  6
CONTINUOUS
 62
    7
 10
10.606524499999978
 20
461.5
 11
4.9065244999999891
 21
461.5
  0
LINE
  8
_0-0_0
  6
CONTINUOUS
 62
    7
 10
4.9065244999999891
 20
461.5
 11
4.1065244999999777
 21
460.70001200000002
  0
ARC
  8
_0-0_0
  6
CONTINUOUS
 62
    7
 10
11.606524499999978
 20
464
 40
0.5
 50
90.000003000000007
 51
179.99999099999999
  0
LINE
  8
_0-0_0
  6
CONTINUOUS
 62
    7
 10
11.106524499999978
 20
464
 11
11.106524499999978
 21
461.20001200000002
  0
ARC
  8
_0-0_0
  6
CONTINUOUS
 62
    7
 10
10.606524499999978
 20
461.20001200000002
 40
0.5
 50
269.99999700000001
 51
0
  0
LINE
  8
_0-0_0
  6
CONTINUOUS
 62
    7
 10
10.606524499999978
 20
460.70001200000002
 11
2.4065244999999891
 21
460.70001200000002
  0
ARC
  8
_0-0_0
  6
CONTINUOUS
 62
    7
 10
2.4065244999999891
 20
460.20001200000002
 40
0.5
 50
90.000003000000007
 51
179.99999099999999
  0
LINE
  8
_0-0_0
  6
CONTINUOUS
 62
    7
 10
1.9065244999999891
 20
423.5
 11
1.9065244999999891
 21
460.20001200000002
  0
ARC
  8
_0-0_0
  6
CONTINUOUS
 62
    7
 10
2.4065244999999891
 20
423.5
 40
0.5
 50
179.99999099999999
 51
269.99999700000001
  0
LINE
  8
_0-0_0
  6
CONTINUOUS
 62
    7
 10
2.4065244999999891
 20
423
 11
5.9065244999999891
 21
423
  0
ARC
  8
_0-0_0
  6
CONTINUOUS
 62
    7
 10
5.9065244999999891
 20
422
 40
1
 50
0
 51
90.000003000000007
  0
LINE
  8
_0-0_0
  6
CONTINUOUS
 62
    7
 10
6.9065244999999891
 20
417.5
 11
6.9065244999999891
 21
422
  0
ARC
  8
_0-0_0
  6
CONTINUOUS
 62
    7
 10
7.4065244999999891
 20
417.5
 40
0.5
 50
179.99999099999999
 51
269.99999700000001
  0
CIRCLE
  8
_0-0_0
  6
CONTINUOUS
 62
    7
 10
15.906524499999989
 20
426
 40
2.0670000000000002
  0
LINE
  8
_0-0_0
  6
CONTINUOUS
 62
    7
 10
3.9065244999999891
 20
461
 11
3.9065244999999891
 21
460.70001200000002
  0
LINE
  8
_0-0_0
  6
CONTINUOUS
 62
    7
 10
3.9065244999999891
 20
461
 11
1.9065244999999891
 21
461
  0
ARC
  8
_0-0_0
  6
CONTINUOUS
 62
    7
 10
1.9065244999999891
 20
460.5
 40
0.5
 50
90.000003000000007
 51
179.99999099999999
  0
LINE
  8
_0-0_0
  6
CONTINUOUS
 62
    7
 10
1.4065244999999891
 20
460.5
 11
1.4065244999999891
 21
423
  0
ARC
  8
_0-0_0
  6
CONTINUOUS
 62
    7
 10
1.9065244999999891
 20
423
 40
0.5
 50
179.99999099999999
 51
269.99999700000001
  0
LINE
  8
_0-0_0
  6
CONTINUOUS
 62
    7
 10
5.9065244999999891
 20
422.5
 11
1.9065244999999891
 21
422.5
  0
ARC
  8
_0-0_0
  6
CONTINUOUS
 62
    7
 10
5.9065244999999891
 20
422
 40
0.5
 50
0
 51
90.000003000000007
  0
LINE
  8
_0-0_0
  6
CONTINUOUS
 62
    7
 10
6.4065244999999891
 20
417
 11
6.4065244999999891
 21
422
  0
ARC
  8
_0-0_0
  6
CONTINUOUS
 62
    7
 10
6.9065244999999891
 20
417
 40
0.5
 50
179.99999099999999
 51
269.99999700000001
  0
LINE
  8
_0-0_0
  6
CONTINUOUS
 62
    7
 10
6.9065244999999891
 20
416.5
 11
9.4065244999999891
 21
416.5
  0
ARC
  8
_0-0_0
  6
CONTINUOUS
 62
    7
 10
9.4065244999999891
 20
417
 40
0.5
 50
269.99999700000001
 51
0
  0
LINE
  8
_0-0_0
  6
CONTINUOUS
 62
    7
 10
25.406524499999989
 20
417
 11
25.506524500000012
 21
417
  0
LINE
  8
_0-0_0
  6
CONTINUOUS
 62
    7
 10
25.506524500000012
 20
417
 11
25.506524500000012
 21
417.5
  0
LINE
  8
_0-0_0
  6
CONTINUOUS
 62
    7
 10
25.506524500000012
 20
421.5
 11
25.506524500000012
 21
417.5
  0
LINE
  8
_0-0_0
  6
CONTINUOUS
 62
    7
 10
25.406524499999989
 20
422
 11
25.506524500000012
 21
422
  0
LINE
  8
_0-0_0
  6
CONTINUOUS
 62
    7
 10
25.506524500000012
 20
421.5
 11
25.506524500000012
 21
422
  0
LINE
  8
_0-0_0
  6
CONTINUOUS
 62
    7
 10
25.606525499999975
 20
417.5
 11
25.606525499999975
 21
417.63037100000003
  0
LINE
  8
_0-0_0
  6
CONTINUOUS
 62
    7
 10
25.606525499999975
 20
421.13037100000003
 11
25.606525499999975
 21
417.63037100000003
  0
LINE
  8
_0-0_0
  6
CONTINUOUS
 62
    7
 10
25.506524500000012
 20
421.40002399999997
 11
25.606525499999975
 21
421.40002399999997
  0
LINE
  8
_0-0_0
  6
CONTINUOUS
 62
    7
 10
25.606525499999975
 20
421.13037100000003
 11
25.606525499999975
 21
421.40002399999997
  0
LINE
  8
_0-0_0
  6
CONTINUOUS
 62
    7
 10
25.506524500000012
 20
417.5
 11
25.606525499999975
 21
417.5
  0
LINE
  8
_0-0_0
  6
CONTINUOUS
 62
    7
 10
25.506524500000012
 20
417.5
 11
25.606525499999975
 21
417.5
  0
ENDSEC
  0
EOF
