  0
SECTION
  2
HEADER
  9
$ACADVER
  1
AC1009
  9
$INSBASE
 10
0
 20
0
 30
0
  9
$EXTMIN
 10
0
 20
0
  9
$EXTMAX
 10
841
 20
594
  9
$LIMMIN
 10
0
 20
0
  9
$LIMMAX
 10
841
 20
594
  9
$LTSCALE
 40
1
  0
ENDSEC
  0
SECTION
  2
TABLES
  0
TABLE
  2
LTYPE
 70
     9
  0
LTYPE
  2
CONTINUOUS
 70
    64
  3
実線
 72
    65
 73
     0
 40
0.0
  0
LTYPE
  2
DASHED1
 70
    64
  3
--  --  --  --  --  --  --  --  
 72
    65
 73
     2
 40
2.5
 49
1.25
 49
-1.25
  0
LTYPE
  2
DASHED2
 70
    64
  3
----    ----    ----    ----    
 72
    65
 73
     2
 40
5.0
 49
2.5
 49
-2.5
  0
LTYPE
  2
DASHED3
 70
    64
  3
------  ------  ------  ------  
 72
    65
 73
     2
 40
5.0
 49
3.75
 49
-1.25
  0
LTYPE
  2
CENTER1
 70
    64
  3
----- - ----- - ----- - ----- - 
 72
    65
 73
     4
 40
10.0
 49
6.25
 49
-1.25
 49
1.25
 49
-1.25
  0
LTYPE
  2
CENTER2
 70
    64
  3
----------  --  ----------  --  
 72
    65
 73
     4
 40
20.0
 49
12.5
 49
-2.5
 49
2.5
 49
-2.5
  0
LTYPE
  2
PHANTOM1
 70
    64
  3
--- - - --- - - --- - - --- - - 
 72
    65
 73
     6
 40
10.0
 49
3.25
 49
-1.25
 49
1.25
 49
-1.25
 49
1.25
 49
-1.25
  0
LTYPE
  2
PHANTOM2
 70
    64
  3
--------  -  -  --------  -  -  
 72
    65
 73
     6
 40
20.0
 49
10.0
 49
-2.5
 49
1.25
 49
-2.5
 49
1.25
 49
-2.5
  0
LTYPE
  2
DOT
 70
    64
  3
-   -   -   -   -   -   -   -   
 72
    65
 73
     2
 40
2.5
 49
0.625
 49
-1.875
  0
LTYPE
  2
DUMMY
 70
    64
  3
ダミー
 72
    65
 73
     0
 40
0.0
  0
LTYPE
  2
RAND1
 70
    64
  3
ランダム線1
 72
    65
 73
     4
 40
10.0
 49
1.0
 49
-2.0
 49
3.0
 49
-4.0
  0
LTYPE
  2
RAND2
 70
    64
  3
ランダム線2
 72
    65
 73
     4
 40
14.0
 49
2.0
 49
-3.0
 49
4.0
 49
-5.0
  0
LTYPE
  2
RAND3
 70
    64
  3
ランダム線3
 72
    65
 73
     4
 40
18.0
 49
3.0
 49
-4.0
 49
5.0
 49
-6.0
  0
LTYPE
  2
RAND4
 70
    64
  3
ランダム線4
 72
    65
 73
     4
 40
22.0
 49
4.0
 49
-5.0
 49
6.0
 49
-7.0
  0
LTYPE
  2
RAND5
 70
    64
  3
ランダム線5
 72
    65
 73
     4
 40
26.0
 49
5.0
 49
-6.0
 49
7.0
 49
-8.0
  0
LTYPE
  2
LONG1
 70
    64
  3
----------  --  ----------  --  
 72
    65
 73
     4
 40
40.0
 49
32.5
 49
-2.5
 49
2.5
 49
-2.5
  0
LTYPE
  2
LONG2
 70
    64
  3
--------  -  -  --------  -  -  
 72
    65
 73
     6
 40
40.0
 49
30.0
 49
-2.5
 49
1.25
 49
-2.5
 49
1.25
 49
-2.5
  0
LTYPE
  2
LONG3
 70
    64
  3
+++++++++++++++..+++++++++++++++
 72
    65
 73
     2
 40
40.0
 49
37.5
 49
-2.5
  0
LTYPE
  2
LONG4
 70
    64
  3
+++++++++++++++..+++++++++++++++
 72
    65
 73
     2
 40
80.0
 49
75.0
 49
-5.0
  0
LTYPE
  2
LONG5
 70
    64
  3
----------  --  ----------  --  
 72
    65
 73
     4
 40
60.0
 49
37.5
 49
-7.5
 49
7.5
 49
-7.5
  0
LTYPE
  2
dashed
 70
   64
  3
-------   -------------   ------
 72
   65
 73
    2
 40
7.5
 49
6
 49
-1.5
  0
LTYPE
  2
dashed_spaced
 70
   64
  3
----        --------        ----
 72
   65
 73
    2
 40
12
 49
6
 49
-6
  0
LTYPE
  2
long_dashed_dotted
 70
   64
  3
------------- --- --------------
 72
   65
 73
    4
 40
15.25
 49
12
 49
-1.5
 49
0.25
 49
-1.5
  0
LTYPE
  2
long_dashed_double-dotted
 70
   64
  3
----------- --- --- ------------
 72
   65
 73
    6
 40
17
 49
12
 49
-1.5
 49
0.25
 49
-1.5
 49
0.25
 49
-1.5
  0
LTYPE
  2
long_dashed_triplicate-dotted
 70
   64
  3
--------- --- --- --- ----------
 72
   65
 73
    8
 40
18.75
 49
12
 49
-1.5
 49
0.25
 49
-1.5
 49
0.25
 49
-1.5
 49
0.25
 49
-1.5
  0
LTYPE
  2
dotted
 70
   64
  3
   -       -       -       -    
 72
   65
 73
    2
 40
1.75
 49
0.25
 49
-1.5
  0
LTYPE
  2
chain
 70
   64
  3
-------------- -- --------------
 72
   65
 73
    4
 40
18.5
 49
12
 49
-1.5
 49
3.5
 49
-1.5
  0
LTYPE
  2
chain_double_dash
 70
   64
  3
------------ -- -- -------------
 72
   65
 73
    6
 40
23.5
 49
12
 49
-1.5
 49
3.5
 49
-1.5
 49
3.5
 49
-1.5
  0
LTYPE
  2
dashed_dotted
 70
   64
  3
-----------     -     ----------
 72
   65
 73
    4
 40
9.25
 49
6
 49
-1.5
 49
0.25
 49
-1.5
  0
LTYPE
  2
double-dashed_dotted
 70
   64
  3
------   -----------   -   -----
 72
   65
 73
    6
 40
16.75
 49
6
 49
-1.5
 49
6
 49
-1.5
 49
0.25
 49
-1.5
  0
LTYPE
  2
dashed_double-dotted
 70
   64
  3
---------    -    -    ---------
 72
   65
 73
    6
 40
11
 49
6
 49
-1.5
 49
0.25
 49
-1.5
 49
0.25
 49
-1.5
  0
LTYPE
  2
double-dashed_double-dotted
 70
   64
  3
-----   ---------   -   -   ----
 72
   65
 73
    8
 40
18.5
 49
6
 49
-1.5
 49
6
 49
-1.5
 49
0.25
 49
-1.5
 49
0.25
 49
-1.5
  0
LTYPE
  2
dashed_triplicate-dotted
 70
   64
  3
-------    -    -    -    ------
 72
   65
 73
    8
 40
12.75
 49
6
 49
-1.5
 49
0.25
 49
-1.5
 49
0.25
 49
-1.5
 49
0.25
 49
-1.5
  0
LTYPE
  2
double-dashed_triplicate-dotted
 70
   64
  3
-----  ---------  -  -  -  -----
 72
   65
 73
   10
 40
20.25
 49
6
 49
-1.5
 49
6
 49
-1.5
 49
0.25
 49
-1.5
 49
0.25
 49
-1.5
 49
0.25
 49
-1.5
  0
LTYPE
  2
undefined
 70
   64
  3
--------------------------------
 72
   65
 73
    0
 40
0
  0
ENDTAB
  0
TABLE
  2
STYLE
  5
3
100
AcDbSymbolTable
 70
     1
  0
STYLE
  5
10
100
AcDbSymbolTableRecord
100
AcDbTextStyleTableRecord
  2
STANDARD
 70
     0
 40
0.0
 41
1.0
 50
0.0
 71
     0
 42
0.2
  3
txt
  4
bigfont.shx
  0
STYLE
  5
26
100
AcDbSymbolTableRecord
100
AcDbTextStyleTableRecord
  2
TATEGAKI
 70
    68
 40
0.0
 41
1.0
 50
0.0
 71
     0
 42
1.0
  3
txt
  4
bigfont.shx
  0
ENDTAB
  0
TABLE
  2
LAYER
 70
    2
  0
LAYER
  2
_0-0_0
 70
   64
 62
    7
  6
CONTINUOUS
  0
LAYER
  2
ADD_LINE
 70
   64
 62
    7
  6
CONTINUOUS
  0
ENDTAB
  0
ENDSEC
  0
SECTION
  2
BLOCKS
  0
ENDSEC
  0
SECTION
  2
ENTITIES
  0
ARC
  8
_0-0_0
  6
CONTINUOUS
 62
    7
 10
270.33117649999997
 20
406.60000600000001
 40
0.2
 50
269.99999700000001
 51
20.376440000000013
  0
LINE
  8
_0-0_0
  6
CONTINUOUS
 62
    7
 10
270.51866150000001
 20
406.669647
 11
269.2186585
 21
410.169647
  0
ARC
  8
_0-0_0
  6
CONTINUOUS
 62
    7
 10
269.03117350000002
 20
410.10000600000001
 40
0.2
 50
20.376439999999999
 51
159.62355600000001
  0
LINE
  8
_0-0_0
  6
CONTINUOUS
 62
    7
 10
267.5437015
 20
406.669647
 11
268.84368849999998
 21
410.169647
  0
ARC
  8
_0-0_0
  6
CONTINUOUS
 62
    7
 10
267.73117049999996
 20
406.60000600000001
 40
0.2
 50
159.62355600000001
 51
269.99999700000001
  0
LINE
  8
_0-0_0
  6
CONTINUOUS
 62
    7
 10
267.73117049999996
 20
406.40002399999997
 11
270.33117649999997
 21
406.40002399999997
  0
LINE
  8
_0-0_0
  6
CONTINUOUS
 62
    7
 10
192.2177125
 20
461.000519
 11
192.2177125
 21
460.99951199999998
  0
LINE
  8
_0-0_0
  6
CONTINUOUS
 62
    7
 10
221.53117349999999
 20
414.5
 11
226.53117349999999
 21
414.5
  0
LINE
  8
_0-0_0
  6
CONTINUOUS
 62
    7
 10
226.53117349999999
 20
414.5
 11
228.3311765
 21
414.5
  0
LINE
  8
_0-0_0
  6
CONTINUOUS
 62
    7
 10
228.3311765
 20
414.5
 11
229.03117349999999
 21
414.5
  0
ARC
  8
_0-0_0
  6
CONTINUOUS
 62
    7
 10
228.3311765
 20
414
 40
0.5
 50
0
 51
90.000003000000007
  0
ARC
  8
_0-0_0
  6
CONTINUOUS
 62
    7
 10
221.53117349999999
 20
414
 40
0.5
 50
90.000003000000007
 51
179.99999099999999
  0
ARC
  8
_0-0_0
  6
CONTINUOUS
 62
    7
 10
325.0311585
 20
414
 40
0.5
 50
0
 51
90.000003000000007
  0
LINE
  8
_0-0_0
  6
CONTINUOUS
 62
    7
 10
229.03117349999999
 20
414.5
 11
229.03117349999999
 21
413
  0
LINE
  8
_0-0_0
  6
CONTINUOUS
 62
    7
 10
229.03117349999999
 20
415
 11
229.03117349999999
 21
414.5
  0
LINE
  8
_0-0_0
  6
CONTINUOUS
 62
    7
 10
229.03117349999999
 20
415.5
 11
229.03117349999999
 21
415
  0
LINE
  8
_0-0_0
  6
CONTINUOUS
 62
    7
 10
229.03117349999999
 20
416.5
 11
229.03117349999999
 21
415.5
  0
LINE
  8
_0-0_0
  6
CONTINUOUS
 62
    7
 10
233.03117349999999
 20
414.5
 11
233.73117049999999
 21
414.5
  0
LINE
  8
_0-0_0
  6
CONTINUOUS
 62
    7
 10
228.8311765
 20
414
 11
228.8311765
 21
413
  0
LINE
  8
_0-0_0
  6
CONTINUOUS
 62
    7
 10
232.03117349999999
 20
387.5
 11
232.03117349999999
 21
389.10000600000001
  0
LINE
  8
_0-0_0
  6
CONTINUOUS
 62
    7
 10
232.03117349999999
 20
387.5
 11
226.53117349999999
 21
387.5
  0
LINE
  8
_0-0_0
  6
CONTINUOUS
 62
    7
 10
248.03117349999999
 20
394.20001200000002
 11
290.03117350000002
 21
394.20001200000002
  0
LINE
  8
_0-0_0
  6
CONTINUOUS
 62
    7
 10
248.03117349999999
 20
413.80001800000002
 11
290.03117350000002
 21
413.80001800000002
  0
LINE
  8
_0-0_0
  6
CONTINUOUS
 62
    7
 10
311.5311585
 20
387.5
 11
302.03117350000002
 21
387.5
  0
LINE
  8
_0-0_0
  6
CONTINUOUS
 62
    7
 10
302.03117350000002
 20
387.5
 11
302.03117350000002
 21
389.10000600000001
  0
ARC
  8
_0-0_0
  6
CONTINUOUS
 62
    7
 10
301.73117049999996
 20
389.10000600000001
 40
0.2999999999999999
 50
0
 51
90.000003000000007
  0
LINE
  8
_0-0_0
  6
CONTINUOUS
 62
    7
 10
301.03117350000002
 20
389.40002399999997
 11
301.73117049999996
 21
389.40002399999997
  0
LINE
  8
_0-0_0
  6
CONTINUOUS
 62
    7
 10
300.53117350000002
 20
389.80001800000002
 11
301.03117350000002
 21
389.80001800000002
  0
LINE
  8
_0-0_0
  6
CONTINUOUS
 62
    7
 10
287.03117350000002
 20
389.80001800000002
 11
300.53117350000002
 21
389.80001800000002
  0
ARC
  8
_0-0_0
  6
CONTINUOUS
 62
    7
 10
284.53117350000002
 20
389.80001800000002
 40
2.5
 50
0
 51
90.000003000000007
  0
LINE
  8
_0-0_0
  6
CONTINUOUS
 62
    7
 10
253.53117349999999
 20
392.30001800000002
 11
284.53117350000002
 21
392.30001800000002
  0
ARC
  8
_0-0_0
  6
CONTINUOUS
 62
    7
 10
253.53117349999999
 20
389.80001800000002
 40
2.5
 50
90.000003000000007
 51
179.99999099999999
  0
LINE
  8
_0-0_0
  6
CONTINUOUS
 62
    7
 10
233.53117349999999
 20
389.80001800000002
 11
251.03117349999999
 21
389.80001800000002
  0
LINE
  8
_0-0_0
  6
CONTINUOUS
 62
    7
 10
233.03117349999999
 20
389.80001800000002
 11
233.53117349999999
 21
389.80001800000002
  0
LINE
  8
_0-0_0
  6
CONTINUOUS
 62
    7
 10
232.3311765
 20
389.40002399999997
 11
233.03117349999999
 21
389.40002399999997
  0
ARC
  8
_0-0_0
  6
CONTINUOUS
 62
    7
 10
232.3311765
 20
389.10000600000001
 40
0.2999999999999999
 50
90.000003000000007
 51
179.99999099999999
  0
LINE
  8
_0-0_0
  6
CONTINUOUS
 62
    7
 10
221.03117349999999
 20
412.22485399999999
 11
221.03117349999999
 21
414
  0
LINE
  8
_0-0_0
  6
CONTINUOUS
 62
    7
 10
226.03117349999999
 20
414.5
 11
226.03117349999999
 21
414.90002399999997
  0
LINE
  8
_0-0_0
  6
CONTINUOUS
 62
    7
 10
226.03117349999999
 20
415.40002399999997
 11
226.03117349999999
 21
414.90002399999997
  0
LINE
  8
_0-0_0
  6
CONTINUOUS
 62
    7
 10
325.5311585
 20
416.5
 11
325.5311585
 21
415
  0
LINE
  8
_0-0_0
  6
CONTINUOUS
 62
    7
 10
325.5311585
 20
415
 11
325.5311585
 21
414
  0
LINE
  8
_0-0_0
  6
CONTINUOUS
 62
    7
 10
325.5311585
 20
413.20001200000002
 11
325.5311585
 21
414
  0
LINE
  8
_0-0_0
  6
CONTINUOUS
 62
    7
 10
325.0311585
 20
414.5
 11
325.5311585
 21
414.5
  0
LINE
  8
_0-0_0
  6
CONTINUOUS
 62
    7
 10
312.5311585
 20
414.5
 11
325.0311585
 21
414.5
  0
LINE
  8
_0-0_0
  6
CONTINUOUS
 62
    7
 10
325.5311585
 20
416.5
 11
325.5311585
 21
415.5
  0
LINE
  8
_0-0_0
  6
CONTINUOUS
 62
    7
 10
325.5311585
 20
415
 11
325.5311585
 21
414.5
  0
LINE
  8
_0-0_0
  6
CONTINUOUS
 62
    7
 10
325.5311585
 20
415.5
 11
325.5311585
 21
415
  0
ARC
  8
_0-0_0
  6
CONTINUOUS
 62
    7
 10
231.03117349999999
 20
413
 40
2
 50
179.99999099999999
 51
0
  0
LINE
  8
_0-0_0
  6
CONTINUOUS
 62
    7
 10
312.0311585
 20
414.5
 11
312.5311585
 21
414.5
  0
LINE
  8
_0-0_0
  6
CONTINUOUS
 62
    7
 10
312.0311585
 20
414
 11
312.0311585
 21
414.5
  0
LINE
  8
_0-0_0
  6
CONTINUOUS
 62
    7
 10
312.0311585
 20
413
 11
312.0311585
 21
413.20001200000002
  0
ARC
  8
_0-0_0
  6
CONTINUOUS
 62
    7
 10
310.0311585
 20
413
 40
2
 50
179.99999099999999
 51
0
  0
LINE
  8
_0-0_0
  6
CONTINUOUS
 62
    7
 10
308.0311585
 20
414.5
 11
308.0311585
 21
413
  0
LINE
  8
_0-0_0
  6
CONTINUOUS
 62
    7
 10
307.33117649999997
 20
414.5
 11
308.0311585
 21
414.5
  0
LINE
  8
_0-0_0
  6
CONTINUOUS
 62
    7
 10
233.03117349999999
 20
413
 11
233.03117349999999
 21
414.5
  0
LINE
  8
_0-0_0
  6
CONTINUOUS
 62
    7
 10
229.03117349999999
 20
415.5
 11
325.5311585
 21
415.5
  0
ARC
  8
_0-0_0
  6
CONTINUOUS
 62
    7
 10
233.73117049999999
 20
414
 40
0.5
 50
90.000003000000007
 51
179.99999099999999
  0
ARC
  8
_0-0_0
  6
CONTINUOUS
 62
    7
 10
231.03117349999999
 20
413
 40
2.2000000000000002
 50
179.99999099999999
 51
0
  0
LINE
  8
_0-0_0
  6
CONTINUOUS
 62
    7
 10
233.03117349999999
 20
389.40002399999997
 11
233.53117349999999
 21
389.40002399999997
  0
LINE
  8
_0-0_0
  6
CONTINUOUS
 62
    7
 10
233.53117349999999
 20
389.80001800000002
 11
233.53117349999999
 21
389.40002399999997
  0
LINE
  8
_0-0_0
  6
CONTINUOUS
 62
    7
 10
251.03117349999999
 20
389.80001800000002
 11
287.03117350000002
 21
389.80001800000002
  0
LINE
  8
_0-0_0
  6
CONTINUOUS
 62
    7
 10
300.53117350000002
 20
389.40002399999997
 11
301.03117350000002
 21
389.40002399999997
  0
LINE
  8
_0-0_0
  6
CONTINUOUS
 62
    7
 10
300.53117350000002
 20
389.80001800000002
 11
300.53117350000002
 21
389.40002399999997
  0
LINE
  8
_0-0_0
  6
CONTINUOUS
 62
    7
 10
311.5311585
 20
387
 11
302.53117350000002
 21
387
  0
ARC
  8
_0-0_0
  6
CONTINUOUS
 62
    7
 10
302.53117350000002
 20
387.5
 40
0.5
 50
179.99999099999999
 51
269.99999700000001
  0
LINE
  8
_0-0_0
  6
CONTINUOUS
 62
    7
 10
311.5311585
 20
387.5
 11
312.0311585
 21
387.5
  0
LINE
  8
_0-0_0
  6
CONTINUOUS
 62
    7
 10
312.0311585
 20
387.5
 11
312.0311585
 21
387.70001200000002
  0
LINE
  8
_0-0_0
  6
CONTINUOUS
 62
    7
 10
316.5311585
 20
387.90002399999997
 11
312.23117050000002
 21
387.90002399999997
  0
LINE
  8
_0-0_0
  6
CONTINUOUS
 62
    7
 10
317.0311585
 20
388.40002399999997
 11
317.0311585
 21
390.17514
  0
ARC
  8
_0-0_0
  6
CONTINUOUS
 62
    7
 10
313.98321549999997
 20
390.11901899999998
 40
3.0490550000000001
 50
1.0548960000000001
 51
14.838094000000002
  0
LINE
  8
_0-0_0
  6
CONTINUOUS
 62
    7
 10
316.5311585
 20
391.10000600000001
 11
312.1636355
 21
391.10000600000001
  0
LINE
  8
_0-0_0
  6
CONTINUOUS
 62
    7
 10
312.0311585
 20
391.24145499999997
 11
312.0311585
 21
391.34643599999998
  0
ARC
  8
_0-0_0
  6
CONTINUOUS
 62
    7
 10
310.0311585
 20
413
 40
2.2000000000000002
 50
179.99999099999999
 51
303.74900400000001
  0
LINE
  8
_0-0_0
  6
CONTINUOUS
 62
    7
 10
307.83117649999997
 20
414
 11
307.83117649999997
 21
413
  0
LINE
  8
_0-0_0
  6
CONTINUOUS
 62
    7
 10
307.33117649999997
 20
414.5
 11
233.73117049999999
 21
414.5
  0
LINE
  8
_0-0_0
  6
CONTINUOUS
 62
    7
 10
233.23117049999999
 20
413
 11
233.23117049999999
 21
414
  0
LINE
  8
_0-0_0
  6
CONTINUOUS
 62
    7
 10
233.73117049999999
 20
412.80001800000002
 11
233.73117049999999
 21
413
  0
ARC
  8
_0-0_0
  6
CONTINUOUS
 62
    7
 10
234.73117049999999
 20
412.80001800000002
 40
1
 50
90.000003000000007
 51
179.99999099999999
  0
LINE
  8
_0-0_0
  6
CONTINUOUS
 62
    7
 10
234.73117049999999
 20
413.80001800000002
 11
248.03117349999999
 21
413.80001800000002
  0
LINE
  8
_0-0_0
  6
CONTINUOUS
 62
    7
 10
290.03117350000002
 20
413.80001800000002
 11
304.03117350000002
 21
413.80001800000002
  0
ARC
  8
_0-0_0
  6
CONTINUOUS
 62
    7
 10
304.03117350000002
 20
410.80001800000002
 40
3
 50
0
 51
90.000003000000007
  0
LINE
  8
_0-0_0
  6
CONTINUOUS
 62
    7
 10
307.0311585
 20
397.20001200000002
 11
307.0311585
 21
410.80001800000002
  0
ARC
  8
_0-0_0
  6
CONTINUOUS
 62
    7
 10
304.03117350000002
 20
397.20001200000002
 40
3
 50
269.99999700000001
 51
0
  0
LINE
  8
_0-0_0
  6
CONTINUOUS
 62
    7
 10
304.03117350000002
 20
394.20001200000002
 11
290.03117350000002
 21
394.20001200000002
  0
LINE
  8
_0-0_0
  6
CONTINUOUS
 62
    7
 10
248.03117349999999
 20
394.20001200000002
 11
234.03117349999999
 21
394.20001200000002
  0
ARC
  8
_0-0_0
  6
CONTINUOUS
 62
    7
 10
234.03117349999999
 20
397.20001200000002
 40
3
 50
179.99999099999999
 51
269.99999700000001
  0
LINE
  8
_0-0_0
  6
CONTINUOUS
 62
    7
 10
231.03117349999999
 20
409.43771400000003
 11
231.03117349999999
 21
397.20001200000002
  0
ARC
  8
_0-0_0
  6
CONTINUOUS
 62
    7
 10
232.03117349999999
 20
409.43771400000003
 40
1
 50
105.68034800000001
 51
179.99999100000002
  0
ARC
  8
_0-0_0
  6
CONTINUOUS
 62
    7
 10
224.07913249999999
 20
412.28100599999999
 40
3.0490550000000001
 50
181.05489
 51
194.838089
  0
LINE
  8
_0-0_0
  6
CONTINUOUS
 62
    7
 10
225.89871249999999
 20
411.30001800000002
 11
221.53117349999999
 21
411.30001800000002
  0
LINE
  8
_0-0_0
  6
CONTINUOUS
 62
    7
 10
226.03117349999999
 20
391.24145499999997
 11
226.03117349999999
 21
391.54168700000002
  0
LINE
  8
_0-0_0
  6
CONTINUOUS
 62
    7
 10
225.89871249999999
 20
391.10000600000001
 11
221.53117349999999
 21
391.10000600000001
  0
ARC
  8
_0-0_0
  6
CONTINUOUS
 62
    7
 10
224.08032249999999
 20
390.11834700000003
 40
3.050319
 50
165.15540799999999
 51
178.932897
  0
LINE
  8
_0-0_0
  6
CONTINUOUS
 62
    7
 10
221.03117349999999
 20
388.40002399999997
 11
221.03117349999999
 21
390.17514
  0
LINE
  8
_0-0_0
  6
CONTINUOUS
 62
    7
 10
225.8311765
 20
387.90002399999997
 11
221.53117349999999
 21
387.90002399999997
  0
LINE
  8
_0-0_0
  6
CONTINUOUS
 62
    7
 10
226.03117349999999
 20
387.5
 11
226.03117349999999
 21
387.70001200000002
  0
LINE
  8
_0-0_0
  6
CONTINUOUS
 62
    7
 10
226.03117349999999
 20
387.5
 11
226.53117349999999
 21
387.5
  0
LINE
  8
_0-0_0
  6
CONTINUOUS
 62
    7
 10
231.53117349999999
 20
387
 11
226.53117349999999
 21
387
  0
ARC
  8
_0-0_0
  6
CONTINUOUS
 62
    7
 10
231.53117349999999
 20
387.5
 40
0.5
 50
269.99999700000001
 51
0
  0
LINE
  8
_0-0_0
  6
CONTINUOUS
 62
    7
 10
221.34942649999999
 20
411.30001800000002
 11
221.3290705
 21
411.30102499999998
  0
LINE
  8
_0-0_0
  6
CONTINUOUS
 62
    7
 10
221.3290705
 20
411.30102499999998
 11
221.3086855
 21
411.304169
  0
LINE
  8
_0-0_0
  6
CONTINUOUS
 62
    7
 10
221.3086855
 20
411.304169
 11
221.28186049999999
 21
411.31176799999997
  0
LINE
  8
_0-0_0
  6
CONTINUOUS
 62
    7
 10
221.28186049999999
 20
411.31176799999997
 11
221.25621050000001
 21
411.32312000000002
  0
LINE
  8
_0-0_0
  6
CONTINUOUS
 62
    7
 10
221.25621050000001
 20
411.32312000000002
 11
221.2324065
 21
411.33801299999999
  0
LINE
  8
_0-0_0
  6
CONTINUOUS
 62
    7
 10
221.2324065
 20
411.33801299999999
 11
221.2156525
 21
411.35150099999998
  0
LINE
  8
_0-0_0
  6
CONTINUOUS
 62
    7
 10
221.2156525
 20
411.35150099999998
 11
221.20014950000001
 21
411.36676
  0
LINE
  8
_0-0_0
  6
CONTINUOUS
 62
    7
 10
221.20014950000001
 20
411.36676
 11
221.1732485
 21
411.40139799999997
  0
LINE
  8
_0-0_0
  6
CONTINUOUS
 62
    7
 10
221.1732485
 20
411.40139799999997
 11
221.1522215
 21
411.439728
  0
LINE
  8
_0-0_0
  6
CONTINUOUS
 62
    7
 10
221.1522215
 20
411.439728
 11
221.14021249999999
 21
411.46963499999998
  0
LINE
  8
_0-0_0
  6
CONTINUOUS
 62
    7
 10
221.14021249999999
 20
411.46963499999998
 11
221.13116449999998
 21
411.5
  0
LINE
  8
_0-0_0
  6
CONTINUOUS
 62
    7
 10
226.03117349999999
 20
415.40002399999997
 11
226.03117349999999
 21
416.5
  0
LINE
  8
_0-0_0
  6
CONTINUOUS
 62
    7
 10
220.53117349999999
 20
412.85000600000001
 11
221.03117349999999
 21
412.85000600000001
  0
LINE
  8
_0-0_0
  6
CONTINUOUS
 62
    7
 10
220.53117349999999
 20
415.40002399999997
 11
226.03117349999999
 21
415.40002399999997
  0
ARC
  8
_0-0_0
  6
CONTINUOUS
 62
    7
 10
325.0311585
 20
413.20001200000002
 40
0.5
 50
269.99999700000001
 51
0
  0
ARC
  8
_0-0_0
  6
CONTINUOUS
 62
    7
 10
312.5311585
 20
414
 40
0.5
 50
90.000003000000007
 51
179.99999099999999
  0
LINE
  8
_0-0_0
  6
CONTINUOUS
 62
    7
 10
312.0311585
 20
413.20001200000002
 11
312.0311585
 21
414
  0
LINE
  8
_0-0_0
  6
CONTINUOUS
 62
    7
 10
232.23117049999999
 20
389.38284299999998
 11
232.23117049999999
 21
387.40002399999997
  0
LINE
  8
_0-0_0
  6
CONTINUOUS
 62
    7
 10
232.23117049999999
 20
387.40002399999997
 11
233.23117049999999
 21
387.40002399999997
  0
LINE
  8
_0-0_0
  6
CONTINUOUS
 62
    7
 10
233.53117349999999
 20
389.40002399999997
 11
300.53117350000002
 21
389.40002399999997
  0
LINE
  8
_0-0_0
  6
CONTINUOUS
 62
    7
 10
233.23117049999999
 20
387.40002399999997
 11
300.83117649999997
 21
387.40002399999997
  0
LINE
  8
_0-0_0
  6
CONTINUOUS
 62
    7
 10
300.83117649999997
 20
387.40002399999997
 11
301.83117649999997
 21
387.40002399999997
  0
LINE
  8
_0-0_0
  6
CONTINUOUS
 62
    7
 10
301.83117649999997
 20
389.38284299999998
 11
301.83117649999997
 21
387.40002399999997
  0
LINE
  8
_0-0_0
  6
CONTINUOUS
 62
    7
 10
312.0311585
 20
387.5
 11
311.5311585
 21
387
  0
ARC
  8
_0-0_0
  6
CONTINUOUS
 62
    7
 10
312.23117050000002
 20
387.70001200000002
 40
0.2
 50
90.000003000000007
 51
179.99999099999999
  0
ARC
  8
_0-0_0
  6
CONTINUOUS
 62
    7
 10
316.5311585
 20
388.40002399999997
 40
0.5
 50
269.99999700000001
 51
0
  0
LINE
  8
_0-0_0
  6
CONTINUOUS
 62
    7
 10
316.71292149999999
 20
391.10000600000001
 11
316.73327649999999
 21
391.09899899999999
  0
LINE
  8
_0-0_0
  6
CONTINUOUS
 62
    7
 10
316.73327649999999
 20
391.09899899999999
 11
316.7536925
 21
391.09585600000003
  0
LINE
  8
_0-0_0
  6
CONTINUOUS
 62
    7
 10
316.7536925
 20
391.09585600000003
 11
316.78048749999999
 21
391.088257
  0
LINE
  8
_0-0_0
  6
CONTINUOUS
 62
    7
 10
316.78048749999999
 20
391.088257
 11
316.80612150000002
 21
391.07690400000001
  0
LINE
  8
_0-0_0
  6
CONTINUOUS
 62
    7
 10
316.80612150000002
 20
391.07690400000001
 11
316.8299255
 21
391.06201199999998
  0
LINE
  8
_0-0_0
  6
CONTINUOUS
 62
    7
 10
316.8299255
 20
391.06201199999998
 11
316.84671049999997
 21
391.04849200000001
  0
LINE
  8
_0-0_0
  6
CONTINUOUS
 62
    7
 10
316.84671049999997
 20
391.04849200000001
 11
316.8622135
 21
391.03326399999997
  0
LINE
  8
_0-0_0
  6
CONTINUOUS
 62
    7
 10
316.8622135
 20
391.03326399999997
 11
316.88909949999999
 21
390.998627
  0
LINE
  8
_0-0_0
  6
CONTINUOUS
 62
    7
 10
316.88909949999999
 20
390.998627
 11
316.91012549999999
 21
390.96029700000003
  0
LINE
  8
_0-0_0
  6
CONTINUOUS
 62
    7
 10
316.91012549999999
 20
390.96029700000003
 11
316.92214949999999
 21
390.93035900000001
  0
LINE
  8
_0-0_0
  6
CONTINUOUS
 62
    7
 10
316.92214949999999
 20
390.93035900000001
 11
316.93118249999998
 21
390.90002399999997
  0
LINE
  8
_0-0_0
  6
CONTINUOUS
 62
    7
 10
316.71292149999999
 20
391.10000600000001
 11
316.5311585
 21
391.10000600000001
  0
LINE
  8
_0-0_0
  6
CONTINUOUS
 62
    7
 10
312.0311585
 20
392.40002399999997
 11
312.0311585
 21
391.34643599999998
  0
LINE
  8
_0-0_0
  6
CONTINUOUS
 62
    7
 10
312.0311585
 20
392.40002399999997
 11
312.0311585
 21
410
  0
LINE
  8
_0-0_0
  6
CONTINUOUS
 62
    7
 10
312.0311585
 20
411.97738600000002
 11
312.0311585
 21
410
  0
ARC
  8
_0-0_0
  6
CONTINUOUS
 62
    7
 10
311.5311585
 20
410.75500499999998
 40
0.5
 50
0
 51
123.74898500000002
  0
ARC
  8
_0-0_0
  6
CONTINUOUS
 62
    7
 10
312.20144649999997
 20
391.27331500000003
 40
0.1734229999999999
 50
181.12417600000003
 51
270.64883800000007
  0
LINE
  8
_0-0_0
  6
CONTINUOUS
 62
    7
 10
312.0271305
 20
391.30001800000002
 11
312.0272215
 21
391.26986699999998
  0
ARC
  8
_0-0_0
  6
CONTINUOUS
 62
    7
 10
307.33117649999997
 20
414
 40
0.5
 50
0
 51
90.000003000000007
  0
ARC
  8
_0-0_0
  6
CONTINUOUS
 62
    7
 10
231.03117349999999
 20
413
 40
2.7000000000000002
 50
285.68033600000007
 51
0.0000000000000381
  0
ARC
  8
_0-0_0
  6
CONTINUOUS
 62
    7
 10
248.03117349999999
 20
397.20001200000002
 40
3
 50
269.99999700000001
 51
0
  0
LINE
  8
_0-0_0
  6
CONTINUOUS
 62
    7
 10
251.03117349999999
 20
397.20001200000002
 11
251.03117349999999
 21
410.80001800000002
  0
ARC
  8
_0-0_0
  6
CONTINUOUS
 62
    7
 10
248.03117349999999
 20
410.80001800000002
 40
3
 50
0
 51
90.000003000000007
  0
ARC
  8
_0-0_0
  6
CONTINUOUS
 62
    7
 10
243.53117349999999
 20
406.5
 40
4.5
 50
269.99999700000001
 51
90.000002999999992
  0
LINE
  8
_0-0_0
  6
CONTINUOUS
 62
    7
 10
243.53117349999999
 20
402
 11
238.53117349999999
 21
402
  0
ARC
  8
_0-0_0
  6
CONTINUOUS
 62
    7
 10
238.53117349999999
 20
406.5
 40
4.5
 50
90.000003000000007
 51
269.99999700000006
  0
LINE
  8
_0-0_0
  6
CONTINUOUS
 62
    7
 10
238.53117349999999
 20
411
 11
243.53117349999999
 21
411
  0
ARC
  8
_0-0_0
  6
CONTINUOUS
 62
    7
 10
290.03117350000002
 20
397.20001200000002
 40
3
 50
179.99999099999999
 51
269.99999700000001
  0
LINE
  8
_0-0_0
  6
CONTINUOUS
 62
    7
 10
287.03117350000002
 20
410.80001800000002
 11
287.03117350000002
 21
397.20001200000002
  0
ARC
  8
_0-0_0
  6
CONTINUOUS
 62
    7
 10
290.03117350000002
 20
410.80001800000002
 40
3
 50
90.000003000000007
 51
179.99999099999999
  0
ARC
  8
_0-0_0
  6
CONTINUOUS
 62
    7
 10
299.53117350000002
 20
406.5
 40
4.5
 50
269.99999700000001
 51
90.000002999999992
  0
LINE
  8
_0-0_0
  6
CONTINUOUS
 62
    7
 10
299.53117350000002
 20
402
 11
294.53117350000002
 21
402
  0
ARC
  8
_0-0_0
  6
CONTINUOUS
 62
    7
 10
294.53117350000002
 20
406.5
 40
4.5
 50
90.000003000000007
 51
269.99999700000006
  0
LINE
  8
_0-0_0
  6
CONTINUOUS
 62
    7
 10
294.53117350000002
 20
411
 11
299.53117350000002
 21
411
  0
LINE
  8
_0-0_0
  6
CONTINUOUS
 62
    7
 10
221.53117349999999
 20
411.30001800000002
 11
221.34942649999999
 21
411.30001800000002
  0
LINE
  8
_0-0_0
  6
CONTINUOUS
 62
    7
 10
226.03117349999999
 20
393.20001200000002
 11
226.03117349999999
 21
391.54168700000002
  0
LINE
  8
_0-0_0
  6
CONTINUOUS
 62
    7
 10
226.03117349999999
 20
393.20001200000002
 11
226.03117349999999
 21
409.70001200000002
  0
LINE
  8
_0-0_0
  6
CONTINUOUS
 62
    7
 10
226.03117349999999
 20
411.16629
 11
226.03117349999999
 21
409.70001200000002
  0
ARC
  8
_0-0_0
  6
CONTINUOUS
 62
    7
 10
225.86088549999999
 20
391.27328499999999
 40
0.1734209999999999
 50
269.35085600000002
 51
358.87625300000002
  0
LINE
  8
_0-0_0
  6
CONTINUOUS
 62
    7
 10
226.03521749999999
 20
391.30001800000002
 11
226.03514049999998
 21
391.26986699999998
  0
LINE
  8
_0-0_0
  6
CONTINUOUS
 62
    7
 10
226.03521749999999
 20
411.10000600000001
 11
226.03514049999998
 21
411.13012700000002
  0
ARC
  8
_0-0_0
  6
CONTINUOUS
 62
    7
 10
225.86088549999999
 20
411.12670900000001
 40
0.1734219999999999
 50
1.1236539999999999
 51
90.649110000000007
  0
LINE
  8
_0-0_0
  6
CONTINUOUS
 62
    7
 10
221.53117349999999
 20
391.10000600000001
 11
221.34942649999999
 21
391.10000600000001
  0
LINE
  8
_0-0_0
  6
CONTINUOUS
 62
    7
 10
221.34942649999999
 20
391.10000600000001
 11
221.3290705
 21
391.09899899999999
  0
LINE
  8
_0-0_0
  6
CONTINUOUS
 62
    7
 10
221.3290705
 20
391.09899899999999
 11
221.30866950000001
 21
391.09582499999999
  0
LINE
  8
_0-0_0
  6
CONTINUOUS
 62
    7
 10
221.30866950000001
 20
391.09582499999999
 11
221.28186049999999
 21
391.088257
  0
LINE
  8
_0-0_0
  6
CONTINUOUS
 62
    7
 10
221.28186049999999
 20
391.088257
 11
221.25621050000001
 21
391.07690400000001
  0
LINE
  8
_0-0_0
  6
CONTINUOUS
 62
    7
 10
221.25621050000001
 20
391.07690400000001
 11
221.2324065
 21
391.06201199999998
  0
LINE
  8
_0-0_0
  6
CONTINUOUS
 62
    7
 10
221.2324065
 20
391.06201199999998
 11
221.2156525
 21
391.04849200000001
  0
LINE
  8
_0-0_0
  6
CONTINUOUS
 62
    7
 10
221.2156525
 20
391.04849200000001
 11
221.20014950000001
 21
391.03326399999997
  0
LINE
  8
_0-0_0
  6
CONTINUOUS
 62
    7
 10
221.20014950000001
 20
391.03326399999997
 11
221.1732485
 21
390.998627
  0
LINE
  8
_0-0_0
  6
CONTINUOUS
 62
    7
 10
221.1732485
 20
390.998627
 11
221.1522215
 21
390.96029700000003
  0
LINE
  8
_0-0_0
  6
CONTINUOUS
 62
    7
 10
221.1522215
 20
390.96029700000003
 11
221.14021249999999
 21
390.93035900000001
  0
LINE
  8
_0-0_0
  6
CONTINUOUS
 62
    7
 10
221.14021249999999
 20
390.93035900000001
 11
221.13116449999998
 21
390.90002399999997
  0
ARC
  8
_0-0_0
  6
CONTINUOUS
 62
    7
 10
221.53117349999999
 20
388.40002399999997
 40
0.5
 50
179.99999099999999
 51
269.99999700000001
  0
ARC
  8
_0-0_0
  6
CONTINUOUS
 62
    7
 10
225.8311765
 20
387.70001200000002
 40
0.2
 50
0
 51
90.000003000000007
  0
LINE
  8
_0-0_0
  6
CONTINUOUS
 62
    7
 10
226.03117349999999
 20
387.5
 11
226.53117349999999
 21
387
  0
LINE
  8
_0-0_0
  6
CONTINUOUS
 62
    7
 10
220.03117349999999
 20
413.34429899999998
 11
220.03117349999999
 21
414.90002399999997
  0
ARC
  8
_0-0_0
  6
CONTINUOUS
 62
    7
 10
220.51808149999999
 20
413.34765599999997
 40
0.4869939999999999
 50
180.39493000000002
 51
203.93946700000001
  0
ARC
  8
_0-0_0
  6
CONTINUOUS
 62
    7
 10
220.53117349999999
 20
413.35000600000001
 40
0.5
 50
203.57823099999999
 51
269.99999700000001
  0
ARC
  8
_0-0_0
  6
CONTINUOUS
 62
    7
 10
220.53117349999999
 20
414.90002399999997
 40
0.5
 50
90.000003000000007
 51
179.99999099999999
  0
LINE
  8
_0-0_0
  6
CONTINUOUS
 62
    7
 10
312.0311585
 20
412.70001200000002
 11
312.5311585
 21
412.70001200000002
  0
LINE
  8
_0-0_0
  6
CONTINUOUS
 62
    7
 10
312.5311585
 20
412.70001200000002
 11
325.0311585
 21
412.70001200000002
  0
ARC
  8
_0-0_0
  6
CONTINUOUS
 62
    7
 10
312.5311585
 20
413.20001200000002
 40
0.5
 50
179.99999099999999
 51
269.99999700000001
  0
LINE
  8
_0-0_0
  6
CONTINUOUS
 62
    7
 10
312.0311585
 20
412.33398399999999
 11
312.0311585
 21
412.70001200000002
  0
LINE
  8
_0-0_0
  6
CONTINUOUS
 62
    7
 10
312.0311585
 20
412.08349600000003
 11
312.0311585
 21
411.97738600000002
  0
LINE
  8
_0-0_0
  6
CONTINUOUS
 62
    7
 10
312.0311585
 20
412.33398399999999
 11
312.0311585
 21
412.08349600000003
  0
CIRCLE
  8
_0-0_0
  6
CONTINUOUS
 62
    7
 10
231.03117349999999
 20
413
 40
1.4750000000000001
  0
CIRCLE
  8
_0-0_0
  6
CONTINUOUS
 62
    7
 10
310.0311585
 20
413
 40
1.4750000000000001
  0
LINE
  8
_0-0_0
  6
CONTINUOUS
 62
    7
 10
220.03117349999999
 20
393.20001200000002
 11
220.03117349999999
 21
390.70001200000002
  0
LINE
  8
_0-0_0
  6
CONTINUOUS
 62
    7
 10
220.03117349999999
 20
393.20001200000002
 11
220.03117349999999
 21
406
  0
LINE
  8
_0-0_0
  6
CONTINUOUS
 62
    7
 10
220.03117349999999
 20
409.5
 11
220.03117349999999
 21
406
  0
LINE
  8
_0-0_0
  6
CONTINUOUS
 62
    7
 10
220.03117349999999
 20
409.5
 11
220.03117349999999
 21
409.85000600000001
  0
LINE
  8
_0-0_0
  6
CONTINUOUS
 62
    7
 10
220.03117349999999
 20
413.34429899999998
 11
220.03117349999999
 21
409.85000600000001
  0
LINE
  8
_0-0_0
  6
CONTINUOUS
 62
    7
 10
220.03117349999999
 20
415.192902
 11
220.03117349999999
 21
414.90002399999997
  0
LINE
  8
_0-0_0
  6
CONTINUOUS
 62
    7
 10
220.03117349999999
 20
415.192902
 11
220.03117349999999
 21
415.25
  0
LINE
  8
_0-0_0
  6
CONTINUOUS
 62
    7
 10
221.03170750000001
 20
390.20001200000002
 11
220.53117349999999
 21
390.20001200000002
  0
LINE
  8
_0-0_0
  6
CONTINUOUS
 62
    7
 10
317.01998850000001
 20
390.40002399999997
 11
324.0311585
 21
390.40002399999997
  0
LINE
  8
_0-0_0
  6
CONTINUOUS
 62
    7
 10
324.0311585
 20
390.40002399999997
 11
328.70663450000001
 21
390.40002399999997
  0
LINE
  8
_0-0_0
  6
CONTINUOUS
 62
    7
 10
324.0311585
 20
390.40002399999997
 11
324.0311585
 21
392.40002399999997
  0
LINE
  8
_0-0_0
  6
CONTINUOUS
 62
    7
 10
324.0311585
 20
395.90002399999997
 11
324.0311585
 21
392.90002399999997
  0
LINE
  8
_0-0_0
  6
CONTINUOUS
 62
    7
 10
324.0311585
 20
392.90002399999997
 11
324.0311585
 21
392.40002399999997
  0
LINE
  8
_0-0_0
  6
CONTINUOUS
 62
    7
 10
324.0311585
 20
395.90002399999997
 11
324.0311585
 21
396.40002399999997
  0
ARC
  8
_0-0_0
  6
CONTINUOUS
 62
    7
 10
318.0311585
 20
395.70001200000002
 40
0.500016
 50
180.00117
 51
359.995611
  0
LINE
  8
_0-0_0
  6
CONTINUOUS
 62
    7
 10
318.5311585
 20
395.70001200000002
 11
318.5311585
 21
407.70001200000002
  0
ARC
  8
_0-0_0
  6
CONTINUOUS
 62
    7
 10
318.0311585
 20
407.70001200000002
 40
0.500016
 50
0.001164
 51
179.99560600000004
  0
LINE
  8
_0-0_0
  6
CONTINUOUS
 62
    7
 10
317.5311585
 20
395.70001200000002
 11
317.5311585
 21
407.70001200000002
  0
ARC
  8
_0-0_0
  6
CONTINUOUS
 62
    7
 10
319.5311585
 20
395.70001200000002
 40
0.500016
 50
180.00117
 51
359.995611
  0
LINE
  8
_0-0_0
  6
CONTINUOUS
 62
    7
 10
320.0311585
 20
395.70001200000002
 11
320.0311585
 21
407.70001200000002
  0
ARC
  8
_0-0_0
  6
CONTINUOUS
 62
    7
 10
319.5311585
 20
407.70001200000002
 40
0.500016
 50
0.001164
 51
179.99560600000004
  0
LINE
  8
_0-0_0
  6
CONTINUOUS
 62
    7
 10
319.0311585
 20
395.70001200000002
 11
319.0311585
 21
407.70001200000002
  0
ARC
  8
_0-0_0
  6
CONTINUOUS
 62
    7
 10
321.0311585
 20
395.70001200000002
 40
0.500016
 50
180.00117
 51
359.995611
  0
LINE
  8
_0-0_0
  6
CONTINUOUS
 62
    7
 10
321.5311585
 20
395.70001200000002
 11
321.5311585
 21
407.70001200000002
  0
ARC
  8
_0-0_0
  6
CONTINUOUS
 62
    7
 10
321.0311585
 20
407.70001200000002
 40
0.500016
 50
0.001164
 51
179.99560600000004
  0
LINE
  8
_0-0_0
  6
CONTINUOUS
 62
    7
 10
320.5311585
 20
395.70001200000002
 11
320.5311585
 21
407.70001200000002
  0
ARC
  8
_0-0_0
  6
CONTINUOUS
 62
    7
 10
322.5311585
 20
395.70001200000002
 40
0.500016
 50
180.00117
 51
359.995611
  0
LINE
  8
_0-0_0
  6
CONTINUOUS
 62
    7
 10
323.0311585
 20
395.70001200000002
 11
323.0311585
 21
407.70001200000002
  0
ARC
  8
_0-0_0
  6
CONTINUOUS
 62
    7
 10
322.5311585
 20
407.70001200000002
 40
0.500016
 50
0.001164
 51
179.99560600000004
  0
LINE
  8
_0-0_0
  6
CONTINUOUS
 62
    7
 10
322.0311585
 20
395.70001200000002
 11
322.0311585
 21
407.70001200000002
  0
LINE
  8
_0-0_0
  6
CONTINUOUS
 62
    7
 10
312.0311585
 20
412
 11
328.70663450000001
 21
412
  0
LINE
  8
_0-0_0
  6
CONTINUOUS
 62
    7
 10
220.53117349999999
 20
415.75
 11
226.03117349999999
 21
415.75
  0
ARC
  8
_0-0_0
  6
CONTINUOUS
 62
    7
 10
220.53117349999999
 20
415.25
 40
0.5
 50
90.000003000000007
 51
179.99999099999999
  0
ARC
  8
_0-0_0
  6
CONTINUOUS
 62
    7
 10
220.53117349999999
 20
390.70001200000002
 40
0.5
 50
179.99999099999999
 51
269.99999700000001
  0
ARC
  8
_0-0_0
  6
CONTINUOUS
 62
    7
 10
220.53117349999999
 20
406
 40
0.5
 50
90.000003000000007
 51
179.99999099999999
  0
ARC
  8
_0-0_0
  6
CONTINUOUS
 62
    7
 10
328.70663450000001
 20
392.40002399999997
 40
2
 50
269.99999700000001
 51
288.43501300000003
  0
LINE
  8
_0-0_0
  6
CONTINUOUS
 62
    7
 10
324.0311585
 20
390.40002399999997
 11
324.0311585
 21
390.65008499999999
  0
LINE
  8
_0-0_0
  6
CONTINUOUS
 62
    7
 10
324.0311585
 20
395.90002399999997
 11
328.70663450000001
 21
395.90002399999997
  0
LINE
  8
_0-0_0
  6
CONTINUOUS
 62
    7
 10
329.33908050000002
 20
411.89736900000003
 11
329.21957350000002
 21
411.93298299999998
  0
LINE
  8
_0-0_0
  6
CONTINUOUS
 62
    7
 10
329.21957350000002
 20
411.93298299999998
 11
329.09802250000001
 21
411.96087599999998
  0
LINE
  8
_0-0_0
  6
CONTINUOUS
 62
    7
 10
329.09802250000001
 20
411.96087599999998
 11
328.97488349999998
 21
411.98092700000001
  0
LINE
  8
_0-0_0
  6
CONTINUOUS
 62
    7
 10
328.97488349999998
 20
411.98092700000001
 11
328.85067750000002
 21
411.993042
  0
LINE
  8
_0-0_0
  6
CONTINUOUS
 62
    7
 10
328.85067750000002
 20
411.993042
 11
328.72586050000001
 21
411.997162
  0
LINE
  8
_0-0_0
  6
CONTINUOUS
 62
    7
 10
328.72586050000001
 20
411.997162
 11
328.70663450000001
 21
411.99710099999999
  0
ARC
  8
_0-0_0
  6
CONTINUOUS
 62
    7
 10
328.70663450000001
 20
410
 40
2
 50
71.565000999999995
 51
90.000003000000007
  0
LINE
  8
_0-0_0
  6
CONTINUOUS
 62
    7
 10
245.00271649999999
 20
402.40002399999997
 11
237.05963149999999
 21
402.40002399999997
  0
ARC
  8
_0-0_0
  6
CONTINUOUS
 62
    7
 10
237.05963149999999
 20
402.90002399999997
 40
0.5
 50
210.00000299999999
 51
269.99999700000001
  0
LINE
  8
_0-0_0
  6
CONTINUOUS
 62
    7
 10
236.62661750000001
 20
402.65002399999997
 11
234.5481565
 21
406.25
  0
ARC
  8
_0-0_0
  6
CONTINUOUS
 62
    7
 10
234.98117049999999
 20
406.5
 40
0.5
 50
149.99999700000001
 51
210.00000299999996
  0
LINE
  8
_0-0_0
  6
CONTINUOUS
 62
    7
 10
234.5481565
 20
406.75
 11
236.62661750000001
 21
410.35000600000001
  0
ARC
  8
_0-0_0
  6
CONTINUOUS
 62
    7
 10
237.05963149999999
 20
410.10000600000001
 40
0.5
 50
90.000003000000007
 51
149.99999700000001
  0
LINE
  8
_0-0_0
  6
CONTINUOUS
 62
    7
 10
237.05963149999999
 20
410.60000600000001
 11
245.00271649999999
 21
410.60000600000001
  0
ARC
  8
_0-0_0
  6
CONTINUOUS
 62
    7
 10
245.00271649999999
 20
410.10000600000001
 40
0.5
 50
30.000001000000001
 51
90.000003000000007
  0
LINE
  8
_0-0_0
  6
CONTINUOUS
 62
    7
 10
245.43572950000001
 20
410.35000600000001
 11
247.51419049999998
 21
406.75
  0
ARC
  8
_0-0_0
  6
CONTINUOUS
 62
    7
 10
247.0811765
 20
406.5
 40
0.5
 50
329.99998900000003
 51
30.000000999999983
  0
LINE
  8
_0-0_0
  6
CONTINUOUS
 62
    7
 10
247.51419049999998
 20
406.25
 11
245.43572950000001
 21
402.65002399999997
  0
ARC
  8
_0-0_0
  6
CONTINUOUS
 62
    7
 10
245.00271649999999
 20
402.90002399999997
 40
0.5
 50
269.99999700000001
 51
329.99998900000003
  0
ARC
  8
_0-0_0
  6
CONTINUOUS
 62
    7
 10
293.00190750000002
 20
403
 40
0.5
 50
210.00000299999999
 51
269.99999700000001
  0
LINE
  8
_0-0_0
  6
CONTINUOUS
 62
    7
 10
292.5688935
 20
402.75
 11
290.54817149999997
 21
406.25
  0
ARC
  8
_0-0_0
  6
CONTINUOUS
 62
    7
 10
290.98117049999996
 20
406.5
 40
0.5
 50
149.99999700000001
 51
210.00000299999996
  0
LINE
  8
_0-0_0
  6
CONTINUOUS
 62
    7
 10
290.54817149999997
 20
406.75
 11
292.5688935
 21
410.25
  0
ARC
  8
_0-0_0
  6
CONTINUOUS
 62
    7
 10
293.00190750000002
 20
410
 40
0.5
 50
90.000003000000007
 51
149.99999700000001
  0
LINE
  8
_0-0_0
  6
CONTINUOUS
 62
    7
 10
293.00190750000002
 20
410.5
 11
301.06045549999999
 21
410.5
  0
ARC
  8
_0-0_0
  6
CONTINUOUS
 62
    7
 10
301.06045549999999
 20
410
 40
0.5
 50
30.000001000000001
 51
90.000003000000007
  0
LINE
  8
_0-0_0
  6
CONTINUOUS
 62
    7
 10
301.4934695
 20
410.25
 11
303.51419049999998
 21
406.75
  0
ARC
  8
_0-0_0
  6
CONTINUOUS
 62
    7
 10
303.08117649999997
 20
406.5
 40
0.5
 50
329.99998900000003
 51
30.000000999999983
  0
LINE
  8
_0-0_0
  6
CONTINUOUS
 62
    7
 10
303.51419049999998
 20
406.25
 11
301.4934695
 21
402.75
  0
ARC
  8
_0-0_0
  6
CONTINUOUS
 62
    7
 10
301.06045549999999
 20
403
 40
0.5
 50
269.99999700000001
 51
329.99998900000003
  0
LINE
  8
_0-0_0
  6
CONTINUOUS
 62
    7
 10
301.06045549999999
 20
402.5
 11
293.00190750000002
 21
402.5
  0
LINE
  8
_0-0_0
  6
CONTINUOUS
 62
    7
 10
223.03117349999999
 20
411.13043199999998
 11
223.03117349999999
 21
410.30419899999998
  0
LINE
  8
_0-0_0
  6
CONTINUOUS
 62
    7
 10
220.53117349999999
 20
406.5
 11
222.73117049999999
 21
406.5
  0
LINE
  8
_0-0_0
  6
CONTINUOUS
 62
    7
 10
223.03117349999999
 20
406.80001800000002
 11
223.03117349999999
 21
409.02832000000001
  0
LINE
  8
_0-0_0
  6
CONTINUOUS
 62
    7
 10
223.03117349999999
 20
411.29968300000002
 11
223.03117349999999
 21
411.13043199999998
  0
LINE
  8
_0-0_0
  6
CONTINUOUS
 62
    7
 10
231.23117049999999
 20
411.90002399999997
 11
230.8311765
 21
411.90002399999997
  0
LINE
  8
_0-0_0
  6
CONTINUOUS
 62
    7
 10
231.23117049999999
 20
411.90002399999997
 11
231.23117049999999
 21
412.55001800000002
  0
ARC
  8
_0-0_0
  6
CONTINUOUS
 62
    7
 10
231.48117049999999
 20
412.55001800000002
 40
0.25
 50
90.000003000000007
 51
179.99999099999999
  0
LINE
  8
_0-0_0
  6
CONTINUOUS
 62
    7
 10
231.48117049999999
 20
412.80001800000002
 11
232.13116449999998
 21
412.80001800000002
  0
LINE
  8
_0-0_0
  6
CONTINUOUS
 62
    7
 10
232.13116449999998
 20
412.80001800000002
 11
232.13116449999998
 21
413.20001200000002
  0
LINE
  8
_0-0_0
  6
CONTINUOUS
 62
    7
 10
231.48117049999999
 20
413.20001200000002
 11
232.13116449999998
 21
413.20001200000002
  0
ARC
  8
_0-0_0
  6
CONTINUOUS
 62
    7
 10
231.48117049999999
 20
413.45001200000002
 40
0.25
 50
179.99999099999999
 51
269.99999700000001
  0
LINE
  8
_0-0_0
  6
CONTINUOUS
 62
    7
 10
231.23117049999999
 20
414.10000600000001
 11
231.23117049999999
 21
413.45001200000002
  0
LINE
  8
_0-0_0
  6
CONTINUOUS
 62
    7
 10
231.23117049999999
 20
414.10000600000001
 11
230.8311765
 21
414.10000600000001
  0
LINE
  8
_0-0_0
  6
CONTINUOUS
 62
    7
 10
230.8311765
 20
414.10000600000001
 11
230.8311765
 21
413.45001200000002
  0
ARC
  8
_0-0_0
  6
CONTINUOUS
 62
    7
 10
230.5811765
 20
413.45001200000002
 40
0.25
 50
269.99999700000001
 51
0
  0
LINE
  8
_0-0_0
  6
CONTINUOUS
 62
    7
 10
230.5811765
 20
413.20001200000002
 11
229.93118250000001
 21
413.20001200000002
  0
LINE
  8
_0-0_0
  6
CONTINUOUS
 62
    7
 10
229.93118250000001
 20
412.80001800000002
 11
229.93118250000001
 21
413.20001200000002
  0
LINE
  8
_0-0_0
  6
CONTINUOUS
 62
    7
 10
230.5811765
 20
412.80001800000002
 11
229.93118250000001
 21
412.80001800000002
  0
ARC
  8
_0-0_0
  6
CONTINUOUS
 62
    7
 10
230.5811765
 20
412.55001800000002
 40
0.25
 50
0
 51
90.000003000000007
  0
LINE
  8
_0-0_0
  6
CONTINUOUS
 62
    7
 10
230.8311765
 20
411.90002399999997
 11
230.8311765
 21
412.55001800000002
  0
LINE
  8
_0-0_0
  6
CONTINUOUS
 62
    7
 10
310.23117050000002
 20
411.90002399999997
 11
309.83117649999997
 21
411.90002399999997
  0
LINE
  8
_0-0_0
  6
CONTINUOUS
 62
    7
 10
310.23117050000002
 20
411.90002399999997
 11
310.23117050000002
 21
412.55001800000002
  0
ARC
  8
_0-0_0
  6
CONTINUOUS
 62
    7
 10
310.48117050000002
 20
412.55001800000002
 40
0.25
 50
90.000003000000007
 51
179.99999099999999
  0
LINE
  8
_0-0_0
  6
CONTINUOUS
 62
    7
 10
310.48117050000002
 20
412.80001800000002
 11
311.13119549999999
 21
412.80001800000002
  0
LINE
  8
_0-0_0
  6
CONTINUOUS
 62
    7
 10
311.13119549999999
 20
412.80001800000002
 11
311.13119549999999
 21
413.20001200000002
  0
LINE
  8
_0-0_0
  6
CONTINUOUS
 62
    7
 10
310.48117050000002
 20
413.20001200000002
 11
311.13119549999999
 21
413.20001200000002
  0
ARC
  8
_0-0_0
  6
CONTINUOUS
 62
    7
 10
310.48117050000002
 20
413.45001200000002
 40
0.25
 50
179.99999099999999
 51
269.99999700000001
  0
LINE
  8
_0-0_0
  6
CONTINUOUS
 62
    7
 10
310.23117050000002
 20
414.10000600000001
 11
310.23117050000002
 21
413.45001200000002
  0
LINE
  8
_0-0_0
  6
CONTINUOUS
 62
    7
 10
310.23117050000002
 20
414.10000600000001
 11
309.83117649999997
 21
414.10000600000001
  0
LINE
  8
_0-0_0
  6
CONTINUOUS
 62
    7
 10
309.83117649999997
 20
414.10000600000001
 11
309.83117649999997
 21
413.45001200000002
  0
ARC
  8
_0-0_0
  6
CONTINUOUS
 62
    7
 10
309.58117649999997
 20
413.45001200000002
 40
0.25
 50
269.99999700000001
 51
0
  0
LINE
  8
_0-0_0
  6
CONTINUOUS
 62
    7
 10
309.58117649999997
 20
413.20001200000002
 11
308.93118249999998
 21
413.20001200000002
  0
LINE
  8
_0-0_0
  6
CONTINUOUS
 62
    7
 10
308.93118249999998
 20
412.80001800000002
 11
308.93118249999998
 21
413.20001200000002
  0
LINE
  8
_0-0_0
  6
CONTINUOUS
 62
    7
 10
309.58117649999997
 20
412.80001800000002
 11
308.93118249999998
 21
412.80001800000002
  0
ARC
  8
_0-0_0
  6
CONTINUOUS
 62
    7
 10
309.58117649999997
 20
412.55001800000002
 40
0.25
 50
0
 51
90.000003000000007
  0
LINE
  8
_0-0_0
  6
CONTINUOUS
 62
    7
 10
309.83117649999997
 20
411.90002399999997
 11
309.83117649999997
 21
412.55001800000002
  0
LINE
  8
_0-0_0
  6
CONTINUOUS
 62
    7
 10
329.7811585
 20
390.64999399999999
 11
329.33908050000002
 21
390.50262500000002
  0
LINE
  8
_0-0_0
  6
CONTINUOUS
 62
    7
 10
333.50552349999998
 20
395.90002399999997
 11
334.19888350000002
 21
395.90002399999997
  0
LINE
  8
_0-0_0
  6
CONTINUOUS
 62
    7
 10
333.50552349999998
 20
395.90002399999997
 11
329.1809695
 21
395.90002399999997
  0
LINE
  8
_0-0_0
  6
CONTINUOUS
 62
    7
 10
328.70663450000001
 20
395.90002399999997
 11
329.1809695
 21
395.90002399999997
  0
LINE
  8
_0-0_0
  6
CONTINUOUS
 62
    7
 10
333.6636355
 20
410.45584100000002
 11
329.33908050000002
 21
411.89736900000003
  0
LINE
  8
_0-0_0
  6
CONTINUOUS
 62
    7
 10
223.03117349999999
 20
410.30419899999998
 11
223.03117349999999
 21
409.02832000000001
  0
ARC
  8
_0-0_0
  6
CONTINUOUS
 62
    7
 10
222.73117049999999
 20
406.80001800000002
 40
0.2999999999999999
 50
269.99999700000001
 51
0
  0
LINE
  8
_0-0_0
  6
CONTINUOUS
 62
    7
 10
220.5755005
 20
410.57870500000001
 11
220.5755005
 21
407.25
  0
LINE
  8
_0-0_0
  6
CONTINUOUS
 62
    7
 10
220.5755005
 20
411.75
 11
220.5755005
 21
410.57870500000001
  0
LINE
  8
_0-0_0
  6
CONTINUOUS
 62
    7
 10
335.0311585
 20
395.14996300000001
 11
335.0311585
 21
396.27099600000003
  0
LINE
  8
_0-0_0
  6
CONTINUOUS
 62
    7
 10
335.0311585
 20
397.19232199999999
 11
335.0311585
 21
396.27099600000003
  0
LINE
  8
_0-0_0
  6
CONTINUOUS
 62
    7
 10
334.73117050000002
 20
398.98800699999998
 11
334.78997750000002
 21
398.74117999999999
  0
LINE
  8
_0-0_0
  6
CONTINUOUS
 62
    7
 10
334.78997750000002
 20
398.74117999999999
 11
334.83975249999997
 21
398.54882800000001
  0
LINE
  8
_0-0_0
  6
CONTINUOUS
 62
    7
 10
334.83975249999997
 20
398.54882800000001
 11
334.91085850000002
 21
398.283051
  0
LINE
  8
_0-0_0
  6
CONTINUOUS
 62
    7
 10
334.91085850000002
 20
398.283051
 11
334.94381750000002
 21
398.156342
  0
LINE
  8
_0-0_0
  6
CONTINUOUS
 62
    7
 10
334.94381750000002
 20
398.156342
 11
334.96908550000001
 21
398.05291699999998
  0
LINE
  8
_0-0_0
  6
CONTINUOUS
 62
    7
 10
334.96908550000001
 20
398.05291699999998
 11
334.99111949999997
 21
397.95297199999999
  0
LINE
  8
_0-0_0
  6
CONTINUOUS
 62
    7
 10
334.99111949999997
 20
397.95297199999999
 11
335.01248149999998
 21
397.83526599999999
  0
LINE
  8
_0-0_0
  6
CONTINUOUS
 62
    7
 10
335.01248149999998
 20
397.83526599999999
 11
335.02108750000002
 21
397.77313199999998
  0
LINE
  8
_0-0_0
  6
CONTINUOUS
 62
    7
 10
335.02108750000002
 20
397.77313199999998
 11
335.0271305
 21
397.71252399999997
  0
LINE
  8
_0-0_0
  6
CONTINUOUS
 62
    7
 10
335.0271305
 20
397.71252399999997
 11
335.03015149999999
 21
397.66329999999999
  0
LINE
  8
_0-0_0
  6
CONTINUOUS
 62
    7
 10
335.03015149999999
 20
397.66329999999999
 11
335.0311585
 21
397.61505099999999
  0
LINE
  8
_0-0_0
  6
CONTINUOUS
 62
    7
 10
334.73117050000002
 20
403.41204800000003
 11
334.64773550000001
 21
403.03335600000003
  0
LINE
  8
_0-0_0
  6
CONTINUOUS
 62
    7
 10
334.64773550000001
 20
403.03335600000003
 11
334.60763550000001
 21
402.84182700000002
  0
LINE
  8
_0-0_0
  6
CONTINUOUS
 62
    7
 10
334.60763550000001
 20
402.84182700000002
 11
334.55154449999998
 21
402.55181900000002
  0
LINE
  8
_0-0_0
  6
CONTINUOUS
 62
    7
 10
334.55154449999998
 20
402.55181900000002
 11
334.51394649999997
 21
402.33221400000002
  0
LINE
  8
_0-0_0
  6
CONTINUOUS
 62
    7
 10
334.51394649999997
 20
402.33221400000002
 11
334.4812925
 21
402.11096199999997
  0
LINE
  8
_0-0_0
  6
CONTINUOUS
 62
    7
 10
334.4812925
 20
402.11096199999997
 11
334.45413250000001
 21
401.88415500000002
  0
LINE
  8
_0-0_0
  6
CONTINUOUS
 62
    7
 10
334.45413250000001
 20
401.88415500000002
 11
334.43405150000001
 21
401.656769
  0
LINE
  8
_0-0_0
  6
CONTINUOUS
 62
    7
 10
334.43405150000001
 20
401.656769
 11
334.42691050000002
 21
401.54302999999999
  0
LINE
  8
_0-0_0
  6
CONTINUOUS
 62
    7
 10
334.42691050000002
 20
401.54302999999999
 11
334.42175249999997
 21
401.42935199999999
  0
LINE
  8
_0-0_0
  6
CONTINUOUS
 62
    7
 10
334.42175249999997
 20
401.42935199999999
 11
334.41806050000002
 21
401.27792399999998
  0
LINE
  8
_0-0_0
  6
CONTINUOUS
 62
    7
 10
334.41806050000002
 20
401.27792399999998
 11
334.41799950000001
 21
401.12667800000003
  0
LINE
  8
_0-0_0
  6
CONTINUOUS
 62
    7
 10
334.41799950000001
 20
401.12667800000003
 11
334.42153949999999
 21
400.975616
  0
LINE
  8
_0-0_0
  6
CONTINUOUS
 62
    7
 10
334.42153949999999
 20
400.975616
 11
334.4310605
 21
400.78707900000001
  0
LINE
  8
_0-0_0
  6
CONTINUOUS
 62
    7
 10
334.4310605
 20
400.78707900000001
 11
334.44595349999997
 21
400.598816
  0
LINE
  8
_0-0_0
  6
CONTINUOUS
 62
    7
 10
334.44595349999997
 20
400.598816
 11
334.46585049999999
 21
400.410889
  0
LINE
  8
_0-0_0
  6
CONTINUOUS
 62
    7
 10
334.46585049999999
 20
400.410889
 11
334.48223849999999
 21
400.28201300000001
  0
LINE
  8
_0-0_0
  6
CONTINUOUS
 62
    7
 10
334.48223849999999
 20
400.28201300000001
 11
334.50064049999997
 21
400.15335099999999
  0
LINE
  8
_0-0_0
  6
CONTINUOUS
 62
    7
 10
334.50064049999997
 20
400.15335099999999
 11
334.5248105
 21
400.00140399999998
  0
LINE
  8
_0-0_0
  6
CONTINUOUS
 62
    7
 10
334.5248105
 20
400.00140399999998
 11
334.55120849999997
 21
399.85006700000002
  0
LINE
  8
_0-0_0
  6
CONTINUOUS
 62
    7
 10
334.55120849999997
 20
399.85006700000002
 11
334.60739150000001
 21
399.55944799999997
  0
LINE
  8
_0-0_0
  6
CONTINUOUS
 62
    7
 10
334.60739150000001
 20
399.55944799999997
 11
334.64755250000002
 21
399.36749300000002
  0
LINE
  8
_0-0_0
  6
CONTINUOUS
 62
    7
 10
334.64755250000002
 20
399.36749300000002
 11
334.73117050000002
 21
398.98800699999998
  0
LINE
  8
_0-0_0
  6
CONTINUOUS
 62
    7
 10
334.73117050000002
 20
403.41204800000003
 11
334.78997750000002
 21
403.65887500000002
  0
LINE
  8
_0-0_0
  6
CONTINUOUS
 62
    7
 10
334.78997750000002
 20
403.65887500000002
 11
334.83975249999997
 21
403.85119600000002
  0
LINE
  8
_0-0_0
  6
CONTINUOUS
 62
    7
 10
334.83975249999997
 20
403.85119600000002
 11
334.91085850000002
 21
404.11694299999999
  0
LINE
  8
_0-0_0
  6
CONTINUOUS
 62
    7
 10
334.91085850000002
 20
404.11694299999999
 11
334.94381750000002
 21
404.243652
  0
LINE
  8
_0-0_0
  6
CONTINUOUS
 62
    7
 10
334.94381750000002
 20
404.243652
 11
334.96908550000001
 21
404.34707600000002
  0
LINE
  8
_0-0_0
  6
CONTINUOUS
 62
    7
 10
334.96908550000001
 20
404.34707600000002
 11
334.99111949999997
 21
404.44705199999999
  0
LINE
  8
_0-0_0
  6
CONTINUOUS
 62
    7
 10
334.99111949999997
 20
404.44705199999999
 11
335.01248149999998
 21
404.56475799999998
  0
LINE
  8
_0-0_0
  6
CONTINUOUS
 62
    7
 10
335.01248149999998
 20
404.56475799999998
 11
335.02108750000002
 21
404.626892
  0
LINE
  8
_0-0_0
  6
CONTINUOUS
 62
    7
 10
335.02108750000002
 20
404.626892
 11
335.0271305
 21
404.6875
  0
LINE
  8
_0-0_0
  6
CONTINUOUS
 62
    7
 10
335.0271305
 20
404.6875
 11
335.03015149999999
 21
404.73672499999998
  0
LINE
  8
_0-0_0
  6
CONTINUOUS
 62
    7
 10
335.03015149999999
 20
404.73672499999998
 11
335.0311585
 21
404.784943
  0
LINE
  8
_0-0_0
  6
CONTINUOUS
 62
    7
 10
335.0311585
 20
408.55847199999999
 11
335.0311585
 21
405.20770299999998
  0
ARC
  8
_0-0_0
  6
CONTINUOUS
 62
    7
 10
333.0311585
 20
408.55847199999999
 40
2
 50
0
 51
71.565000999999995
  0
CIRCLE
  8
_0-0_0
  6
CONTINUOUS
 62
    7
 10
241.03117349999999
 20
406.5
 40
2.5
  0
CIRCLE
  8
_0-0_0
  6
CONTINUOUS
 62
    7
 10
297.03117350000002
 20
406.5
 40
2.5
  0
LINE
  8
_0-0_0
  6
CONTINUOUS
 62
    7
 10
220.43118250000001
 20
410.45886200000001
 11
220.43118250000001
 21
407.5
  0
LINE
  8
_0-0_0
  6
CONTINUOUS
 62
    7
 10
220.43118250000001
 20
411.5
 11
220.43118250000001
 21
410.45886200000001
  0
LINE
  8
_0-0_0
  6
CONTINUOUS
 62
    7
 10
350.0311585
 20
391.67456099999998
 11
350.0311585
 21
391.82128899999998
  0
LINE
  8
_0-0_0
  6
CONTINUOUS
 62
    7
 10
350.0311585
 20
391.484039
 11
350.0311585
 21
391.67456099999998
  0
LINE
  8
_0-0_0
  6
CONTINUOUS
 62
    7
 10
350.0311585
 20
391.30902099999997
 11
350.0311585
 21
391.484039
  0
LINE
  8
_0-0_0
  6
CONTINUOUS
 62
    7
 10
350.0311585
 20
391.15142800000001
 11
350.0311585
 21
391.30902099999997
  0
LINE
  8
_0-0_0
  6
CONTINUOUS
 62
    7
 10
350.0311585
 20
391.01299999999998
 11
350.0311585
 21
391.15142800000001
  0
LINE
  8
_0-0_0
  6
CONTINUOUS
 62
    7
 10
350.0311585
 20
390.89523300000002
 11
350.0311585
 21
391.01299999999998
  0
LINE
  8
_0-0_0
  6
CONTINUOUS
 62
    7
 10
350.0311585
 20
390.79943800000001
 11
350.0311585
 21
390.89523300000002
  0
LINE
  8
_0-0_0
  6
CONTINUOUS
 62
    7
 10
350.0311585
 20
390.72668499999997
 11
350.0311585
 21
390.79943800000001
  0
LINE
  8
_0-0_0
  6
CONTINUOUS
 62
    7
 10
350.0311585
 20
390.67770400000001
 11
350.0311585
 21
390.72668499999997
  0
LINE
  8
_0-0_0
  6
CONTINUOUS
 62
    7
 10
350.0311585
 20
390.653076
 11
350.0311585
 21
390.67770400000001
  0
LINE
  8
_0-0_0
  6
CONTINUOUS
 62
    7
 10
350.0311585
 20
390.65002399999997
 11
350.0311585
 21
390.653076
  0
LINE
  8
_0-0_0
  6
CONTINUOUS
 62
    7
 10
350.0311585
 20
395.14691199999999
 11
350.0311585
 21
395.15002399999997
  0
LINE
  8
_0-0_0
  6
CONTINUOUS
 62
    7
 10
350.0311585
 20
395.12231400000002
 11
350.0311585
 21
395.14691199999999
  0
LINE
  8
_0-0_0
  6
CONTINUOUS
 62
    7
 10
350.0311585
 20
395.07333399999999
 11
350.0311585
 21
395.15002399999997
  0
LINE
  8
_0-0_0
  6
CONTINUOUS
 62
    7
 10
350.0311585
 20
395.00054899999998
 11
350.0311585
 21
395.07333399999999
  0
LINE
  8
_0-0_0
  6
CONTINUOUS
 62
    7
 10
350.0311585
 20
394.904785
 11
350.0311585
 21
395.00054899999998
  0
LINE
  8
_0-0_0
  6
CONTINUOUS
 62
    7
 10
350.0311585
 20
394.874573
 11
350.0311585
 21
394.904785
  0
LINE
  8
_0-0_0
  6
CONTINUOUS
 62
    7
 10
350.0311585
 20
394.78701799999999
 11
350.0311585
 21
394.874573
  0
LINE
  8
_0-0_0
  6
CONTINUOUS
 62
    7
 10
350.0311585
 20
394.64859000000001
 11
350.0311585
 21
394.78701799999999
  0
LINE
  8
_0-0_0
  6
CONTINUOUS
 62
    7
 10
350.0311585
 20
394.49099699999999
 11
350.0311585
 21
394.64859000000001
  0
LINE
  8
_0-0_0
  6
CONTINUOUS
 62
    7
 10
350.0311585
 20
394.31597900000003
 11
350.0311585
 21
394.49099699999999
  0
LINE
  8
_0-0_0
  6
CONTINUOUS
 62
    7
 10
350.0311585
 20
394.125427
 11
350.0311585
 21
394.31597900000003
  0
LINE
  8
_0-0_0
  6
CONTINUOUS
 62
    7
 10
350.0311585
 20
393.92147799999998
 11
350.0311585
 21
394.125427
  0
LINE
  8
_0-0_0
  6
CONTINUOUS
 62
    7
 10
350.0311585
 20
393.70632899999998
 11
350.0311585
 21
393.92147799999998
  0
LINE
  8
_0-0_0
  6
CONTINUOUS
 62
    7
 10
350.0311585
 20
393.48236100000003
 11
350.0311585
 21
393.70632899999998
  0
LINE
  8
_0-0_0
  6
CONTINUOUS
 62
    7
 10
350.0311585
 20
393.25198399999999
 11
350.0311585
 21
393.48236100000003
  0
LINE
  8
_0-0_0
  6
CONTINUOUS
 62
    7
 10
350.0311585
 20
393.01776100000001
 11
350.0311585
 21
393.25198399999999
  0
LINE
  8
_0-0_0
  6
CONTINUOUS
 62
    7
 10
350.0311585
 20
392.78225700000002
 11
350.0311585
 21
393.01776100000001
  0
LINE
  8
_0-0_0
  6
CONTINUOUS
 62
    7
 10
350.0311585
 20
392.54803500000003
 11
350.0311585
 21
392.78225700000002
  0
LINE
  8
_0-0_0
  6
CONTINUOUS
 62
    7
 10
350.0311585
 20
392.317657
 11
350.0311585
 21
392.54803500000003
  0
LINE
  8
_0-0_0
  6
CONTINUOUS
 62
    7
 10
350.0311585
 20
392.09368899999998
 11
350.0311585
 21
392.317657
  0
LINE
  8
_0-0_0
  6
CONTINUOUS
 62
    7
 10
350.0311585
 20
391.87853999999999
 11
350.0311585
 21
392.09368899999998
  0
LINE
  8
_0-0_0
  6
CONTINUOUS
 62
    7
 10
350.0311585
 20
391.82128899999998
 11
350.0311585
 21
391.87853999999999
  0
LINE
  8
_0-0_0
  6
CONTINUOUS
 62
    7
 10
335.0311585
 20
399.63797
 11
335.0311585
 21
398.59231599999998
  0
LINE
  8
_0-0_0
  6
CONTINUOUS
 62
    7
 10
335.0311585
 20
397.30770899999999
 11
335.0311585
 21
398.59231599999998
  0
LINE
  8
_0-0_0
  6
CONTINUOUS
 62
    7
 10
335.0311585
 20
397.19232199999999
 11
335.0311585
 21
397.30770899999999
  0
LINE
  8
_0-0_0
  6
CONTINUOUS
 62
    7
 10
335.0311585
 20
399.63797
 11
335.0311585
 21
402.76205399999998
  0
LINE
  8
_0-0_0
  6
CONTINUOUS
 62
    7
 10
335.0311585
 20
405.20770299999998
 11
335.0311585
 21
405.09231599999998
  0
LINE
  8
_0-0_0
  6
CONTINUOUS
 62
    7
 10
335.0311585
 20
403.80770899999999
 11
335.0311585
 21
405.09231599999998
  0
LINE
  8
_0-0_0
  6
CONTINUOUS
 62
    7
 10
335.0311585
 20
403.80770899999999
 11
335.0311585
 21
402.76205399999998
  0
LINE
  8
_0-0_0
  6
CONTINUOUS
 62
    7
 10
335.0311585
 20
405.09231599999998
 11
344.73898350000002
 21
405.09231599999998
  0
LINE
  8
_0-0_0
  6
CONTINUOUS
 62
    7
 10
344.73898350000002
 20
407.70001200000002
 11
344.79348749999997
 21
407.630066
  0
LINE
  8
_0-0_0
  6
CONTINUOUS
 62
    7
 10
344.79348749999997
 20
407.630066
 11
344.84457350000002
 21
407.56124899999998
  0
LINE
  8
_0-0_0
  6
CONTINUOUS
 62
    7
 10
344.84457350000002
 20
407.56124899999998
 11
344.89224250000001
 21
407.49374399999999
  0
LINE
  8
_0-0_0
  6
CONTINUOUS
 62
    7
 10
344.89224250000001
 20
407.49374399999999
 11
344.93673749999999
 21
407.42718500000001
  0
LINE
  8
_0-0_0
  6
CONTINUOUS
 62
    7
 10
344.93673749999999
 20
407.42718500000001
 11
344.99142449999999
 21
407.33966099999998
  0
LINE
  8
_0-0_0
  6
CONTINUOUS
 62
    7
 10
344.99142449999999
 20
407.33966099999998
 11
345.0409545
 21
407.25353999999999
  0
LINE
  8
_0-0_0
  6
CONTINUOUS
 62
    7
 10
345.0409545
 20
407.25353999999999
 11
345.0854185
 21
407.168701
  0
LINE
  8
_0-0_0
  6
CONTINUOUS
 62
    7
 10
345.0854185
 20
407.168701
 11
345.1323855
 21
407.06839000000002
  0
LINE
  8
_0-0_0
  6
CONTINUOUS
 62
    7
 10
345.1323855
 20
407.06839000000002
 11
345.17257649999999
 21
406.96948200000003
  0
LINE
  8
_0-0_0
  6
CONTINUOUS
 62
    7
 10
345.17257649999999
 20
406.96948200000003
 11
345.20626850000002
 21
406.87170400000002
  0
LINE
  8
_0-0_0
  6
CONTINUOUS
 62
    7
 10
345.20626850000002
 20
406.87170400000002
 11
345.23355049999998
 21
406.774902
  0
LINE
  8
_0-0_0
  6
CONTINUOUS
 62
    7
 10
345.23355049999998
 20
406.774902
 11
345.25460850000002
 21
406.67886399999998
  0
LINE
  8
_0-0_0
  6
CONTINUOUS
 62
    7
 10
345.25460850000002
 20
406.67886399999998
 11
345.27053849999999
 21
406.57501200000002
  0
LINE
  8
_0-0_0
  6
CONTINUOUS
 62
    7
 10
345.27053849999999
 20
406.57501200000002
 11
345.27926650000001
 21
406.471588
  0
LINE
  8
_0-0_0
  6
CONTINUOUS
 62
    7
 10
345.27926650000001
 20
406.471588
 11
345.28091449999999
 21
406.36834700000003
  0
LINE
  8
_0-0_0
  6
CONTINUOUS
 62
    7
 10
345.28091449999999
 20
406.36834700000003
 11
345.27545149999997
 21
406.26504499999999
  0
LINE
  8
_0-0_0
  6
CONTINUOUS
 62
    7
 10
345.27545149999997
 20
406.26504499999999
 11
345.26284750000002
 21
406.16146900000001
  0
LINE
  8
_0-0_0
  6
CONTINUOUS
 62
    7
 10
345.26284750000002
 20
406.16146900000001
 11
345.24301150000002
 21
406.05731200000002
  0
LINE
  8
_0-0_0
  6
CONTINUOUS
 62
    7
 10
345.24301150000002
 20
406.05731200000002
 11
345.21588150000002
 21
405.95236199999999
  0
LINE
  8
_0-0_0
  6
CONTINUOUS
 62
    7
 10
345.21588150000002
 20
405.95236199999999
 11
345.18124349999999
 21
405.84631300000001
  0
LINE
  8
_0-0_0
  6
CONTINUOUS
 62
    7
 10
345.18124349999999
 20
405.84631300000001
 11
345.13888550000001
 21
405.73895299999998
  0
LINE
  8
_0-0_0
  6
CONTINUOUS
 62
    7
 10
345.13888550000001
 20
405.73895299999998
 11
345.08856149999997
 21
405.62994400000002
  0
LINE
  8
_0-0_0
  6
CONTINUOUS
 62
    7
 10
345.08856149999997
 20
405.62994400000002
 11
345.0343325
 21
405.526794
  0
LINE
  8
_0-0_0
  6
CONTINUOUS
 62
    7
 10
345.0343325
 20
405.526794
 11
344.97262549999999
 21
405.42175300000002
  0
LINE
  8
_0-0_0
  6
CONTINUOUS
 62
    7
 10
344.97262549999999
 20
405.42175300000002
 11
344.90310649999998
 21
405.31451399999997
  0
LINE
  8
_0-0_0
  6
CONTINUOUS
 62
    7
 10
344.90310649999998
 20
405.31451399999997
 11
344.8253785
 21
405.20480300000003
  0
LINE
  8
_0-0_0
  6
CONTINUOUS
 62
    7
 10
344.8253785
 20
405.20480300000003
 11
344.73898350000002
 21
405.09231599999998
  0
LINE
  8
_0-0_0
  6
CONTINUOUS
 62
    7
 10
335.0311585
 20
407.70001200000002
 11
344.73898350000002
 21
407.70001200000002
  0
LINE
  8
_0-0_0
  6
CONTINUOUS
 62
    7
 10
344.7811585
 20
407.70001200000002
 11
344.73898350000002
 21
407.70001200000002
  0
LINE
  8
_0-0_0
  6
CONTINUOUS
 62
    7
 10
335.0311585
 20
397.30770899999999
 11
344.73898350000002
 21
397.30770899999999
  0
LINE
  8
_0-0_0
  6
CONTINUOUS
 62
    7
 10
344.73898350000002
 20
397.30770899999999
 11
344.79348749999997
 21
397.23776199999998
  0
LINE
  8
_0-0_0
  6
CONTINUOUS
 62
    7
 10
344.79348749999997
 20
397.23776199999998
 11
344.84457350000002
 21
397.16894500000001
  0
LINE
  8
_0-0_0
  6
CONTINUOUS
 62
    7
 10
344.84457350000002
 20
397.16894500000001
 11
344.89224250000001
 21
397.10144000000003
  0
LINE
  8
_0-0_0
  6
CONTINUOUS
 62
    7
 10
344.89224250000001
 20
397.10144000000003
 11
344.93673749999999
 21
397.03488199999998
  0
LINE
  8
_0-0_0
  6
CONTINUOUS
 62
    7
 10
344.93673749999999
 20
397.03488199999998
 11
344.99142449999999
 21
396.94735700000001
  0
LINE
  8
_0-0_0
  6
CONTINUOUS
 62
    7
 10
344.99142449999999
 20
396.94735700000001
 11
345.0409545
 21
396.86123700000002
  0
LINE
  8
_0-0_0
  6
CONTINUOUS
 62
    7
 10
345.0409545
 20
396.86123700000002
 11
345.0854185
 21
396.77642800000001
  0
LINE
  8
_0-0_0
  6
CONTINUOUS
 62
    7
 10
345.0854185
 20
396.77642800000001
 11
345.1323855
 21
396.676086
  0
LINE
  8
_0-0_0
  6
CONTINUOUS
 62
    7
 10
345.1323855
 20
396.676086
 11
345.17257649999999
 21
396.577179
  0
LINE
  8
_0-0_0
  6
CONTINUOUS
 62
    7
 10
345.17257649999999
 20
396.577179
 11
345.20626850000002
 21
396.479401
  0
LINE
  8
_0-0_0
  6
CONTINUOUS
 62
    7
 10
345.20626850000002
 20
396.479401
 11
345.23355049999998
 21
396.38259900000003
  0
LINE
  8
_0-0_0
  6
CONTINUOUS
 62
    7
 10
345.23355049999998
 20
396.38259900000003
 11
345.25460850000002
 21
396.28656000000001
  0
LINE
  8
_0-0_0
  6
CONTINUOUS
 62
    7
 10
345.25460850000002
 20
396.28656000000001
 11
345.27053849999999
 21
396.18270899999999
  0
LINE
  8
_0-0_0
  6
CONTINUOUS
 62
    7
 10
345.27053849999999
 20
396.18270899999999
 11
345.27926650000001
 21
396.07928500000003
  0
LINE
  8
_0-0_0
  6
CONTINUOUS
 62
    7
 10
345.27926650000001
 20
396.07928500000003
 11
345.28091449999999
 21
395.976044
  0
LINE
  8
_0-0_0
  6
CONTINUOUS
 62
    7
 10
345.28091449999999
 20
395.976044
 11
345.27545149999997
 21
395.87274200000002
  0
LINE
  8
_0-0_0
  6
CONTINUOUS
 62
    7
 10
345.27545149999997
 20
395.87274200000002
 11
345.26284750000002
 21
395.76916499999999
  0
LINE
  8
_0-0_0
  6
CONTINUOUS
 62
    7
 10
345.26284750000002
 20
395.76916499999999
 11
345.24301150000002
 21
395.665009
  0
LINE
  8
_0-0_0
  6
CONTINUOUS
 62
    7
 10
345.24301150000002
 20
395.665009
 11
345.21588150000002
 21
395.56005900000002
  0
LINE
  8
_0-0_0
  6
CONTINUOUS
 62
    7
 10
345.21588150000002
 20
395.56005900000002
 11
345.18124349999999
 21
395.45400999999998
  0
LINE
  8
_0-0_0
  6
CONTINUOUS
 62
    7
 10
345.18124349999999
 20
395.45400999999998
 11
345.13888550000001
 21
395.34661899999998
  0
LINE
  8
_0-0_0
  6
CONTINUOUS
 62
    7
 10
345.13888550000001
 20
395.34661899999998
 11
345.08856149999997
 21
395.23764
  0
LINE
  8
_0-0_0
  6
CONTINUOUS
 62
    7
 10
345.08856149999997
 20
395.23764
 11
345.04287749999997
 21
395.14996300000001
  0
LINE
  8
_0-0_0
  6
CONTINUOUS
 62
    7
 10
350.0311585
 20
391.67456099999998
 11
350.2811585
 21
391.65002399999997
  0
LINE
  8
_0-0_0
  6
CONTINUOUS
 62
    7
 10
350.0311585
 20
391.87853999999999
 11
350.2811585
 21
391.65002399999997
  0
LINE
  8
_0-0_0
  6
CONTINUOUS
 62
    7
 10
350.0311585
 20
391.484039
 11
350.2811585
 21
391.430542
  0
LINE
  8
_0-0_0
  6
CONTINUOUS
 62
    7
 10
350.0311585
 20
391.67456099999998
 11
350.2811585
 21
391.430542
  0
LINE
  8
_0-0_0
  6
CONTINUOUS
 62
    7
 10
350.0311585
 20
391.30902099999997
 11
350.2811585
 21
391.22717299999999
  0
LINE
  8
_0-0_0
  6
CONTINUOUS
 62
    7
 10
350.0311585
 20
391.484039
 11
350.2811585
 21
391.22717299999999
  0
LINE
  8
_0-0_0
  6
CONTINUOUS
 62
    7
 10
350.0311585
 20
391.15142800000001
 11
350.2811585
 21
391.042145
  0
LINE
  8
_0-0_0
  6
CONTINUOUS
 62
    7
 10
350.0311585
 20
391.30902099999997
 11
350.2811585
 21
391.042145
  0
LINE
  8
_0-0_0
  6
CONTINUOUS
 62
    7
 10
350.0311585
 20
391.01299999999998
 11
350.2811585
 21
390.87747200000001
  0
LINE
  8
_0-0_0
  6
CONTINUOUS
 62
    7
 10
350.0311585
 20
391.15142800000001
 11
350.2811585
 21
390.87747200000001
  0
LINE
  8
_0-0_0
  6
CONTINUOUS
 62
    7
 10
350.0311585
 20
390.89523300000002
 11
350.2811585
 21
390.73495500000001
  0
LINE
  8
_0-0_0
  6
CONTINUOUS
 62
    7
 10
350.0311585
 20
391.01299999999998
 11
350.2811585
 21
390.73495500000001
  0
LINE
  8
_0-0_0
  6
CONTINUOUS
 62
    7
 10
350.0311585
 20
390.79943800000001
 11
350.2811585
 21
390.61615
  0
LINE
  8
_0-0_0
  6
CONTINUOUS
 62
    7
 10
350.0311585
 20
390.89523300000002
 11
350.2811585
 21
390.61615
  0
LINE
  8
_0-0_0
  6
CONTINUOUS
 62
    7
 10
350.0311585
 20
390.72668499999997
 11
350.2811585
 21
390.52236900000003
  0
LINE
  8
_0-0_0
  6
CONTINUOUS
 62
    7
 10
350.0311585
 20
390.79943800000001
 11
350.2811585
 21
390.52236900000003
  0
LINE
  8
_0-0_0
  6
CONTINUOUS
 62
    7
 10
350.0311585
 20
390.67770400000001
 11
350.2811585
 21
390.45465100000001
  0
LINE
  8
_0-0_0
  6
CONTINUOUS
 62
    7
 10
350.0311585
 20
390.72668499999997
 11
350.2811585
 21
390.45465100000001
  0
LINE
  8
_0-0_0
  6
CONTINUOUS
 62
    7
 10
350.0311585
 20
390.653076
 11
350.2811585
 21
390.41369600000002
  0
LINE
  8
_0-0_0
  6
CONTINUOUS
 62
    7
 10
350.0311585
 20
390.67770400000001
 11
350.2811585
 21
390.41369600000002
  0
LINE
  8
_0-0_0
  6
CONTINUOUS
 62
    7
 10
350.0311585
 20
390.653076
 11
350.2811585
 21
390.40002399999997
  0
LINE
  8
_0-0_0
  6
CONTINUOUS
 62
    7
 10
350.0311585
 20
395.14691199999999
 11
350.2811585
 21
395.40002399999997
  0
LINE
  8
_0-0_0
  6
CONTINUOUS
 62
    7
 10
350.0311585
 20
395.12231400000002
 11
350.2811585
 21
395.38632200000001
  0
LINE
  8
_0-0_0
  6
CONTINUOUS
 62
    7
 10
350.0311585
 20
395.14691199999999
 11
350.2811585
 21
395.38632200000001
  0
LINE
  8
_0-0_0
  6
CONTINUOUS
 62
    7
 10
350.0311585
 20
395.07333399999999
 11
350.2811585
 21
395.34536700000001
  0
LINE
  8
_0-0_0
  6
CONTINUOUS
 62
    7
 10
350.0311585
 20
395.12231400000002
 11
350.2811585
 21
395.34536700000001
  0
LINE
  8
_0-0_0
  6
CONTINUOUS
 62
    7
 10
350.0311585
 20
395.00054899999998
 11
350.2811585
 21
395.277649
  0
LINE
  8
_0-0_0
  6
CONTINUOUS
 62
    7
 10
350.0311585
 20
395.07333399999999
 11
350.2811585
 21
395.277649
  0
LINE
  8
_0-0_0
  6
CONTINUOUS
 62
    7
 10
350.0311585
 20
394.904785
 11
350.2811585
 21
395.18386800000002
  0
LINE
  8
_0-0_0
  6
CONTINUOUS
 62
    7
 10
350.0311585
 20
395.00054899999998
 11
350.2811585
 21
395.18386800000002
  0
LINE
  8
_0-0_0
  6
CONTINUOUS
 62
    7
 10
350.0311585
 20
394.904785
 11
350.16116349999999
 21
394.98861699999998
  0
LINE
  8
_0-0_0
  6
CONTINUOUS
 62
    7
 10
350.0311585
 20
394.78701799999999
 11
350.2811585
 21
395.06506300000001
  0
LINE
  8
_0-0_0
  6
CONTINUOUS
 62
    7
 10
350.16116349999999
 20
394.98861699999998
 11
350.2811585
 21
395.06506300000001
  0
LINE
  8
_0-0_0
  6
CONTINUOUS
 62
    7
 10
350.0311585
 20
394.64859000000001
 11
350.2811585
 21
394.92254600000001
  0
LINE
  8
_0-0_0
  6
CONTINUOUS
 62
    7
 10
350.0311585
 20
394.78701799999999
 11
350.2811585
 21
394.92254600000001
  0
LINE
  8
_0-0_0
  6
CONTINUOUS
 62
    7
 10
350.0311585
 20
394.49099699999999
 11
350.2811585
 21
394.75787400000002
  0
LINE
  8
_0-0_0
  6
CONTINUOUS
 62
    7
 10
350.0311585
 20
394.64859000000001
 11
350.2811585
 21
394.75787400000002
  0
LINE
  8
_0-0_0
  6
CONTINUOUS
 62
    7
 10
350.0311585
 20
394.31597900000003
 11
350.2811585
 21
394.57284499999997
  0
LINE
  8
_0-0_0
  6
CONTINUOUS
 62
    7
 10
350.0311585
 20
394.49099699999999
 11
350.2811585
 21
394.57284499999997
  0
LINE
  8
_0-0_0
  6
CONTINUOUS
 62
    7
 10
350.0311585
 20
394.125427
 11
350.2811585
 21
394.36947600000002
  0
LINE
  8
_0-0_0
  6
CONTINUOUS
 62
    7
 10
350.0311585
 20
394.31597900000003
 11
350.2811585
 21
394.36947600000002
  0
LINE
  8
_0-0_0
  6
CONTINUOUS
 62
    7
 10
350.0311585
 20
393.92147799999998
 11
350.2811585
 21
394.15002399999997
  0
LINE
  8
_0-0_0
  6
CONTINUOUS
 62
    7
 10
350.0311585
 20
394.125427
 11
350.2811585
 21
394.15002399999997
  0
LINE
  8
_0-0_0
  6
CONTINUOUS
 62
    7
 10
350.0311585
 20
393.70632899999998
 11
350.2811585
 21
393.91683999999998
  0
LINE
  8
_0-0_0
  6
CONTINUOUS
 62
    7
 10
350.0311585
 20
393.92147799999998
 11
350.2811585
 21
393.91683999999998
  0
LINE
  8
_0-0_0
  6
CONTINUOUS
 62
    7
 10
350.0311585
 20
393.48236100000003
 11
350.2811585
 21
393.67254600000001
  0
LINE
  8
_0-0_0
  6
CONTINUOUS
 62
    7
 10
350.0311585
 20
393.70632899999998
 11
350.2811585
 21
393.67254600000001
  0
LINE
  8
_0-0_0
  6
CONTINUOUS
 62
    7
 10
350.0311585
 20
393.25198399999999
 11
350.2811585
 21
393.41980000000001
  0
LINE
  8
_0-0_0
  6
CONTINUOUS
 62
    7
 10
350.0311585
 20
393.48236100000003
 11
350.2811585
 21
393.41980000000001
  0
LINE
  8
_0-0_0
  6
CONTINUOUS
 62
    7
 10
350.0311585
 20
393.01776100000001
 11
350.2811585
 21
393.161316
  0
LINE
  8
_0-0_0
  6
CONTINUOUS
 62
    7
 10
350.0311585
 20
393.25198399999999
 11
350.2811585
 21
393.161316
  0
LINE
  8
_0-0_0
  6
CONTINUOUS
 62
    7
 10
350.0311585
 20
392.78225700000002
 11
350.2811585
 21
392.90002399999997
  0
LINE
  8
_0-0_0
  6
CONTINUOUS
 62
    7
 10
350.0311585
 20
393.01776100000001
 11
350.2811585
 21
392.90002399999997
  0
LINE
  8
_0-0_0
  6
CONTINUOUS
 62
    7
 10
350.0311585
 20
392.54803500000003
 11
350.2811585
 21
392.63867199999999
  0
LINE
  8
_0-0_0
  6
CONTINUOUS
 62
    7
 10
350.0311585
 20
392.78225700000002
 11
350.2811585
 21
392.63867199999999
  0
LINE
  8
_0-0_0
  6
CONTINUOUS
 62
    7
 10
350.0311585
 20
392.317657
 11
350.2811585
 21
392.38021900000001
  0
LINE
  8
_0-0_0
  6
CONTINUOUS
 62
    7
 10
350.0311585
 20
392.54803500000003
 11
350.2811585
 21
392.38021900000001
  0
LINE
  8
_0-0_0
  6
CONTINUOUS
 62
    7
 10
350.0311585
 20
392.09368899999998
 11
350.2811585
 21
392.12747200000001
  0
LINE
  8
_0-0_0
  6
CONTINUOUS
 62
    7
 10
350.0311585
 20
392.317657
 11
350.2811585
 21
392.12747200000001
  0
LINE
  8
_0-0_0
  6
CONTINUOUS
 62
    7
 10
350.0311585
 20
391.87853999999999
 11
350.2811585
 21
391.88317899999998
  0
LINE
  8
_0-0_0
  6
CONTINUOUS
 62
    7
 10
350.0311585
 20
392.09368899999998
 11
350.2811585
 21
391.88317899999998
  0
LINE
  8
_0-0_0
  6
CONTINUOUS
 62
    7
 10
335.0311585
 20
398.59231599999998
 11
344.73898350000002
 21
398.59231599999998
  0
LINE
  8
_0-0_0
  6
CONTINUOUS
 62
    7
 10
344.73898350000002
 20
398.59231599999998
 11
344.83334350000001
 21
398.83892800000001
  0
LINE
  8
_0-0_0
  6
CONTINUOUS
 62
    7
 10
344.83334350000001
 20
398.83892800000001
 11
344.91726649999998
 21
399.07891799999999
  0
LINE
  8
_0-0_0
  6
CONTINUOUS
 62
    7
 10
344.91726649999998
 20
399.07891799999999
 11
344.99142449999999
 21
399.313019
  0
LINE
  8
_0-0_0
  6
CONTINUOUS
 62
    7
 10
344.99142449999999
 20
399.313019
 11
345.05630450000001
 21
399.54205300000001
  0
LINE
  8
_0-0_0
  6
CONTINUOUS
 62
    7
 10
345.05630450000001
 20
399.54205300000001
 11
345.11236550000001
 21
399.76672400000001
  0
LINE
  8
_0-0_0
  6
CONTINUOUS
 62
    7
 10
345.11236550000001
 20
399.76672400000001
 11
345.1599425
 21
399.98770100000002
  0
LINE
  8
_0-0_0
  6
CONTINUOUS
 62
    7
 10
345.1599425
 20
399.98770100000002
 11
345.19931050000002
 21
400.20562699999999
  0
LINE
  8
_0-0_0
  6
CONTINUOUS
 62
    7
 10
345.19931050000002
 20
400.20562699999999
 11
345.23080449999998
 21
400.42108200000001
  0
LINE
  8
_0-0_0
  6
CONTINUOUS
 62
    7
 10
345.23080449999998
 20
400.42108200000001
 11
345.25460850000002
 21
400.634613
  0
LINE
  8
_0-0_0
  6
CONTINUOUS
 62
    7
 10
345.25460850000002
 20
400.634613
 11
345.27053849999999
 21
400.84231599999998
  0
LINE
  8
_0-0_0
  6
CONTINUOUS
 62
    7
 10
345.27053849999999
 20
400.84231599999998
 11
345.27926650000001
 21
401.04916400000002
  0
LINE
  8
_0-0_0
  6
CONTINUOUS
 62
    7
 10
345.27926650000001
 20
401.04916400000002
 11
345.28091449999999
 21
401.25564600000001
  0
LINE
  8
_0-0_0
  6
CONTINUOUS
 62
    7
 10
345.28091449999999
 20
401.25564600000001
 11
345.27545149999997
 21
401.462219
  0
LINE
  8
_0-0_0
  6
CONTINUOUS
 62
    7
 10
345.27545149999997
 20
401.462219
 11
345.26284750000002
 21
401.66940299999999
  0
LINE
  8
_0-0_0
  6
CONTINUOUS
 62
    7
 10
345.26284750000002
 20
401.66940299999999
 11
345.24301150000002
 21
401.87771600000002
  0
LINE
  8
_0-0_0
  6
CONTINUOUS
 62
    7
 10
345.24301150000002
 20
401.87771600000002
 11
345.21588150000002
 21
402.08761600000003
  0
LINE
  8
_0-0_0
  6
CONTINUOUS
 62
    7
 10
345.21588150000002
 20
402.08761600000003
 11
345.18124349999999
 21
402.29968300000002
  0
LINE
  8
_0-0_0
  6
CONTINUOUS
 62
    7
 10
345.18124349999999
 20
402.29968300000002
 11
345.13888550000001
 21
402.51443499999999
  0
LINE
  8
_0-0_0
  6
CONTINUOUS
 62
    7
 10
345.13888550000001
 20
402.51443499999999
 11
345.08856149999997
 21
402.73245200000002
  0
LINE
  8
_0-0_0
  6
CONTINUOUS
 62
    7
 10
345.08856149999997
 20
402.73245200000002
 11
345.0343325
 21
402.93872099999999
  0
LINE
  8
_0-0_0
  6
CONTINUOUS
 62
    7
 10
345.0343325
 20
402.93872099999999
 11
344.97262549999999
 21
403.14883400000002
  0
LINE
  8
_0-0_0
  6
CONTINUOUS
 62
    7
 10
344.97262549999999
 20
403.14883400000002
 11
344.90310649999998
 21
403.36331200000001
  0
LINE
  8
_0-0_0
  6
CONTINUOUS
 62
    7
 10
344.90310649999998
 20
403.36331200000001
 11
344.8253785
 21
403.58273300000002
  0
LINE
  8
_0-0_0
  6
CONTINUOUS
 62
    7
 10
344.8253785
 20
403.58273300000002
 11
344.73898350000002
 21
403.80770899999999
  0
LINE
  8
_0-0_0
  6
CONTINUOUS
 62
    7
 10
335.0311585
 20
403.80770899999999
 11
344.73898350000002
 21
403.80770899999999
  0
ARC
  8
_0-0_0
  6
CONTINUOUS
 62
    7
 10
339.86746249999999
 20
397.95001200000002
 40
4.9136889999999998
 50
352.48898799999995
 51
7.5110139999999577
  0
ARC
  8
_0-0_0
  6
CONTINUOUS
 62
    7
 10
339.85726949999997
 20
404.450897
 40
4.9238749999999998
 50
352.49423299999995
 51
1.5359699999999901
  0
ARC
  8
_0-0_0
  6
CONTINUOUS
 62
    7
 10
339.81924449999997
 20
404.44595299999997
 40
4.9620009999999999
 50
1.5813010000000001
 51
7.4847919999999997
  0
LINE
  8
_0-0_0
  6
CONTINUOUS
 62
    7
 10
346.0311585
 20
403.93154900000002
 11
346.0311585
 21
406.45001200000002
  0
LINE
  8
_0-0_0
  6
CONTINUOUS
 62
    7
 10
346.0311585
 20
395.95001200000002
 11
346.0311585
 21
403.93154900000002
  0
LINE
  8
_0-0_0
  6
CONTINUOUS
 62
    7
 10
359.7811585
 20
391.67456099999998
 11
359.5311585
 21
391.65002399999997
  0
LINE
  8
_0-0_0
  6
CONTINUOUS
 62
    7
 10
359.5311585
 20
391.65002399999997
 11
350.2811585
 21
391.65002399999997
  0
LINE
  8
_0-0_0
  6
CONTINUOUS
 62
    7
 10
359.7811585
 20
391.87853999999999
 11
359.5311585
 21
391.65002399999997
  0
LINE
  8
_0-0_0
  6
CONTINUOUS
 62
    7
 10
359.7811585
 20
391.87853999999999
 11
350.0311585
 21
391.87853999999999
  0
LINE
  8
_0-0_0
  6
CONTINUOUS
 62
    7
 10
359.7811585
 20
391.484039
 11
359.5311585
 21
391.430542
  0
LINE
  8
_0-0_0
  6
CONTINUOUS
 62
    7
 10
359.5311585
 20
391.430542
 11
350.2811585
 21
391.430542
  0
LINE
  8
_0-0_0
  6
CONTINUOUS
 62
    7
 10
359.7811585
 20
391.67456099999998
 11
359.5311585
 21
391.430542
  0
LINE
  8
_0-0_0
  6
CONTINUOUS
 62
    7
 10
359.7811585
 20
391.30902099999997
 11
359.5311585
 21
391.22717299999999
  0
LINE
  8
_0-0_0
  6
CONTINUOUS
 62
    7
 10
359.5311585
 20
391.22717299999999
 11
350.2811585
 21
391.22717299999999
  0
LINE
  8
_0-0_0
  6
CONTINUOUS
 62
    7
 10
359.7811585
 20
391.484039
 11
359.5311585
 21
391.22717299999999
  0
LINE
  8
_0-0_0
  6
CONTINUOUS
 62
    7
 10
359.7811585
 20
391.15142800000001
 11
359.5311585
 21
391.042145
  0
LINE
  8
_0-0_0
  6
CONTINUOUS
 62
    7
 10
359.5311585
 20
391.042145
 11
350.2811585
 21
391.042145
  0
LINE
  8
_0-0_0
  6
CONTINUOUS
 62
    7
 10
359.7811585
 20
391.30902099999997
 11
359.5311585
 21
391.042145
  0
LINE
  8
_0-0_0
  6
CONTINUOUS
 62
    7
 10
359.7811585
 20
391.01299999999998
 11
359.5311585
 21
390.87747200000001
  0
LINE
  8
_0-0_0
  6
CONTINUOUS
 62
    7
 10
359.5311585
 20
390.87747200000001
 11
350.2811585
 21
390.87747200000001
  0
LINE
  8
_0-0_0
  6
CONTINUOUS
 62
    7
 10
359.7811585
 20
391.15142800000001
 11
359.5311585
 21
390.87747200000001
  0
LINE
  8
_0-0_0
  6
CONTINUOUS
 62
    7
 10
359.7811585
 20
390.89523300000002
 11
359.5311585
 21
390.73495500000001
  0
LINE
  8
_0-0_0
  6
CONTINUOUS
 62
    7
 10
359.5311585
 20
390.73495500000001
 11
350.2811585
 21
390.73495500000001
  0
LINE
  8
_0-0_0
  6
CONTINUOUS
 62
    7
 10
359.7811585
 20
391.01299999999998
 11
359.5311585
 21
390.73495500000001
  0
LINE
  8
_0-0_0
  6
CONTINUOUS
 62
    7
 10
359.7811585
 20
390.79943800000001
 11
359.5311585
 21
390.61615
  0
LINE
  8
_0-0_0
  6
CONTINUOUS
 62
    7
 10
359.5311585
 20
390.61615
 11
350.2811585
 21
390.61615
  0
LINE
  8
_0-0_0
  6
CONTINUOUS
 62
    7
 10
359.7811585
 20
390.89523300000002
 11
359.5311585
 21
390.61615
  0
LINE
  8
_0-0_0
  6
CONTINUOUS
 62
    7
 10
359.7811585
 20
390.72668499999997
 11
359.5311585
 21
390.52236900000003
  0
LINE
  8
_0-0_0
  6
CONTINUOUS
 62
    7
 10
359.5311585
 20
390.52236900000003
 11
350.2811585
 21
390.52236900000003
  0
LINE
  8
_0-0_0
  6
CONTINUOUS
 62
    7
 10
359.7811585
 20
390.79943800000001
 11
359.5311585
 21
390.52236900000003
  0
LINE
  8
_0-0_0
  6
CONTINUOUS
 62
    7
 10
359.7811585
 20
390.67770400000001
 11
359.5311585
 21
390.45465100000001
  0
LINE
  8
_0-0_0
  6
CONTINUOUS
 62
    7
 10
359.5311585
 20
390.45465100000001
 11
350.2811585
 21
390.45465100000001
  0
LINE
  8
_0-0_0
  6
CONTINUOUS
 62
    7
 10
359.7811585
 20
390.72668499999997
 11
359.5311585
 21
390.45465100000001
  0
LINE
  8
_0-0_0
  6
CONTINUOUS
 62
    7
 10
359.7811585
 20
390.653076
 11
359.5311585
 21
390.41369600000002
  0
LINE
  8
_0-0_0
  6
CONTINUOUS
 62
    7
 10
359.5311585
 20
390.41369600000002
 11
350.2811585
 21
390.41369600000002
  0
LINE
  8
_0-0_0
  6
CONTINUOUS
 62
    7
 10
359.7811585
 20
390.67770400000001
 11
359.5311585
 21
390.41369600000002
  0
LINE
  8
_0-0_0
  6
CONTINUOUS
 62
    7
 10
359.5311585
 20
390.40002399999997
 11
350.2811585
 21
390.40002399999997
  0
LINE
  8
_0-0_0
  6
CONTINUOUS
 62
    7
 10
359.7811585
 20
390.653076
 11
359.5311585
 21
390.40002399999997
  0
LINE
  8
_0-0_0
  6
CONTINUOUS
 62
    7
 10
359.7811585
 20
395.14691199999999
 11
359.5311585
 21
395.40002399999997
  0
LINE
  8
_0-0_0
  6
CONTINUOUS
 62
    7
 10
359.5311585
 20
395.40002399999997
 11
350.2811585
 21
395.40002399999997
  0
LINE
  8
_0-0_0
  6
CONTINUOUS
 62
    7
 10
359.7811585
 20
395.12231400000002
 11
359.5311585
 21
395.38632200000001
  0
LINE
  8
_0-0_0
  6
CONTINUOUS
 62
    7
 10
359.5311585
 20
395.38632200000001
 11
350.2811585
 21
395.38632200000001
  0
LINE
  8
_0-0_0
  6
CONTINUOUS
 62
    7
 10
359.7811585
 20
395.14691199999999
 11
359.5311585
 21
395.38632200000001
  0
LINE
  8
_0-0_0
  6
CONTINUOUS
 62
    7
 10
359.7811585
 20
395.07333399999999
 11
359.5311585
 21
395.34536700000001
  0
LINE
  8
_0-0_0
  6
CONTINUOUS
 62
    7
 10
359.5311585
 20
395.34536700000001
 11
350.2811585
 21
395.34536700000001
  0
LINE
  8
_0-0_0
  6
CONTINUOUS
 62
    7
 10
359.7811585
 20
395.12231400000002
 11
359.5311585
 21
395.34536700000001
  0
LINE
  8
_0-0_0
  6
CONTINUOUS
 62
    7
 10
359.7811585
 20
395.00054899999998
 11
359.5311585
 21
395.277649
  0
LINE
  8
_0-0_0
  6
CONTINUOUS
 62
    7
 10
359.5311585
 20
395.277649
 11
350.2811585
 21
395.277649
  0
LINE
  8
_0-0_0
  6
CONTINUOUS
 62
    7
 10
359.7811585
 20
395.07333399999999
 11
359.5311585
 21
395.277649
  0
LINE
  8
_0-0_0
  6
CONTINUOUS
 62
    7
 10
359.7811585
 20
394.904785
 11
359.5311585
 21
395.18386800000002
  0
LINE
  8
_0-0_0
  6
CONTINUOUS
 62
    7
 10
359.5311585
 20
395.18386800000002
 11
350.2811585
 21
395.18386800000002
  0
LINE
  8
_0-0_0
  6
CONTINUOUS
 62
    7
 10
359.7811585
 20
395.00054899999998
 11
359.5311585
 21
395.18386800000002
  0
LINE
  8
_0-0_0
  6
CONTINUOUS
 62
    7
 10
359.5311585
 20
395.06506300000001
 11
350.2811585
 21
395.06506300000001
  0
LINE
  8
_0-0_0
  6
CONTINUOUS
 62
    7
 10
359.65121449999998
 20
394.98861699999998
 11
359.5311585
 21
395.06506300000001
  0
LINE
  8
_0-0_0
  6
CONTINUOUS
 62
    7
 10
359.7811585
 20
394.904785
 11
359.65121449999998
 21
394.98861699999998
  0
LINE
  8
_0-0_0
  6
CONTINUOUS
 62
    7
 10
359.7811585
 20
394.78701799999999
 11
359.5311585
 21
395.06506300000001
  0
LINE
  8
_0-0_0
  6
CONTINUOUS
 62
    7
 10
359.7811585
 20
394.64859000000001
 11
359.5311585
 21
394.92254600000001
  0
LINE
  8
_0-0_0
  6
CONTINUOUS
 62
    7
 10
359.5311585
 20
394.92254600000001
 11
350.2811585
 21
394.92254600000001
  0
LINE
  8
_0-0_0
  6
CONTINUOUS
 62
    7
 10
359.7811585
 20
394.78701799999999
 11
359.5311585
 21
394.92254600000001
  0
LINE
  8
_0-0_0
  6
CONTINUOUS
 62
    7
 10
359.7811585
 20
394.49099699999999
 11
359.5311585
 21
394.75787400000002
  0
LINE
  8
_0-0_0
  6
CONTINUOUS
 62
    7
 10
359.5311585
 20
394.75787400000002
 11
350.2811585
 21
394.75787400000002
  0
LINE
  8
_0-0_0
  6
CONTINUOUS
 62
    7
 10
359.7811585
 20
394.64859000000001
 11
359.5311585
 21
394.75787400000002
  0
LINE
  8
_0-0_0
  6
CONTINUOUS
 62
    7
 10
359.7811585
 20
394.31597900000003
 11
359.5311585
 21
394.57284499999997
  0
LINE
  8
_0-0_0
  6
CONTINUOUS
 62
    7
 10
359.5311585
 20
394.57284499999997
 11
350.2811585
 21
394.57284499999997
  0
LINE
  8
_0-0_0
  6
CONTINUOUS
 62
    7
 10
359.7811585
 20
394.49099699999999
 11
359.5311585
 21
394.57284499999997
  0
LINE
  8
_0-0_0
  6
CONTINUOUS
 62
    7
 10
359.7811585
 20
394.125427
 11
359.5311585
 21
394.36947600000002
  0
LINE
  8
_0-0_0
  6
CONTINUOUS
 62
    7
 10
359.5311585
 20
394.36947600000002
 11
350.2811585
 21
394.36947600000002
  0
LINE
  8
_0-0_0
  6
CONTINUOUS
 62
    7
 10
359.7811585
 20
394.31597900000003
 11
359.5311585
 21
394.36947600000002
  0
LINE
  8
_0-0_0
  6
CONTINUOUS
 62
    7
 10
359.7811585
 20
393.92147799999998
 11
359.5311585
 21
394.15002399999997
  0
LINE
  8
_0-0_0
  6
CONTINUOUS
 62
    7
 10
359.5311585
 20
394.15002399999997
 11
350.2811585
 21
394.15002399999997
  0
LINE
  8
_0-0_0
  6
CONTINUOUS
 62
    7
 10
359.7811585
 20
393.92147799999998
 11
350.0311585
 21
393.92147799999998
  0
LINE
  8
_0-0_0
  6
CONTINUOUS
 62
    7
 10
359.7811585
 20
394.125427
 11
359.5311585
 21
394.15002399999997
  0
LINE
  8
_0-0_0
  6
CONTINUOUS
 62
    7
 10
359.7811585
 20
393.70632899999998
 11
359.5311585
 21
393.91683999999998
  0
LINE
  8
_0-0_0
  6
CONTINUOUS
 62
    7
 10
359.5311585
 20
393.91683999999998
 11
350.2811585
 21
393.91683999999998
  0
LINE
  8
_0-0_0
  6
CONTINUOUS
 62
    7
 10
359.7811585
 20
393.70632899999998
 11
350.0311585
 21
393.70632899999998
  0
LINE
  8
_0-0_0
  6
CONTINUOUS
 62
    7
 10
359.7811585
 20
393.92147799999998
 11
359.5311585
 21
393.91683999999998
  0
LINE
  8
_0-0_0
  6
CONTINUOUS
 62
    7
 10
359.7811585
 20
393.48236100000003
 11
359.5311585
 21
393.67254600000001
  0
LINE
  8
_0-0_0
  6
CONTINUOUS
 62
    7
 10
359.5311585
 20
393.67254600000001
 11
350.2811585
 21
393.67254600000001
  0
LINE
  8
_0-0_0
  6
CONTINUOUS
 62
    7
 10
359.7811585
 20
393.48236100000003
 11
350.0311585
 21
393.48236100000003
  0
LINE
  8
_0-0_0
  6
CONTINUOUS
 62
    7
 10
359.7811585
 20
393.70632899999998
 11
359.5311585
 21
393.67254600000001
  0
LINE
  8
_0-0_0
  6
CONTINUOUS
 62
    7
 10
359.7811585
 20
393.25198399999999
 11
359.5311585
 21
393.41980000000001
  0
LINE
  8
_0-0_0
  6
CONTINUOUS
 62
    7
 10
359.5311585
 20
393.41980000000001
 11
350.2811585
 21
393.41980000000001
  0
LINE
  8
_0-0_0
  6
CONTINUOUS
 62
    7
 10
359.7811585
 20
393.25198399999999
 11
350.0311585
 21
393.25198399999999
  0
LINE
  8
_0-0_0
  6
CONTINUOUS
 62
    7
 10
359.7811585
 20
393.48236100000003
 11
359.5311585
 21
393.41980000000001
  0
LINE
  8
_0-0_0
  6
CONTINUOUS
 62
    7
 10
359.7811585
 20
393.01776100000001
 11
359.5311585
 21
393.161316
  0
LINE
  8
_0-0_0
  6
CONTINUOUS
 62
    7
 10
359.5311585
 20
393.161316
 11
350.2811585
 21
393.161316
  0
LINE
  8
_0-0_0
  6
CONTINUOUS
 62
    7
 10
359.7811585
 20
393.01776100000001
 11
350.0311585
 21
393.01776100000001
  0
LINE
  8
_0-0_0
  6
CONTINUOUS
 62
    7
 10
359.7811585
 20
393.25198399999999
 11
359.5311585
 21
393.161316
  0
LINE
  8
_0-0_0
  6
CONTINUOUS
 62
    7
 10
359.7811585
 20
392.78225700000002
 11
359.5311585
 21
392.90002399999997
  0
LINE
  8
_0-0_0
  6
CONTINUOUS
 62
    7
 10
359.5311585
 20
392.90002399999997
 11
350.2811585
 21
392.90002399999997
  0
LINE
  8
_0-0_0
  6
CONTINUOUS
 62
    7
 10
359.7811585
 20
392.78225700000002
 11
350.0311585
 21
392.78225700000002
  0
LINE
  8
_0-0_0
  6
CONTINUOUS
 62
    7
 10
359.7811585
 20
393.01776100000001
 11
359.5311585
 21
392.90002399999997
  0
LINE
  8
_0-0_0
  6
CONTINUOUS
 62
    7
 10
359.7811585
 20
392.54803500000003
 11
359.5311585
 21
392.63867199999999
  0
LINE
  8
_0-0_0
  6
CONTINUOUS
 62
    7
 10
359.5311585
 20
392.63867199999999
 11
350.2811585
 21
392.63867199999999
  0
LINE
  8
_0-0_0
  6
CONTINUOUS
 62
    7
 10
359.7811585
 20
392.54803500000003
 11
350.0311585
 21
392.54803500000003
  0
LINE
  8
_0-0_0
  6
CONTINUOUS
 62
    7
 10
359.7811585
 20
392.78225700000002
 11
359.5311585
 21
392.63867199999999
  0
LINE
  8
_0-0_0
  6
CONTINUOUS
 62
    7
 10
359.7811585
 20
392.317657
 11
359.5311585
 21
392.38021900000001
  0
LINE
  8
_0-0_0
  6
CONTINUOUS
 62
    7
 10
359.5311585
 20
392.38021900000001
 11
350.2811585
 21
392.38021900000001
  0
LINE
  8
_0-0_0
  6
CONTINUOUS
 62
    7
 10
359.7811585
 20
392.317657
 11
350.0311585
 21
392.317657
  0
LINE
  8
_0-0_0
  6
CONTINUOUS
 62
    7
 10
359.7811585
 20
392.54803500000003
 11
359.5311585
 21
392.38021900000001
  0
LINE
  8
_0-0_0
  6
CONTINUOUS
 62
    7
 10
359.7811585
 20
392.09368899999998
 11
359.5311585
 21
392.12747200000001
  0
LINE
  8
_0-0_0
  6
CONTINUOUS
 62
    7
 10
359.5311585
 20
392.12747200000001
 11
350.2811585
 21
392.12747200000001
  0
LINE
  8
_0-0_0
  6
CONTINUOUS
 62
    7
 10
359.7811585
 20
392.09368899999998
 11
350.0311585
 21
392.09368899999998
  0
LINE
  8
_0-0_0
  6
CONTINUOUS
 62
    7
 10
359.7811585
 20
392.317657
 11
359.5311585
 21
392.12747200000001
  0
LINE
  8
_0-0_0
  6
CONTINUOUS
 62
    7
 10
359.7811585
 20
391.87853999999999
 11
359.5311585
 21
391.88317899999998
  0
LINE
  8
_0-0_0
  6
CONTINUOUS
 62
    7
 10
359.5311585
 20
391.88317899999998
 11
350.2811585
 21
391.88317899999998
  0
LINE
  8
_0-0_0
  6
CONTINUOUS
 62
    7
 10
359.7811585
 20
392.09368899999998
 11
359.5311585
 21
391.88317899999998
  0
LINE
  8
_0-0_0
  6
CONTINUOUS
 62
    7
 10
360.0311585
 20
390.90002399999997
 11
360.0311585
 21
394.65518200000002
  0
LINE
  8
_0-0_0
  6
CONTINUOUS
 62
    7
 10
360.0311585
 20
394.65518200000002
 11
360.0311585
 21
394.90002399999997
  0
LINE
  8
_0-0_0
  6
CONTINUOUS
 62
    7
 10
346.43118249999998
 20
396.20001200000002
 11
346.43118249999998
 21
398.70001200000002
  0
LINE
  8
_0-0_0
  6
CONTINUOUS
 62
    7
 10
346.43118249999998
 20
398.70001200000002
 11
346.43118249999998
 21
406.20001200000002
  0
LINE
  8
_0-0_0
  6
CONTINUOUS
 62
    7
 10
347.23117050000002
 20
396.66189600000001
 11
347.23117050000002
 21
398.93093900000002
  0
LINE
  8
_0-0_0
  6
CONTINUOUS
 62
    7
 10
347.23117050000002
 20
398.93093900000002
 11
347.23117050000002
 21
405.73812900000001
  0
LINE
  8
_0-0_0
  6
CONTINUOUS
 62
    7
 10
405.23117050000002
 20
397.20001200000002
 11
405.23117050000002
 21
397.20135499999998
  0
LINE
  8
_0-0_0
  6
CONTINUOUS
 62
    7
 10
405.23117050000002
 20
397.20135499999998
 11
405.23117050000002
 21
405.20001200000002
  0
LINE
  8
_0-0_0
  6
CONTINUOUS
 62
    7
 10
350.0311585
 20
411.74691799999999
 11
350.0311585
 21
411.75
  0
LINE
  8
_0-0_0
  6
CONTINUOUS
 62
    7
 10
350.0311585
 20
411.72228999999999
 11
350.0311585
 21
411.74691799999999
  0
LINE
  8
_0-0_0
  6
CONTINUOUS
 62
    7
 10
350.0311585
 20
411.67334
 11
350.0311585
 21
411.75
  0
LINE
  8
_0-0_0
  6
CONTINUOUS
 62
    7
 10
350.0311585
 20
411.60055499999999
 11
350.0311585
 21
411.67334
  0
LINE
  8
_0-0_0
  6
CONTINUOUS
 62
    7
 10
350.0311585
 20
411.50476099999997
 11
350.0311585
 21
411.60055499999999
  0
LINE
  8
_0-0_0
  6
CONTINUOUS
 62
    7
 10
350.0311585
 20
411.47457900000001
 11
350.0311585
 21
411.50476099999997
  0
LINE
  8
_0-0_0
  6
CONTINUOUS
 62
    7
 10
350.0311585
 20
411.387024
 11
350.0311585
 21
411.47457900000001
  0
LINE
  8
_0-0_0
  6
CONTINUOUS
 62
    7
 10
350.0311585
 20
411.24859600000002
 11
350.0311585
 21
411.387024
  0
LINE
  8
_0-0_0
  6
CONTINUOUS
 62
    7
 10
350.0311585
 20
411.091003
 11
350.0311585
 21
411.24859600000002
  0
LINE
  8
_0-0_0
  6
CONTINUOUS
 62
    7
 10
350.0311585
 20
410.91598499999998
 11
350.0311585
 21
411.091003
  0
LINE
  8
_0-0_0
  6
CONTINUOUS
 62
    7
 10
350.0311585
 20
410.72543300000001
 11
350.0311585
 21
410.91598499999998
  0
LINE
  8
_0-0_0
  6
CONTINUOUS
 62
    7
 10
350.0311585
 20
410.52148399999999
 11
350.0311585
 21
410.72543300000001
  0
LINE
  8
_0-0_0
  6
CONTINUOUS
 62
    7
 10
350.0311585
 20
410.30633499999999
 11
350.0311585
 21
410.52148399999999
  0
LINE
  8
_0-0_0
  6
CONTINUOUS
 62
    7
 10
350.0311585
 20
410.082336
 11
350.0311585
 21
410.30633499999999
  0
LINE
  8
_0-0_0
  6
CONTINUOUS
 62
    7
 10
350.0311585
 20
409.85199
 11
350.0311585
 21
410.082336
  0
LINE
  8
_0-0_0
  6
CONTINUOUS
 62
    7
 10
350.0311585
 20
409.61776700000001
 11
350.0311585
 21
409.85199
  0
LINE
  8
_0-0_0
  6
CONTINUOUS
 62
    7
 10
350.0311585
 20
409.38226300000002
 11
350.0311585
 21
409.61776700000001
  0
LINE
  8
_0-0_0
  6
CONTINUOUS
 62
    7
 10
350.0311585
 20
409.14804099999998
 11
350.0311585
 21
409.38226300000002
  0
LINE
  8
_0-0_0
  6
CONTINUOUS
 62
    7
 10
350.0311585
 20
408.917664
 11
350.0311585
 21
409.14804099999998
  0
LINE
  8
_0-0_0
  6
CONTINUOUS
 62
    7
 10
350.0311585
 20
408.69366500000001
 11
350.0311585
 21
408.917664
  0
LINE
  8
_0-0_0
  6
CONTINUOUS
 62
    7
 10
350.0311585
 20
408.47851600000001
 11
350.0311585
 21
408.69366500000001
  0
LINE
  8
_0-0_0
  6
CONTINUOUS
 62
    7
 10
350.0311585
 20
408.42129499999999
 11
350.0311585
 21
408.47851600000001
  0
LINE
  8
_0-0_0
  6
CONTINUOUS
 62
    7
 10
350.0311585
 20
411.74691799999999
 11
350.2811585
 21
412
  0
LINE
  8
_0-0_0
  6
CONTINUOUS
 62
    7
 10
350.0311585
 20
411.72228999999999
 11
350.2811585
 21
411.98632800000001
  0
LINE
  8
_0-0_0
  6
CONTINUOUS
 62
    7
 10
350.0311585
 20
411.74691799999999
 11
350.2811585
 21
411.98632800000001
  0
LINE
  8
_0-0_0
  6
CONTINUOUS
 62
    7
 10
350.0311585
 20
411.67334
 11
350.2811585
 21
411.94537400000002
  0
LINE
  8
_0-0_0
  6
CONTINUOUS
 62
    7
 10
350.0311585
 20
411.72228999999999
 11
350.2811585
 21
411.94537400000002
  0
LINE
  8
_0-0_0
  6
CONTINUOUS
 62
    7
 10
350.0311585
 20
411.60055499999999
 11
350.2811585
 21
411.877655
  0
LINE
  8
_0-0_0
  6
CONTINUOUS
 62
    7
 10
350.0311585
 20
411.67334
 11
350.2811585
 21
411.877655
  0
LINE
  8
_0-0_0
  6
CONTINUOUS
 62
    7
 10
350.0311585
 20
411.50476099999997
 11
350.2811585
 21
411.78387500000002
  0
LINE
  8
_0-0_0
  6
CONTINUOUS
 62
    7
 10
350.0311585
 20
411.60055499999999
 11
350.2811585
 21
411.78387500000002
  0
LINE
  8
_0-0_0
  6
CONTINUOUS
 62
    7
 10
350.0311585
 20
411.50476099999997
 11
350.16116349999999
 21
411.58862299999998
  0
LINE
  8
_0-0_0
  6
CONTINUOUS
 62
    7
 10
350.0311585
 20
411.387024
 11
350.2811585
 21
411.66507000000001
  0
LINE
  8
_0-0_0
  6
CONTINUOUS
 62
    7
 10
350.16116349999999
 20
411.58862299999998
 11
350.2811585
 21
411.66507000000001
  0
LINE
  8
_0-0_0
  6
CONTINUOUS
 62
    7
 10
350.0311585
 20
411.24859600000002
 11
350.2811585
 21
411.52255200000002
  0
LINE
  8
_0-0_0
  6
CONTINUOUS
 62
    7
 10
350.0311585
 20
411.387024
 11
350.2811585
 21
411.52255200000002
  0
LINE
  8
_0-0_0
  6
CONTINUOUS
 62
    7
 10
350.0311585
 20
411.091003
 11
350.2811585
 21
411.35788000000002
  0
LINE
  8
_0-0_0
  6
CONTINUOUS
 62
    7
 10
350.0311585
 20
411.24859600000002
 11
350.2811585
 21
411.35788000000002
  0
LINE
  8
_0-0_0
  6
CONTINUOUS
 62
    7
 10
350.0311585
 20
410.91598499999998
 11
350.2811585
 21
411.172821
  0
LINE
  8
_0-0_0
  6
CONTINUOUS
 62
    7
 10
350.0311585
 20
411.091003
 11
350.2811585
 21
411.172821
  0
LINE
  8
_0-0_0
  6
CONTINUOUS
 62
    7
 10
350.0311585
 20
410.72543300000001
 11
350.2811585
 21
410.96948200000003
  0
LINE
  8
_0-0_0
  6
CONTINUOUS
 62
    7
 10
350.0311585
 20
410.91598499999998
 11
350.2811585
 21
410.96948200000003
  0
LINE
  8
_0-0_0
  6
CONTINUOUS
 62
    7
 10
350.0311585
 20
410.52148399999999
 11
350.2811585
 21
410.75
  0
LINE
  8
_0-0_0
  6
CONTINUOUS
 62
    7
 10
350.0311585
 20
410.72543300000001
 11
350.2811585
 21
410.75
  0
LINE
  8
_0-0_0
  6
CONTINUOUS
 62
    7
 10
350.0311585
 20
410.30633499999999
 11
350.2811585
 21
410.51684599999999
  0
LINE
  8
_0-0_0
  6
CONTINUOUS
 62
    7
 10
350.0311585
 20
410.52148399999999
 11
350.2811585
 21
410.51684599999999
  0
LINE
  8
_0-0_0
  6
CONTINUOUS
 62
    7
 10
350.0311585
 20
410.082336
 11
350.2811585
 21
410.27255200000002
  0
LINE
  8
_0-0_0
  6
CONTINUOUS
 62
    7
 10
350.0311585
 20
410.30633499999999
 11
350.2811585
 21
410.27255200000002
  0
LINE
  8
_0-0_0
  6
CONTINUOUS
 62
    7
 10
350.0311585
 20
409.85199
 11
350.2811585
 21
410.01977499999998
  0
LINE
  8
_0-0_0
  6
CONTINUOUS
 62
    7
 10
350.0311585
 20
410.082336
 11
350.2811585
 21
410.01977499999998
  0
LINE
  8
_0-0_0
  6
CONTINUOUS
 62
    7
 10
350.0311585
 20
409.61776700000001
 11
350.2811585
 21
409.76132200000001
  0
LINE
  8
_0-0_0
  6
CONTINUOUS
 62
    7
 10
350.0311585
 20
409.85199
 11
350.2811585
 21
409.76132200000001
  0
LINE
  8
_0-0_0
  6
CONTINUOUS
 62
    7
 10
350.0311585
 20
409.38226300000002
 11
350.2811585
 21
409.5
  0
LINE
  8
_0-0_0
  6
CONTINUOUS
 62
    7
 10
350.0311585
 20
409.61776700000001
 11
350.2811585
 21
409.5
  0
LINE
  8
_0-0_0
  6
CONTINUOUS
 62
    7
 10
350.0311585
 20
409.14804099999998
 11
350.2811585
 21
409.23867799999999
  0
LINE
  8
_0-0_0
  6
CONTINUOUS
 62
    7
 10
350.0311585
 20
409.38226300000002
 11
350.2811585
 21
409.23867799999999
  0
LINE
  8
_0-0_0
  6
CONTINUOUS
 62
    7
 10
350.0311585
 20
408.917664
 11
350.2811585
 21
408.98022500000002
  0
LINE
  8
_0-0_0
  6
CONTINUOUS
 62
    7
 10
350.0311585
 20
409.14804099999998
 11
350.2811585
 21
408.98022500000002
  0
LINE
  8
_0-0_0
  6
CONTINUOUS
 62
    7
 10
350.0311585
 20
408.69366500000001
 11
350.2811585
 21
408.72747800000002
  0
LINE
  8
_0-0_0
  6
CONTINUOUS
 62
    7
 10
350.0311585
 20
408.917664
 11
350.2811585
 21
408.72747800000002
  0
LINE
  8
_0-0_0
  6
CONTINUOUS
 62
    7
 10
350.0311585
 20
408.47851600000001
 11
350.2811585
 21
408.48315400000001
  0
LINE
  8
_0-0_0
  6
CONTINUOUS
 62
    7
 10
350.0311585
 20
408.69366500000001
 11
350.2811585
 21
408.48315400000001
  0
LINE
  8
_0-0_0
  6
CONTINUOUS
 62
    7
 10
350.0311585
 20
408.27456699999999
 11
350.0311585
 21
408.42129499999999
  0
LINE
  8
_0-0_0
  6
CONTINUOUS
 62
    7
 10
350.0311585
 20
408.27456699999999
 11
350.2811585
 21
408.25
  0
LINE
  8
_0-0_0
  6
CONTINUOUS
 62
    7
 10
350.0311585
 20
408.47851600000001
 11
350.2811585
 21
408.25
  0
LINE
  8
_0-0_0
  6
CONTINUOUS
 62
    7
 10
350.0311585
 20
408.084045
 11
350.0311585
 21
408.27456699999999
  0
LINE
  8
_0-0_0
  6
CONTINUOUS
 62
    7
 10
350.0311585
 20
407.90902699999998
 11
350.0311585
 21
408.084045
  0
LINE
  8
_0-0_0
  6
CONTINUOUS
 62
    7
 10
350.0311585
 20
407.75143400000002
 11
350.0311585
 21
407.90902699999998
  0
LINE
  8
_0-0_0
  6
CONTINUOUS
 62
    7
 10
350.0311585
 20
407.61300699999998
 11
350.0311585
 21
407.75143400000002
  0
LINE
  8
_0-0_0
  6
CONTINUOUS
 62
    7
 10
350.0311585
 20
407.49523900000003
 11
350.0311585
 21
407.61300699999998
  0
LINE
  8
_0-0_0
  6
CONTINUOUS
 62
    7
 10
350.0311585
 20
407.39944500000001
 11
350.0311585
 21
407.49523900000003
  0
LINE
  8
_0-0_0
  6
CONTINUOUS
 62
    7
 10
350.0311585
 20
407.32666
 11
350.0311585
 21
407.39944500000001
  0
LINE
  8
_0-0_0
  6
CONTINUOUS
 62
    7
 10
350.0311585
 20
407.25
 11
350.0311585
 21
407.32666
  0
LINE
  8
_0-0_0
  6
CONTINUOUS
 62
    7
 10
350.0311585
 20
407.25308200000001
 11
350.0311585
 21
407.27771000000001
  0
LINE
  8
_0-0_0
  6
CONTINUOUS
 62
    7
 10
350.0311585
 20
407.25
 11
350.0311585
 21
407.25308200000001
  0
LINE
  8
_0-0_0
  6
CONTINUOUS
 62
    7
 10
359.7811585
 20
411.74691799999999
 11
359.5311585
 21
412
  0
LINE
  8
_0-0_0
  6
CONTINUOUS
 62
    7
 10
359.5311585
 20
412
 11
350.2811585
 21
412
  0
LINE
  8
_0-0_0
  6
CONTINUOUS
 62
    7
 10
359.7811585
 20
411.72228999999999
 11
359.5311585
 21
411.98632800000001
  0
LINE
  8
_0-0_0
  6
CONTINUOUS
 62
    7
 10
359.5311585
 20
411.98632800000001
 11
350.2811585
 21
411.98632800000001
  0
LINE
  8
_0-0_0
  6
CONTINUOUS
 62
    7
 10
359.7811585
 20
411.74691799999999
 11
359.5311585
 21
411.98632800000001
  0
LINE
  8
_0-0_0
  6
CONTINUOUS
 62
    7
 10
359.7811585
 20
411.67334
 11
359.5311585
 21
411.94537400000002
  0
LINE
  8
_0-0_0
  6
CONTINUOUS
 62
    7
 10
359.5311585
 20
411.94537400000002
 11
350.2811585
 21
411.94537400000002
  0
LINE
  8
_0-0_0
  6
CONTINUOUS
 62
    7
 10
359.7811585
 20
411.72228999999999
 11
359.5311585
 21
411.94537400000002
  0
LINE
  8
_0-0_0
  6
CONTINUOUS
 62
    7
 10
359.7811585
 20
411.60055499999999
 11
359.5311585
 21
411.877655
  0
LINE
  8
_0-0_0
  6
CONTINUOUS
 62
    7
 10
359.5311585
 20
411.877655
 11
350.2811585
 21
411.877655
  0
LINE
  8
_0-0_0
  6
CONTINUOUS
 62
    7
 10
359.7811585
 20
411.67334
 11
359.5311585
 21
411.877655
  0
LINE
  8
_0-0_0
  6
CONTINUOUS
 62
    7
 10
359.7811585
 20
411.50476099999997
 11
359.5311585
 21
411.78387500000002
  0
LINE
  8
_0-0_0
  6
CONTINUOUS
 62
    7
 10
359.5311585
 20
411.78387500000002
 11
350.2811585
 21
411.78387500000002
  0
LINE
  8
_0-0_0
  6
CONTINUOUS
 62
    7
 10
359.7811585
 20
411.60055499999999
 11
359.5311585
 21
411.78387500000002
  0
LINE
  8
_0-0_0
  6
CONTINUOUS
 62
    7
 10
359.5311585
 20
411.66507000000001
 11
350.2811585
 21
411.66507000000001
  0
LINE
  8
_0-0_0
  6
CONTINUOUS
 62
    7
 10
359.65121449999998
 20
411.58862299999998
 11
359.5311585
 21
411.66507000000001
  0
LINE
  8
_0-0_0
  6
CONTINUOUS
 62
    7
 10
359.7811585
 20
411.50476099999997
 11
359.65121449999998
 21
411.58862299999998
  0
LINE
  8
_0-0_0
  6
CONTINUOUS
 62
    7
 10
359.7811585
 20
411.387024
 11
359.5311585
 21
411.66507000000001
  0
LINE
  8
_0-0_0
  6
CONTINUOUS
 62
    7
 10
359.7811585
 20
411.24859600000002
 11
359.5311585
 21
411.52255200000002
  0
LINE
  8
_0-0_0
  6
CONTINUOUS
 62
    7
 10
359.5311585
 20
411.52255200000002
 11
350.2811585
 21
411.52255200000002
  0
LINE
  8
_0-0_0
  6
CONTINUOUS
 62
    7
 10
359.7811585
 20
411.387024
 11
359.5311585
 21
411.52255200000002
  0
LINE
  8
_0-0_0
  6
CONTINUOUS
 62
    7
 10
359.7811585
 20
411.091003
 11
359.5311585
 21
411.35788000000002
  0
LINE
  8
_0-0_0
  6
CONTINUOUS
 62
    7
 10
359.5311585
 20
411.35788000000002
 11
350.2811585
 21
411.35788000000002
  0
LINE
  8
_0-0_0
  6
CONTINUOUS
 62
    7
 10
359.7811585
 20
411.24859600000002
 11
359.5311585
 21
411.35788000000002
  0
LINE
  8
_0-0_0
  6
CONTINUOUS
 62
    7
 10
359.7811585
 20
410.91598499999998
 11
359.5311585
 21
411.172821
  0
LINE
  8
_0-0_0
  6
CONTINUOUS
 62
    7
 10
359.5311585
 20
411.172821
 11
350.2811585
 21
411.172821
  0
LINE
  8
_0-0_0
  6
CONTINUOUS
 62
    7
 10
359.7811585
 20
411.091003
 11
359.5311585
 21
411.172821
  0
LINE
  8
_0-0_0
  6
CONTINUOUS
 62
    7
 10
359.7811585
 20
410.72543300000001
 11
359.5311585
 21
410.96948200000003
  0
LINE
  8
_0-0_0
  6
CONTINUOUS
 62
    7
 10
359.5311585
 20
410.96948200000003
 11
350.2811585
 21
410.96948200000003
  0
LINE
  8
_0-0_0
  6
CONTINUOUS
 62
    7
 10
359.7811585
 20
410.91598499999998
 11
359.5311585
 21
410.96948200000003
  0
LINE
  8
_0-0_0
  6
CONTINUOUS
 62
    7
 10
359.7811585
 20
410.52148399999999
 11
359.5311585
 21
410.75
  0
LINE
  8
_0-0_0
  6
CONTINUOUS
 62
    7
 10
359.5311585
 20
410.75
 11
350.2811585
 21
410.75
  0
LINE
  8
_0-0_0
  6
CONTINUOUS
 62
    7
 10
359.7811585
 20
410.52148399999999
 11
350.0311585
 21
410.52148399999999
  0
LINE
  8
_0-0_0
  6
CONTINUOUS
 62
    7
 10
359.7811585
 20
410.72543300000001
 11
359.5311585
 21
410.75
  0
LINE
  8
_0-0_0
  6
CONTINUOUS
 62
    7
 10
359.7811585
 20
410.30633499999999
 11
359.5311585
 21
410.51684599999999
  0
LINE
  8
_0-0_0
  6
CONTINUOUS
 62
    7
 10
359.5311585
 20
410.51684599999999
 11
350.2811585
 21
410.51684599999999
  0
LINE
  8
_0-0_0
  6
CONTINUOUS
 62
    7
 10
359.7811585
 20
410.30633499999999
 11
350.0311585
 21
410.30633499999999
  0
LINE
  8
_0-0_0
  6
CONTINUOUS
 62
    7
 10
359.7811585
 20
410.52148399999999
 11
359.5311585
 21
410.51684599999999
  0
LINE
  8
_0-0_0
  6
CONTINUOUS
 62
    7
 10
359.7811585
 20
410.082336
 11
359.5311585
 21
410.27255200000002
  0
LINE
  8
_0-0_0
  6
CONTINUOUS
 62
    7
 10
359.5311585
 20
410.27255200000002
 11
350.2811585
 21
410.27255200000002
  0
LINE
  8
_0-0_0
  6
CONTINUOUS
 62
    7
 10
359.7811585
 20
410.082336
 11
350.0311585
 21
410.082336
  0
LINE
  8
_0-0_0
  6
CONTINUOUS
 62
    7
 10
359.7811585
 20
410.30633499999999
 11
359.5311585
 21
410.27255200000002
  0
LINE
  8
_0-0_0
  6
CONTINUOUS
 62
    7
 10
359.7811585
 20
409.85199
 11
359.5311585
 21
410.01977499999998
  0
LINE
  8
_0-0_0
  6
CONTINUOUS
 62
    7
 10
359.5311585
 20
410.01977499999998
 11
350.2811585
 21
410.01977499999998
  0
LINE
  8
_0-0_0
  6
CONTINUOUS
 62
    7
 10
359.7811585
 20
409.85199
 11
350.0311585
 21
409.85199
  0
LINE
  8
_0-0_0
  6
CONTINUOUS
 62
    7
 10
359.7811585
 20
410.082336
 11
359.5311585
 21
410.01977499999998
  0
LINE
  8
_0-0_0
  6
CONTINUOUS
 62
    7
 10
359.7811585
 20
409.61776700000001
 11
359.5311585
 21
409.76132200000001
  0
LINE
  8
_0-0_0
  6
CONTINUOUS
 62
    7
 10
359.5311585
 20
409.76132200000001
 11
350.2811585
 21
409.76132200000001
  0
LINE
  8
_0-0_0
  6
CONTINUOUS
 62
    7
 10
359.7811585
 20
409.61776700000001
 11
350.0311585
 21
409.61776700000001
  0
LINE
  8
_0-0_0
  6
CONTINUOUS
 62
    7
 10
359.7811585
 20
409.85199
 11
359.5311585
 21
409.76132200000001
  0
LINE
  8
_0-0_0
  6
CONTINUOUS
 62
    7
 10
359.7811585
 20
409.38226300000002
 11
359.5311585
 21
409.5
  0
LINE
  8
_0-0_0
  6
CONTINUOUS
 62
    7
 10
359.5311585
 20
409.5
 11
350.2811585
 21
409.5
  0
LINE
  8
_0-0_0
  6
CONTINUOUS
 62
    7
 10
359.7811585
 20
409.38226300000002
 11
350.0311585
 21
409.38226300000002
  0
LINE
  8
_0-0_0
  6
CONTINUOUS
 62
    7
 10
359.7811585
 20
409.61776700000001
 11
359.5311585
 21
409.5
  0
LINE
  8
_0-0_0
  6
CONTINUOUS
 62
    7
 10
359.7811585
 20
409.14804099999998
 11
359.5311585
 21
409.23867799999999
  0
LINE
  8
_0-0_0
  6
CONTINUOUS
 62
    7
 10
359.5311585
 20
409.23867799999999
 11
350.2811585
 21
409.23867799999999
  0
LINE
  8
_0-0_0
  6
CONTINUOUS
 62
    7
 10
359.7811585
 20
409.14804099999998
 11
350.0311585
 21
409.14804099999998
  0
LINE
  8
_0-0_0
  6
CONTINUOUS
 62
    7
 10
359.7811585
 20
409.38226300000002
 11
359.5311585
 21
409.23867799999999
  0
LINE
  8
_0-0_0
  6
CONTINUOUS
 62
    7
 10
359.7811585
 20
408.917664
 11
359.5311585
 21
408.98022500000002
  0
LINE
  8
_0-0_0
  6
CONTINUOUS
 62
    7
 10
359.5311585
 20
408.98022500000002
 11
350.2811585
 21
408.98022500000002
  0
LINE
  8
_0-0_0
  6
CONTINUOUS
 62
    7
 10
359.7811585
 20
408.917664
 11
350.0311585
 21
408.917664
  0
LINE
  8
_0-0_0
  6
CONTINUOUS
 62
    7
 10
359.7811585
 20
409.14804099999998
 11
359.5311585
 21
408.98022500000002
  0
LINE
  8
_0-0_0
  6
CONTINUOUS
 62
    7
 10
359.7811585
 20
408.69366500000001
 11
359.5311585
 21
408.72747800000002
  0
LINE
  8
_0-0_0
  6
CONTINUOUS
 62
    7
 10
359.5311585
 20
408.72747800000002
 11
350.2811585
 21
408.72747800000002
  0
LINE
  8
_0-0_0
  6
CONTINUOUS
 62
    7
 10
359.7811585
 20
408.69366500000001
 11
350.0311585
 21
408.69366500000001
  0
LINE
  8
_0-0_0
  6
CONTINUOUS
 62
    7
 10
359.7811585
 20
408.917664
 11
359.5311585
 21
408.72747800000002
  0
LINE
  8
_0-0_0
  6
CONTINUOUS
 62
    7
 10
359.7811585
 20
408.47851600000001
 11
359.5311585
 21
408.48315400000001
  0
LINE
  8
_0-0_0
  6
CONTINUOUS
 62
    7
 10
359.5311585
 20
408.48315400000001
 11
350.2811585
 21
408.48315400000001
  0
LINE
  8
_0-0_0
  6
CONTINUOUS
 62
    7
 10
359.7811585
 20
408.47851600000001
 11
350.0311585
 21
408.47851600000001
  0
LINE
  8
_0-0_0
  6
CONTINUOUS
 62
    7
 10
359.7811585
 20
408.69366500000001
 11
359.5311585
 21
408.48315400000001
  0
LINE
  8
_0-0_0
  6
CONTINUOUS
 62
    7
 10
359.7811585
 20
408.27456699999999
 11
359.5311585
 21
408.25
  0
LINE
  8
_0-0_0
  6
CONTINUOUS
 62
    7
 10
359.5311585
 20
408.25
 11
350.2811585
 21
408.25
  0
LINE
  8
_0-0_0
  6
CONTINUOUS
 62
    7
 10
359.7811585
 20
408.47851600000001
 11
359.5311585
 21
408.25
  0
LINE
  8
_0-0_0
  6
CONTINUOUS
 62
    7
 10
350.0311585
 20
408.084045
 11
350.2811585
 21
408.03054800000001
  0
LINE
  8
_0-0_0
  6
CONTINUOUS
 62
    7
 10
350.0311585
 20
408.27456699999999
 11
350.2811585
 21
408.03054800000001
  0
LINE
  8
_0-0_0
  6
CONTINUOUS
 62
    7
 10
350.0311585
 20
407.90902699999998
 11
350.2811585
 21
407.827179
  0
LINE
  8
_0-0_0
  6
CONTINUOUS
 62
    7
 10
350.0311585
 20
408.084045
 11
350.2811585
 21
407.827179
  0
LINE
  8
_0-0_0
  6
CONTINUOUS
 62
    7
 10
350.0311585
 20
407.75143400000002
 11
350.2811585
 21
407.64215100000001
  0
LINE
  8
_0-0_0
  6
CONTINUOUS
 62
    7
 10
350.0311585
 20
407.90902699999998
 11
350.2811585
 21
407.64215100000001
  0
LINE
  8
_0-0_0
  6
CONTINUOUS
 62
    7
 10
350.0311585
 20
407.61300699999998
 11
350.2811585
 21
407.47747800000002
  0
LINE
  8
_0-0_0
  6
CONTINUOUS
 62
    7
 10
350.0311585
 20
407.75143400000002
 11
350.2811585
 21
407.47747800000002
  0
LINE
  8
_0-0_0
  6
CONTINUOUS
 62
    7
 10
350.0311585
 20
407.49523900000003
 11
350.2811585
 21
407.33496100000002
  0
LINE
  8
_0-0_0
  6
CONTINUOUS
 62
    7
 10
350.0311585
 20
407.61300699999998
 11
350.2811585
 21
407.33496100000002
  0
LINE
  8
_0-0_0
  6
CONTINUOUS
 62
    7
 10
350.0311585
 20
407.39944500000001
 11
350.2811585
 21
407.21615600000001
  0
LINE
  8
_0-0_0
  6
CONTINUOUS
 62
    7
 10
350.0311585
 20
407.49523900000003
 11
350.2811585
 21
407.21615600000001
  0
LINE
  8
_0-0_0
  6
CONTINUOUS
 62
    7
 10
350.0311585
 20
407.32666
 11
350.2811585
 21
407.12237499999998
  0
LINE
  8
_0-0_0
  6
CONTINUOUS
 62
    7
 10
350.0311585
 20
407.39944500000001
 11
350.2811585
 21
407.12237499999998
  0
LINE
  8
_0-0_0
  6
CONTINUOUS
 62
    7
 10
350.0311585
 20
407.27771000000001
 11
350.2811585
 21
407.05462599999998
  0
LINE
  8
_0-0_0
  6
CONTINUOUS
 62
    7
 10
350.0311585
 20
407.32666
 11
350.2811585
 21
407.05462599999998
  0
LINE
  8
_0-0_0
  6
CONTINUOUS
 62
    7
 10
350.0311585
 20
407.25308200000001
 11
350.2811585
 21
407.01370200000002
  0
LINE
  8
_0-0_0
  6
CONTINUOUS
 62
    7
 10
350.0311585
 20
407.27771000000001
 11
350.2811585
 21
407.01370200000002
  0
LINE
  8
_0-0_0
  6
CONTINUOUS
 62
    7
 10
350.0311585
 20
407.25308200000001
 11
350.2811585
 21
407
  0
LINE
  8
_0-0_0
  6
CONTINUOUS
 62
    7
 10
360.0311585
 20
411.25518799999998
 11
360.0311585
 21
411.5
  0
LINE
  8
_0-0_0
  6
CONTINUOUS
 62
    7
 10
359.7811585
 20
408.27456699999999
 11
359.5311585
 21
408.03054800000001
  0
LINE
  8
_0-0_0
  6
CONTINUOUS
 62
    7
 10
359.7811585
 20
408.084045
 11
359.5311585
 21
408.03054800000001
  0
LINE
  8
_0-0_0
  6
CONTINUOUS
 62
    7
 10
359.7811585
 20
408.084045
 11
359.5311585
 21
407.827179
  0
LINE
  8
_0-0_0
  6
CONTINUOUS
 62
    7
 10
359.7811585
 20
407.90902699999998
 11
359.5311585
 21
407.827179
  0
LINE
  8
_0-0_0
  6
CONTINUOUS
 62
    7
 10
359.7811585
 20
407.90902699999998
 11
359.5311585
 21
407.64215100000001
  0
LINE
  8
_0-0_0
  6
CONTINUOUS
 62
    7
 10
359.7811585
 20
407.75143400000002
 11
359.5311585
 21
407.64215100000001
  0
LINE
  8
_0-0_0
  6
CONTINUOUS
 62
    7
 10
359.7811585
 20
407.75143400000002
 11
359.5311585
 21
407.47747800000002
  0
LINE
  8
_0-0_0
  6
CONTINUOUS
 62
    7
 10
359.7811585
 20
407.61300699999998
 11
359.5311585
 21
407.47747800000002
  0
LINE
  8
_0-0_0
  6
CONTINUOUS
 62
    7
 10
359.7811585
 20
407.61300699999998
 11
359.5311585
 21
407.33496100000002
  0
LINE
  8
_0-0_0
  6
CONTINUOUS
 62
    7
 10
359.7811585
 20
407.49523900000003
 11
359.5311585
 21
407.33496100000002
  0
LINE
  8
_0-0_0
  6
CONTINUOUS
 62
    7
 10
359.7811585
 20
407.49523900000003
 11
359.5311585
 21
407.21615600000001
  0
LINE
  8
_0-0_0
  6
CONTINUOUS
 62
    7
 10
359.7811585
 20
407.39944500000001
 11
359.5311585
 21
407.21615600000001
  0
LINE
  8
_0-0_0
  6
CONTINUOUS
 62
    7
 10
359.7811585
 20
407.39944500000001
 11
359.5311585
 21
407.12237499999998
  0
LINE
  8
_0-0_0
  6
CONTINUOUS
 62
    7
 10
359.7811585
 20
407.32666
 11
359.5311585
 21
407.12237499999998
  0
LINE
  8
_0-0_0
  6
CONTINUOUS
 62
    7
 10
359.7811585
 20
407.32666
 11
359.5311585
 21
407.05462599999998
  0
LINE
  8
_0-0_0
  6
CONTINUOUS
 62
    7
 10
359.7811585
 20
407.27771000000001
 11
359.5311585
 21
407.05462599999998
  0
LINE
  8
_0-0_0
  6
CONTINUOUS
 62
    7
 10
359.7811585
 20
407.27771000000001
 11
359.5311585
 21
407.01370200000002
  0
LINE
  8
_0-0_0
  6
CONTINUOUS
 62
    7
 10
359.7811585
 20
407.25308200000001
 11
359.5311585
 21
407.01370200000002
  0
LINE
  8
_0-0_0
  6
CONTINUOUS
 62
    7
 10
359.7811585
 20
407.25308200000001
 11
359.5311585
 21
407
  0
LINE
  8
_0-0_0
  6
CONTINUOUS
 62
    7
 10
360.0311585
 20
407.5
 11
360.0311585
 21
411.25518799999998
  0
LINE
  8
_0-0_0
  6
CONTINUOUS
 62
    7
 10
359.5311585
 20
408.03054800000001
 11
350.2811585
 21
408.03054800000001
  0
LINE
  8
_0-0_0
  6
CONTINUOUS
 62
    7
 10
359.5311585
 20
407.827179
 11
350.2811585
 21
407.827179
  0
LINE
  8
_0-0_0
  6
CONTINUOUS
 62
    7
 10
359.5311585
 20
407.64215100000001
 11
350.2811585
 21
407.64215100000001
  0
LINE
  8
_0-0_0
  6
CONTINUOUS
 62
    7
 10
359.5311585
 20
407.47747800000002
 11
350.2811585
 21
407.47747800000002
  0
LINE
  8
_0-0_0
  6
CONTINUOUS
 62
    7
 10
359.5311585
 20
407.33496100000002
 11
350.2811585
 21
407.33496100000002
  0
LINE
  8
_0-0_0
  6
CONTINUOUS
 62
    7
 10
359.5311585
 20
407.21615600000001
 11
350.2811585
 21
407.21615600000001
  0
LINE
  8
_0-0_0
  6
CONTINUOUS
 62
    7
 10
359.5311585
 20
407.12237499999998
 11
350.2811585
 21
407.12237499999998
  0
LINE
  8
_0-0_0
  6
CONTINUOUS
 62
    7
 10
359.5311585
 20
407.05462599999998
 11
350.2811585
 21
407.05462599999998
  0
LINE
  8
_0-0_0
  6
CONTINUOUS
 62
    7
 10
359.5311585
 20
407.01370200000002
 11
350.2811585
 21
407.01370200000002
  0
LINE
  8
_0-0_0
  6
CONTINUOUS
 62
    7
 10
359.5311585
 20
407
 11
350.2811585
 21
407
  0
LINE
  8
_0-0_0
  6
CONTINUOUS
 62
    7
 10
223.03117349999999
 20
407.25
 11
220.5755005
 21
407.25
  0
LINE
  8
_0-0_0
  6
CONTINUOUS
 62
    7
 10
221.0765835
 20
411.75
 11
220.5755005
 21
411.75
  0
LINE
  8
_0-0_0
  6
CONTINUOUS
 62
    7
 10
220.43118250000001
 20
407.5
 11
220.5755005
 21
407.25
  0
LINE
  8
_0-0_0
  6
CONTINUOUS
 62
    7
 10
220.43118250000001
 20
411.5
 11
220.5755005
 21
411.75
  0
LINE
  8
_0-0_0
  6
CONTINUOUS
 62
    7
 10
324.0311585
 20
390.65002399999997
 11
350.0311585
 21
390.65002399999997
  0
LINE
  8
_0-0_0
  6
CONTINUOUS
 62
    7
 10
324.0311585
 20
395.15002399999997
 11
350.0311585
 21
395.15002399999997
  0
LINE
  8
_0-0_0
  6
CONTINUOUS
 62
    7
 10
350.0311585
 20
390.65002399999997
 11
350.2811585
 21
390.40002399999997
  0
LINE
  8
_0-0_0
  6
CONTINUOUS
 62
    7
 10
350.0311585
 20
395.15002399999997
 11
350.2811585
 21
395.40002399999997
  0
LINE
  8
_0-0_0
  6
CONTINUOUS
 62
    7
 10
346.0311585
 20
406.45001200000002
 11
344.7811585
 21
407.70001200000002
  0
LINE
  8
_0-0_0
  6
CONTINUOUS
 62
    7
 10
346.0311585
 20
395.95001200000002
 11
345.23117050000002
 21
395.14999399999999
  0
LINE
  8
_0-0_0
  6
CONTINUOUS
 62
    7
 10
360.0311585
 20
390.90002399999997
 11
359.5313415
 21
390.40014600000001
  0
LINE
  8
_0-0_0
  6
CONTINUOUS
 62
    7
 10
360.0311585
 20
394.90002399999997
 11
359.5313415
 21
395.39984099999998
  0
LINE
  8
_0-0_0
  6
CONTINUOUS
 62
    7
 10
346.0311585
 20
396.20001200000002
 11
346.43118249999998
 21
396.20001200000002
  0
LINE
  8
_0-0_0
  6
CONTINUOUS
 62
    7
 10
346.0311585
 20
406.20001200000002
 11
346.43118249999998
 21
406.20001200000002
  0
LINE
  8
_0-0_0
  6
CONTINUOUS
 62
    7
 10
347.23117050000002
 20
396.66189600000001
 11
346.43118249999998
 21
396.20001200000002
  0
LINE
  8
_0-0_0
  6
CONTINUOUS
 62
    7
 10
347.23117050000002
 20
405.73812900000001
 11
346.43118249999998
 21
406.20001200000002
  0
LINE
  8
_0-0_0
  6
CONTINUOUS
 62
    7
 10
347.23117050000002
 20
397.20001200000002
 11
405.23117050000002
 21
397.20001200000002
  0
LINE
  8
_0-0_0
  6
CONTINUOUS
 62
    7
 10
347.23117050000002
 20
405.20001200000002
 11
405.23117050000002
 21
405.20001200000002
  0
LINE
  8
_0-0_0
  6
CONTINUOUS
 62
    7
 10
329.7811585
 20
411.75
 11
350.0311585
 21
411.75
  0
LINE
  8
_0-0_0
  6
CONTINUOUS
 62
    7
 10
350.0311585
 20
411.75
 11
350.2811585
 21
412
  0
LINE
  8
_0-0_0
  6
CONTINUOUS
 62
    7
 10
345.23117050000002
 20
407.25
 11
350.0311585
 21
407.25
  0
LINE
  8
_0-0_0
  6
CONTINUOUS
 62
    7
 10
350.0311585
 20
407.25
 11
350.2811585
 21
407
  0
LINE
  8
_0-0_0
  6
CONTINUOUS
 62
    7
 10
360.0311585
 20
411.5
 11
359.5313415
 21
411.99984699999999
  0
LINE
  8
_0-0_0
  6
CONTINUOUS
 62
    7
 10
360.0311585
 20
407.5
 11
359.5313415
 21
407.00015300000001
  0
LINE
  8
_0-0_0
  6
CONTINUOUS
 62
    7
 10
788.03115849999995
 20
443.40002399999997
 11
788.03115849999995
 21
430.40002399999997
  0
LINE
  8
_0-0_0
  6
CONTINUOUS
 62
    7
 10
215.03117349999999
 20
443.40002399999997
 11
215.03117349999999
 21
430.40002399999997
  0
LINE
  8
_0-0_0
  6
CONTINUOUS
 62
    7
 10
215.03117349999999
 20
443.40002399999997
 11
788.03115849999995
 21
443.40002399999997
  0
LINE
  8
_0-0_0
  6
CONTINUOUS
 62
    7
 10
215.03117349999999
 20
443.40002399999997
 11
215.03117349999999
 21
462
  0
LINE
  8
_0-0_0
  6
CONTINUOUS
 62
    7
 10
215.03117349999999
 20
464.5
 11
215.03117349999999
 21
462
  0
LINE
  8
_0-0_0
  6
CONTINUOUS
 62
    7
 10
215.03117349999999
 20
465
 11
215.03117349999999
 21
464.5
  0
LINE
  8
_0-0_0
  6
CONTINUOUS
 62
    7
 10
215.03117349999999
 20
417
 11
215.03117349999999
 21
416.5
  0
LINE
  8
_0-0_0
  6
CONTINUOUS
 62
    7
 10
215.03117349999999
 20
422
 11
215.03117349999999
 21
417
  0
LINE
  8
_0-0_0
  6
CONTINUOUS
 62
    7
 10
215.03117349999999
 20
422.5
 11
215.03117349999999
 21
422
  0
LINE
  8
_0-0_0
  6
CONTINUOUS
 62
    7
 10
215.03117349999999
 20
423
 11
215.03117349999999
 21
422.5
  0
LINE
  8
_0-0_0
  6
CONTINUOUS
 62
    7
 10
215.03117349999999
 20
426.20001200000002
 11
215.03117349999999
 21
423
  0
LINE
  8
_0-0_0
  6
CONTINUOUS
 62
    7
 10
215.03117349999999
 20
426.20001200000002
 11
215.03117349999999
 21
430.40002399999997
  0
LINE
  8
_0-0_0
  6
CONTINUOUS
 62
    7
 10
215.03117349999999
 20
430.40002399999997
 11
788.03115849999995
 21
430.40002399999997
  0
LINE
  8
_0-0_0
  6
CONTINUOUS
 62
    7
 10
788.03115849999995
 20
426.20001200000002
 11
788.03115849999995
 21
430.40002399999997
  0
LINE
  8
_0-0_0
  6
CONTINUOUS
 62
    7
 10
788.03115849999995
 20
423
 11
788.03115849999995
 21
426.20001200000002
  0
LINE
  8
_0-0_0
  6
CONTINUOUS
 62
    7
 10
788.03115849999995
 20
423
 11
788.03115849999995
 21
422.5
  0
LINE
  8
_0-0_0
  6
CONTINUOUS
 62
    7
 10
788.03115849999995
 20
422.5
 11
788.03115849999995
 21
422
  0
LINE
  8
_0-0_0
  6
CONTINUOUS
 62
    7
 10
788.03115849999995
 20
422
 11
788.03115849999995
 21
417
  0
LINE
  8
_0-0_0
  6
CONTINUOUS
 62
    7
 10
788.03115849999995
 20
417
 11
788.03115849999995
 21
416.5
  0
LINE
  8
_0-0_0
  6
CONTINUOUS
 62
    7
 10
788.03115849999995
 20
465
 11
788.03115849999995
 21
464.5
  0
LINE
  8
_0-0_0
  6
CONTINUOUS
 62
    7
 10
788.03115849999995
 20
462
 11
788.03115849999995
 21
464.5
  0
LINE
  8
_0-0_0
  6
CONTINUOUS
 62
    7
 10
788.03115849999995
 20
443.40002399999997
 11
788.03115849999995
 21
462
  0
CIRCLE
  8
_0-0_0
  6
CONTINUOUS
 62
    7
 10
751.53115849999995
 20
452.5
 40
6
  0
CIRCLE
  8
_0-0_0
  6
CONTINUOUS
 62
    7
 10
651.53121949999991
 20
452.5
 40
6
  0
CIRCLE
  8
_0-0_0
  6
CONTINUOUS
 62
    7
 10
551.53118849999998
 20
452.5
 40
6
  0
CIRCLE
  8
_0-0_0
  6
CONTINUOUS
 62
    7
 10
451.53118849999998
 20
452.5
 40
6
  0
CIRCLE
  8
_0-0_0
  6
CONTINUOUS
 62
    7
 10
351.5311585
 20
452.5
 40
6
  0
CIRCLE
  8
_0-0_0
  6
CONTINUOUS
 62
    7
 10
251.53117349999999
 20
452.5
 40
6
  0
LINE
  8
_0-0_0
  6
CONTINUOUS
 62
    7
 10
215.03117349999999
 20
462
 11
788.03115849999995
 21
462
  0
LINE
  8
_0-0_0
  6
CONTINUOUS
 62
    7
 10
215.03117349999999
 20
465
 11
788.03115849999995
 21
465
  0
LINE
  8
_0-0_0
  6
CONTINUOUS
 62
    7
 10
215.03117349999999
 20
464.5
 11
212.53117349999999
 21
464.5
  0
LINE
  8
_0-0_0
  6
CONTINUOUS
 62
    7
 10
212.53117349999999
 20
464.5
 11
212.53117349999999
 21
464
  0
LINE
  8
_0-0_0
  6
CONTINUOUS
 62
    7
 10
212.53117349999999
 20
464
 11
212.53117349999999
 21
423.5
  0
LINE
  8
_0-0_0
  6
CONTINUOUS
 62
    7
 10
215.03117349999999
 20
423
 11
212.53117349999999
 21
423
  0
LINE
  8
_0-0_0
  6
CONTINUOUS
 62
    7
 10
212.53117349999999
 20
423.5
 11
212.53117349999999
 21
423
  0
LINE
  8
_0-0_0
  6
CONTINUOUS
 62
    7
 10
212.53117349999999
 20
423
 11
212.53117349999999
 21
422
  0
LINE
  8
_0-0_0
  6
CONTINUOUS
 62
    7
 10
212.53117349999999
 20
422
 11
212.53117349999999
 21
417.5
  0
LINE
  8
_0-0_0
  6
CONTINUOUS
 62
    7
 10
215.03117349999999
 20
417
 11
212.53117349999999
 21
417
  0
LINE
  8
_0-0_0
  6
CONTINUOUS
 62
    7
 10
212.53117349999999
 20
417.5
 11
212.53117349999999
 21
417
  0
LINE
  8
_0-0_0
  6
CONTINUOUS
 62
    7
 10
215.03117349999999
 20
416.5
 11
788.03115849999995
 21
416.5
  0
LINE
  8
_0-0_0
  6
CONTINUOUS
 62
    7
 10
215.03117349999999
 20
422.5
 11
788.03115849999995
 21
422.5
  0
LINE
  8
_0-0_0
  6
CONTINUOUS
 62
    7
 10
215.03117349999999
 20
426.20001200000002
 11
788.03115849999995
 21
426.20001200000002
  0
LINE
  8
_0-0_0
  6
CONTINUOUS
 62
    7
 10
788.03115849999995
 20
464.5
 11
790.53115849999995
 21
464.5
  0
LINE
  8
_0-0_0
  6
CONTINUOUS
 62
    7
 10
790.53115849999995
 20
464.5
 11
790.53115849999995
 21
464
  0
LINE
  8
_0-0_0
  6
CONTINUOUS
 62
    7
 10
790.53115849999995
 20
464
 11
790.53115849999995
 21
423.5
  0
LINE
  8
_0-0_0
  6
CONTINUOUS
 62
    7
 10
788.03115849999995
 20
423
 11
790.53115849999995
 21
423
  0
LINE
  8
_0-0_0
  6
CONTINUOUS
 62
    7
 10
790.53115849999995
 20
423.5
 11
790.53115849999995
 21
423
  0
LINE
  8
_0-0_0
  6
CONTINUOUS
 62
    7
 10
790.53115849999995
 20
423
 11
790.53115849999995
 21
422
  0
LINE
  8
_0-0_0
  6
CONTINUOUS
 62
    7
 10
790.53115849999995
 20
422
 11
790.53115849999995
 21
417.5
  0
LINE
  8
_0-0_0
  6
CONTINUOUS
 62
    7
 10
788.03115849999995
 20
417
 11
790.53115849999995
 21
417
  0
LINE
  8
_0-0_0
  6
CONTINUOUS
 62
    7
 10
790.53115849999995
 20
417.5
 11
790.53115849999995
 21
417
  0
ARC
  8
_0-0_0
  6
CONTINUOUS
 62
    7
 10
272.53117350000002
 20
417.5
 40
0.5
 50
269.99999700000001
 51
0
  0
LINE
  8
_0-0_0
  6
CONTINUOUS
 62
    7
 10
272.53117350000002
 20
417
 11
265.53117350000002
 21
417
  0
ARC
  8
_0-0_0
  6
CONTINUOUS
 62
    7
 10
265.53117350000002
 20
417.5
 40
0.5
 50
179.99999099999999
 51
269.99999700000001
  0
LINE
  8
_0-0_0
  6
CONTINUOUS
 62
    7
 10
265.03117350000002
 20
421.5
 11
265.03117350000002
 21
417.5
  0
ARC
  8
_0-0_0
  6
CONTINUOUS
 62
    7
 10
265.53117350000002
 20
421.5
 40
0.5
 50
90.000003000000007
 51
179.99999099999999
  0
ARC
  8
_0-0_0
  6
CONTINUOUS
 62
    7
 10
272.53117350000002
 20
421.5
 40
0.5
 50
0
 51
90.000003000000007
  0
LINE
  8
_0-0_0
  6
CONTINUOUS
 62
    7
 10
265.53117350000002
 20
422
 11
272.53117350000002
 21
422
  0
LINE
  8
_0-0_0
  6
CONTINUOUS
 62
    7
 10
788.03115849999995
 20
465
 11
788.03115849999995
 21
464.70001200000002
  0
LINE
  8
_0-0_0
  6
CONTINUOUS
 62
    7
 10
788.03115849999995
 20
464.70001200000002
 11
788.03115849999995
 21
464.5
  0
CIRCLE
  8
_0-0_0
  6
CONTINUOUS
 62
    7
 10
751.53115849999995
 20
452.5
 40
5.5
  0
CIRCLE
  8
_0-0_0
  6
CONTINUOUS
 62
    7
 10
651.53121949999991
 20
452.5
 40
5.5
  0
CIRCLE
  8
_0-0_0
  6
CONTINUOUS
 62
    7
 10
551.53118849999998
 20
452.5
 40
5.5
  0
CIRCLE
  8
_0-0_0
  6
CONTINUOUS
 62
    7
 10
451.53118849999998
 20
452.5
 40
5.5
  0
CIRCLE
  8
_0-0_0
  6
CONTINUOUS
 62
    7
 10
351.5311585
 20
452.5
 40
5.5
  0
CIRCLE
  8
_0-0_0
  6
CONTINUOUS
 62
    7
 10
251.53117349999999
 20
452.5
 40
5.5
  0
LINE
  8
_0-0_0
  6
CONTINUOUS
 62
    7
 10
273.03117350000002
 20
417.5
 11
273.03117350000002
 21
421.5
  0
CIRCLE
  8
_0-0_0
  6
CONTINUOUS
 62
    7
 10
751.53115849999995
 20
452.5
 40
3.5
  0
CIRCLE
  8
_0-0_0
  6
CONTINUOUS
 62
    7
 10
651.53121949999991
 20
452.5
 40
3.5
  0
CIRCLE
  8
_0-0_0
  6
CONTINUOUS
 62
    7
 10
551.53118849999998
 20
452.5
 40
3.5
  0
CIRCLE
  8
_0-0_0
  6
CONTINUOUS
 62
    7
 10
451.53118849999998
 20
452.5
 40
3.5
  0
CIRCLE
  8
_0-0_0
  6
CONTINUOUS
 62
    7
 10
351.5311585
 20
452.5
 40
3.5
  0
CIRCLE
  8
_0-0_0
  6
CONTINUOUS
 62
    7
 10
251.53117349999999
 20
452.5
 40
3.5
  0
ARC
  8
_0-0_0
  6
CONTINUOUS
 62
    7
 10
270.33117649999997
 20
421.20001200000002
 40
0.2
 50
339.62356199999999
 51
90.000002999999978
  0
LINE
  8
_0-0_0
  6
CONTINUOUS
 62
    7
 10
270.51866150000001
 20
421.13037100000003
 11
269.2186585
 21
417.63037100000003
  0
ARC
  8
_0-0_0
  6
CONTINUOUS
 62
    7
 10
269.03117350000002
 20
417.70001200000002
 40
0.2
 50
200.37643
 51
339.62356199999999
  0
LINE
  8
_0-0_0
  6
CONTINUOUS
 62
    7
 10
267.5437015
 20
421.13037100000003
 11
268.84368849999998
 21
417.63037100000003
  0
ARC
  8
_0-0_0
  6
CONTINUOUS
 62
    7
 10
267.73117049999996
 20
421.20001200000002
 40
0.2
 50
90.000003000000007
 51
200.37643
  0
LINE
  8
_0-0_0
  6
CONTINUOUS
 62
    7
 10
267.73117049999996
 20
421.40002399999997
 11
270.33117649999997
 21
421.40002399999997
  0
ARC
  8
_0-0_0
  6
CONTINUOUS
 62
    7
 10
707.73117049999996
 20
421.20001200000002
 40
0.2
 50
90.000003000000007
 51
200.37643
  0
LINE
  8
_0-0_0
  6
CONTINUOUS
 62
    7
 10
707.73117049999996
 20
421.40002399999997
 11
710.33114649999993
 21
421.40002399999997
  0
ARC
  8
_0-0_0
  6
CONTINUOUS
 62
    7
 10
705.53115849999995
 20
421.5
 40
0.5
 50
90.000003000000007
 51
179.99999099999999
  0
LINE
  8
_0-0_0
  6
CONTINUOUS
 62
    7
 10
705.03115849999995
 20
421.5
 11
705.03115849999995
 21
417.5
  0
ARC
  8
_0-0_0
  6
CONTINUOUS
 62
    7
 10
705.53115849999995
 20
417.5
 40
0.5
 50
179.99999099999999
 51
269.99999700000001
  0
LINE
  8
_0-0_0
  6
CONTINUOUS
 62
    7
 10
712.53115849999995
 20
417
 11
705.53115849999995
 21
417
  0
ARC
  8
_0-0_0
  6
CONTINUOUS
 62
    7
 10
712.53115849999995
 20
417.5
 40
0.5
 50
269.99999700000001
 51
0
  0
LINE
  8
_0-0_0
  6
CONTINUOUS
 62
    7
 10
713.03115849999995
 20
417.5
 11
713.03115849999995
 21
421.5
  0
ARC
  8
_0-0_0
  6
CONTINUOUS
 62
    7
 10
712.53115849999995
 20
421.5
 40
0.5
 50
0
 51
90.000003000000007
  0
LINE
  8
_0-0_0
  6
CONTINUOUS
 62
    7
 10
705.53115849999995
 20
422
 11
712.53115849999995
 21
422
  0
LINE
  8
_0-0_0
  6
CONTINUOUS
 62
    7
 10
707.54367049999996
 20
421.13037100000003
 11
708.84365849999995
 21
417.63037100000003
  0
ARC
  8
_0-0_0
  6
CONTINUOUS
 62
    7
 10
709.03115849999995
 20
417.70001200000002
 40
0.2
 50
200.37643
 51
339.62356199999999
  0
LINE
  8
_0-0_0
  6
CONTINUOUS
 62
    7
 10
710.51864649999993
 20
421.13037100000003
 11
709.21865849999995
 21
417.63037100000003
  0
ARC
  8
_0-0_0
  6
CONTINUOUS
 62
    7
 10
710.33114649999993
 20
421.20001200000002
 40
0.2
 50
339.62356199999999
 51
90.000002999999978
  0
LINE
  8
_0-0_0
  6
CONTINUOUS
 62
    7
 10
157.10652149999999
 20
414.5
 11
157.20652050000001
 21
414.5
  0
LINE
  8
_0-0_0
  6
CONTINUOUS
 62
    7
 10
172.90652449999999
 20
414.5
 11
172.20652050000001
 21
414.5
  0
LINE
  8
_0-0_0
  6
CONTINUOUS
 62
    7
 10
172.90652449999999
 20
414.5
 11
174.10652149999999
 21
414.5
  0
ARC
  8
_0-0_0
  6
CONTINUOUS
 62
    7
 10
174.10652149999999
 20
414
 40
0.5
 50
0
 51
90.000003000000007
  0
ARC
  8
_0-0_0
  6
CONTINUOUS
 62
    7
 10
172.90652449999999
 20
414
 40
0.5
 50
90.000003000000007
 51
179.99999099999999
  0
ARC
  8
_0-0_0
  6
CONTINUOUS
 62
    7
 10
157.10652149999999
 20
414
 40
0.5
 50
90.000003000000007
 51
179.99999099999999
  0
ARC
  8
_0-0_0
  6
CONTINUOUS
 62
    7
 10
158.60652149999999
 20
415
 40
0.5
 50
90.000003000000007
 51
126.868797
  0
LINE
  8
_0-0_0
  6
CONTINUOUS
 62
    7
 10
160.10652149999999
 20
415.5
 11
158.60652149999999
 21
415.5
  0
ARC
  8
_0-0_0
  6
CONTINUOUS
 62
    7
 10
160.10652149999999
 20
416.5
 40
1
 50
269.99999700000001
 51
0
  0
LINE
  8
_0-0_0
  6
CONTINUOUS
 62
    7
 10
161.10652149999999
 20
417
 11
161.10652149999999
 21
416.5
  0
LINE
  8
_0-0_0
  6
CONTINUOUS
 62
    7
 10
161.60652149999999
 20
417
 11
161.60652149999999
 21
416
  0
ARC
  8
_0-0_0
  6
CONTINUOUS
 62
    7
 10
160.10652149999999
 20
416
 40
1.5
 50
336.42205899999999
 51
0
  0
ARC
  8
_0-0_0
  6
CONTINUOUS
 62
    7
 10
171.70652749999999
 20
416
 40
1.5
 50
179.99999099999999
 51
203.57793100000001
  0
LINE
  8
_0-0_0
  6
CONTINUOUS
 62
    7
 10
173.70652749999999
 20
415
 11
173.70652749999999
 21
414.5
  0
ARC
  8
_0-0_0
  6
CONTINUOUS
 62
    7
 10
173.20652749999999
 20
415
 40
0.5
 50
0
 51
90.000003000000007
  0
LINE
  8
_0-0_0
  6
CONTINUOUS
 62
    7
 10
171.70652749999999
 20
415.5
 11
173.20652749999999
 21
415.5
  0
ARC
  8
_0-0_0
  6
CONTINUOUS
 62
    7
 10
171.70652749999999
 20
416.5
 40
1
 50
179.99999099999999
 51
269.99999700000001
  0
LINE
  8
_0-0_0
  6
CONTINUOUS
 62
    7
 10
170.70652749999999
 20
417
 11
170.70652749999999
 21
416.5
  0
LINE
  8
_0-0_0
  6
CONTINUOUS
 62
    7
 10
170.20652749999999
 20
417
 11
170.20652749999999
 21
416
  0
LINE
  8
_0-0_0
  6
CONTINUOUS
 62
    7
 10
174.60652149999999
 20
387.5
 11
174.60652149999999
 21
388.40002399999997
  0
LINE
  8
_0-0_0
  6
CONTINUOUS
 62
    7
 10
174.60652149999999
 20
388.40002399999997
 11
174.60652149999999
 21
390.90002399999997
  0
LINE
  8
_0-0_0
  6
CONTINUOUS
 62
    7
 10
174.60652149999999
 20
390.90002399999997
 11
174.60652149999999
 21
411.5
  0
LINE
  8
_0-0_0
  6
CONTINUOUS
 62
    7
 10
174.60652149999999
 20
411.5
 11
174.60652149999999
 21
414
  0
LINE
  8
_0-0_0
  6
CONTINUOUS
 62
    7
 10
172.40652449999999
 20
414
 11
172.40652449999999
 21
412.75500499999998
  0
LINE
  8
_0-0_0
  6
CONTINUOUS
 62
    7
 10
170.00652350000001
 20
415.40002399999997
 11
170.00652350000001
 21
416.80001800000002
  0
ARC
  8
_0-0_0
  6
CONTINUOUS
 62
    7
 10
169.50652350000001
 20
416.80001800000002
 40
0.5
 50
0
 51
23.579369
  0
LINE
  8
_0-0_0
  6
CONTINUOUS
 62
    7
 10
161.80652650000002
 20
415.40002399999997
 11
161.80652650000002
 21
416.80001800000002
  0
ARC
  8
_0-0_0
  6
CONTINUOUS
 62
    7
 10
162.30652650000002
 20
416.80001800000002
 40
0.5
 50
156.420635
 51
179.99999099999999
  0
LINE
  8
_0-0_0
  6
CONTINUOUS
 62
    7
 10
156.60652149999999
 20
387.5
 11
156.60652149999999
 21
397.70001200000002
  0
LINE
  8
_0-0_0
  6
CONTINUOUS
 62
    7
 10
156.60652149999999
 20
397.70001200000002
 11
156.60652149999999
 21
398.70001200000002
  0
LINE
  8
_0-0_0
  6
CONTINUOUS
 62
    7
 10
156.60652149999999
 20
398.70001200000002
 11
156.60652149999999
 21
403.70001200000002
  0
LINE
  8
_0-0_0
  6
CONTINUOUS
 62
    7
 10
156.60652149999999
 20
403.70001200000002
 11
156.60652149999999
 21
404.70001200000002
  0
LINE
  8
_0-0_0
  6
CONTINUOUS
 62
    7
 10
156.60652149999999
 20
414
 11
156.60652149999999
 21
404.70001200000002
  0
ARC
  8
_0-0_0
  6
CONTINUOUS
 62
    7
 10
157.70652749999999
 20
403.70001200000002
 40
0.5
 50
0
 51
90.000003000000007
  0
LINE
  8
_0-0_0
  6
CONTINUOUS
 62
    7
 10
157.80652650000002
 20
404.65002399999997
 11
157.70652749999999
 21
404.65002399999997
  0
ARC
  8
_0-0_0
  6
CONTINUOUS
 62
    7
 10
157.80652650000002
 20
404.15002399999997
 40
0.5
 50
0
 51
90.000003000000007
  0
LINE
  8
_0-0_0
  6
CONTINUOUS
 62
    7
 10
158.20652749999999
 20
403.70001200000002
 11
158.20652749999999
 21
398.70001200000002
  0
ARC
  8
_0-0_0
  6
CONTINUOUS
 62
    7
 10
157.70652749999999
 20
398.70001200000002
 40
0.5
 50
269.99999700000001
 51
0
  0
ARC
  8
_0-0_0
  6
CONTINUOUS
 62
    7
 10
157.80652650000002
 20
398.60000600000001
 40
0.5
 50
269.99999700000001
 51
0
  0
LINE
  8
_0-0_0
  6
CONTINUOUS
 62
    7
 10
157.70652749999999
 20
398.10000600000001
 11
157.80652650000002
 21
398.10000600000001
  0
LINE
  8
_0-0_0
  6
CONTINUOUS
 62
    7
 10
175.40652449999999
 20
413
 11
174.60652149999999
 21
413
  0
LINE
  8
_0-0_0
  6
CONTINUOUS
 62
    7
 10
175.40652449999999
 20
413.80001800000002
 11
174.60652149999999
 21
413.80001800000002
  0
LINE
  8
_0-0_0
  6
CONTINUOUS
 62
    7
 10
175.40652449999999
 20
412.80001800000002
 11
175.40652449999999
 21
413.80001800000002
  0
LINE
  8
_0-0_0
  6
CONTINUOUS
 62
    7
 10
175.40652449999999
 20
394.20001200000002
 11
174.60652149999999
 21
394.20001200000002
  0
LINE
  8
_0-0_0
  6
CONTINUOUS
 62
    7
 10
175.40652449999999
 20
394.20001200000002
 11
175.40652449999999
 21
397.20001200000002
  0
LINE
  8
_0-0_0
  6
CONTINUOUS
 62
    7
 10
175.40652449999999
 20
409.43771400000003
 11
175.40652449999999
 21
397.20001200000002
  0
LINE
  8
_0-0_0
  6
CONTINUOUS
 62
    7
 10
175.40652449999999
 20
409.43771400000003
 11
175.40652449999999
 21
410.40048200000001
  0
LINE
  8
_0-0_0
  6
CONTINUOUS
 62
    7
 10
174.60652149999999
 20
410.40048200000001
 11
174.60652149999999
 21
413
  0
ARC
  8
_0-0_0
  6
CONTINUOUS
 62
    7
 10
168.99159950000001
 20
409.68206800000002
 40
5.7120379999999997
 50
18.558475999999999
 51
26.433648000000002
  0
ARC
  8
_0-0_0
  6
CONTINUOUS
 62
    7
 10
174.40652449999999
 20
411.5
 40
0.2
 50
269.99999700000001
 51
0
  0
ARC
  8
_0-0_0
  6
CONTINUOUS
 62
    7
 10
174.40652449999999
 20
390.90002399999997
 40
0.2
 50
0
 51
90.000003000000007
  0
ARC
  8
_0-0_0
  6
CONTINUOUS
 62
    7
 10
168.9917145
 20
392.71804800000001
 40
5.711964
 50
333.565022
 51
341.44031000000001
  0
ARC
  8
_0-0_0
  6
CONTINUOUS
 62
    7
 10
174.10652149999999
 20
388.40002399999997
 40
0.5
 50
269.99999700000001
 51
0
  0
LINE
  8
_0-0_0
  6
CONTINUOUS
 62
    7
 10
174.10652149999999
 20
387.5
 11
174.60652149999999
 21
387.5
  0
LINE
  8
_0-0_0
  6
CONTINUOUS
 62
    7
 10
174.60652149999999
 20
387.5
 11
174.10652149999999
 21
387
  0
ARC
  8
_0-0_0
  6
CONTINUOUS
 62
    7
 10
172.40652449999999
 20
410
 40
2.2999999999999998
 50
34.417387999999995
 51
79.713437000000013
  0
LINE
  8
_0-0_0
  6
CONTINUOUS
 62
    7
 10
174.34520750000001
 20
411.30001800000002
 11
174.30389350000002
 21
411.30001800000002
  0
LINE
  8
_0-0_0
  6
CONTINUOUS
 62
    7
 10
174.34520750000001
 20
411.30001800000002
 11
174.35476649999998
 21
411.30102499999998
  0
LINE
  8
_0-0_0
  6
CONTINUOUS
 62
    7
 10
174.35476649999998
 20
411.30102499999998
 11
174.36425750000001
 21
411.30423000000002
  0
LINE
  8
_0-0_0
  6
CONTINUOUS
 62
    7
 10
174.36425750000001
 20
411.30423000000002
 11
174.3735125
 21
411.30963100000002
  0
LINE
  8
_0-0_0
  6
CONTINUOUS
 62
    7
 10
174.3735125
 20
411.30963100000002
 11
174.38230849999999
 21
411.317139
  0
LINE
  8
_0-0_0
  6
CONTINUOUS
 62
    7
 10
174.38230849999999
 20
411.317139
 11
174.3977055
 21
411.33776899999998
  0
LINE
  8
_0-0_0
  6
CONTINUOUS
 62
    7
 10
174.3977055
 20
411.33776899999998
 11
174.40948449999999
 21
411.36505099999999
  0
LINE
  8
_0-0_0
  6
CONTINUOUS
 62
    7
 10
174.40948449999999
 20
411.36505099999999
 11
174.4166645
 21
411.39718599999998
  0
LINE
  8
_0-0_0
  6
CONTINUOUS
 62
    7
 10
174.4166645
 20
411.39718599999998
 11
174.41855649999999
 21
411.43225100000001
  0
LINE
  8
_0-0_0
  6
CONTINUOUS
 62
    7
 10
174.41855649999999
 20
411.43225100000001
 11
174.41471050000001
 21
411.468414
  0
LINE
  8
_0-0_0
  6
CONTINUOUS
 62
    7
 10
174.41471050000001
 20
411.468414
 11
174.40652449999999
 21
411.5
  0
ARC
  8
_0-0_0
  6
CONTINUOUS
 62
    7
 10
172.90652449999999
 20
412.75500499999998
 40
0.5
 50
179.99999099999999
 51
259.71343899999994
  0
LINE
  8
_0-0_0
  6
CONTINUOUS
 62
    7
 10
172.20652749999999
 20
412.85000600000001
 11
172.20652749999999
 21
412.55658
  0
LINE
  8
_0-0_0
  6
CONTINUOUS
 62
    7
 10
172.20652749999999
 20
412.85000600000001
 11
172.20652749999999
 21
414.90002399999997
  0
ARC
  8
_0-0_0
  6
CONTINUOUS
 62
    7
 10
171.70652749999999
 20
414.90002399999997
 40
0.5
 50
0
 51
90.000003000000007
  0
LINE
  8
_0-0_0
  6
CONTINUOUS
 62
    7
 10
171.70652749999999
 20
415.40002399999997
 11
168.96363049999999
 21
415.40002399999997
  0
ARC
  8
_0-0_0
  6
CONTINUOUS
 62
    7
 10
157.70652749999999
 20
405.15002399999997
 40
0.5
 50
179.99999099999999
 51
269.99999700000001
  0
LINE
  8
_0-0_0
  6
CONTINUOUS
 62
    7
 10
157.20652749999999
 20
414.90002399999997
 11
157.20652749999999
 21
405.15002399999997
  0
LINE
  8
_0-0_0
  6
CONTINUOUS
 62
    7
 10
162.84941850000001
 20
415.40002399999997
 11
157.70652749999999
 21
415.40002399999997
  0
ARC
  8
_0-0_0
  6
CONTINUOUS
 62
    7
 10
157.70652749999999
 20
414.90002399999997
 40
0.5
 50
90.000003000000007
 51
179.99999099999999
  0
LINE
  8
_0-0_0
  6
CONTINUOUS
 62
    7
 10
156.40652449999999
 20
413
 11
156.60652149999999
 21
413
  0
LINE
  8
_0-0_0
  6
CONTINUOUS
 62
    7
 10
156.40652449999999
 20
413.80001800000002
 11
156.60652149999999
 21
413.80001800000002
  0
LINE
  8
_0-0_0
  6
CONTINUOUS
 62
    7
 10
156.40652449999999
 20
413.80001800000002
 11
156.40652449999999
 21
413.00012199999998
  0
LINE
  8
_0-0_0
  6
CONTINUOUS
 62
    7
 10
156.40652449999999
 20
394.20001200000002
 11
156.60652149999999
 21
394.20001200000002
  0
LINE
  8
_0-0_0
  6
CONTINUOUS
 62
    7
 10
156.40652449999999
 20
397.20001200000002
 11
156.40652449999999
 21
394.20001200000002
  0
LINE
  8
_0-0_0
  6
CONTINUOUS
 62
    7
 10
156.40652449999999
 20
409.43771400000003
 11
156.40652449999999
 21
397.20001200000002
  0
LINE
  8
_0-0_0
  6
CONTINUOUS
 62
    7
 10
156.40652449999999
 20
410.40048200000001
 11
156.40652449999999
 21
409.43771400000003
  0
ARC
  8
_0-0_0
  6
CONTINUOUS
 62
    7
 10
157.10652149999999
 20
403.70001200000002
 40
0.5
 50
90.000003000000007
 51
179.99999099999999
  0
ARC
  8
_0-0_0
  6
CONTINUOUS
 62
    7
 10
157.10652149999999
 20
398.70001200000002
 40
0.5
 50
179.99999099999999
 51
269.99999700000001
  0
LINE
  8
_0-0_0
  6
CONTINUOUS
 62
    7
 10
156.60652149999999
 20
387.5
 11
157.10652149999999
 21
387.5
  0
LINE
  8
_0-0_0
  6
CONTINUOUS
 62
    7
 10
156.60652149999999
 20
387.5
 11
157.10652149999999
 21
387
  0
LINE
  8
_0-0_0
  6
CONTINUOUS
 62
    7
 10
157.70652749999999
 20
404.20001200000002
 11
157.10652149999999
 21
404.20001200000002
  0
LINE
  8
_0-0_0
  6
CONTINUOUS
 62
    7
 10
158.30652650000002
 20
404.15002399999997
 11
158.30652650000002
 21
398.60000600000001
  0
LINE
  8
_0-0_0
  6
CONTINUOUS
 62
    7
 10
174.10652149999999
 20
387.5
 11
157.10652149999999
 21
387.5
  0
LINE
  8
_0-0_0
  6
CONTINUOUS
 62
    7
 10
157.10652149999999
 20
398.20001200000002
 11
157.70652749999999
 21
398.20001200000002
  0
ARC
  8
_0-0_0
  6
CONTINUOUS
 62
    7
 10
157.70652749999999
 20
397.60000600000001
 40
0.5
 50
90.000003000000007
 51
179.99999099999999
  0
LINE
  8
_0-0_0
  6
CONTINUOUS
 62
    7
 10
175.40652449999999
 20
410.40048200000001
 11
175.40652449999999
 21
413
  0
LINE
  8
_0-0_0
  6
CONTINUOUS
 62
    7
 10
174.40652449999999
 20
411.30001800000002
 11
174.34520750000001
 21
411.30001800000002
  0
LINE
  8
_0-0_0
  6
CONTINUOUS
 62
    7
 10
174.30389350000002
 20
411.30001800000002
 11
174.30166650000001
 21
411.30001800000002
  0
LINE
  8
_0-0_0
  6
CONTINUOUS
 62
    7
 10
174.16999049999998
 20
391.30001800000002
 11
174.20691649999998
 21
391.22976699999998
  0
LINE
  8
_0-0_0
  6
CONTINUOUS
 62
    7
 10
174.20691649999998
 20
391.22976699999998
 11
174.2265165
 21
391.195313
  0
LINE
  8
_0-0_0
  6
CONTINUOUS
 62
    7
 10
174.2265165
 20
391.195313
 11
174.25260950000001
 21
391.15344199999998
  0
LINE
  8
_0-0_0
  6
CONTINUOUS
 62
    7
 10
174.25260950000001
 20
391.15344199999998
 11
174.26591450000001
 21
391.13439899999997
  0
LINE
  8
_0-0_0
  6
CONTINUOUS
 62
    7
 10
174.26591450000001
 20
391.13439899999997
 11
174.28427149999999
 21
391.11203
  0
LINE
  8
_0-0_0
  6
CONTINUOUS
 62
    7
 10
174.28427149999999
 20
391.11203
 11
174.2970655
 21
391.10140999999999
  0
LINE
  8
_0-0_0
  6
CONTINUOUS
 62
    7
 10
174.2970655
 20
391.10140999999999
 11
174.30166650000001
 21
391.10000600000001
  0
LINE
  8
_0-0_0
  6
CONTINUOUS
 62
    7
 10
174.30389350000002
 20
391.10000600000001
 11
174.30166650000001
 21
391.10000600000001
  0
LINE
  8
_0-0_0
  6
CONTINUOUS
 62
    7
 10
174.16999049999998
 20
411.10000600000001
 11
174.20691649999998
 21
411.17022700000001
  0
LINE
  8
_0-0_0
  6
CONTINUOUS
 62
    7
 10
174.20691649999998
 20
411.17022700000001
 11
174.22652449999998
 21
411.20471199999997
  0
LINE
  8
_0-0_0
  6
CONTINUOUS
 62
    7
 10
174.22652449999998
 20
411.20471199999997
 11
174.25260950000001
 21
411.24655200000001
  0
LINE
  8
_0-0_0
  6
CONTINUOUS
 62
    7
 10
174.25260950000001
 20
411.24655200000001
 11
174.26591450000001
 21
411.26559400000002
  0
LINE
  8
_0-0_0
  6
CONTINUOUS
 62
    7
 10
174.26591450000001
 20
411.26559400000002
 11
174.28427149999999
 21
411.28799400000003
  0
LINE
  8
_0-0_0
  6
CONTINUOUS
 62
    7
 10
174.28427149999999
 20
411.28799400000003
 11
174.2970655
 21
411.29861499999998
  0
LINE
  8
_0-0_0
  6
CONTINUOUS
 62
    7
 10
174.2970655
 20
411.29861499999998
 11
174.30166650000001
 21
411.30001800000002
  0
LINE
  8
_0-0_0
  6
CONTINUOUS
 62
    7
 10
174.30389350000002
 20
391.10000600000001
 11
174.34520750000001
 21
391.10000600000001
  0
LINE
  8
_0-0_0
  6
CONTINUOUS
 62
    7
 10
174.40652449999999
 20
391.10000600000001
 11
174.34520750000001
 21
391.10000600000001
  0
LINE
  8
_0-0_0
  6
CONTINUOUS
 62
    7
 10
174.34520750000001
 20
391.10000600000001
 11
174.35476649999998
 21
391.09896900000001
  0
LINE
  8
_0-0_0
  6
CONTINUOUS
 62
    7
 10
174.35476649999998
 20
391.09896900000001
 11
174.36425750000001
 21
391.09576399999997
  0
LINE
  8
_0-0_0
  6
CONTINUOUS
 62
    7
 10
174.36425750000001
 20
391.09576399999997
 11
174.3735125
 21
391.09039300000001
  0
LINE
  8
_0-0_0
  6
CONTINUOUS
 62
    7
 10
174.3735125
 20
391.09039300000001
 11
174.38230849999999
 21
391.08288599999997
  0
LINE
  8
_0-0_0
  6
CONTINUOUS
 62
    7
 10
174.38230849999999
 20
391.08288599999997
 11
174.3977055
 21
391.06225599999999
  0
LINE
  8
_0-0_0
  6
CONTINUOUS
 62
    7
 10
174.3977055
 20
391.06225599999999
 11
174.40948449999999
 21
391.03497299999998
  0
LINE
  8
_0-0_0
  6
CONTINUOUS
 62
    7
 10
174.40948449999999
 20
391.03497299999998
 11
174.4166645
 21
391.002838
  0
LINE
  8
_0-0_0
  6
CONTINUOUS
 62
    7
 10
174.4166645
 20
391.002838
 11
174.41855649999999
 21
390.96777300000002
  0
LINE
  8
_0-0_0
  6
CONTINUOUS
 62
    7
 10
174.41855649999999
 20
390.96777300000002
 11
174.41471050000001
 21
390.93160999999998
  0
LINE
  8
_0-0_0
  6
CONTINUOUS
 62
    7
 10
174.41471050000001
 20
390.93160999999998
 11
174.40652449999999
 21
390.90002399999997
  0
ARC
  8
_0-0_0
  6
CONTINUOUS
 62
    7
 10
172.40652449999999
 20
392.40002399999997
 40
2.2999999999999998
 50
280.28656300000006
 51
325.58260500000006
  0
LINE
  8
_0-0_0
  6
CONTINUOUS
 62
    7
 10
174.10652149999999
 20
387.90002399999997
 11
172.90652449999999
 21
387.90002399999997
  0
LINE
  8
_0-0_0
  6
CONTINUOUS
 62
    7
 10
174.10652149999999
 20
387
 11
157.10652149999999
 21
387
  0
LINE
  8
_0-0_0
  6
CONTINUOUS
 62
    7
 10
172.20652749999999
 20
412.55658
 11
172.2067945
 21
412.54016100000001
  0
ARC
  8
_0-0_0
  6
CONTINUOUS
 62
    7
 10
172.70652749999999
 20
412.55658
 40
0.5
 50
181.88290099999998
 51
260.07179799999994
  0
LINE
  8
_0-0_0
  6
CONTINUOUS
 62
    7
 10
171.70652749999999
 20
413.34429899999998
 11
171.90652449999999
 21
413.14999399999999
  0
LINE
  8
_0-0_0
  6
CONTINUOUS
 62
    7
 10
171.90652449999999
 20
413.14999399999999
 11
172.20652749999999
 21
412.85000600000001
  0
LINE
  8
_0-0_0
  6
CONTINUOUS
 62
    7
 10
172.20652749999999
 20
412.85000600000001
 11
171.90652449999999
 21
412.85000600000001
  0
ARC
  8
_0-0_0
  6
CONTINUOUS
 62
    7
 10
168.96363049999999
 20
415.90002399999997
 40
0.5
 50
225
 51
269.99999700000001
  0
ARC
  8
_0-0_0
  6
CONTINUOUS
 62
    7
 10
162.84941850000001
 20
415.90002399999997
 40
0.5
 50
269.99999700000001
 51
314.99999200000002
  0
LINE
  8
_0-0_0
  6
CONTINUOUS
 62
    7
 10
156.40652449999999
 20
413
 11
156.40652449999999
 21
410.40048200000001
  0
LINE
  8
_0-0_0
  6
CONTINUOUS
 62
    7
 10
174.60652149999999
 20
413.800049
 11
174.60652149999999
 21
414
  0
CIRCLE
  8
_0-0_0
  6
CONTINUOUS
 62
    7
 10
165.90652449999999
 20
413
 40
2.25
  0
ARC
  8
_0-0_0
  6
CONTINUOUS
 62
    7
 10
165.90652449999999
 20
392.90002399999997
 40
1.75
 50
179.99999099999999
 51
359.99998299999993
  0
LINE
  8
_0-0_0
  6
CONTINUOUS
 62
    7
 10
164.15652449999999
 20
393.15002399999997
 11
164.15652449999999
 21
392.90002399999997
  0
ARC
  8
_0-0_0
  6
CONTINUOUS
 62
    7
 10
165.90652449999999
 20
393.15002399999997
 40
1.75
 50
0
 51
179.99999099999999
  0
LINE
  8
_0-0_0
  6
CONTINUOUS
 62
    7
 10
167.65652449999999
 20
392.90002399999997
 11
167.65652449999999
 21
393.15002399999997
  0
ARC
  8
_0-0_0
  6
CONTINUOUS
 62
    7
 10
171.60652149999999
 20
393.20001200000002
 40
3
 50
269.99999700000001
 51
0
  0
LINE
  8
_0-0_0
  6
CONTINUOUS
 62
    7
 10
157.20652749999999
 20
397.60000600000001
 11
157.20652749999999
 21
396.75
  0
LINE
  8
_0-0_0
  6
CONTINUOUS
 62
    7
 10
157.20652749999999
 20
390.70001200000002
 11
157.20652749999999
 21
396.75
  0
ARC
  8
_0-0_0
  6
CONTINUOUS
 62
    7
 10
172.20652749999999
 20
409.70001200000002
 40
2.3999999999999999
 50
0
 51
80.071809999999985
  0
LINE
  8
_0-0_0
  6
CONTINUOUS
 62
    7
 10
174.60652149999999
 20
393.20001200000002
 11
174.60652149999999
 21
406
  0
LINE
  8
_0-0_0
  6
CONTINUOUS
 62
    7
 10
174.60652149999999
 20
406
 11
174.60652149999999
 21
409.70001200000002
  0
ARC
  8
_0-0_0
  6
CONTINUOUS
 62
    7
 10
172.90652449999999
 20
389.64501999999999
 40
0.5
 50
100.28656100000001
 51
179.99999099999999
  0
LINE
  8
_0-0_0
  6
CONTINUOUS
 62
    7
 10
172.40652449999999
 20
388.40002399999997
 11
172.40652449999999
 21
389.64501999999999
  0
ARC
  8
_0-0_0
  6
CONTINUOUS
 62
    7
 10
172.90652449999999
 20
388.40002399999997
 40
0.5
 50
179.99999099999999
 51
269.99999700000001
  0
LINE
  8
_0-0_0
  6
CONTINUOUS
 62
    7
 10
163.20297249999999
 20
415.546448
 11
163.26007849999996
 21
415.60357699999997
  0
ARC
  8
_0-0_0
  6
CONTINUOUS
 62
    7
 10
163.61363249999999
 20
415.25
 40
0.5
 50
90.000003000000007
 51
135
  0
LINE
  8
_0-0_0
  6
CONTINUOUS
 62
    7
 10
168.19941749999998
 20
415.75
 11
163.61363249999999
 21
415.75
  0
ARC
  8
_0-0_0
  6
CONTINUOUS
 62
    7
 10
168.19941749999998
 20
415.25
 40
0.5
 50
45.00000099999999
 51
90.000002999999992
  0
LINE
  8
_0-0_0
  6
CONTINUOUS
 62
    7
 10
168.61007649999999
 20
415.546448
 11
168.55297050000001
 21
415.60357699999997
  0
ARC
  8
_0-0_0
  6
CONTINUOUS
 62
    7
 10
171.90652449999999
 20
409.85000600000001
 40
3
 50
90.000003000000007
 51
179.99999099999999
  0
LINE
  8
_0-0_0
  6
CONTINUOUS
 62
    7
 10
159.90652449999999
 20
396.25
 11
157.70652749999999
 21
396.25
  0
ARC
  8
_0-0_0
  6
CONTINUOUS
 62
    7
 10
159.90652449999999
 20
393.25
 40
3
 50
0
 51
90.000003000000007
  0
LINE
  8
_0-0_0
  6
CONTINUOUS
 62
    7
 10
162.90652449999999
 20
393.25
 11
162.90652449999999
 21
390.70001200000002
  0
LINE
  8
_0-0_0
  6
CONTINUOUS
 62
    7
 10
163.40652449999999
 20
390.20001200000002
 11
171.60652149999999
 21
390.20001200000002
  0
LINE
  8
_0-0_0
  6
CONTINUOUS
 62
    7
 10
171.90652449999999
 20
406.5
 11
174.10652149999999
 21
406.5
  0
ARC
  8
_0-0_0
  6
CONTINUOUS
 62
    7
 10
171.90652449999999
 20
409.5
 40
3
 50
179.99999099999999
 51
269.99999700000001
  0
LINE
  8
_0-0_0
  6
CONTINUOUS
 62
    7
 10
168.90652449999999
 20
409.5
 11
168.90652449999999
 21
409.85000600000001
  0
CIRCLE
  8
_0-0_0
  6
CONTINUOUS
 62
    7
 10
165.90652449999999
 20
413
 40
2.0499999999999998
  0
ARC
  8
_0-0_0
  6
CONTINUOUS
 62
    7
 10
165.90652449999999
 20
392.90002399999997
 40
1.55
 50
179.99999099999999
 51
0
  0
LINE
  8
_0-0_0
  6
CONTINUOUS
 62
    7
 10
164.35652149999999
 20
393.15002399999997
 11
164.35652149999999
 21
392.90002399999997
  0
ARC
  8
_0-0_0
  6
CONTINUOUS
 62
    7
 10
165.90652449999999
 20
393.15002399999997
 40
1.55
 50
0
 51
179.99999099999999
  0
LINE
  8
_0-0_0
  6
CONTINUOUS
 62
    7
 10
167.45652749999999
 20
392.90002399999997
 11
167.45652749999999
 21
393.15002399999997
  0
LINE
  8
_0-0_0
  6
CONTINUOUS
 62
    7
 10
157.70652749999999
 20
390.20001200000002
 11
163.40652449999999
 21
390.20001200000002
  0
ARC
  8
_0-0_0
  6
CONTINUOUS
 62
    7
 10
157.70652749999999
 20
390.70001200000002
 40
0.5
 50
179.99999099999999
 51
269.99999700000001
  0
ARC
  8
_0-0_0
  6
CONTINUOUS
 62
    7
 10
157.70652749999999
 20
396.75
 40
0.5
 50
179.99999099999999
 51
269.99999700000001
  0
ARC
  8
_0-0_0
  6
CONTINUOUS
 62
    7
 10
174.10652149999999
 20
406
 40
0.5
 50
0
 51
90.000003000000007
  0
ARC
  8
_0-0_0
  6
CONTINUOUS
 62
    7
 10
163.40652449999999
 20
390.70001200000002
 40
0.5
 50
179.99999099999999
 51
269.99999700000001
  0
CIRCLE
  8
_0-0_0
  6
CONTINUOUS
 62
    7
 10
171.90652449999999
 20
409.5
 40
2.25
  0
CIRCLE
  8
_0-0_0
  6
CONTINUOUS
 62
    7
 10
159.90652449999999
 20
392.90002399999997
 40
2.25
  0
CIRCLE
  8
_0-0_0
  6
CONTINUOUS
 62
    7
 10
171.90652449999999
 20
409.5
 40
2
  0
CIRCLE
  8
_0-0_0
  6
CONTINUOUS
 62
    7
 10
159.90652449999999
 20
392.90002399999997
 40
2
  0
LINE
  8
_0-0_0
  6
CONTINUOUS
 62
    7
 10
170.75652350000001
 20
409.5
 11
171.32441749999998
 21
410.5
  0
LINE
  8
_0-0_0
  6
CONTINUOUS
 62
    7
 10
171.32441749999998
 20
408.5
 11
170.75652350000001
 21
409.5
  0
LINE
  8
_0-0_0
  6
CONTINUOUS
 62
    7
 10
172.48863249999999
 20
408.5
 11
171.32441749999998
 21
408.5
  0
LINE
  8
_0-0_0
  6
CONTINUOUS
 62
    7
 10
173.05652649999999
 20
409.5
 11
172.48863249999999
 21
408.5
  0
LINE
  8
_0-0_0
  6
CONTINUOUS
 62
    7
 10
172.48863249999999
 20
410.5
 11
173.05652649999999
 21
409.5
  0
LINE
  8
_0-0_0
  6
CONTINUOUS
 62
    7
 10
171.32441749999998
 20
410.5
 11
172.48863249999999
 21
410.5
  0
LINE
  8
_0-0_0
  6
CONTINUOUS
 62
    7
 10
158.75652350000001
 20
392.90002399999997
 11
159.32441749999998
 21
393.90002399999997
  0
LINE
  8
_0-0_0
  6
CONTINUOUS
 62
    7
 10
159.32441749999998
 20
391.90002399999997
 11
158.75652350000001
 21
392.90002399999997
  0
LINE
  8
_0-0_0
  6
CONTINUOUS
 62
    7
 10
160.48863249999999
 20
391.90002399999997
 11
159.32441749999998
 21
391.90002399999997
  0
LINE
  8
_0-0_0
  6
CONTINUOUS
 62
    7
 10
161.05652650000002
 20
392.90002399999997
 11
160.48863249999999
 21
391.90002399999997
  0
LINE
  8
_0-0_0
  6
CONTINUOUS
 62
    7
 10
160.48863249999999
 20
393.90002399999997
 11
161.05652650000002
 21
392.90002399999997
  0
LINE
  8
_0-0_0
  6
CONTINUOUS
 62
    7
 10
159.32441749999998
 20
393.90002399999997
 11
160.48863249999999
 21
393.90002399999997
  0
LINE
  8
_0-0_0
  6
CONTINUOUS
 62
    7
 10
174.60652149999999
 20
410.30032299999999
 11
174.60652149999999
 21
410.30630500000001
  0
LINE
  8
_0-0_0
  6
CONTINUOUS
 62
    7
 10
174.60652149999999
 20
411.5
 11
174.6061555
 21
411.48791499999999
  0
LINE
  8
_0-0_0
  6
CONTINUOUS
 62
    7
 10
174.6061555
 20
390.91210899999999
 11
174.60652149999999
 21
390.90002399999997
  0
LINE
  8
_0-0_0
  6
CONTINUOUS
 62
    7
 10
174.60580449999998
 20
406.02673299999998
 11
174.60652149999999
 21
406
  0
LINE
  8
_0-0_0
  6
CONTINUOUS
 62
    7
 10
180.10652149999999
 20
443.40002399999997
 11
180.10652149999999
 21
430.40002399999997
  0
LINE
  8
_0-0_0
  6
CONTINUOUS
 62
    7
 10
180.30651850000001
 20
443.40002399999997
 11
180.10652149999999
 21
443.40002399999997
  0
LINE
  8
_0-0_0
  6
CONTINUOUS
 62
    7
 10
180.30651850000001
 20
430.40002399999997
 11
180.10652149999999
 21
430.40002399999997
  0
LINE
  8
_0-0_0
  6
CONTINUOUS
 62
    7
 10
180.30651850000001
 20
443.40002399999997
 11
180.30651850000001
 21
462
  0
LINE
  8
_0-0_0
  6
CONTINUOUS
 62
    7
 10
180.40652449999999
 20
462
 11
180.30651850000001
 21
462
  0
LINE
  8
_0-0_0
  6
CONTINUOUS
 62
    7
 10
180.40652449999999
 20
464.5
 11
180.40652449999999
 21
462
  0
ARC
  8
_0-0_0
  6
CONTINUOUS
 62
    7
 10
179.90652449999999
 20
464.5
 40
0.5
 50
0
 51
90.000003000000007
  0
LINE
  8
_0-0_0
  6
CONTINUOUS
 62
    7
 10
179.90652449999999
 20
465
 11
176.90652449999999
 21
465
  0
ARC
  8
_0-0_0
  6
CONTINUOUS
 62
    7
 10
176.90652449999999
 20
464.5
 40
0.5
 50
90.000003000000007
 51
179.99999099999999
  0
ARC
  8
_0-0_0
  6
CONTINUOUS
 62
    7
 10
172.40652449999999
 20
417
 40
0.5
 50
179.99999099999999
 51
269.99999700000001
  0
LINE
  8
_0-0_0
  6
CONTINUOUS
 62
    7
 10
174.90652449999999
 20
416.5
 11
172.40652449999999
 21
416.5
  0
ARC
  8
_0-0_0
  6
CONTINUOUS
 62
    7
 10
174.90652449999999
 20
417
 40
0.5
 50
269.99999700000001
 51
0
  0
LINE
  8
_0-0_0
  6
CONTINUOUS
 62
    7
 10
175.40652449999999
 20
422
 11
175.40652449999999
 21
417
  0
ARC
  8
_0-0_0
  6
CONTINUOUS
 62
    7
 10
175.90652449999999
 20
422
 40
0.5
 50
90.000003000000007
 51
179.99999099999999
  0
LINE
  8
_0-0_0
  6
CONTINUOUS
 62
    7
 10
179.90652449999999
 20
422.5
 11
175.90652449999999
 21
422.5
  0
ARC
  8
_0-0_0
  6
CONTINUOUS
 62
    7
 10
179.90652449999999
 20
423
 40
0.5
 50
269.99999700000001
 51
0
  0
LINE
  8
_0-0_0
  6
CONTINUOUS
 62
    7
 10
180.40652449999999
 20
426.20001200000002
 11
180.40652449999999
 21
423
  0
LINE
  8
_0-0_0
  6
CONTINUOUS
 62
    7
 10
180.30651850000001
 20
426.20001200000002
 11
180.40652449999999
 21
426.20001200000002
  0
LINE
  8
_0-0_0
  6
CONTINUOUS
 62
    7
 10
180.30651850000001
 20
426.20001200000002
 11
180.30651850000001
 21
430.40002399999997
  0
LINE
  8
_0-0_0
  6
CONTINUOUS
 62
    7
 10
179.40652449999999
 20
464.5
 11
161.60652149999999
 21
464.5
  0
ARC
  8
_0-0_0
  6
CONTINUOUS
 62
    7
 10
179.40652449999999
 20
464
 40
0.5
 50
0
 51
90.000003000000007
  0
LINE
  8
_0-0_0
  6
CONTINUOUS
 62
    7
 10
179.90652449999999
 20
464
 11
179.90652449999999
 21
423.5
  0
ARC
  8
_0-0_0
  6
CONTINUOUS
 62
    7
 10
179.40652449999999
 20
423.5
 40
0.5
 50
269.99999700000001
 51
0
  0
LINE
  8
_0-0_0
  6
CONTINUOUS
 62
    7
 10
175.90652449999999
 20
423
 11
179.40652449999999
 21
423
  0
ARC
  8
_0-0_0
  6
CONTINUOUS
 62
    7
 10
175.90652449999999
 20
422
 40
1
 50
90.000003000000007
 51
179.99999099999999
  0
LINE
  8
_0-0_0
  6
CONTINUOUS
 62
    7
 10
174.90652449999999
 20
422
 11
174.90652449999999
 21
417.5
  0
ARC
  8
_0-0_0
  6
CONTINUOUS
 62
    7
 10
174.40652449999999
 20
417.5
 40
0.5
 50
269.99999700000001
 51
0
  0
LINE
  8
_0-0_0
  6
CONTINUOUS
 62
    7
 10
157.40652449999999
 20
417
 11
174.40652449999999
 21
417
  0
LINE
  8
_0-0_0
  6
CONTINUOUS
 62
    7
 10
175.90652449999999
 20
464.70001200000002
 11
175.90652449999999
 21
464.5
  0
ARC
  8
_0-0_0
  6
CONTINUOUS
 62
    7
 10
175.60652149999999
 20
464.70001200000002
 40
0.2999999999999999
 50
0
 51
90.000003000000007
  0
LINE
  8
_0-0_0
  6
CONTINUOUS
 62
    7
 10
175.60652149999999
 20
465
 11
160.90652449999999
 21
465
  0
ARC
  8
_0-0_0
  6
CONTINUOUS
 62
    7
 10
160.90652449999999
 20
464.70001200000002
 40
0.2999999999999999
 50
90.000003000000007
 51
179.99999099999999
  0
LINE
  8
_0-0_0
  6
CONTINUOUS
 62
    7
 10
160.60652149999999
 20
464.70001200000002
 11
160.60652149999999
 21
461.5
  0
LINE
  8
_0-0_0
  6
CONTINUOUS
 62
    7
 10
160.60652149999999
 20
461.5
 11
154.90652449999999
 21
461.5
  0
LINE
  8
_0-0_0
  6
CONTINUOUS
 62
    7
 10
154.90652449999999
 20
461.5
 11
154.10652149999999
 21
460.70001200000002
  0
ARC
  8
_0-0_0
  6
CONTINUOUS
 62
    7
 10
161.60652149999999
 20
464
 40
0.5
 50
90.000003000000007
 51
179.99999099999999
  0
LINE
  8
_0-0_0
  6
CONTINUOUS
 62
    7
 10
161.10652149999999
 20
464
 11
161.10652149999999
 21
461.20001200000002
  0
ARC
  8
_0-0_0
  6
CONTINUOUS
 62
    7
 10
160.60652149999999
 20
461.20001200000002
 40
0.5
 50
269.99999700000001
 51
0
  0
LINE
  8
_0-0_0
  6
CONTINUOUS
 62
    7
 10
160.60652149999999
 20
460.70001200000002
 11
152.40652449999999
 21
460.70001200000002
  0
ARC
  8
_0-0_0
  6
CONTINUOUS
 62
    7
 10
152.40652449999999
 20
460.20001200000002
 40
0.5
 50
90.000003000000007
 51
179.99999099999999
  0
LINE
  8
_0-0_0
  6
CONTINUOUS
 62
    7
 10
151.90652449999999
 20
423.5
 11
151.90652449999999
 21
460.20001200000002
  0
ARC
  8
_0-0_0
  6
CONTINUOUS
 62
    7
 10
152.40652449999999
 20
423.5
 40
0.5
 50
179.99999099999999
 51
269.99999700000001
  0
LINE
  8
_0-0_0
  6
CONTINUOUS
 62
    7
 10
152.40652449999999
 20
423
 11
155.90652449999999
 21
423
  0
ARC
  8
_0-0_0
  6
CONTINUOUS
 62
    7
 10
155.90652449999999
 20
422
 40
1
 50
0
 51
90.000003000000007
  0
LINE
  8
_0-0_0
  6
CONTINUOUS
 62
    7
 10
156.90652449999999
 20
417.5
 11
156.90652449999999
 21
422
  0
ARC
  8
_0-0_0
  6
CONTINUOUS
 62
    7
 10
157.40652449999999
 20
417.5
 40
0.5
 50
179.99999099999999
 51
269.99999700000001
  0
CIRCLE
  8
_0-0_0
  6
CONTINUOUS
 62
    7
 10
165.90652449999999
 20
426
 40
2.0670000000000002
  0
LINE
  8
_0-0_0
  6
CONTINUOUS
 62
    7
 10
153.90652449999999
 20
461
 11
153.90652449999999
 21
460.70001200000002
  0
LINE
  8
_0-0_0
  6
CONTINUOUS
 62
    7
 10
153.90652449999999
 20
461
 11
151.90652449999999
 21
461
  0
ARC
  8
_0-0_0
  6
CONTINUOUS
 62
    7
 10
151.90652449999999
 20
460.5
 40
0.5
 50
90.000003000000007
 51
179.99999099999999
  0
LINE
  8
_0-0_0
  6
CONTINUOUS
 62
    7
 10
151.40652449999999
 20
460.5
 11
151.40652449999999
 21
423
  0
ARC
  8
_0-0_0
  6
CONTINUOUS
 62
    7
 10
151.90652449999999
 20
423
 40
0.5
 50
179.99999099999999
 51
269.99999700000001
  0
LINE
  8
_0-0_0
  6
CONTINUOUS
 62
    7
 10
155.90652449999999
 20
422.5
 11
151.90652449999999
 21
422.5
  0
ARC
  8
_0-0_0
  6
CONTINUOUS
 62
    7
 10
155.90652449999999
 20
422
 40
0.5
 50
0
 51
90.000003000000007
  0
LINE
  8
_0-0_0
  6
CONTINUOUS
 62
    7
 10
156.40652449999999
 20
417
 11
156.40652449999999
 21
422
  0
ARC
  8
_0-0_0
  6
CONTINUOUS
 62
    7
 10
156.90652449999999
 20
417
 40
0.5
 50
179.99999099999999
 51
269.99999700000001
  0
LINE
  8
_0-0_0
  6
CONTINUOUS
 62
    7
 10
156.90652449999999
 20
416.5
 11
159.40652449999999
 21
416.5
  0
ARC
  8
_0-0_0
  6
CONTINUOUS
 62
    7
 10
159.40652449999999
 20
417
 40
0.5
 50
269.99999700000001
 51
0
  0
LINE
  8
_0-0_0
  6
CONTINUOUS
 62
    7
 10
175.40652449999999
 20
417
 11
175.50652350000001
 21
417
  0
LINE
  8
_0-0_0
  6
CONTINUOUS
 62
    7
 10
175.50652350000001
 20
417
 11
175.50652350000001
 21
417.5
  0
LINE
  8
_0-0_0
  6
CONTINUOUS
 62
    7
 10
175.50652350000001
 20
421.5
 11
175.50652350000001
 21
417.5
  0
LINE
  8
_0-0_0
  6
CONTINUOUS
 62
    7
 10
175.40652449999999
 20
422
 11
175.50652350000001
 21
422
  0
LINE
  8
_0-0_0
  6
CONTINUOUS
 62
    7
 10
175.50652350000001
 20
421.5
 11
175.50652350000001
 21
422
  0
LINE
  8
_0-0_0
  6
CONTINUOUS
 62
    7
 10
175.60652149999999
 20
417.5
 11
175.60652149999999
 21
417.63037100000003
  0
LINE
  8
_0-0_0
  6
CONTINUOUS
 62
    7
 10
175.60652149999999
 20
421.13037100000003
 11
175.60652149999999
 21
417.63037100000003
  0
LINE
  8
_0-0_0
  6
CONTINUOUS
 62
    7
 10
175.50652350000001
 20
421.40002399999997
 11
175.60652149999999
 21
421.40002399999997
  0
LINE
  8
_0-0_0
  6
CONTINUOUS
 62
    7
 10
175.60652149999999
 20
421.13037100000003
 11
175.60652149999999
 21
421.40002399999997
  0
LINE
  8
_0-0_0
  6
CONTINUOUS
 62
    7
 10
175.50652350000001
 20
417.5
 11
175.60652149999999
 21
417.5
  0
LINE
  8
_0-0_0
  6
CONTINUOUS
 62
    7
 10
175.50652350000001
 20
417.5
 11
175.60652149999999
 21
417.5
  0
ENDSEC
  0
EOF
