  0
SECTION
  2
HEADER
  9
$ACADVER
  1
AC1009
  9
$INSBASE
 10
0
 20
0
 30
0
  9
$EXTMIN
 10
0
 20
0
  9
$EXTMAX
 10
420.5
 20
297
  9
$LIMMIN
 10
0
 20
0
  9
$LIMMAX
 10
420.5
 20
297
  9
$LTSCALE
 40
0.5
  0
ENDSEC
  0
SECTION
  2
TABLES
  0
TABLE
  2
LTYPE
 70
     9
  0
LTYPE
  2
CONTINUOUS
 70
    64
  3
実線
 72
    65
 73
     0
 40
0.0
  0
LTYPE
  2
DASHED1
 70
    64
  3
--  --  --  --  --  --  --  --  
 72
    65
 73
     2
 40
2.5
 49
1.25
 49
-1.25
  0
LTYPE
  2
DASHED2
 70
    64
  3
----    ----    ----    ----    
 72
    65
 73
     2
 40
5.0
 49
2.5
 49
-2.5
  0
LTYPE
  2
DASHED3
 70
    64
  3
------  ------  ------  ------  
 72
    65
 73
     2
 40
5.0
 49
3.75
 49
-1.25
  0
LTYPE
  2
CENTER1
 70
    64
  3
----- - ----- - ----- - ----- - 
 72
    65
 73
     4
 40
10.0
 49
6.25
 49
-1.25
 49
1.25
 49
-1.25
  0
LTYPE
  2
CENTER2
 70
    64
  3
----------  --  ----------  --  
 72
    65
 73
     4
 40
20.0
 49
12.5
 49
-2.5
 49
2.5
 49
-2.5
  0
LTYPE
  2
PHANTOM1
 70
    64
  3
--- - - --- - - --- - - --- - - 
 72
    65
 73
     6
 40
10.0
 49
3.25
 49
-1.25
 49
1.25
 49
-1.25
 49
1.25
 49
-1.25
  0
LTYPE
  2
PHANTOM2
 70
    64
  3
--------  -  -  --------  -  -  
 72
    65
 73
     6
 40
20.0
 49
10.0
 49
-2.5
 49
1.25
 49
-2.5
 49
1.25
 49
-2.5
  0
LTYPE
  2
DOT
 70
    64
  3
-   -   -   -   -   -   -   -   
 72
    65
 73
     2
 40
2.5
 49
0.625
 49
-1.875
  0
LTYPE
  2
DUMMY
 70
    64
  3
ダミー
 72
    65
 73
     0
 40
0.0
  0
LTYPE
  2
RAND1
 70
    64
  3
ランダム線1
 72
    65
 73
     4
 40
10.0
 49
1.0
 49
-2.0
 49
3.0
 49
-4.0
  0
LTYPE
  2
RAND2
 70
    64
  3
ランダム線2
 72
    65
 73
     4
 40
14.0
 49
2.0
 49
-3.0
 49
4.0
 49
-5.0
  0
LTYPE
  2
RAND3
 70
    64
  3
ランダム線3
 72
    65
 73
     4
 40
18.0
 49
3.0
 49
-4.0
 49
5.0
 49
-6.0
  0
LTYPE
  2
RAND4
 70
    64
  3
ランダム線4
 72
    65
 73
     4
 40
22.0
 49
4.0
 49
-5.0
 49
6.0
 49
-7.0
  0
LTYPE
  2
RAND5
 70
    64
  3
ランダム線5
 72
    65
 73
     4
 40
26.0
 49
5.0
 49
-6.0
 49
7.0
 49
-8.0
  0
LTYPE
  2
LONG1
 70
    64
  3
----------  --  ----------  --  
 72
    65
 73
     4
 40
40.0
 49
32.5
 49
-2.5
 49
2.5
 49
-2.5
  0
LTYPE
  2
LONG2
 70
    64
  3
--------  -  -  --------  -  -  
 72
    65
 73
     6
 40
40.0
 49
30.0
 49
-2.5
 49
1.25
 49
-2.5
 49
1.25
 49
-2.5
  0
LTYPE
  2
LONG3
 70
    64
  3
+++++++++++++++..+++++++++++++++
 72
    65
 73
     2
 40
40.0
 49
37.5
 49
-2.5
  0
LTYPE
  2
LONG4
 70
    64
  3
+++++++++++++++..+++++++++++++++
 72
    65
 73
     2
 40
80.0
 49
75.0
 49
-5.0
  0
LTYPE
  2
LONG5
 70
    64
  3
----------  --  ----------  --  
 72
    65
 73
     4
 40
60.0
 49
37.5
 49
-7.5
 49
7.5
 49
-7.5
  0
LTYPE
  2
dashed
 70
   64
  3
-------   -------------   ------
 72
   65
 73
    2
 40
7.5
 49
6
 49
-1.5
  0
LTYPE
  2
dashed_spaced
 70
   64
  3
----        --------        ----
 72
   65
 73
    2
 40
12
 49
6
 49
-6
  0
LTYPE
  2
long_dashed_dotted
 70
   64
  3
------------- --- --------------
 72
   65
 73
    4
 40
15.25
 49
12
 49
-1.5
 49
0.25
 49
-1.5
  0
LTYPE
  2
long_dashed_double-dotted
 70
   64
  3
----------- --- --- ------------
 72
   65
 73
    6
 40
17
 49
12
 49
-1.5
 49
0.25
 49
-1.5
 49
0.25
 49
-1.5
  0
LTYPE
  2
long_dashed_triplicate-dotted
 70
   64
  3
--------- --- --- --- ----------
 72
   65
 73
    8
 40
18.75
 49
12
 49
-1.5
 49
0.25
 49
-1.5
 49
0.25
 49
-1.5
 49
0.25
 49
-1.5
  0
LTYPE
  2
dotted
 70
   64
  3
   -       -       -       -    
 72
   65
 73
    2
 40
1.75
 49
0.25
 49
-1.5
  0
LTYPE
  2
chain
 70
   64
  3
-------------- -- --------------
 72
   65
 73
    4
 40
18.5
 49
12
 49
-1.5
 49
3.5
 49
-1.5
  0
LTYPE
  2
chain_double_dash
 70
   64
  3
------------ -- -- -------------
 72
   65
 73
    6
 40
23.5
 49
12
 49
-1.5
 49
3.5
 49
-1.5
 49
3.5
 49
-1.5
  0
LTYPE
  2
dashed_dotted
 70
   64
  3
-----------     -     ----------
 72
   65
 73
    4
 40
9.25
 49
6
 49
-1.5
 49
0.25
 49
-1.5
  0
LTYPE
  2
double-dashed_dotted
 70
   64
  3
------   -----------   -   -----
 72
   65
 73
    6
 40
16.75
 49
6
 49
-1.5
 49
6
 49
-1.5
 49
0.25
 49
-1.5
  0
LTYPE
  2
dashed_double-dotted
 70
   64
  3
---------    -    -    ---------
 72
   65
 73
    6
 40
11
 49
6
 49
-1.5
 49
0.25
 49
-1.5
 49
0.25
 49
-1.5
  0
LTYPE
  2
double-dashed_double-dotted
 70
   64
  3
-----   ---------   -   -   ----
 72
   65
 73
    8
 40
18.5
 49
6
 49
-1.5
 49
6
 49
-1.5
 49
0.25
 49
-1.5
 49
0.25
 49
-1.5
  0
LTYPE
  2
dashed_triplicate-dotted
 70
   64
  3
-------    -    -    -    ------
 72
   65
 73
    8
 40
12.75
 49
6
 49
-1.5
 49
0.25
 49
-1.5
 49
0.25
 49
-1.5
 49
0.25
 49
-1.5
  0
LTYPE
  2
double-dashed_triplicate-dotted
 70
   64
  3
-----  ---------  -  -  -  -----
 72
   65
 73
   10
 40
20.25
 49
6
 49
-1.5
 49
6
 49
-1.5
 49
0.25
 49
-1.5
 49
0.25
 49
-1.5
 49
0.25
 49
-1.5
  0
LTYPE
  2
undefined
 70
   64
  3
--------------------------------
 72
   65
 73
    0
 40
0
  0
ENDTAB
  0
TABLE
  2
STYLE
  5
3
100
AcDbSymbolTable
 70
     1
  0
STYLE
  5
10
100
AcDbSymbolTableRecord
100
AcDbTextStyleTableRecord
  2
STANDARD
 70
     0
 40
0.0
 41
1.0
 50
0.0
 71
     0
 42
0.2
  3
txt
  4
bigfont.shx
  0
STYLE
  5
26
100
AcDbSymbolTableRecord
100
AcDbTextStyleTableRecord
  2
TATEGAKI
 70
    68
 40
0.0
 41
1.0
 50
0.0
 71
     0
 42
1.0
  3
txt
  4
bigfont.shx
  0
ENDTAB
  0
TABLE
  2
LAYER
 70
    2
  0
LAYER
  2
_0-0_0
 70
   64
 62
    7
  6
CONTINUOUS
  0
LAYER
  2
ADD_LINE
 70
   64
 62
    7
  6
CONTINUOUS
  0
ENDTAB
  0
ENDSEC
  0
SECTION
  2
BLOCKS
  0
ENDSEC
  0
SECTION
  2
ENTITIES
  0
ARC
  8
_0-0_0
  6
CONTINUOUS
 62
    7
 10
163.33116949999999
 20
172.099998
 40
0.2
 50
269.99999700000001
 51
20.376440000000013
  0
LINE
  8
_0-0_0
  6
CONTINUOUS
 62
    7
 10
163.5186535
 20
172.16963199999998
 11
162.2186505
 21
175.66963199999998
  0
ARC
  8
_0-0_0
  6
CONTINUOUS
 62
    7
 10
162.03116649999998
 20
175.599998
 40
0.2
 50
20.376439999999999
 51
159.62355600000001
  0
LINE
  8
_0-0_0
  6
CONTINUOUS
 62
    7
 10
160.54368549999998
 20
172.16963199999998
 11
161.8436815
 21
175.66963199999998
  0
ARC
  8
_0-0_0
  6
CONTINUOUS
 62
    7
 10
160.73117049999999
 20
172.099998
 40
0.2
 50
159.62355600000001
 51
269.99999700000001
  0
LINE
  8
_0-0_0
  6
CONTINUOUS
 62
    7
 10
160.73117049999999
 20
171.900002
 11
163.33116949999999
 21
171.900002
  0
LINE
  8
_0-0_0
  6
CONTINUOUS
 62
    7
 10
85.217712500000005
 20
226.50050400000001
 11
85.217712500000005
 21
226.49949599999999
  0
LINE
  8
_0-0_0
  6
CONTINUOUS
 62
    7
 10
381.0311585
 20
208.89999399999999
 11
381.0311585
 21
195.89999399999999
  0
LINE
  8
_0-0_0
  6
CONTINUOUS
 62
    7
 10
108.0311665
 20
208.89999399999999
 11
108.0311665
 21
195.89999399999999
  0
LINE
  8
_0-0_0
  6
CONTINUOUS
 62
    7
 10
108.0311665
 20
208.89999399999999
 11
381.0311585
 21
208.89999399999999
  0
LINE
  8
_0-0_0
  6
CONTINUOUS
 62
    7
 10
108.0311665
 20
208.89999399999999
 11
108.0311665
 21
227.5
  0
LINE
  8
_0-0_0
  6
CONTINUOUS
 62
    7
 10
108.0311665
 20
230
 11
108.0311665
 21
227.5
  0
LINE
  8
_0-0_0
  6
CONTINUOUS
 62
    7
 10
108.0311665
 20
230.5
 11
108.0311665
 21
230
  0
LINE
  8
_0-0_0
  6
CONTINUOUS
 62
    7
 10
108.0311665
 20
182.5
 11
108.0311665
 21
182
  0
LINE
  8
_0-0_0
  6
CONTINUOUS
 62
    7
 10
108.0311665
 20
187.5
 11
108.0311665
 21
182.5
  0
LINE
  8
_0-0_0
  6
CONTINUOUS
 62
    7
 10
108.0311665
 20
188
 11
108.0311665
 21
187.5
  0
LINE
  8
_0-0_0
  6
CONTINUOUS
 62
    7
 10
108.0311665
 20
188.5
 11
108.0311665
 21
188
  0
LINE
  8
_0-0_0
  6
CONTINUOUS
 62
    7
 10
108.0311665
 20
191.699997
 11
108.0311665
 21
188.5
  0
LINE
  8
_0-0_0
  6
CONTINUOUS
 62
    7
 10
108.0311665
 20
191.699997
 11
108.0311665
 21
195.89999399999999
  0
LINE
  8
_0-0_0
  6
CONTINUOUS
 62
    7
 10
108.0311665
 20
195.89999399999999
 11
381.0311585
 21
195.89999399999999
  0
LINE
  8
_0-0_0
  6
CONTINUOUS
 62
    7
 10
381.0311585
 20
191.699997
 11
381.0311585
 21
195.89999399999999
  0
LINE
  8
_0-0_0
  6
CONTINUOUS
 62
    7
 10
381.0311585
 20
188.5
 11
381.0311585
 21
191.699997
  0
LINE
  8
_0-0_0
  6
CONTINUOUS
 62
    7
 10
381.0311585
 20
188.5
 11
381.0311585
 21
188
  0
LINE
  8
_0-0_0
  6
CONTINUOUS
 62
    7
 10
381.0311585
 20
188
 11
381.0311585
 21
187.5
  0
LINE
  8
_0-0_0
  6
CONTINUOUS
 62
    7
 10
381.0311585
 20
187.5
 11
381.0311585
 21
182.5
  0
LINE
  8
_0-0_0
  6
CONTINUOUS
 62
    7
 10
381.0311585
 20
182.5
 11
381.0311585
 21
182
  0
LINE
  8
_0-0_0
  6
CONTINUOUS
 62
    7
 10
381.0311585
 20
230.5
 11
381.0311585
 21
230
  0
LINE
  8
_0-0_0
  6
CONTINUOUS
 62
    7
 10
381.0311585
 20
227.5
 11
381.0311585
 21
230
  0
LINE
  8
_0-0_0
  6
CONTINUOUS
 62
    7
 10
381.0311585
 20
208.89999399999999
 11
381.0311585
 21
227.5
  0
CIRCLE
  8
_0-0_0
  6
CONTINUOUS
 62
    7
 10
344.5311585
 20
218
 40
6
  0
CIRCLE
  8
_0-0_0
  6
CONTINUOUS
 62
    7
 10
244.5311585
 20
218
 40
6
  0
CIRCLE
  8
_0-0_0
  6
CONTINUOUS
 62
    7
 10
144.53116649999998
 20
218
 40
6
  0
LINE
  8
_0-0_0
  6
CONTINUOUS
 62
    7
 10
108.0311665
 20
227.5
 11
381.0311585
 21
227.5
  0
LINE
  8
_0-0_0
  6
CONTINUOUS
 62
    7
 10
108.0311665
 20
230.5
 11
381.0311585
 21
230.5
  0
LINE
  8
_0-0_0
  6
CONTINUOUS
 62
    7
 10
108.0311665
 20
230
 11
105.5311665
 21
230
  0
LINE
  8
_0-0_0
  6
CONTINUOUS
 62
    7
 10
105.5311665
 20
230
 11
105.5311665
 21
229.5
  0
LINE
  8
_0-0_0
  6
CONTINUOUS
 62
    7
 10
105.5311665
 20
229.5
 11
105.5311665
 21
189
  0
LINE
  8
_0-0_0
  6
CONTINUOUS
 62
    7
 10
108.0311665
 20
188.5
 11
105.5311665
 21
188.5
  0
LINE
  8
_0-0_0
  6
CONTINUOUS
 62
    7
 10
105.5311665
 20
189
 11
105.5311665
 21
188.5
  0
LINE
  8
_0-0_0
  6
CONTINUOUS
 62
    7
 10
105.5311665
 20
188.5
 11
105.5311665
 21
187.5
  0
LINE
  8
_0-0_0
  6
CONTINUOUS
 62
    7
 10
105.5311665
 20
187.5
 11
105.5311665
 21
183
  0
LINE
  8
_0-0_0
  6
CONTINUOUS
 62
    7
 10
108.0311665
 20
182.5
 11
105.5311665
 21
182.5
  0
LINE
  8
_0-0_0
  6
CONTINUOUS
 62
    7
 10
105.5311665
 20
183
 11
105.5311665
 21
182.5
  0
LINE
  8
_0-0_0
  6
CONTINUOUS
 62
    7
 10
108.0311665
 20
182
 11
381.0311585
 21
182
  0
LINE
  8
_0-0_0
  6
CONTINUOUS
 62
    7
 10
108.0311665
 20
188
 11
381.0311585
 21
188
  0
LINE
  8
_0-0_0
  6
CONTINUOUS
 62
    7
 10
108.0311665
 20
191.699997
 11
381.0311585
 21
191.699997
  0
LINE
  8
_0-0_0
  6
CONTINUOUS
 62
    7
 10
381.0311585
 20
230
 11
383.5311585
 21
230
  0
LINE
  8
_0-0_0
  6
CONTINUOUS
 62
    7
 10
383.5311585
 20
230
 11
383.5311585
 21
229.5
  0
LINE
  8
_0-0_0
  6
CONTINUOUS
 62
    7
 10
383.5311585
 20
229.5
 11
383.5311585
 21
189
  0
LINE
  8
_0-0_0
  6
CONTINUOUS
 62
    7
 10
381.0311585
 20
188.5
 11
383.5311585
 21
188.5
  0
LINE
  8
_0-0_0
  6
CONTINUOUS
 62
    7
 10
383.5311585
 20
189
 11
383.5311585
 21
188.5
  0
LINE
  8
_0-0_0
  6
CONTINUOUS
 62
    7
 10
383.5311585
 20
188.5
 11
383.5311585
 21
187.5
  0
LINE
  8
_0-0_0
  6
CONTINUOUS
 62
    7
 10
383.5311585
 20
187.5
 11
383.5311585
 21
183
  0
LINE
  8
_0-0_0
  6
CONTINUOUS
 62
    7
 10
381.0311585
 20
182.5
 11
383.5311585
 21
182.5
  0
LINE
  8
_0-0_0
  6
CONTINUOUS
 62
    7
 10
383.5311585
 20
183
 11
383.5311585
 21
182.5
  0
ARC
  8
_0-0_0
  6
CONTINUOUS
 62
    7
 10
165.5311585
 20
183
 40
0.5
 50
269.99999700000001
 51
0
  0
LINE
  8
_0-0_0
  6
CONTINUOUS
 62
    7
 10
165.5311585
 20
182.5
 11
158.53116649999998
 21
182.5
  0
ARC
  8
_0-0_0
  6
CONTINUOUS
 62
    7
 10
158.53116649999998
 20
183
 40
0.5
 50
179.99999099999999
 51
269.99999700000001
  0
LINE
  8
_0-0_0
  6
CONTINUOUS
 62
    7
 10
158.03116649999998
 20
187
 11
158.03116649999998
 21
183
  0
ARC
  8
_0-0_0
  6
CONTINUOUS
 62
    7
 10
158.53116649999998
 20
187
 40
0.5
 50
90.000003000000007
 51
179.99999099999999
  0
ARC
  8
_0-0_0
  6
CONTINUOUS
 62
    7
 10
165.5311585
 20
187
 40
0.5
 50
0
 51
90.000003000000007
  0
LINE
  8
_0-0_0
  6
CONTINUOUS
 62
    7
 10
158.53116649999998
 20
187.5
 11
165.5311585
 21
187.5
  0
LINE
  8
_0-0_0
  6
CONTINUOUS
 62
    7
 10
381.0311585
 20
230.5
 11
381.0311585
 21
230.199997
  0
LINE
  8
_0-0_0
  6
CONTINUOUS
 62
    7
 10
381.0311585
 20
230.199997
 11
381.0311585
 21
230
  0
CIRCLE
  8
_0-0_0
  6
CONTINUOUS
 62
    7
 10
344.5311585
 20
218
 40
5.5
  0
CIRCLE
  8
_0-0_0
  6
CONTINUOUS
 62
    7
 10
244.5311585
 20
218
 40
5.5
  0
CIRCLE
  8
_0-0_0
  6
CONTINUOUS
 62
    7
 10
144.53116649999998
 20
218
 40
5.5
  0
LINE
  8
_0-0_0
  6
CONTINUOUS
 62
    7
 10
166.0311585
 20
183
 11
166.0311585
 21
187
  0
CIRCLE
  8
_0-0_0
  6
CONTINUOUS
 62
    7
 10
344.5311585
 20
218
 40
3.5
  0
CIRCLE
  8
_0-0_0
  6
CONTINUOUS
 62
    7
 10
244.5311585
 20
218
 40
3.5
  0
CIRCLE
  8
_0-0_0
  6
CONTINUOUS
 62
    7
 10
144.53116649999998
 20
218
 40
3.5
  0
ARC
  8
_0-0_0
  6
CONTINUOUS
 62
    7
 10
163.33116949999999
 20
186.699997
 40
0.2
 50
339.62356199999999
 51
90.000002999999978
  0
LINE
  8
_0-0_0
  6
CONTINUOUS
 62
    7
 10
163.5186535
 20
186.63036299999999
 11
162.2186505
 21
183.13036299999999
  0
ARC
  8
_0-0_0
  6
CONTINUOUS
 62
    7
 10
162.03116649999998
 20
183.199997
 40
0.2
 50
200.37643
 51
339.62356199999999
  0
LINE
  8
_0-0_0
  6
CONTINUOUS
 62
    7
 10
160.54368549999998
 20
186.63036299999999
 11
161.8436815
 21
183.13036299999999
  0
ARC
  8
_0-0_0
  6
CONTINUOUS
 62
    7
 10
160.73117049999999
 20
186.699997
 40
0.2
 50
90.000003000000007
 51
200.37643
  0
LINE
  8
_0-0_0
  6
CONTINUOUS
 62
    7
 10
160.73117049999999
 20
186.900002
 11
163.33116949999999
 21
186.900002
  0
ARC
  8
_0-0_0
  6
CONTINUOUS
 62
    7
 10
300.73117050000002
 20
186.699997
 40
0.2
 50
90.000003000000007
 51
200.37643
  0
LINE
  8
_0-0_0
  6
CONTINUOUS
 62
    7
 10
300.73117050000002
 20
186.900002
 11
303.33114649999999
 21
186.900002
  0
ARC
  8
_0-0_0
  6
CONTINUOUS
 62
    7
 10
298.5311585
 20
187
 40
0.5
 50
90.000003000000007
 51
179.99999099999999
  0
LINE
  8
_0-0_0
  6
CONTINUOUS
 62
    7
 10
298.0311585
 20
187
 11
298.0311585
 21
183
  0
ARC
  8
_0-0_0
  6
CONTINUOUS
 62
    7
 10
298.5311585
 20
183
 40
0.5
 50
179.99999099999999
 51
269.99999700000001
  0
LINE
  8
_0-0_0
  6
CONTINUOUS
 62
    7
 10
305.5311585
 20
182.5
 11
298.5311585
 21
182.5
  0
ARC
  8
_0-0_0
  6
CONTINUOUS
 62
    7
 10
305.5311585
 20
183
 40
0.5
 50
269.99999700000001
 51
0
  0
LINE
  8
_0-0_0
  6
CONTINUOUS
 62
    7
 10
306.0311585
 20
183
 11
306.0311585
 21
187
  0
ARC
  8
_0-0_0
  6
CONTINUOUS
 62
    7
 10
305.5311585
 20
187
 40
0.5
 50
0
 51
90.000003000000007
  0
LINE
  8
_0-0_0
  6
CONTINUOUS
 62
    7
 10
298.5311585
 20
187.5
 11
305.5311585
 21
187.5
  0
LINE
  8
_0-0_0
  6
CONTINUOUS
 62
    7
 10
300.54367050000002
 20
186.63036299999999
 11
301.8436585
 21
183.13036299999999
  0
ARC
  8
_0-0_0
  6
CONTINUOUS
 62
    7
 10
302.0311585
 20
183.199997
 40
0.2
 50
200.37643
 51
339.62356199999999
  0
LINE
  8
_0-0_0
  6
CONTINUOUS
 62
    7
 10
303.51864649999999
 20
186.63036299999999
 11
302.2186585
 21
183.13036299999999
  0
ARC
  8
_0-0_0
  6
CONTINUOUS
 62
    7
 10
303.33114649999999
 20
186.699997
 40
0.2
 50
339.62356199999999
 51
90.000002999999978
  0
LINE
  8
_0-0_0
  6
CONTINUOUS
 62
    7
 10
114.5311665
 20
180
 11
119.5311665
 21
180
  0
LINE
  8
_0-0_0
  6
CONTINUOUS
 62
    7
 10
119.5311665
 20
180
 11
121.3311695
 21
180
  0
LINE
  8
_0-0_0
  6
CONTINUOUS
 62
    7
 10
121.3311695
 20
180
 11
122.0311665
 21
180
  0
ARC
  8
_0-0_0
  6
CONTINUOUS
 62
    7
 10
121.3311695
 20
179.5
 40
0.5
 50
0
 51
90.000003000000007
  0
ARC
  8
_0-0_0
  6
CONTINUOUS
 62
    7
 10
114.5311665
 20
179.5
 40
0.5
 50
90.000003000000007
 51
179.99999099999999
  0
ARC
  8
_0-0_0
  6
CONTINUOUS
 62
    7
 10
218.0311585
 20
179.5
 40
0.5
 50
0
 51
90.000003000000007
  0
LINE
  8
_0-0_0
  6
CONTINUOUS
 62
    7
 10
122.0311665
 20
180
 11
122.0311665
 21
178.5
  0
LINE
  8
_0-0_0
  6
CONTINUOUS
 62
    7
 10
122.0311665
 20
180.5
 11
122.0311665
 21
180
  0
LINE
  8
_0-0_0
  6
CONTINUOUS
 62
    7
 10
122.0311665
 20
181
 11
122.0311665
 21
180.5
  0
LINE
  8
_0-0_0
  6
CONTINUOUS
 62
    7
 10
122.0311665
 20
182
 11
122.0311665
 21
181
  0
LINE
  8
_0-0_0
  6
CONTINUOUS
 62
    7
 10
126.0311665
 20
180
 11
126.73117049999999
 21
180
  0
LINE
  8
_0-0_0
  6
CONTINUOUS
 62
    7
 10
121.8311695
 20
179.5
 11
121.8311695
 21
178.5
  0
LINE
  8
_0-0_0
  6
CONTINUOUS
 62
    7
 10
125.0311665
 20
153
 11
125.0311665
 21
154.599998
  0
LINE
  8
_0-0_0
  6
CONTINUOUS
 62
    7
 10
125.0311665
 20
153
 11
119.5311665
 21
153
  0
LINE
  8
_0-0_0
  6
CONTINUOUS
 62
    7
 10
141.03116649999998
 20
159.699997
 11
183.0311585
 21
159.699997
  0
LINE
  8
_0-0_0
  6
CONTINUOUS
 62
    7
 10
141.03116649999998
 20
179.300003
 11
183.0311585
 21
179.300003
  0
LINE
  8
_0-0_0
  6
CONTINUOUS
 62
    7
 10
204.5311585
 20
153
 11
195.0311585
 21
153
  0
LINE
  8
_0-0_0
  6
CONTINUOUS
 62
    7
 10
195.0311585
 20
153
 11
195.0311585
 21
154.599998
  0
ARC
  8
_0-0_0
  6
CONTINUOUS
 62
    7
 10
194.73117049999999
 20
154.599998
 40
0.2999999999999999
 50
0
 51
90.000003000000007
  0
LINE
  8
_0-0_0
  6
CONTINUOUS
 62
    7
 10
194.0311585
 20
154.900002
 11
194.73117049999999
 21
154.900002
  0
LINE
  8
_0-0_0
  6
CONTINUOUS
 62
    7
 10
193.5311585
 20
155.300003
 11
194.0311585
 21
155.300003
  0
LINE
  8
_0-0_0
  6
CONTINUOUS
 62
    7
 10
180.0311585
 20
155.300003
 11
193.5311585
 21
155.300003
  0
ARC
  8
_0-0_0
  6
CONTINUOUS
 62
    7
 10
177.5311585
 20
155.300003
 40
2.5
 50
0
 51
90.000003000000007
  0
LINE
  8
_0-0_0
  6
CONTINUOUS
 62
    7
 10
146.53116649999998
 20
157.800003
 11
177.5311585
 21
157.800003
  0
ARC
  8
_0-0_0
  6
CONTINUOUS
 62
    7
 10
146.53116649999998
 20
155.300003
 40
2.5
 50
90.000003000000007
 51
179.99999099999999
  0
LINE
  8
_0-0_0
  6
CONTINUOUS
 62
    7
 10
126.5311665
 20
155.300003
 11
144.03116649999998
 21
155.300003
  0
LINE
  8
_0-0_0
  6
CONTINUOUS
 62
    7
 10
126.0311665
 20
155.300003
 11
126.5311665
 21
155.300003
  0
LINE
  8
_0-0_0
  6
CONTINUOUS
 62
    7
 10
125.3311695
 20
154.900002
 11
126.0311665
 21
154.900002
  0
ARC
  8
_0-0_0
  6
CONTINUOUS
 62
    7
 10
125.3311695
 20
154.599998
 40
0.2999999999999999
 50
90.000003000000007
 51
179.99999099999999
  0
LINE
  8
_0-0_0
  6
CONTINUOUS
 62
    7
 10
114.0311665
 20
177.724861
 11
114.0311665
 21
179.5
  0
LINE
  8
_0-0_0
  6
CONTINUOUS
 62
    7
 10
119.0311665
 20
180
 11
119.0311665
 21
180.400002
  0
LINE
  8
_0-0_0
  6
CONTINUOUS
 62
    7
 10
119.0311665
 20
180.900002
 11
119.0311665
 21
180.400002
  0
LINE
  8
_0-0_0
  6
CONTINUOUS
 62
    7
 10
218.5311585
 20
182
 11
218.5311585
 21
180.5
  0
LINE
  8
_0-0_0
  6
CONTINUOUS
 62
    7
 10
218.5311585
 20
180.5
 11
218.5311585
 21
179.5
  0
LINE
  8
_0-0_0
  6
CONTINUOUS
 62
    7
 10
218.5311585
 20
178.699997
 11
218.5311585
 21
179.5
  0
LINE
  8
_0-0_0
  6
CONTINUOUS
 62
    7
 10
218.0311585
 20
180
 11
218.5311585
 21
180
  0
LINE
  8
_0-0_0
  6
CONTINUOUS
 62
    7
 10
205.5311585
 20
180
 11
218.0311585
 21
180
  0
LINE
  8
_0-0_0
  6
CONTINUOUS
 62
    7
 10
218.5311585
 20
182
 11
218.5311585
 21
181
  0
LINE
  8
_0-0_0
  6
CONTINUOUS
 62
    7
 10
218.5311585
 20
180.5
 11
218.5311585
 21
180
  0
LINE
  8
_0-0_0
  6
CONTINUOUS
 62
    7
 10
218.5311585
 20
181
 11
218.5311585
 21
180.5
  0
ARC
  8
_0-0_0
  6
CONTINUOUS
 62
    7
 10
124.0311665
 20
178.5
 40
2
 50
179.99999099999999
 51
0
  0
LINE
  8
_0-0_0
  6
CONTINUOUS
 62
    7
 10
205.0311585
 20
180
 11
205.5311585
 21
180
  0
LINE
  8
_0-0_0
  6
CONTINUOUS
 62
    7
 10
205.0311585
 20
179.5
 11
205.0311585
 21
180
  0
LINE
  8
_0-0_0
  6
CONTINUOUS
 62
    7
 10
205.0311585
 20
178.5
 11
205.0311585
 21
178.699997
  0
ARC
  8
_0-0_0
  6
CONTINUOUS
 62
    7
 10
203.0311585
 20
178.5
 40
2
 50
179.99999099999999
 51
0
  0
LINE
  8
_0-0_0
  6
CONTINUOUS
 62
    7
 10
201.0311585
 20
180
 11
201.0311585
 21
178.5
  0
LINE
  8
_0-0_0
  6
CONTINUOUS
 62
    7
 10
200.3311765
 20
180
 11
201.0311585
 21
180
  0
LINE
  8
_0-0_0
  6
CONTINUOUS
 62
    7
 10
126.0311665
 20
178.5
 11
126.0311665
 21
180
  0
LINE
  8
_0-0_0
  6
CONTINUOUS
 62
    7
 10
122.0311665
 20
181
 11
218.5311585
 21
181
  0
ARC
  8
_0-0_0
  6
CONTINUOUS
 62
    7
 10
126.73117049999999
 20
179.5
 40
0.5
 50
90.000003000000007
 51
179.99999099999999
  0
ARC
  8
_0-0_0
  6
CONTINUOUS
 62
    7
 10
124.0311665
 20
178.5
 40
2.2000000000000002
 50
179.99999099999999
 51
0
  0
LINE
  8
_0-0_0
  6
CONTINUOUS
 62
    7
 10
126.0311665
 20
154.900002
 11
126.5311665
 21
154.900002
  0
LINE
  8
_0-0_0
  6
CONTINUOUS
 62
    7
 10
126.5311665
 20
155.300003
 11
126.5311665
 21
154.900002
  0
LINE
  8
_0-0_0
  6
CONTINUOUS
 62
    7
 10
144.03116649999998
 20
155.300003
 11
180.0311585
 21
155.300003
  0
LINE
  8
_0-0_0
  6
CONTINUOUS
 62
    7
 10
193.5311585
 20
154.900002
 11
194.0311585
 21
154.900002
  0
LINE
  8
_0-0_0
  6
CONTINUOUS
 62
    7
 10
193.5311585
 20
155.300003
 11
193.5311585
 21
154.900002
  0
LINE
  8
_0-0_0
  6
CONTINUOUS
 62
    7
 10
204.5311585
 20
152.5
 11
195.5311585
 21
152.5
  0
ARC
  8
_0-0_0
  6
CONTINUOUS
 62
    7
 10
195.5311585
 20
153
 40
0.5
 50
179.99999099999999
 51
269.99999700000001
  0
LINE
  8
_0-0_0
  6
CONTINUOUS
 62
    7
 10
204.5311585
 20
153
 11
205.0311585
 21
153
  0
LINE
  8
_0-0_0
  6
CONTINUOUS
 62
    7
 10
205.0311585
 20
153
 11
205.0311585
 21
153.199997
  0
LINE
  8
_0-0_0
  6
CONTINUOUS
 62
    7
 10
209.5311585
 20
153.400002
 11
205.23117049999999
 21
153.400002
  0
LINE
  8
_0-0_0
  6
CONTINUOUS
 62
    7
 10
210.0311585
 20
153.900002
 11
210.0311585
 21
155.67514
  0
ARC
  8
_0-0_0
  6
CONTINUOUS
 62
    7
 10
206.9832155
 20
155.61901899999998
 40
3.0490550000000001
 50
1.0548960000000001
 51
14.838094000000002
  0
LINE
  8
_0-0_0
  6
CONTINUOUS
 62
    7
 10
209.5311585
 20
156.599998
 11
205.1636355
 21
156.599998
  0
LINE
  8
_0-0_0
  6
CONTINUOUS
 62
    7
 10
205.0311585
 20
156.741432
 11
205.0311585
 21
156.84643599999998
  0
ARC
  8
_0-0_0
  6
CONTINUOUS
 62
    7
 10
203.0311585
 20
178.5
 40
2.2000000000000002
 50
179.99999099999999
 51
303.74900400000001
  0
LINE
  8
_0-0_0
  6
CONTINUOUS
 62
    7
 10
200.8311765
 20
179.5
 11
200.8311765
 21
178.5
  0
LINE
  8
_0-0_0
  6
CONTINUOUS
 62
    7
 10
200.3311765
 20
180
 11
126.73117049999999
 21
180
  0
LINE
  8
_0-0_0
  6
CONTINUOUS
 62
    7
 10
126.23117049999999
 20
178.5
 11
126.23117049999999
 21
179.5
  0
LINE
  8
_0-0_0
  6
CONTINUOUS
 62
    7
 10
126.73117049999999
 20
178.300003
 11
126.73117049999999
 21
178.5
  0
ARC
  8
_0-0_0
  6
CONTINUOUS
 62
    7
 10
127.73117049999999
 20
178.300003
 40
1
 50
90.000003000000007
 51
179.99999099999999
  0
LINE
  8
_0-0_0
  6
CONTINUOUS
 62
    7
 10
127.73117049999999
 20
179.300003
 11
141.03116649999998
 21
179.300003
  0
LINE
  8
_0-0_0
  6
CONTINUOUS
 62
    7
 10
183.0311585
 20
179.300003
 11
197.0311585
 21
179.300003
  0
ARC
  8
_0-0_0
  6
CONTINUOUS
 62
    7
 10
197.0311585
 20
176.300003
 40
3
 50
0
 51
90.000003000000007
  0
LINE
  8
_0-0_0
  6
CONTINUOUS
 62
    7
 10
200.0311585
 20
162.699997
 11
200.0311585
 21
176.300003
  0
ARC
  8
_0-0_0
  6
CONTINUOUS
 62
    7
 10
197.0311585
 20
162.699997
 40
3
 50
269.99999700000001
 51
0
  0
LINE
  8
_0-0_0
  6
CONTINUOUS
 62
    7
 10
197.0311585
 20
159.699997
 11
183.0311585
 21
159.699997
  0
LINE
  8
_0-0_0
  6
CONTINUOUS
 62
    7
 10
141.03116649999998
 20
159.699997
 11
127.0311665
 21
159.699997
  0
ARC
  8
_0-0_0
  6
CONTINUOUS
 62
    7
 10
127.0311665
 20
162.699997
 40
3
 50
179.99999099999999
 51
269.99999700000001
  0
LINE
  8
_0-0_0
  6
CONTINUOUS
 62
    7
 10
124.0311665
 20
174.93769800000001
 11
124.0311665
 21
162.699997
  0
ARC
  8
_0-0_0
  6
CONTINUOUS
 62
    7
 10
125.0311665
 20
174.93769800000001
 40
1
 50
105.68034800000001
 51
179.99999100000002
  0
ARC
  8
_0-0_0
  6
CONTINUOUS
 62
    7
 10
117.0791325
 20
177.78098299999999
 40
3.0490550000000001
 50
181.05489
 51
194.838089
  0
LINE
  8
_0-0_0
  6
CONTINUOUS
 62
    7
 10
118.8987125
 20
176.800003
 11
114.5311665
 21
176.800003
  0
LINE
  8
_0-0_0
  6
CONTINUOUS
 62
    7
 10
119.0311665
 20
156.741432
 11
119.0311665
 21
157.041687
  0
LINE
  8
_0-0_0
  6
CONTINUOUS
 62
    7
 10
118.8987125
 20
156.599998
 11
114.5311665
 21
156.599998
  0
ARC
  8
_0-0_0
  6
CONTINUOUS
 62
    7
 10
117.0803145
 20
155.618347
 40
3.050319
 50
165.15540799999999
 51
178.932897
  0
LINE
  8
_0-0_0
  6
CONTINUOUS
 62
    7
 10
114.0311665
 20
153.900002
 11
114.0311665
 21
155.67514
  0
LINE
  8
_0-0_0
  6
CONTINUOUS
 62
    7
 10
118.8311695
 20
153.400002
 11
114.5311665
 21
153.400002
  0
LINE
  8
_0-0_0
  6
CONTINUOUS
 62
    7
 10
119.0311665
 20
153
 11
119.0311665
 21
153.199997
  0
LINE
  8
_0-0_0
  6
CONTINUOUS
 62
    7
 10
119.0311665
 20
153
 11
119.5311665
 21
153
  0
LINE
  8
_0-0_0
  6
CONTINUOUS
 62
    7
 10
124.5311665
 20
152.5
 11
119.5311665
 21
152.5
  0
ARC
  8
_0-0_0
  6
CONTINUOUS
 62
    7
 10
124.5311665
 20
153
 40
0.5
 50
269.99999700000001
 51
0
  0
LINE
  8
_0-0_0
  6
CONTINUOUS
 62
    7
 10
114.34942649999999
 20
176.800003
 11
114.3290705
 21
176.801018
  0
LINE
  8
_0-0_0
  6
CONTINUOUS
 62
    7
 10
114.3290705
 20
176.801018
 11
114.30866949999999
 21
176.804169
  0
LINE
  8
_0-0_0
  6
CONTINUOUS
 62
    7
 10
114.30866949999999
 20
176.804169
 11
114.2818455
 21
176.81175200000001
  0
LINE
  8
_0-0_0
  6
CONTINUOUS
 62
    7
 10
114.2818455
 20
176.81175200000001
 11
114.2562025
 21
176.82312000000002
  0
LINE
  8
_0-0_0
  6
CONTINUOUS
 62
    7
 10
114.2562025
 20
176.82312000000002
 11
114.2323985
 21
176.837997
  0
LINE
  8
_0-0_0
  6
CONTINUOUS
 62
    7
 10
114.2323985
 20
176.837997
 11
114.2156445
 21
176.85150899999999
  0
LINE
  8
_0-0_0
  6
CONTINUOUS
 62
    7
 10
114.2156445
 20
176.85150899999999
 11
114.2001415
 21
176.866737
  0
LINE
  8
_0-0_0
  6
CONTINUOUS
 62
    7
 10
114.2001415
 20
176.866737
 11
114.1732485
 21
176.90138200000001
  0
LINE
  8
_0-0_0
  6
CONTINUOUS
 62
    7
 10
114.1732485
 20
176.90138200000001
 11
114.15220649999999
 21
176.93971999999999
  0
LINE
  8
_0-0_0
  6
CONTINUOUS
 62
    7
 10
114.15220649999999
 20
176.93971999999999
 11
114.14020549999999
 21
176.96963499999998
  0
LINE
  8
_0-0_0
  6
CONTINUOUS
 62
    7
 10
114.14020549999999
 20
176.96963499999998
 11
114.1311645
 21
177
  0
LINE
  8
_0-0_0
  6
CONTINUOUS
 62
    7
 10
119.0311665
 20
180.900002
 11
119.0311665
 21
182
  0
LINE
  8
_0-0_0
  6
CONTINUOUS
 62
    7
 10
113.5311665
 20
178.349998
 11
114.0311665
 21
178.349998
  0
LINE
  8
_0-0_0
  6
CONTINUOUS
 62
    7
 10
113.5311665
 20
180.900002
 11
119.0311665
 21
180.900002
  0
ARC
  8
_0-0_0
  6
CONTINUOUS
 62
    7
 10
218.0311585
 20
178.699997
 40
0.5
 50
269.99999700000001
 51
0
  0
ARC
  8
_0-0_0
  6
CONTINUOUS
 62
    7
 10
205.5311585
 20
179.5
 40
0.5
 50
90.000003000000007
 51
179.99999099999999
  0
LINE
  8
_0-0_0
  6
CONTINUOUS
 62
    7
 10
205.0311585
 20
178.699997
 11
205.0311585
 21
179.5
  0
LINE
  8
_0-0_0
  6
CONTINUOUS
 62
    7
 10
125.23117049999999
 20
154.88284299999998
 11
125.23117049999999
 21
152.900002
  0
LINE
  8
_0-0_0
  6
CONTINUOUS
 62
    7
 10
125.23117049999999
 20
152.900002
 11
126.23117049999999
 21
152.900002
  0
LINE
  8
_0-0_0
  6
CONTINUOUS
 62
    7
 10
126.5311665
 20
154.900002
 11
193.5311585
 21
154.900002
  0
LINE
  8
_0-0_0
  6
CONTINUOUS
 62
    7
 10
126.23117049999999
 20
152.900002
 11
193.8311765
 21
152.900002
  0
LINE
  8
_0-0_0
  6
CONTINUOUS
 62
    7
 10
193.8311765
 20
152.900002
 11
194.8311765
 21
152.900002
  0
LINE
  8
_0-0_0
  6
CONTINUOUS
 62
    7
 10
194.8311765
 20
154.88284299999998
 11
194.8311765
 21
152.900002
  0
LINE
  8
_0-0_0
  6
CONTINUOUS
 62
    7
 10
205.0311585
 20
153
 11
204.5311585
 21
152.5
  0
ARC
  8
_0-0_0
  6
CONTINUOUS
 62
    7
 10
205.23117049999999
 20
153.199997
 40
0.2
 50
90.000003000000007
 51
179.99999099999999
  0
ARC
  8
_0-0_0
  6
CONTINUOUS
 62
    7
 10
209.5311585
 20
153.900002
 40
0.5
 50
269.99999700000001
 51
0
  0
LINE
  8
_0-0_0
  6
CONTINUOUS
 62
    7
 10
209.71292149999999
 20
156.599998
 11
209.73327649999999
 21
156.598984
  0
LINE
  8
_0-0_0
  6
CONTINUOUS
 62
    7
 10
209.73327649999999
 20
156.598984
 11
209.75366249999999
 21
156.59584000000001
  0
LINE
  8
_0-0_0
  6
CONTINUOUS
 62
    7
 10
209.75366249999999
 20
156.59584000000001
 11
209.78048749999999
 21
156.58824900000002
  0
LINE
  8
_0-0_0
  6
CONTINUOUS
 62
    7
 10
209.78048749999999
 20
156.58824900000002
 11
209.80612149999999
 21
156.57688100000001
  0
LINE
  8
_0-0_0
  6
CONTINUOUS
 62
    7
 10
209.80612149999999
 20
156.57688100000001
 11
209.8299255
 21
156.56199599999999
  0
LINE
  8
_0-0_0
  6
CONTINUOUS
 62
    7
 10
209.8299255
 20
156.56199599999999
 11
209.84667949999999
 21
156.54849200000001
  0
LINE
  8
_0-0_0
  6
CONTINUOUS
 62
    7
 10
209.84667949999999
 20
156.54849200000001
 11
209.86218249999999
 21
156.533264
  0
LINE
  8
_0-0_0
  6
CONTINUOUS
 62
    7
 10
209.86218249999999
 20
156.533264
 11
209.88909949999999
 21
156.49861099999998
  0
LINE
  8
_0-0_0
  6
CONTINUOUS
 62
    7
 10
209.88909949999999
 20
156.49861099999998
 11
209.91012549999999
 21
156.46028100000001
  0
LINE
  8
_0-0_0
  6
CONTINUOUS
 62
    7
 10
209.91012549999999
 20
156.46028100000001
 11
209.92211950000001
 21
156.43035900000001
  0
LINE
  8
_0-0_0
  6
CONTINUOUS
 62
    7
 10
209.92211950000001
 20
156.43035900000001
 11
209.93118250000001
 21
156.400002
  0
LINE
  8
_0-0_0
  6
CONTINUOUS
 62
    7
 10
209.71292149999999
 20
156.599998
 11
209.5311585
 21
156.599998
  0
LINE
  8
_0-0_0
  6
CONTINUOUS
 62
    7
 10
205.0311585
 20
157.900002
 11
205.0311585
 21
156.84643599999998
  0
LINE
  8
_0-0_0
  6
CONTINUOUS
 62
    7
 10
205.0311585
 20
157.900002
 11
205.0311585
 21
175.5
  0
LINE
  8
_0-0_0
  6
CONTINUOUS
 62
    7
 10
205.0311585
 20
177.47737100000001
 11
205.0311585
 21
175.5
  0
ARC
  8
_0-0_0
  6
CONTINUOUS
 62
    7
 10
204.5311585
 20
176.25500499999998
 40
0.5
 50
0
 51
123.74898500000002
  0
ARC
  8
_0-0_0
  6
CONTINUOUS
 62
    7
 10
205.2014465
 20
156.773293
 40
0.1734229999999999
 50
181.12417600000003
 51
270.64883800000007
  0
LINE
  8
_0-0_0
  6
CONTINUOUS
 62
    7
 10
205.0271305
 20
156.800003
 11
205.0272215
 21
156.769867
  0
ARC
  8
_0-0_0
  6
CONTINUOUS
 62
    7
 10
200.3311765
 20
179.5
 40
0.5
 50
0
 51
90.000003000000007
  0
ARC
  8
_0-0_0
  6
CONTINUOUS
 62
    7
 10
124.0311665
 20
178.5
 40
2.7000000000000002
 50
285.68033600000007
 51
0.0000000000000381
  0
ARC
  8
_0-0_0
  6
CONTINUOUS
 62
    7
 10
141.03116649999998
 20
162.699997
 40
3
 50
269.99999700000001
 51
0
  0
LINE
  8
_0-0_0
  6
CONTINUOUS
 62
    7
 10
144.03116649999998
 20
162.699997
 11
144.03116649999998
 21
176.300003
  0
ARC
  8
_0-0_0
  6
CONTINUOUS
 62
    7
 10
141.03116649999998
 20
176.300003
 40
3
 50
0
 51
90.000003000000007
  0
ARC
  8
_0-0_0
  6
CONTINUOUS
 62
    7
 10
136.53116649999998
 20
172
 40
4.5
 50
269.99999700000001
 51
90.000002999999992
  0
LINE
  8
_0-0_0
  6
CONTINUOUS
 62
    7
 10
136.53116649999998
 20
167.5
 11
131.53116649999998
 21
167.5
  0
ARC
  8
_0-0_0
  6
CONTINUOUS
 62
    7
 10
131.53116649999998
 20
172
 40
4.5
 50
90.000003000000007
 51
269.99999700000006
  0
LINE
  8
_0-0_0
  6
CONTINUOUS
 62
    7
 10
131.53116649999998
 20
176.5
 11
136.53116649999998
 21
176.5
  0
ARC
  8
_0-0_0
  6
CONTINUOUS
 62
    7
 10
183.0311585
 20
162.699997
 40
3
 50
179.99999099999999
 51
269.99999700000001
  0
LINE
  8
_0-0_0
  6
CONTINUOUS
 62
    7
 10
180.0311585
 20
176.300003
 11
180.0311585
 21
162.699997
  0
ARC
  8
_0-0_0
  6
CONTINUOUS
 62
    7
 10
183.0311585
 20
176.300003
 40
3
 50
90.000003000000007
 51
179.99999099999999
  0
ARC
  8
_0-0_0
  6
CONTINUOUS
 62
    7
 10
192.5311585
 20
172
 40
4.5
 50
269.99999700000001
 51
90.000002999999992
  0
LINE
  8
_0-0_0
  6
CONTINUOUS
 62
    7
 10
192.5311585
 20
167.5
 11
187.5311585
 21
167.5
  0
ARC
  8
_0-0_0
  6
CONTINUOUS
 62
    7
 10
187.5311585
 20
172
 40
4.5
 50
90.000003000000007
 51
269.99999700000006
  0
LINE
  8
_0-0_0
  6
CONTINUOUS
 62
    7
 10
187.5311585
 20
176.5
 11
192.5311585
 21
176.5
  0
LINE
  8
_0-0_0
  6
CONTINUOUS
 62
    7
 10
114.5311665
 20
176.800003
 11
114.34942649999999
 21
176.800003
  0
LINE
  8
_0-0_0
  6
CONTINUOUS
 62
    7
 10
119.0311665
 20
158.699997
 11
119.0311665
 21
157.041687
  0
LINE
  8
_0-0_0
  6
CONTINUOUS
 62
    7
 10
119.0311665
 20
158.699997
 11
119.0311665
 21
175.199997
  0
LINE
  8
_0-0_0
  6
CONTINUOUS
 62
    7
 10
119.0311665
 20
176.66629
 11
119.0311665
 21
175.199997
  0
ARC
  8
_0-0_0
  6
CONTINUOUS
 62
    7
 10
118.8608775
 20
156.77328499999999
 40
0.1734209999999999
 50
269.35085600000002
 51
358.87625300000002
  0
LINE
  8
_0-0_0
  6
CONTINUOUS
 62
    7
 10
119.03520949999999
 20
156.800003
 11
119.0351335
 21
156.769867
  0
LINE
  8
_0-0_0
  6
CONTINUOUS
 62
    7
 10
119.03520949999999
 20
176.599998
 11
119.0351335
 21
176.63012700000002
  0
ARC
  8
_0-0_0
  6
CONTINUOUS
 62
    7
 10
118.8608775
 20
176.62670900000001
 40
0.1734219999999999
 50
1.1236539999999999
 51
90.649110000000007
  0
LINE
  8
_0-0_0
  6
CONTINUOUS
 62
    7
 10
114.5311665
 20
156.599998
 11
114.34942649999999
 21
156.599998
  0
LINE
  8
_0-0_0
  6
CONTINUOUS
 62
    7
 10
114.3494185
 20
156.599998
 11
114.3290705
 21
156.598984
  0
LINE
  8
_0-0_0
  6
CONTINUOUS
 62
    7
 10
114.3290705
 20
156.598984
 11
114.3086625
 21
156.595833
  0
LINE
  8
_0-0_0
  6
CONTINUOUS
 62
    7
 10
114.3086625
 20
156.595833
 11
114.2818455
 21
156.58824900000002
  0
LINE
  8
_0-0_0
  6
CONTINUOUS
 62
    7
 10
114.2818455
 20
156.58824900000002
 11
114.2562025
 21
156.57688100000001
  0
LINE
  8
_0-0_0
  6
CONTINUOUS
 62
    7
 10
114.2562025
 20
156.57688100000001
 11
114.2323985
 21
156.56199599999999
  0
LINE
  8
_0-0_0
  6
CONTINUOUS
 62
    7
 10
114.2323985
 20
156.56199599999999
 11
114.2156445
 21
156.54849200000001
  0
LINE
  8
_0-0_0
  6
CONTINUOUS
 62
    7
 10
114.2156445
 20
156.54849200000001
 11
114.2001415
 21
156.533264
  0
LINE
  8
_0-0_0
  6
CONTINUOUS
 62
    7
 10
114.2001415
 20
156.533264
 11
114.1732485
 21
156.49861099999998
  0
LINE
  8
_0-0_0
  6
CONTINUOUS
 62
    7
 10
114.1732485
 20
156.49861099999998
 11
114.15220649999999
 21
156.46028100000001
  0
LINE
  8
_0-0_0
  6
CONTINUOUS
 62
    7
 10
114.15220649999999
 20
156.46028100000001
 11
114.14020549999999
 21
156.43035900000001
  0
LINE
  8
_0-0_0
  6
CONTINUOUS
 62
    7
 10
114.14020549999999
 20
156.43035900000001
 11
114.1311645
 21
156.400002
  0
ARC
  8
_0-0_0
  6
CONTINUOUS
 62
    7
 10
114.5311665
 20
153.900002
 40
0.5
 50
179.99999099999999
 51
269.99999700000001
  0
ARC
  8
_0-0_0
  6
CONTINUOUS
 62
    7
 10
118.8311695
 20
153.199997
 40
0.2
 50
0
 51
90.000003000000007
  0
LINE
  8
_0-0_0
  6
CONTINUOUS
 62
    7
 10
119.0311665
 20
153
 11
119.5311665
 21
152.5
  0
LINE
  8
_0-0_0
  6
CONTINUOUS
 62
    7
 10
113.0311665
 20
178.84428400000002
 11
113.0311665
 21
180.400002
  0
ARC
  8
_0-0_0
  6
CONTINUOUS
 62
    7
 10
113.5180735
 20
178.84764100000001
 40
0.4869939999999999
 50
180.39493000000002
 51
203.93946700000001
  0
ARC
  8
_0-0_0
  6
CONTINUOUS
 62
    7
 10
113.5311665
 20
178.849998
 40
0.5
 50
203.57823099999999
 51
269.99999700000001
  0
ARC
  8
_0-0_0
  6
CONTINUOUS
 62
    7
 10
113.5311665
 20
180.400002
 40
0.5
 50
90.000003000000007
 51
179.99999099999999
  0
LINE
  8
_0-0_0
  6
CONTINUOUS
 62
    7
 10
205.0311585
 20
178.199997
 11
205.5311585
 21
178.199997
  0
LINE
  8
_0-0_0
  6
CONTINUOUS
 62
    7
 10
205.5311585
 20
178.199997
 11
218.0311585
 21
178.199997
  0
ARC
  8
_0-0_0
  6
CONTINUOUS
 62
    7
 10
205.5311585
 20
178.699997
 40
0.5
 50
179.99999099999999
 51
269.99999700000001
  0
LINE
  8
_0-0_0
  6
CONTINUOUS
 62
    7
 10
205.0311585
 20
177.833969
 11
205.0311585
 21
178.199997
  0
LINE
  8
_0-0_0
  6
CONTINUOUS
 62
    7
 10
205.0311585
 20
177.58348100000001
 11
205.0311585
 21
177.47737100000001
  0
LINE
  8
_0-0_0
  6
CONTINUOUS
 62
    7
 10
205.0311585
 20
177.833969
 11
205.0311585
 21
177.58348100000001
  0
CIRCLE
  8
_0-0_0
  6
CONTINUOUS
 62
    7
 10
124.0311665
 20
178.5
 40
1.4750000000000001
  0
CIRCLE
  8
_0-0_0
  6
CONTINUOUS
 62
    7
 10
203.0311585
 20
178.5
 40
1.4750000000000001
  0
LINE
  8
_0-0_0
  6
CONTINUOUS
 62
    7
 10
113.0311665
 20
158.699997
 11
113.0311665
 21
156.199997
  0
LINE
  8
_0-0_0
  6
CONTINUOUS
 62
    7
 10
113.0311665
 20
158.699997
 11
113.0311665
 21
171.5
  0
LINE
  8
_0-0_0
  6
CONTINUOUS
 62
    7
 10
113.0311665
 20
175
 11
113.0311665
 21
171.5
  0
LINE
  8
_0-0_0
  6
CONTINUOUS
 62
    7
 10
113.0311665
 20
175
 11
113.0311665
 21
175.349998
  0
LINE
  8
_0-0_0
  6
CONTINUOUS
 62
    7
 10
113.0311665
 20
178.84428400000002
 11
113.0311665
 21
175.349998
  0
LINE
  8
_0-0_0
  6
CONTINUOUS
 62
    7
 10
113.0311665
 20
180.692894
 11
113.0311665
 21
180.400002
  0
LINE
  8
_0-0_0
  6
CONTINUOUS
 62
    7
 10
113.0311665
 20
180.692894
 11
113.0311665
 21
180.75
  0
LINE
  8
_0-0_0
  6
CONTINUOUS
 62
    7
 10
114.0317005
 20
155.699997
 11
113.5311665
 21
155.699997
  0
LINE
  8
_0-0_0
  6
CONTINUOUS
 62
    7
 10
210.0199585
 20
155.900002
 11
217.0311585
 21
155.900002
  0
LINE
  8
_0-0_0
  6
CONTINUOUS
 62
    7
 10
217.0311585
 20
155.900002
 11
221.7066035
 21
155.900002
  0
LINE
  8
_0-0_0
  6
CONTINUOUS
 62
    7
 10
217.0311585
 20
155.900002
 11
217.0311585
 21
157.900002
  0
LINE
  8
_0-0_0
  6
CONTINUOUS
 62
    7
 10
217.0311585
 20
161.400002
 11
217.0311585
 21
158.400002
  0
LINE
  8
_0-0_0
  6
CONTINUOUS
 62
    7
 10
217.0311585
 20
158.400002
 11
217.0311585
 21
157.900002
  0
LINE
  8
_0-0_0
  6
CONTINUOUS
 62
    7
 10
217.0311585
 20
161.400002
 11
217.0311585
 21
161.900002
  0
ARC
  8
_0-0_0
  6
CONTINUOUS
 62
    7
 10
211.0311585
 20
161.20001200000002
 40
0.500016
 50
180.00117
 51
359.995611
  0
LINE
  8
_0-0_0
  6
CONTINUOUS
 62
    7
 10
211.5311585
 20
161.199997
 11
211.5311585
 21
173.199997
  0
ARC
  8
_0-0_0
  6
CONTINUOUS
 62
    7
 10
211.0311585
 20
173.19998900000002
 40
0.500016
 50
0.001164
 51
179.99560600000004
  0
LINE
  8
_0-0_0
  6
CONTINUOUS
 62
    7
 10
210.5311585
 20
161.199997
 11
210.5311585
 21
173.199997
  0
ARC
  8
_0-0_0
  6
CONTINUOUS
 62
    7
 10
212.5311585
 20
161.20001200000002
 40
0.500016
 50
180.00117
 51
359.995611
  0
LINE
  8
_0-0_0
  6
CONTINUOUS
 62
    7
 10
213.0311585
 20
161.199997
 11
213.0311585
 21
173.199997
  0
ARC
  8
_0-0_0
  6
CONTINUOUS
 62
    7
 10
212.5311585
 20
173.19998900000002
 40
0.500016
 50
0.001164
 51
179.99560600000004
  0
LINE
  8
_0-0_0
  6
CONTINUOUS
 62
    7
 10
212.0311585
 20
161.199997
 11
212.0311585
 21
173.199997
  0
ARC
  8
_0-0_0
  6
CONTINUOUS
 62
    7
 10
214.0311585
 20
161.20001200000002
 40
0.500016
 50
180.00117
 51
359.995611
  0
LINE
  8
_0-0_0
  6
CONTINUOUS
 62
    7
 10
214.5311585
 20
161.199997
 11
214.5311585
 21
173.199997
  0
ARC
  8
_0-0_0
  6
CONTINUOUS
 62
    7
 10
214.0311585
 20
173.19998900000002
 40
0.500016
 50
0.001164
 51
179.99560600000004
  0
LINE
  8
_0-0_0
  6
CONTINUOUS
 62
    7
 10
213.5311585
 20
161.199997
 11
213.5311585
 21
173.199997
  0
ARC
  8
_0-0_0
  6
CONTINUOUS
 62
    7
 10
215.5311585
 20
161.20001200000002
 40
0.500016
 50
180.00117
 51
359.995611
  0
LINE
  8
_0-0_0
  6
CONTINUOUS
 62
    7
 10
216.0311585
 20
161.199997
 11
216.0311585
 21
173.199997
  0
ARC
  8
_0-0_0
  6
CONTINUOUS
 62
    7
 10
215.5311585
 20
173.19998900000002
 40
0.500016
 50
0.001164
 51
179.99560600000004
  0
LINE
  8
_0-0_0
  6
CONTINUOUS
 62
    7
 10
215.0311585
 20
161.199997
 11
215.0311585
 21
173.199997
  0
LINE
  8
_0-0_0
  6
CONTINUOUS
 62
    7
 10
205.0311585
 20
177.5
 11
221.7066035
 21
177.5
  0
LINE
  8
_0-0_0
  6
CONTINUOUS
 62
    7
 10
113.5311665
 20
181.25
 11
119.0311665
 21
181.25
  0
ARC
  8
_0-0_0
  6
CONTINUOUS
 62
    7
 10
113.5311665
 20
180.75
 40
0.5
 50
90.000003000000007
 51
179.99999099999999
  0
ARC
  8
_0-0_0
  6
CONTINUOUS
 62
    7
 10
113.5311665
 20
156.199997
 40
0.5
 50
179.99999099999999
 51
269.99999700000001
  0
ARC
  8
_0-0_0
  6
CONTINUOUS
 62
    7
 10
113.5311665
 20
171.5
 40
0.5
 50
90.000003000000007
 51
179.99999099999999
  0
ARC
  8
_0-0_0
  6
CONTINUOUS
 62
    7
 10
221.7066035
 20
157.900002
 40
2
 50
269.99999700000001
 51
288.43501300000003
  0
LINE
  8
_0-0_0
  6
CONTINUOUS
 62
    7
 10
217.0311585
 20
155.900002
 11
217.0311585
 21
156.15006299999999
  0
LINE
  8
_0-0_0
  6
CONTINUOUS
 62
    7
 10
217.0311585
 20
161.400002
 11
221.7066035
 21
161.400002
  0
LINE
  8
_0-0_0
  6
CONTINUOUS
 62
    7
 10
222.33908049999999
 20
177.397369
 11
222.2195735
 21
177.43298299999998
  0
LINE
  8
_0-0_0
  6
CONTINUOUS
 62
    7
 10
222.2195735
 20
177.43298299999998
 11
222.09802249999998
 21
177.460869
  0
LINE
  8
_0-0_0
  6
CONTINUOUS
 62
    7
 10
222.09802249999998
 20
177.460869
 11
221.9748835
 21
177.48091099999999
  0
LINE
  8
_0-0_0
  6
CONTINUOUS
 62
    7
 10
221.9748835
 20
177.48091099999999
 11
221.85064650000001
 21
177.493019
  0
LINE
  8
_0-0_0
  6
CONTINUOUS
 62
    7
 10
221.85064650000001
 20
177.493019
 11
221.7258305
 21
177.49715399999999
  0
LINE
  8
_0-0_0
  6
CONTINUOUS
 62
    7
 10
221.7258305
 20
177.49715399999999
 11
221.7066035
 21
177.497086
  0
ARC
  8
_0-0_0
  6
CONTINUOUS
 62
    7
 10
221.7066035
 20
175.5
 40
2
 50
71.565000999999995
 51
90.000003000000007
  0
LINE
  8
_0-0_0
  6
CONTINUOUS
 62
    7
 10
138.00270849999998
 20
167.900002
 11
130.05963149999999
 21
167.900002
  0
ARC
  8
_0-0_0
  6
CONTINUOUS
 62
    7
 10
130.05963149999999
 20
168.400002
 40
0.5
 50
210.00000299999999
 51
269.99999700000001
  0
LINE
  8
_0-0_0
  6
CONTINUOUS
 62
    7
 10
129.62661750000001
 20
168.150002
 11
127.54815649999999
 21
171.75
  0
ARC
  8
_0-0_0
  6
CONTINUOUS
 62
    7
 10
127.98117049999999
 20
172
 40
0.5
 50
149.99999700000001
 51
210.00000299999996
  0
LINE
  8
_0-0_0
  6
CONTINUOUS
 62
    7
 10
127.54815649999999
 20
172.25
 11
129.62661750000001
 21
175.849998
  0
ARC
  8
_0-0_0
  6
CONTINUOUS
 62
    7
 10
130.05963149999999
 20
175.599998
 40
0.5
 50
90.000003000000007
 51
149.99999700000001
  0
LINE
  8
_0-0_0
  6
CONTINUOUS
 62
    7
 10
130.05963149999999
 20
176.099998
 11
138.00270849999998
 21
176.099998
  0
ARC
  8
_0-0_0
  6
CONTINUOUS
 62
    7
 10
138.00270849999998
 20
175.599998
 40
0.5
 50
30.000001000000001
 51
90.000003000000007
  0
LINE
  8
_0-0_0
  6
CONTINUOUS
 62
    7
 10
138.4357225
 20
175.849998
 11
140.5141825
 21
172.25
  0
ARC
  8
_0-0_0
  6
CONTINUOUS
 62
    7
 10
140.08116949999999
 20
172
 40
0.5
 50
329.99998900000003
 51
30.000000999999983
  0
LINE
  8
_0-0_0
  6
CONTINUOUS
 62
    7
 10
140.5141825
 20
171.75
 11
138.4357225
 21
168.150002
  0
ARC
  8
_0-0_0
  6
CONTINUOUS
 62
    7
 10
138.00270849999998
 20
168.400002
 40
0.5
 50
269.99999700000001
 51
329.99998900000003
  0
ARC
  8
_0-0_0
  6
CONTINUOUS
 62
    7
 10
186.0018925
 20
168.5
 40
0.5
 50
210.00000299999999
 51
269.99999700000001
  0
LINE
  8
_0-0_0
  6
CONTINUOUS
 62
    7
 10
185.56887849999998
 20
168.25
 11
183.5481565
 21
171.75
  0
ARC
  8
_0-0_0
  6
CONTINUOUS
 62
    7
 10
183.98117049999999
 20
172
 40
0.5
 50
149.99999700000001
 51
210.00000299999996
  0
LINE
  8
_0-0_0
  6
CONTINUOUS
 62
    7
 10
183.5481565
 20
172.25
 11
185.56887849999998
 21
175.75
  0
ARC
  8
_0-0_0
  6
CONTINUOUS
 62
    7
 10
186.0018925
 20
175.5
 40
0.5
 50
90.000003000000007
 51
149.99999700000001
  0
LINE
  8
_0-0_0
  6
CONTINUOUS
 62
    7
 10
186.0018925
 20
176
 11
194.06045549999999
 21
176
  0
ARC
  8
_0-0_0
  6
CONTINUOUS
 62
    7
 10
194.06045549999999
 20
175.5
 40
0.5
 50
30.000001000000001
 51
90.000003000000007
  0
LINE
  8
_0-0_0
  6
CONTINUOUS
 62
    7
 10
194.4934695
 20
175.75
 11
196.51419049999998
 21
172.25
  0
ARC
  8
_0-0_0
  6
CONTINUOUS
 62
    7
 10
196.0811765
 20
172
 40
0.5
 50
329.99998900000003
 51
30.000000999999983
  0
LINE
  8
_0-0_0
  6
CONTINUOUS
 62
    7
 10
196.51419049999998
 20
171.75
 11
194.4934695
 21
168.25
  0
ARC
  8
_0-0_0
  6
CONTINUOUS
 62
    7
 10
194.06045549999999
 20
168.5
 40
0.5
 50
269.99999700000001
 51
329.99998900000003
  0
LINE
  8
_0-0_0
  6
CONTINUOUS
 62
    7
 10
194.06045549999999
 20
168
 11
186.0018925
 21
168
  0
LINE
  8
_0-0_0
  6
CONTINUOUS
 62
    7
 10
116.0311665
 20
176.63043199999998
 11
116.0311665
 21
175.804192
  0
LINE
  8
_0-0_0
  6
CONTINUOUS
 62
    7
 10
113.5311665
 20
172
 11
115.7311625
 21
172
  0
LINE
  8
_0-0_0
  6
CONTINUOUS
 62
    7
 10
116.0311665
 20
172.300003
 11
116.0311665
 21
174.52830499999999
  0
LINE
  8
_0-0_0
  6
CONTINUOUS
 62
    7
 10
116.0311665
 20
176.79969
 11
116.0311665
 21
176.63043199999998
  0
LINE
  8
_0-0_0
  6
CONTINUOUS
 62
    7
 10
124.23117049999999
 20
177.400002
 11
123.8311695
 21
177.400002
  0
LINE
  8
_0-0_0
  6
CONTINUOUS
 62
    7
 10
124.23117049999999
 20
177.400002
 11
124.23117049999999
 21
178.050003
  0
ARC
  8
_0-0_0
  6
CONTINUOUS
 62
    7
 10
124.48117049999999
 20
178.050003
 40
0.25
 50
90.000003000000007
 51
179.99999099999999
  0
LINE
  8
_0-0_0
  6
CONTINUOUS
 62
    7
 10
124.48117049999999
 20
178.300003
 11
125.1311645
 21
178.300003
  0
LINE
  8
_0-0_0
  6
CONTINUOUS
 62
    7
 10
125.1311645
 20
178.300003
 11
125.1311645
 21
178.699997
  0
LINE
  8
_0-0_0
  6
CONTINUOUS
 62
    7
 10
124.48117049999999
 20
178.699997
 11
125.1311645
 21
178.699997
  0
ARC
  8
_0-0_0
  6
CONTINUOUS
 62
    7
 10
124.48117049999999
 20
178.949997
 40
0.25
 50
179.99999099999999
 51
269.99999700000001
  0
LINE
  8
_0-0_0
  6
CONTINUOUS
 62
    7
 10
124.23117049999999
 20
179.599998
 11
124.23117049999999
 21
178.949997
  0
LINE
  8
_0-0_0
  6
CONTINUOUS
 62
    7
 10
124.23117049999999
 20
179.599998
 11
123.8311695
 21
179.599998
  0
LINE
  8
_0-0_0
  6
CONTINUOUS
 62
    7
 10
123.8311695
 20
179.599998
 11
123.8311695
 21
178.949997
  0
ARC
  8
_0-0_0
  6
CONTINUOUS
 62
    7
 10
123.5811695
 20
178.949997
 40
0.25
 50
269.99999700000001
 51
0
  0
LINE
  8
_0-0_0
  6
CONTINUOUS
 62
    7
 10
123.5811695
 20
178.699997
 11
122.9311675
 21
178.699997
  0
LINE
  8
_0-0_0
  6
CONTINUOUS
 62
    7
 10
122.9311675
 20
178.300003
 11
122.9311675
 21
178.699997
  0
LINE
  8
_0-0_0
  6
CONTINUOUS
 62
    7
 10
123.5811695
 20
178.300003
 11
122.9311675
 21
178.300003
  0
ARC
  8
_0-0_0
  6
CONTINUOUS
 62
    7
 10
123.5811695
 20
178.050003
 40
0.25
 50
0
 51
90.000003000000007
  0
LINE
  8
_0-0_0
  6
CONTINUOUS
 62
    7
 10
123.8311695
 20
177.400002
 11
123.8311695
 21
178.050003
  0
LINE
  8
_0-0_0
  6
CONTINUOUS
 62
    7
 10
203.23117049999999
 20
177.400002
 11
202.8311765
 21
177.400002
  0
LINE
  8
_0-0_0
  6
CONTINUOUS
 62
    7
 10
203.23117049999999
 20
177.400002
 11
203.23117049999999
 21
178.050003
  0
ARC
  8
_0-0_0
  6
CONTINUOUS
 62
    7
 10
203.48117049999999
 20
178.050003
 40
0.25
 50
90.000003000000007
 51
179.99999099999999
  0
LINE
  8
_0-0_0
  6
CONTINUOUS
 62
    7
 10
203.48117049999999
 20
178.300003
 11
204.13116449999998
 21
178.300003
  0
LINE
  8
_0-0_0
  6
CONTINUOUS
 62
    7
 10
204.13116449999998
 20
178.300003
 11
204.13116449999998
 21
178.699997
  0
LINE
  8
_0-0_0
  6
CONTINUOUS
 62
    7
 10
203.48117049999999
 20
178.699997
 11
204.13116449999998
 21
178.699997
  0
ARC
  8
_0-0_0
  6
CONTINUOUS
 62
    7
 10
203.48117049999999
 20
178.949997
 40
0.25
 50
179.99999099999999
 51
269.99999700000001
  0
LINE
  8
_0-0_0
  6
CONTINUOUS
 62
    7
 10
203.23117049999999
 20
179.599998
 11
203.23117049999999
 21
178.949997
  0
LINE
  8
_0-0_0
  6
CONTINUOUS
 62
    7
 10
203.23117049999999
 20
179.599998
 11
202.8311765
 21
179.599998
  0
LINE
  8
_0-0_0
  6
CONTINUOUS
 62
    7
 10
202.8311765
 20
179.599998
 11
202.8311765
 21
178.949997
  0
ARC
  8
_0-0_0
  6
CONTINUOUS
 62
    7
 10
202.5811765
 20
178.949997
 40
0.25
 50
269.99999700000001
 51
0
  0
LINE
  8
_0-0_0
  6
CONTINUOUS
 62
    7
 10
202.5811765
 20
178.699997
 11
201.93118250000001
 21
178.699997
  0
LINE
  8
_0-0_0
  6
CONTINUOUS
 62
    7
 10
201.93118250000001
 20
178.300003
 11
201.93118250000001
 21
178.699997
  0
LINE
  8
_0-0_0
  6
CONTINUOUS
 62
    7
 10
202.5811765
 20
178.300003
 11
201.93118250000001
 21
178.300003
  0
ARC
  8
_0-0_0
  6
CONTINUOUS
 62
    7
 10
202.5811765
 20
178.050003
 40
0.25
 50
0
 51
90.000003000000007
  0
LINE
  8
_0-0_0
  6
CONTINUOUS
 62
    7
 10
202.8311765
 20
177.400002
 11
202.8311765
 21
178.050003
  0
LINE
  8
_0-0_0
  6
CONTINUOUS
 62
    7
 10
222.7811585
 20
156.14999399999999
 11
222.33908049999999
 21
156.00263200000001
  0
LINE
  8
_0-0_0
  6
CONTINUOUS
 62
    7
 10
226.50552350000001
 20
161.400002
 11
227.19888349999999
 21
161.400002
  0
LINE
  8
_0-0_0
  6
CONTINUOUS
 62
    7
 10
226.50552350000001
 20
161.400002
 11
222.1809695
 21
161.400002
  0
LINE
  8
_0-0_0
  6
CONTINUOUS
 62
    7
 10
221.7066035
 20
161.400002
 11
222.1809695
 21
161.400002
  0
LINE
  8
_0-0_0
  6
CONTINUOUS
 62
    7
 10
226.6636355
 20
175.95584100000002
 11
222.33908049999999
 21
177.397369
  0
LINE
  8
_0-0_0
  6
CONTINUOUS
 62
    7
 10
116.0311665
 20
175.80418400000002
 11
116.0311665
 21
174.52830499999999
  0
ARC
  8
_0-0_0
  6
CONTINUOUS
 62
    7
 10
115.7311625
 20
172.300003
 40
0.2999999999999999
 50
269.99999700000001
 51
0
  0
LINE
  8
_0-0_0
  6
CONTINUOUS
 62
    7
 10
113.57550049999999
 20
176.07870500000001
 11
113.57550049999999
 21
172.75
  0
LINE
  8
_0-0_0
  6
CONTINUOUS
 62
    7
 10
113.57550049999999
 20
177.25
 11
113.57550049999999
 21
176.07870500000001
  0
LINE
  8
_0-0_0
  6
CONTINUOUS
 62
    7
 10
228.0311585
 20
160.64996300000001
 11
228.0311585
 21
161.77098100000001
  0
LINE
  8
_0-0_0
  6
CONTINUOUS
 62
    7
 10
228.0311585
 20
162.692307
 11
228.0311585
 21
161.77098100000001
  0
LINE
  8
_0-0_0
  6
CONTINUOUS
 62
    7
 10
227.73117049999999
 20
164.48800699999998
 11
227.78997749999999
 21
164.241173
  0
LINE
  8
_0-0_0
  6
CONTINUOUS
 62
    7
 10
227.78997749999999
 20
164.241173
 11
227.8397215
 21
164.04883599999999
  0
LINE
  8
_0-0_0
  6
CONTINUOUS
 62
    7
 10
227.8397215
 20
164.04883599999999
 11
227.91085849999999
 21
163.78303499999998
  0
LINE
  8
_0-0_0
  6
CONTINUOUS
 62
    7
 10
227.91085849999999
 20
163.78303499999998
 11
227.94381749999999
 21
163.65632600000001
  0
LINE
  8
_0-0_0
  6
CONTINUOUS
 62
    7
 10
227.94381749999999
 20
163.65632600000001
 11
227.96908550000001
 21
163.55290200000002
  0
LINE
  8
_0-0_0
  6
CONTINUOUS
 62
    7
 10
227.96908550000001
 20
163.55290200000002
 11
227.9911195
 21
163.452957
  0
LINE
  8
_0-0_0
  6
CONTINUOUS
 62
    7
 10
227.9911195
 20
163.452957
 11
228.01248150000001
 21
163.335251
  0
LINE
  8
_0-0_0
  6
CONTINUOUS
 62
    7
 10
228.01248150000001
 20
163.335251
 11
228.02105749999998
 21
163.27312499999999
  0
LINE
  8
_0-0_0
  6
CONTINUOUS
 62
    7
 10
228.02105749999998
 20
163.27312499999999
 11
228.0271305
 21
163.212524
  0
LINE
  8
_0-0_0
  6
CONTINUOUS
 62
    7
 10
228.0271305
 20
163.212524
 11
228.03015149999999
 21
163.163284
  0
LINE
  8
_0-0_0
  6
CONTINUOUS
 62
    7
 10
228.03015149999999
 20
163.163284
 11
228.0311585
 21
163.115059
  0
LINE
  8
_0-0_0
  6
CONTINUOUS
 62
    7
 10
227.73117049999999
 20
168.912025
 11
227.6477055
 21
168.53334000000001
  0
LINE
  8
_0-0_0
  6
CONTINUOUS
 62
    7
 10
227.6477055
 20
168.53334000000001
 11
227.60760450000001
 21
168.341812
  0
LINE
  8
_0-0_0
  6
CONTINUOUS
 62
    7
 10
227.60760450000001
 20
168.341812
 11
227.55154450000001
 21
168.051796
  0
LINE
  8
_0-0_0
  6
CONTINUOUS
 62
    7
 10
227.55154450000001
 20
168.051796
 11
227.5139465
 21
167.832199
  0
LINE
  8
_0-0_0
  6
CONTINUOUS
 62
    7
 10
227.5139465
 20
167.832199
 11
227.4812925
 21
167.61094700000001
  0
LINE
  8
_0-0_0
  6
CONTINUOUS
 62
    7
 10
227.4812925
 20
167.61094700000001
 11
227.45413249999999
 21
167.38415500000002
  0
LINE
  8
_0-0_0
  6
CONTINUOUS
 62
    7
 10
227.45413249999999
 20
167.38415500000002
 11
227.43405150000001
 21
167.15676100000002
  0
LINE
  8
_0-0_0
  6
CONTINUOUS
 62
    7
 10
227.43405150000001
 20
167.15676100000002
 11
227.42691049999999
 21
167.04302999999999
  0
LINE
  8
_0-0_0
  6
CONTINUOUS
 62
    7
 10
227.42691049999999
 20
167.04302999999999
 11
227.4217525
 21
166.92935199999999
  0
LINE
  8
_0-0_0
  6
CONTINUOUS
 62
    7
 10
227.4217525
 20
166.92935199999999
 11
227.41802949999999
 21
166.777916
  0
LINE
  8
_0-0_0
  6
CONTINUOUS
 62
    7
 10
227.41802949999999
 20
166.777916
 11
227.4179685
 21
166.62666300000001
  0
LINE
  8
_0-0_0
  6
CONTINUOUS
 62
    7
 10
227.4179685
 20
166.62666300000001
 11
227.42153949999999
 21
166.47560099999998
  0
LINE
  8
_0-0_0
  6
CONTINUOUS
 62
    7
 10
227.42153949999999
 20
166.47560099999998
 11
227.4310605
 21
166.28706399999999
  0
LINE
  8
_0-0_0
  6
CONTINUOUS
 62
    7
 10
227.4310605
 20
166.28706399999999
 11
227.44592249999999
 21
166.09880800000002
  0
LINE
  8
_0-0_0
  6
CONTINUOUS
 62
    7
 10
227.44592249999999
 20
166.09880800000002
 11
227.46585049999999
 21
165.91087299999998
  0
LINE
  8
_0-0_0
  6
CONTINUOUS
 62
    7
 10
227.46585049999999
 20
165.91087299999998
 11
227.48223849999999
 21
165.78199799999999
  0
LINE
  8
_0-0_0
  6
CONTINUOUS
 62
    7
 10
227.48223849999999
 20
165.78199799999999
 11
227.5006405
 21
165.653336
  0
LINE
  8
_0-0_0
  6
CONTINUOUS
 62
    7
 10
227.5006405
 20
165.653336
 11
227.5248105
 21
165.50141100000002
  0
LINE
  8
_0-0_0
  6
CONTINUOUS
 62
    7
 10
227.5248105
 20
165.50141100000002
 11
227.5512085
 21
165.350067
  0
LINE
  8
_0-0_0
  6
CONTINUOUS
 62
    7
 10
227.5512085
 20
165.350067
 11
227.6073605
 21
165.059448
  0
LINE
  8
_0-0_0
  6
CONTINUOUS
 62
    7
 10
227.6073605
 20
165.059448
 11
227.64752150000001
 21
164.867493
  0
LINE
  8
_0-0_0
  6
CONTINUOUS
 62
    7
 10
227.64752150000001
 20
164.867493
 11
227.73117049999999
 21
164.48800699999998
  0
LINE
  8
_0-0_0
  6
CONTINUOUS
 62
    7
 10
227.73117049999999
 20
168.912025
 11
227.78997749999999
 21
169.15886699999999
  0
LINE
  8
_0-0_0
  6
CONTINUOUS
 62
    7
 10
227.78997749999999
 20
169.15886699999999
 11
227.8397215
 21
169.35119600000002
  0
LINE
  8
_0-0_0
  6
CONTINUOUS
 62
    7
 10
227.8397215
 20
169.35119600000002
 11
227.91085849999999
 21
169.61694299999999
  0
LINE
  8
_0-0_0
  6
CONTINUOUS
 62
    7
 10
227.91085849999999
 20
169.61694299999999
 11
227.94381749999999
 21
169.74363700000001
  0
LINE
  8
_0-0_0
  6
CONTINUOUS
 62
    7
 10
227.94381749999999
 20
169.74363700000001
 11
227.96908550000001
 21
169.84707600000002
  0
LINE
  8
_0-0_0
  6
CONTINUOUS
 62
    7
 10
227.96908550000001
 20
169.84707600000002
 11
227.9911195
 21
169.94705199999999
  0
LINE
  8
_0-0_0
  6
CONTINUOUS
 62
    7
 10
227.9911195
 20
169.94705199999999
 11
228.01248150000001
 21
170.064751
  0
LINE
  8
_0-0_0
  6
CONTINUOUS
 62
    7
 10
228.01248150000001
 20
170.064751
 11
228.02105749999998
 21
170.12687699999998
  0
LINE
  8
_0-0_0
  6
CONTINUOUS
 62
    7
 10
228.02105749999998
 20
170.12687699999998
 11
228.0271305
 21
170.18748499999998
  0
LINE
  8
_0-0_0
  6
CONTINUOUS
 62
    7
 10
228.0271305
 20
170.18748499999998
 11
228.03015149999999
 21
170.23672500000001
  0
LINE
  8
_0-0_0
  6
CONTINUOUS
 62
    7
 10
228.03015149999999
 20
170.23672500000001
 11
228.0311585
 21
170.284943
  0
LINE
  8
_0-0_0
  6
CONTINUOUS
 62
    7
 10
228.0311585
 20
174.05847199999999
 11
228.0311585
 21
170.70768700000002
  0
ARC
  8
_0-0_0
  6
CONTINUOUS
 62
    7
 10
226.0311585
 20
174.05847199999999
 40
2
 50
0
 51
71.565000999999995
  0
CIRCLE
  8
_0-0_0
  6
CONTINUOUS
 62
    7
 10
134.03116649999998
 20
172
 40
2.5
  0
CIRCLE
  8
_0-0_0
  6
CONTINUOUS
 62
    7
 10
190.0311585
 20
172
 40
2.5
  0
LINE
  8
_0-0_0
  6
CONTINUOUS
 62
    7
 10
113.4311675
 20
175.95884699999999
 11
113.4311675
 21
173
  0
LINE
  8
_0-0_0
  6
CONTINUOUS
 62
    7
 10
113.4311675
 20
177
 11
113.4311675
 21
175.95884699999999
  0
LINE
  8
_0-0_0
  6
CONTINUOUS
 62
    7
 10
243.0311585
 20
157.17456099999998
 11
243.0311585
 21
157.32128899999998
  0
LINE
  8
_0-0_0
  6
CONTINUOUS
 62
    7
 10
243.0311585
 20
156.98403200000001
 11
243.0311585
 21
157.17456099999998
  0
LINE
  8
_0-0_0
  6
CONTINUOUS
 62
    7
 10
243.0311585
 20
156.80901299999999
 11
243.0311585
 21
156.98403200000001
  0
LINE
  8
_0-0_0
  6
CONTINUOUS
 62
    7
 10
243.0311585
 20
156.651421
 11
243.0311585
 21
156.80901299999999
  0
LINE
  8
_0-0_0
  6
CONTINUOUS
 62
    7
 10
243.0311585
 20
156.51299299999999
 11
243.0311585
 21
156.651421
  0
LINE
  8
_0-0_0
  6
CONTINUOUS
 62
    7
 10
243.0311585
 20
156.39523300000002
 11
243.0311585
 21
156.51299299999999
  0
LINE
  8
_0-0_0
  6
CONTINUOUS
 62
    7
 10
243.0311585
 20
156.29944599999999
 11
243.0311585
 21
156.39523300000002
  0
LINE
  8
_0-0_0
  6
CONTINUOUS
 62
    7
 10
243.0311585
 20
156.150002
 11
243.0311585
 21
156.29944599999999
  0
LINE
  8
_0-0_0
  6
CONTINUOUS
 62
    7
 10
243.0311585
 20
156.17770400000001
 11
243.0311585
 21
156.22666900000002
  0
LINE
  8
_0-0_0
  6
CONTINUOUS
 62
    7
 10
243.0311585
 20
156.15308400000001
 11
243.0311585
 21
156.17770400000001
  0
LINE
  8
_0-0_0
  6
CONTINUOUS
 62
    7
 10
243.0311585
 20
156.150002
 11
243.0311585
 21
156.15308400000001
  0
LINE
  8
_0-0_0
  6
CONTINUOUS
 62
    7
 10
243.0311585
 20
160.646919
 11
243.0311585
 21
160.650002
  0
LINE
  8
_0-0_0
  6
CONTINUOUS
 62
    7
 10
243.0311585
 20
160.622299
 11
243.0311585
 21
160.646919
  0
LINE
  8
_0-0_0
  6
CONTINUOUS
 62
    7
 10
243.0311585
 20
160.57333399999999
 11
243.0311585
 21
160.650002
  0
LINE
  8
_0-0_0
  6
CONTINUOUS
 62
    7
 10
243.0311585
 20
160.50055700000001
 11
243.0311585
 21
160.57333399999999
  0
LINE
  8
_0-0_0
  6
CONTINUOUS
 62
    7
 10
243.0311585
 20
160.40476200000001
 11
243.0311585
 21
160.50055700000001
  0
LINE
  8
_0-0_0
  6
CONTINUOUS
 62
    7
 10
243.0311585
 20
160.37455699999998
 11
243.0311585
 21
160.40476200000001
  0
LINE
  8
_0-0_0
  6
CONTINUOUS
 62
    7
 10
243.0311585
 20
160.28701000000001
 11
243.0311585
 21
160.37455699999998
  0
LINE
  8
_0-0_0
  6
CONTINUOUS
 62
    7
 10
243.0311585
 20
160.14857499999999
 11
243.0311585
 21
160.28701000000001
  0
LINE
  8
_0-0_0
  6
CONTINUOUS
 62
    7
 10
243.0311585
 20
159.99099000000001
 11
243.0311585
 21
160.14857499999999
  0
LINE
  8
_0-0_0
  6
CONTINUOUS
 62
    7
 10
243.0311585
 20
159.81597099999999
 11
243.0311585
 21
159.99099000000001
  0
LINE
  8
_0-0_0
  6
CONTINUOUS
 62
    7
 10
243.0311585
 20
159.62543499999998
 11
243.0311585
 21
159.81597099999999
  0
LINE
  8
_0-0_0
  6
CONTINUOUS
 62
    7
 10
243.0311585
 20
159.42147799999998
 11
243.0311585
 21
159.62543499999998
  0
LINE
  8
_0-0_0
  6
CONTINUOUS
 62
    7
 10
243.0311585
 20
159.20632899999998
 11
243.0311585
 21
159.42147799999998
  0
LINE
  8
_0-0_0
  6
CONTINUOUS
 62
    7
 10
243.0311585
 20
158.98234600000001
 11
243.0311585
 21
159.20632899999998
  0
LINE
  8
_0-0_0
  6
CONTINUOUS
 62
    7
 10
243.0311585
 20
158.75197600000001
 11
243.0311585
 21
158.98234600000001
  0
LINE
  8
_0-0_0
  6
CONTINUOUS
 62
    7
 10
243.0311585
 20
158.517754
 11
243.0311585
 21
158.75197600000001
  0
LINE
  8
_0-0_0
  6
CONTINUOUS
 62
    7
 10
243.0311585
 20
158.282242
 11
243.0311585
 21
158.517754
  0
LINE
  8
_0-0_0
  6
CONTINUOUS
 62
    7
 10
243.0311585
 20
158.04801900000001
 11
243.0311585
 21
158.282242
  0
LINE
  8
_0-0_0
  6
CONTINUOUS
 62
    7
 10
243.0311585
 20
157.817657
 11
243.0311585
 21
158.04801900000001
  0
LINE
  8
_0-0_0
  6
CONTINUOUS
 62
    7
 10
243.0311585
 20
157.59367399999999
 11
243.0311585
 21
157.817657
  0
LINE
  8
_0-0_0
  6
CONTINUOUS
 62
    7
 10
243.0311585
 20
157.378525
 11
243.0311585
 21
157.59367399999999
  0
LINE
  8
_0-0_0
  6
CONTINUOUS
 62
    7
 10
243.0311585
 20
157.32128899999998
 11
243.0311585
 21
157.378525
  0
LINE
  8
_0-0_0
  6
CONTINUOUS
 62
    7
 10
228.0311585
 20
165.13795500000001
 11
228.0311585
 21
164.09229999999999
  0
LINE
  8
_0-0_0
  6
CONTINUOUS
 62
    7
 10
228.0311585
 20
162.807693
 11
228.0311585
 21
164.09229999999999
  0
LINE
  8
_0-0_0
  6
CONTINUOUS
 62
    7
 10
228.0311585
 20
162.692307
 11
228.0311585
 21
162.807693
  0
LINE
  8
_0-0_0
  6
CONTINUOUS
 62
    7
 10
228.0311585
 20
165.13795500000001
 11
228.0311585
 21
168.26205400000001
  0
LINE
  8
_0-0_0
  6
CONTINUOUS
 62
    7
 10
228.0311585
 20
170.70768700000002
 11
228.0311585
 21
170.59229999999999
  0
LINE
  8
_0-0_0
  6
CONTINUOUS
 62
    7
 10
228.0311585
 20
169.307693
 11
228.0311585
 21
170.59229999999999
  0
LINE
  8
_0-0_0
  6
CONTINUOUS
 62
    7
 10
228.0311585
 20
169.307693
 11
228.0311585
 21
168.26205400000001
  0
LINE
  8
_0-0_0
  6
CONTINUOUS
 62
    7
 10
228.0311585
 20
170.59229999999999
 11
237.73898349999999
 21
170.59229999999999
  0
LINE
  8
_0-0_0
  6
CONTINUOUS
 62
    7
 10
237.73898349999999
 20
173.199997
 11
237.7934875
 21
173.130066
  0
LINE
  8
_0-0_0
  6
CONTINUOUS
 62
    7
 10
237.7934875
 20
173.130066
 11
237.8445735
 21
173.061241
  0
LINE
  8
_0-0_0
  6
CONTINUOUS
 62
    7
 10
237.8445735
 20
173.061241
 11
237.8922115
 21
172.993729
  0
LINE
  8
_0-0_0
  6
CONTINUOUS
 62
    7
 10
237.8922115
 20
172.993729
 11
237.93670649999999
 21
172.92718500000001
  0
LINE
  8
_0-0_0
  6
CONTINUOUS
 62
    7
 10
237.93670649999999
 20
172.92718500000001
 11
237.99142449999999
 21
172.83964500000002
  0
LINE
  8
_0-0_0
  6
CONTINUOUS
 62
    7
 10
237.99142449999999
 20
172.83964500000002
 11
238.0409545
 21
172.75353999999999
  0
LINE
  8
_0-0_0
  6
CONTINUOUS
 62
    7
 10
238.0409545
 20
172.75353999999999
 11
238.0854185
 21
172.66870900000001
  0
LINE
  8
_0-0_0
  6
CONTINUOUS
 62
    7
 10
238.0854185
 20
172.66870900000001
 11
238.1323855
 21
172.56838999999999
  0
LINE
  8
_0-0_0
  6
CONTINUOUS
 62
    7
 10
238.1323855
 20
172.56838999999999
 11
238.17257649999999
 21
172.46946700000001
  0
LINE
  8
_0-0_0
  6
CONTINUOUS
 62
    7
 10
238.17257649999999
 20
172.46946700000001
 11
238.20623749999999
 21
172.37170399999999
  0
LINE
  8
_0-0_0
  6
CONTINUOUS
 62
    7
 10
238.20623749999999
 20
172.37170399999999
 11
238.23355050000001
 21
172.274902
  0
LINE
  8
_0-0_0
  6
CONTINUOUS
 62
    7
 10
238.23355050000001
 20
172.274902
 11
238.25457750000001
 21
172.17884800000002
  0
LINE
  8
_0-0_0
  6
CONTINUOUS
 62
    7
 10
238.25457750000001
 20
172.17884800000002
 11
238.27050750000001
 21
172.074997
  0
LINE
  8
_0-0_0
  6
CONTINUOUS
 62
    7
 10
238.27050750000001
 20
172.074997
 11
238.27926650000001
 21
171.97157300000001
  0
LINE
  8
_0-0_0
  6
CONTINUOUS
 62
    7
 10
238.27926650000001
 20
171.97157300000001
 11
238.28091449999999
 21
171.86833200000001
  0
LINE
  8
_0-0_0
  6
CONTINUOUS
 62
    7
 10
238.28091449999999
 20
171.86833200000001
 11
238.2754515
 21
171.76504499999999
  0
LINE
  8
_0-0_0
  6
CONTINUOUS
 62
    7
 10
238.2754515
 20
171.76504499999999
 11
238.26281749999998
 21
171.66145299999999
  0
LINE
  8
_0-0_0
  6
CONTINUOUS
 62
    7
 10
238.26281749999998
 20
171.66145299999999
 11
238.24301149999999
 21
171.55729700000001
  0
LINE
  8
_0-0_0
  6
CONTINUOUS
 62
    7
 10
238.24301149999999
 20
171.55729700000001
 11
238.21588149999999
 21
171.452347
  0
LINE
  8
_0-0_0
  6
CONTINUOUS
 62
    7
 10
238.21588149999999
 20
171.452347
 11
238.18121349999998
 21
171.34631300000001
  0
LINE
  8
_0-0_0
  6
CONTINUOUS
 62
    7
 10
238.18121349999998
 20
171.34631300000001
 11
238.13888549999999
 21
171.23893700000002
  0
LINE
  8
_0-0_0
  6
CONTINUOUS
 62
    7
 10
238.13888549999999
 20
171.23893700000002
 11
238.0885615
 21
171.129929
  0
LINE
  8
_0-0_0
  6
CONTINUOUS
 62
    7
 10
238.0885615
 20
171.129929
 11
238.0343015
 21
171.026794
  0
LINE
  8
_0-0_0
  6
CONTINUOUS
 62
    7
 10
238.0343015
 20
171.026794
 11
237.97259549999998
 21
170.921738
  0
LINE
  8
_0-0_0
  6
CONTINUOUS
 62
    7
 10
237.97259549999998
 20
170.921738
 11
237.9030765
 21
170.81449900000001
  0
LINE
  8
_0-0_0
  6
CONTINUOUS
 62
    7
 10
237.9030765
 20
170.81449900000001
 11
237.8253785
 21
170.70479599999999
  0
LINE
  8
_0-0_0
  6
CONTINUOUS
 62
    7
 10
237.8253785
 20
170.70479599999999
 11
237.73898349999999
 21
170.59229999999999
  0
LINE
  8
_0-0_0
  6
CONTINUOUS
 62
    7
 10
228.0311585
 20
173.199997
 11
237.73898349999999
 21
173.199997
  0
LINE
  8
_0-0_0
  6
CONTINUOUS
 62
    7
 10
237.7811585
 20
173.199997
 11
237.73898349999999
 21
173.199997
  0
LINE
  8
_0-0_0
  6
CONTINUOUS
 62
    7
 10
228.0311585
 20
162.807693
 11
237.73898349999999
 21
162.807693
  0
LINE
  8
_0-0_0
  6
CONTINUOUS
 62
    7
 10
237.73898349999999
 20
162.807693
 11
237.7934875
 21
162.73775499999999
  0
LINE
  8
_0-0_0
  6
CONTINUOUS
 62
    7
 10
237.7934875
 20
162.73775499999999
 11
237.8445735
 21
162.66892999999999
  0
LINE
  8
_0-0_0
  6
CONTINUOUS
 62
    7
 10
237.8445735
 20
162.66892999999999
 11
237.8922115
 21
162.60142500000001
  0
LINE
  8
_0-0_0
  6
CONTINUOUS
 62
    7
 10
237.8922115
 20
162.60142500000001
 11
237.93670649999999
 21
162.53488199999998
  0
LINE
  8
_0-0_0
  6
CONTINUOUS
 62
    7
 10
237.93670649999999
 20
162.53488199999998
 11
237.99142449999999
 21
162.44734199999999
  0
LINE
  8
_0-0_0
  6
CONTINUOUS
 62
    7
 10
237.99142449999999
 20
162.44734199999999
 11
238.0409545
 21
162.36123700000002
  0
LINE
  8
_0-0_0
  6
CONTINUOUS
 62
    7
 10
238.0409545
 20
162.36123700000002
 11
238.0854185
 21
162.27640500000001
  0
LINE
  8
_0-0_0
  6
CONTINUOUS
 62
    7
 10
238.0854185
 20
162.27640500000001
 11
238.1323855
 21
162.176086
  0
LINE
  8
_0-0_0
  6
CONTINUOUS
 62
    7
 10
238.1323855
 20
162.176086
 11
238.17257649999999
 21
162.07716399999998
  0
LINE
  8
_0-0_0
  6
CONTINUOUS
 62
    7
 10
238.17257649999999
 20
162.07716399999998
 11
238.20623749999999
 21
161.979401
  0
LINE
  8
_0-0_0
  6
CONTINUOUS
 62
    7
 10
238.20623749999999
 20
161.979401
 11
238.23355050000001
 21
161.882599
  0
LINE
  8
_0-0_0
  6
CONTINUOUS
 62
    7
 10
238.23355050000001
 20
161.882599
 11
238.25457750000001
 21
161.78654499999999
  0
LINE
  8
_0-0_0
  6
CONTINUOUS
 62
    7
 10
238.25457750000001
 20
161.78654499999999
 11
238.27050750000001
 21
161.682693
  0
LINE
  8
_0-0_0
  6
CONTINUOUS
 62
    7
 10
238.27050750000001
 20
161.682693
 11
238.27926650000001
 21
161.579262
  0
LINE
  8
_0-0_0
  6
CONTINUOUS
 62
    7
 10
238.27926650000001
 20
161.579262
 11
238.28091449999999
 21
161.47602799999999
  0
LINE
  8
_0-0_0
  6
CONTINUOUS
 62
    7
 10
238.28091449999999
 20
161.47602799999999
 11
238.2754515
 21
161.37273399999998
  0
LINE
  8
_0-0_0
  6
CONTINUOUS
 62
    7
 10
238.2754515
 20
161.37273399999998
 11
238.26281749999998
 21
161.26914199999999
  0
LINE
  8
_0-0_0
  6
CONTINUOUS
 62
    7
 10
238.26281749999998
 20
161.26914199999999
 11
238.24301149999999
 21
161.16500100000002
  0
LINE
  8
_0-0_0
  6
CONTINUOUS
 62
    7
 10
238.24301149999999
 20
161.16500100000002
 11
238.21588149999999
 21
161.060036
  0
LINE
  8
_0-0_0
  6
CONTINUOUS
 62
    7
 10
238.21588149999999
 20
161.060036
 11
238.18121349999998
 21
160.954002
  0
LINE
  8
_0-0_0
  6
CONTINUOUS
 62
    7
 10
238.18121349999998
 20
160.954002
 11
238.13888549999999
 21
160.84662600000001
  0
LINE
  8
_0-0_0
  6
CONTINUOUS
 62
    7
 10
238.13888549999999
 20
160.84662600000001
 11
238.0885615
 21
160.73762499999998
  0
LINE
  8
_0-0_0
  6
CONTINUOUS
 62
    7
 10
238.0885615
 20
160.73762499999998
 11
238.0428775
 21
160.64997099999999
  0
LINE
  8
_0-0_0
  6
CONTINUOUS
 62
    7
 10
243.0311585
 20
157.17456099999998
 11
243.2811585
 21
157.150002
  0
LINE
  8
_0-0_0
  6
CONTINUOUS
 62
    7
 10
243.0311585
 20
157.378525
 11
243.2811585
 21
157.150002
  0
LINE
  8
_0-0_0
  6
CONTINUOUS
 62
    7
 10
243.0311585
 20
156.98403200000001
 11
243.2811585
 21
156.93053399999999
  0
LINE
  8
_0-0_0
  6
CONTINUOUS
 62
    7
 10
243.0311585
 20
157.17456099999998
 11
243.2811585
 21
156.93053399999999
  0
LINE
  8
_0-0_0
  6
CONTINUOUS
 62
    7
 10
243.0311585
 20
156.80901299999999
 11
243.2811585
 21
156.72717299999999
  0
LINE
  8
_0-0_0
  6
CONTINUOUS
 62
    7
 10
243.0311585
 20
156.98403200000001
 11
243.2811585
 21
156.72717299999999
  0
LINE
  8
_0-0_0
  6
CONTINUOUS
 62
    7
 10
243.0311585
 20
156.651421
 11
243.2811585
 21
156.542137
  0
LINE
  8
_0-0_0
  6
CONTINUOUS
 62
    7
 10
243.0311585
 20
156.80901299999999
 11
243.2811585
 21
156.542137
  0
LINE
  8
_0-0_0
  6
CONTINUOUS
 62
    7
 10
243.0311585
 20
156.51299299999999
 11
243.2811585
 21
156.37745699999999
  0
LINE
  8
_0-0_0
  6
CONTINUOUS
 62
    7
 10
243.0311585
 20
156.651421
 11
243.2811585
 21
156.37745699999999
  0
LINE
  8
_0-0_0
  6
CONTINUOUS
 62
    7
 10
243.0311585
 20
156.39523300000002
 11
243.2811585
 21
156.23493999999999
  0
LINE
  8
_0-0_0
  6
CONTINUOUS
 62
    7
 10
243.0311585
 20
156.51299299999999
 11
243.2811585
 21
156.23493999999999
  0
LINE
  8
_0-0_0
  6
CONTINUOUS
 62
    7
 10
243.0311585
 20
156.29944599999999
 11
243.2811585
 21
156.11613499999999
  0
LINE
  8
_0-0_0
  6
CONTINUOUS
 62
    7
 10
243.0311585
 20
156.39523300000002
 11
243.2811585
 21
156.11613499999999
  0
LINE
  8
_0-0_0
  6
CONTINUOUS
 62
    7
 10
243.0311585
 20
156.22666900000002
 11
243.2811585
 21
156.02236199999999
  0
LINE
  8
_0-0_0
  6
CONTINUOUS
 62
    7
 10
243.0311585
 20
156.29944599999999
 11
243.2811585
 21
156.02236199999999
  0
LINE
  8
_0-0_0
  6
CONTINUOUS
 62
    7
 10
243.0311585
 20
156.17770400000001
 11
243.2811585
 21
155.95462800000001
  0
LINE
  8
_0-0_0
  6
CONTINUOUS
 62
    7
 10
243.0311585
 20
156.22666900000002
 11
243.2811585
 21
155.95462800000001
  0
LINE
  8
_0-0_0
  6
CONTINUOUS
 62
    7
 10
243.0311585
 20
156.15308400000001
 11
243.2811585
 21
155.91369600000002
  0
LINE
  8
_0-0_0
  6
CONTINUOUS
 62
    7
 10
243.0311585
 20
156.17770400000001
 11
243.2811585
 21
155.91369600000002
  0
LINE
  8
_0-0_0
  6
CONTINUOUS
 62
    7
 10
243.0311585
 20
156.15308400000001
 11
243.2811585
 21
155.900002
  0
LINE
  8
_0-0_0
  6
CONTINUOUS
 62
    7
 10
243.0311585
 20
160.646919
 11
243.2811585
 21
160.900002
  0
LINE
  8
_0-0_0
  6
CONTINUOUS
 62
    7
 10
243.0311585
 20
160.622299
 11
243.2811585
 21
160.88630699999999
  0
LINE
  8
_0-0_0
  6
CONTINUOUS
 62
    7
 10
243.0311585
 20
160.646919
 11
243.2811585
 21
160.88630699999999
  0
LINE
  8
_0-0_0
  6
CONTINUOUS
 62
    7
 10
243.0311585
 20
160.57333399999999
 11
243.2811585
 21
160.84536700000001
  0
LINE
  8
_0-0_0
  6
CONTINUOUS
 62
    7
 10
243.0311585
 20
160.622299
 11
243.2811585
 21
160.84536700000001
  0
LINE
  8
_0-0_0
  6
CONTINUOUS
 62
    7
 10
243.0311585
 20
160.50055700000001
 11
243.2811585
 21
160.77764100000002
  0
LINE
  8
_0-0_0
  6
CONTINUOUS
 62
    7
 10
243.0311585
 20
160.57333399999999
 11
243.2811585
 21
160.77764100000002
  0
LINE
  8
_0-0_0
  6
CONTINUOUS
 62
    7
 10
243.0311585
 20
160.40476200000001
 11
243.2811585
 21
160.68386099999998
  0
LINE
  8
_0-0_0
  6
CONTINUOUS
 62
    7
 10
243.0311585
 20
160.50055700000001
 11
243.2811585
 21
160.68386099999998
  0
LINE
  8
_0-0_0
  6
CONTINUOUS
 62
    7
 10
243.0311585
 20
160.40476200000001
 11
243.16113250000001
 21
160.488617
  0
LINE
  8
_0-0_0
  6
CONTINUOUS
 62
    7
 10
243.0311585
 20
160.28701000000001
 11
243.2811585
 21
160.56506300000001
  0
LINE
  8
_0-0_0
  6
CONTINUOUS
 62
    7
 10
243.16113250000001
 20
160.488617
 11
243.2811585
 21
160.56506300000001
  0
LINE
  8
_0-0_0
  6
CONTINUOUS
 62
    7
 10
243.0311585
 20
160.14857499999999
 11
243.2811585
 21
160.422539
  0
LINE
  8
_0-0_0
  6
CONTINUOUS
 62
    7
 10
243.0311585
 20
160.28701000000001
 11
243.2811585
 21
160.422539
  0
LINE
  8
_0-0_0
  6
CONTINUOUS
 62
    7
 10
243.0311585
 20
159.99099000000001
 11
243.2811585
 21
160.257858
  0
LINE
  8
_0-0_0
  6
CONTINUOUS
 62
    7
 10
243.0311585
 20
160.14857499999999
 11
243.2811585
 21
160.257858
  0
LINE
  8
_0-0_0
  6
CONTINUOUS
 62
    7
 10
243.0311585
 20
159.81597099999999
 11
243.2811585
 21
160.07283000000001
  0
LINE
  8
_0-0_0
  6
CONTINUOUS
 62
    7
 10
243.0311585
 20
159.99099000000001
 11
243.2811585
 21
160.07283000000001
  0
LINE
  8
_0-0_0
  6
CONTINUOUS
 62
    7
 10
243.0311585
 20
159.62543499999998
 11
243.2811585
 21
159.869461
  0
LINE
  8
_0-0_0
  6
CONTINUOUS
 62
    7
 10
243.0311585
 20
159.81597099999999
 11
243.2811585
 21
159.869461
  0
LINE
  8
_0-0_0
  6
CONTINUOUS
 62
    7
 10
243.0311585
 20
159.42147799999998
 11
243.2811585
 21
159.650002
  0
LINE
  8
_0-0_0
  6
CONTINUOUS
 62
    7
 10
243.0311585
 20
159.62543499999998
 11
243.2811585
 21
159.650002
  0
LINE
  8
_0-0_0
  6
CONTINUOUS
 62
    7
 10
243.0311585
 20
159.20632899999998
 11
243.2811585
 21
159.41683999999998
  0
LINE
  8
_0-0_0
  6
CONTINUOUS
 62
    7
 10
243.0311585
 20
159.42147799999998
 11
243.2811585
 21
159.41683999999998
  0
LINE
  8
_0-0_0
  6
CONTINUOUS
 62
    7
 10
243.0311585
 20
158.98234600000001
 11
243.2811585
 21
159.172539
  0
LINE
  8
_0-0_0
  6
CONTINUOUS
 62
    7
 10
243.0311585
 20
159.20632899999998
 11
243.2811585
 21
159.172539
  0
LINE
  8
_0-0_0
  6
CONTINUOUS
 62
    7
 10
243.0311585
 20
158.75197600000001
 11
243.2811585
 21
158.91977700000001
  0
LINE
  8
_0-0_0
  6
CONTINUOUS
 62
    7
 10
243.0311585
 20
158.98234600000001
 11
243.2811585
 21
158.91977700000001
  0
LINE
  8
_0-0_0
  6
CONTINUOUS
 62
    7
 10
243.0311585
 20
158.517754
 11
243.2811585
 21
158.66132399999998
  0
LINE
  8
_0-0_0
  6
CONTINUOUS
 62
    7
 10
243.0311585
 20
158.75197600000001
 11
243.2811585
 21
158.66132399999998
  0
LINE
  8
_0-0_0
  6
CONTINUOUS
 62
    7
 10
243.0311585
 20
158.282242
 11
243.2811585
 21
158.400002
  0
LINE
  8
_0-0_0
  6
CONTINUOUS
 62
    7
 10
243.0311585
 20
158.517754
 11
243.2811585
 21
158.400002
  0
LINE
  8
_0-0_0
  6
CONTINUOUS
 62
    7
 10
243.0311585
 20
158.04801900000001
 11
243.2811585
 21
158.13867999999999
  0
LINE
  8
_0-0_0
  6
CONTINUOUS
 62
    7
 10
243.0311585
 20
158.282242
 11
243.2811585
 21
158.13867999999999
  0
LINE
  8
_0-0_0
  6
CONTINUOUS
 62
    7
 10
243.0311585
 20
157.817657
 11
243.2811585
 21
157.88021900000001
  0
LINE
  8
_0-0_0
  6
CONTINUOUS
 62
    7
 10
243.0311585
 20
158.04801900000001
 11
243.2811585
 21
157.88021900000001
  0
LINE
  8
_0-0_0
  6
CONTINUOUS
 62
    7
 10
243.0311585
 20
157.59367399999999
 11
243.2811585
 21
157.62745699999999
  0
LINE
  8
_0-0_0
  6
CONTINUOUS
 62
    7
 10
243.0311585
 20
157.817657
 11
243.2811585
 21
157.62745699999999
  0
LINE
  8
_0-0_0
  6
CONTINUOUS
 62
    7
 10
243.0311585
 20
157.378525
 11
243.2811585
 21
157.38315599999999
  0
LINE
  8
_0-0_0
  6
CONTINUOUS
 62
    7
 10
243.0311585
 20
157.59367399999999
 11
243.2811585
 21
157.38315599999999
  0
LINE
  8
_0-0_0
  6
CONTINUOUS
 62
    7
 10
228.0311585
 20
164.09229999999999
 11
237.73898349999999
 21
164.09229999999999
  0
LINE
  8
_0-0_0
  6
CONTINUOUS
 62
    7
 10
237.73898349999999
 20
164.09229999999999
 11
237.83331250000001
 21
164.33892800000001
  0
LINE
  8
_0-0_0
  6
CONTINUOUS
 62
    7
 10
237.83331250000001
 20
164.33892800000001
 11
237.91726649999998
 21
164.57889599999999
  0
LINE
  8
_0-0_0
  6
CONTINUOUS
 62
    7
 10
237.91726649999998
 20
164.57889599999999
 11
237.99142449999999
 21
164.81301100000002
  0
LINE
  8
_0-0_0
  6
CONTINUOUS
 62
    7
 10
237.99142449999999
 20
164.81301100000002
 11
238.05630450000001
 21
165.04205300000001
  0
LINE
  8
_0-0_0
  6
CONTINUOUS
 62
    7
 10
238.05630450000001
 20
165.04205300000001
 11
238.11236550000001
 21
165.26672400000001
  0
LINE
  8
_0-0_0
  6
CONTINUOUS
 62
    7
 10
238.11236550000001
 20
165.26672400000001
 11
238.15991249999999
 21
165.48770100000002
  0
LINE
  8
_0-0_0
  6
CONTINUOUS
 62
    7
 10
238.15991249999999
 20
165.48770100000002
 11
238.1993105
 21
165.70562000000001
  0
LINE
  8
_0-0_0
  6
CONTINUOUS
 62
    7
 10
238.1993105
 20
165.70562000000001
 11
238.2308045
 21
165.921066
  0
LINE
  8
_0-0_0
  6
CONTINUOUS
 62
    7
 10
238.2308045
 20
165.921066
 11
238.25457750000001
 21
166.13459799999998
  0
LINE
  8
_0-0_0
  6
CONTINUOUS
 62
    7
 10
238.25457750000001
 20
166.13459799999998
 11
238.27050750000001
 21
166.34231599999998
  0
LINE
  8
_0-0_0
  6
CONTINUOUS
 62
    7
 10
238.27050750000001
 20
166.34231599999998
 11
238.27926650000001
 21
166.54916400000002
  0
LINE
  8
_0-0_0
  6
CONTINUOUS
 62
    7
 10
238.27926650000001
 20
166.54916400000002
 11
238.28091449999999
 21
166.755638
  0
LINE
  8
_0-0_0
  6
CONTINUOUS
 62
    7
 10
238.28091449999999
 20
166.755638
 11
238.2754515
 21
166.962219
  0
LINE
  8
_0-0_0
  6
CONTINUOUS
 62
    7
 10
238.2754515
 20
166.962219
 11
238.26281749999998
 21
167.16940299999999
  0
LINE
  8
_0-0_0
  6
CONTINUOUS
 62
    7
 10
238.26281749999998
 20
167.16940299999999
 11
238.24301149999999
 21
167.377701
  0
LINE
  8
_0-0_0
  6
CONTINUOUS
 62
    7
 10
238.24301149999999
 20
167.377701
 11
238.21588149999999
 21
167.587616
  0
LINE
  8
_0-0_0
  6
CONTINUOUS
 62
    7
 10
238.21588149999999
 20
167.587616
 11
238.18121349999998
 21
167.79968300000002
  0
LINE
  8
_0-0_0
  6
CONTINUOUS
 62
    7
 10
238.18121349999998
 20
167.79968300000002
 11
238.13888549999999
 21
168.01443499999999
  0
LINE
  8
_0-0_0
  6
CONTINUOUS
 62
    7
 10
238.13888549999999
 20
168.01443499999999
 11
238.0885615
 21
168.23244499999998
  0
LINE
  8
_0-0_0
  6
CONTINUOUS
 62
    7
 10
238.0885615
 20
168.23244499999998
 11
238.0343015
 21
168.438728
  0
LINE
  8
_0-0_0
  6
CONTINUOUS
 62
    7
 10
238.0343015
 20
168.438728
 11
237.97259549999998
 21
168.64883399999999
  0
LINE
  8
_0-0_0
  6
CONTINUOUS
 62
    7
 10
237.97259549999998
 20
168.64883399999999
 11
237.9030765
 21
168.863304
  0
LINE
  8
_0-0_0
  6
CONTINUOUS
 62
    7
 10
237.9030765
 20
168.863304
 11
237.8253785
 21
169.082718
  0
LINE
  8
_0-0_0
  6
CONTINUOUS
 62
    7
 10
237.8253785
 20
169.082718
 11
237.73898349999999
 21
169.307693
  0
LINE
  8
_0-0_0
  6
CONTINUOUS
 62
    7
 10
228.0311585
 20
169.307693
 11
237.73898349999999
 21
169.307693
  0
ARC
  8
_0-0_0
  6
CONTINUOUS
 62
    7
 10
232.86743150000001
 20
163.449997
 40
4.9136889999999998
 50
352.48898799999995
 51
7.5110139999999577
  0
ARC
  8
_0-0_0
  6
CONTINUOUS
 62
    7
 10
232.8572695
 20
169.95088199999998
 40
4.9238749999999998
 50
352.49423299999995
 51
1.5359699999999901
  0
ARC
  8
_0-0_0
  6
CONTINUOUS
 62
    7
 10
232.8192445
 20
169.94593800000001
 40
4.9620009999999999
 50
1.5813010000000001
 51
7.4847919999999997
  0
LINE
  8
_0-0_0
  6
CONTINUOUS
 62
    7
 10
239.0311585
 20
169.43154900000002
 11
239.0311585
 21
171.949997
  0
LINE
  8
_0-0_0
  6
CONTINUOUS
 62
    7
 10
239.0311585
 20
161.449997
 11
239.0311585
 21
169.43154900000002
  0
LINE
  8
_0-0_0
  6
CONTINUOUS
 62
    7
 10
252.7811585
 20
157.17456099999998
 11
252.5311585
 21
157.150002
  0
LINE
  8
_0-0_0
  6
CONTINUOUS
 62
    7
 10
252.5311585
 20
157.150002
 11
243.2811585
 21
157.150002
  0
LINE
  8
_0-0_0
  6
CONTINUOUS
 62
    7
 10
252.7811585
 20
157.378525
 11
252.5311585
 21
157.150002
  0
LINE
  8
_0-0_0
  6
CONTINUOUS
 62
    7
 10
252.7811585
 20
157.378525
 11
243.0311585
 21
157.378525
  0
LINE
  8
_0-0_0
  6
CONTINUOUS
 62
    7
 10
252.7811585
 20
156.98403200000001
 11
252.5311585
 21
156.93053399999999
  0
LINE
  8
_0-0_0
  6
CONTINUOUS
 62
    7
 10
252.5311585
 20
156.93053399999999
 11
243.2811585
 21
156.93053399999999
  0
LINE
  8
_0-0_0
  6
CONTINUOUS
 62
    7
 10
252.7811585
 20
157.17456099999998
 11
252.5311585
 21
156.93053399999999
  0
LINE
  8
_0-0_0
  6
CONTINUOUS
 62
    7
 10
252.7811585
 20
156.80901299999999
 11
252.5311585
 21
156.72717299999999
  0
LINE
  8
_0-0_0
  6
CONTINUOUS
 62
    7
 10
252.5311585
 20
156.72717299999999
 11
243.2811585
 21
156.72717299999999
  0
LINE
  8
_0-0_0
  6
CONTINUOUS
 62
    7
 10
252.7811585
 20
156.98403200000001
 11
252.5311585
 21
156.72717299999999
  0
LINE
  8
_0-0_0
  6
CONTINUOUS
 62
    7
 10
252.7811585
 20
156.651421
 11
252.5311585
 21
156.542137
  0
LINE
  8
_0-0_0
  6
CONTINUOUS
 62
    7
 10
252.5311585
 20
156.542137
 11
243.2811585
 21
156.542137
  0
LINE
  8
_0-0_0
  6
CONTINUOUS
 62
    7
 10
252.7811585
 20
156.80901299999999
 11
252.5311585
 21
156.542137
  0
LINE
  8
_0-0_0
  6
CONTINUOUS
 62
    7
 10
252.7811585
 20
156.51299299999999
 11
252.5311585
 21
156.37745699999999
  0
LINE
  8
_0-0_0
  6
CONTINUOUS
 62
    7
 10
252.5311585
 20
156.37745699999999
 11
243.2811585
 21
156.37745699999999
  0
LINE
  8
_0-0_0
  6
CONTINUOUS
 62
    7
 10
252.7811585
 20
156.651421
 11
252.5311585
 21
156.37745699999999
  0
LINE
  8
_0-0_0
  6
CONTINUOUS
 62
    7
 10
252.7811585
 20
156.39523300000002
 11
252.5311585
 21
156.23493999999999
  0
LINE
  8
_0-0_0
  6
CONTINUOUS
 62
    7
 10
252.5311585
 20
156.23493999999999
 11
243.2811585
 21
156.23493999999999
  0
LINE
  8
_0-0_0
  6
CONTINUOUS
 62
    7
 10
252.7811585
 20
156.51299299999999
 11
252.5311585
 21
156.23493999999999
  0
LINE
  8
_0-0_0
  6
CONTINUOUS
 62
    7
 10
252.7811585
 20
156.29944599999999
 11
252.5311585
 21
156.11613499999999
  0
LINE
  8
_0-0_0
  6
CONTINUOUS
 62
    7
 10
252.5311585
 20
156.11613499999999
 11
243.2811585
 21
156.11613499999999
  0
LINE
  8
_0-0_0
  6
CONTINUOUS
 62
    7
 10
252.7811585
 20
156.39523300000002
 11
252.5311585
 21
156.11613499999999
  0
LINE
  8
_0-0_0
  6
CONTINUOUS
 62
    7
 10
252.7811585
 20
156.22666900000002
 11
252.5311585
 21
156.02236199999999
  0
LINE
  8
_0-0_0
  6
CONTINUOUS
 62
    7
 10
252.5311585
 20
156.02236199999999
 11
243.2811585
 21
156.02236199999999
  0
LINE
  8
_0-0_0
  6
CONTINUOUS
 62
    7
 10
252.7811585
 20
156.29944599999999
 11
252.5311585
 21
156.02236199999999
  0
LINE
  8
_0-0_0
  6
CONTINUOUS
 62
    7
 10
252.7811585
 20
156.17770400000001
 11
252.5311585
 21
155.95462800000001
  0
LINE
  8
_0-0_0
  6
CONTINUOUS
 62
    7
 10
252.5311585
 20
155.95462800000001
 11
243.2811585
 21
155.95462800000001
  0
LINE
  8
_0-0_0
  6
CONTINUOUS
 62
    7
 10
252.7811585
 20
156.22666900000002
 11
252.5311585
 21
155.95462800000001
  0
LINE
  8
_0-0_0
  6
CONTINUOUS
 62
    7
 10
252.7811585
 20
156.15308400000001
 11
252.5311585
 21
155.91369600000002
  0
LINE
  8
_0-0_0
  6
CONTINUOUS
 62
    7
 10
252.5311585
 20
155.91369600000002
 11
243.2811585
 21
155.91369600000002
  0
LINE
  8
_0-0_0
  6
CONTINUOUS
 62
    7
 10
252.7811585
 20
156.17770400000001
 11
252.5311585
 21
155.91369600000002
  0
LINE
  8
_0-0_0
  6
CONTINUOUS
 62
    7
 10
252.5311585
 20
155.900002
 11
243.2811585
 21
155.900002
  0
LINE
  8
_0-0_0
  6
CONTINUOUS
 62
    7
 10
252.7811585
 20
156.15308400000001
 11
252.5311585
 21
155.900002
  0
LINE
  8
_0-0_0
  6
CONTINUOUS
 62
    7
 10
252.7811585
 20
160.646919
 11
252.5311585
 21
160.900002
  0
LINE
  8
_0-0_0
  6
CONTINUOUS
 62
    7
 10
252.5311585
 20
160.900002
 11
243.2811585
 21
160.900002
  0
LINE
  8
_0-0_0
  6
CONTINUOUS
 62
    7
 10
252.7811585
 20
160.622299
 11
252.5311585
 21
160.88630699999999
  0
LINE
  8
_0-0_0
  6
CONTINUOUS
 62
    7
 10
252.5311585
 20
160.88630699999999
 11
243.2811585
 21
160.88630699999999
  0
LINE
  8
_0-0_0
  6
CONTINUOUS
 62
    7
 10
252.7811585
 20
160.646919
 11
252.5311585
 21
160.88630699999999
  0
LINE
  8
_0-0_0
  6
CONTINUOUS
 62
    7
 10
252.7811585
 20
160.57333399999999
 11
252.5311585
 21
160.84536700000001
  0
LINE
  8
_0-0_0
  6
CONTINUOUS
 62
    7
 10
252.5311585
 20
160.84536700000001
 11
243.2811585
 21
160.84536700000001
  0
LINE
  8
_0-0_0
  6
CONTINUOUS
 62
    7
 10
252.7811585
 20
160.622299
 11
252.5311585
 21
160.84536700000001
  0
LINE
  8
_0-0_0
  6
CONTINUOUS
 62
    7
 10
252.7811585
 20
160.50055700000001
 11
252.5311585
 21
160.77764100000002
  0
LINE
  8
_0-0_0
  6
CONTINUOUS
 62
    7
 10
252.5311585
 20
160.77764100000002
 11
243.2811585
 21
160.77764100000002
  0
LINE
  8
_0-0_0
  6
CONTINUOUS
 62
    7
 10
252.7811585
 20
160.57333399999999
 11
252.5311585
 21
160.77764100000002
  0
LINE
  8
_0-0_0
  6
CONTINUOUS
 62
    7
 10
252.7811585
 20
160.40476200000001
 11
252.5311585
 21
160.68386099999998
  0
LINE
  8
_0-0_0
  6
CONTINUOUS
 62
    7
 10
252.5311585
 20
160.68386099999998
 11
243.2811585
 21
160.68386099999998
  0
LINE
  8
_0-0_0
  6
CONTINUOUS
 62
    7
 10
252.7811585
 20
160.50055700000001
 11
252.5311585
 21
160.68386099999998
  0
LINE
  8
_0-0_0
  6
CONTINUOUS
 62
    7
 10
252.5311585
 20
160.56506300000001
 11
243.2811585
 21
160.56506300000001
  0
LINE
  8
_0-0_0
  6
CONTINUOUS
 62
    7
 10
252.65121450000001
 20
160.488617
 11
252.5311585
 21
160.56506300000001
  0
LINE
  8
_0-0_0
  6
CONTINUOUS
 62
    7
 10
252.7811585
 20
160.40476200000001
 11
252.65121450000001
 21
160.488617
  0
LINE
  8
_0-0_0
  6
CONTINUOUS
 62
    7
 10
252.7811585
 20
160.28701000000001
 11
252.5311585
 21
160.56506300000001
  0
LINE
  8
_0-0_0
  6
CONTINUOUS
 62
    7
 10
252.7811585
 20
160.14857499999999
 11
252.5311585
 21
160.422539
  0
LINE
  8
_0-0_0
  6
CONTINUOUS
 62
    7
 10
252.5311585
 20
160.422539
 11
243.2811585
 21
160.422539
  0
LINE
  8
_0-0_0
  6
CONTINUOUS
 62
    7
 10
252.7811585
 20
160.28701000000001
 11
252.5311585
 21
160.422539
  0
LINE
  8
_0-0_0
  6
CONTINUOUS
 62
    7
 10
252.7811585
 20
159.99099000000001
 11
252.5311585
 21
160.257858
  0
LINE
  8
_0-0_0
  6
CONTINUOUS
 62
    7
 10
252.5311585
 20
160.257858
 11
243.2811585
 21
160.257858
  0
LINE
  8
_0-0_0
  6
CONTINUOUS
 62
    7
 10
252.7811585
 20
160.14857499999999
 11
252.5311585
 21
160.257858
  0
LINE
  8
_0-0_0
  6
CONTINUOUS
 62
    7
 10
252.7811585
 20
159.81597099999999
 11
252.5311585
 21
160.07283000000001
  0
LINE
  8
_0-0_0
  6
CONTINUOUS
 62
    7
 10
252.5311585
 20
160.07283000000001
 11
243.2811585
 21
160.07283000000001
  0
LINE
  8
_0-0_0
  6
CONTINUOUS
 62
    7
 10
252.7811585
 20
159.99099000000001
 11
252.5311585
 21
160.07283000000001
  0
LINE
  8
_0-0_0
  6
CONTINUOUS
 62
    7
 10
252.7811585
 20
159.62543499999998
 11
252.5311585
 21
159.869461
  0
LINE
  8
_0-0_0
  6
CONTINUOUS
 62
    7
 10
252.5311585
 20
159.869461
 11
243.2811585
 21
159.869461
  0
LINE
  8
_0-0_0
  6
CONTINUOUS
 62
    7
 10
252.7811585
 20
159.81597099999999
 11
252.5311585
 21
159.869461
  0
LINE
  8
_0-0_0
  6
CONTINUOUS
 62
    7
 10
252.7811585
 20
159.42147799999998
 11
252.5311585
 21
159.650002
  0
LINE
  8
_0-0_0
  6
CONTINUOUS
 62
    7
 10
252.5311585
 20
159.650002
 11
243.2811585
 21
159.650002
  0
LINE
  8
_0-0_0
  6
CONTINUOUS
 62
    7
 10
252.7811585
 20
159.42147799999998
 11
243.0311585
 21
159.42147799999998
  0
LINE
  8
_0-0_0
  6
CONTINUOUS
 62
    7
 10
252.7811585
 20
159.62543499999998
 11
252.5311585
 21
159.650002
  0
LINE
  8
_0-0_0
  6
CONTINUOUS
 62
    7
 10
252.7811585
 20
159.20632899999998
 11
252.5311585
 21
159.41683999999998
  0
LINE
  8
_0-0_0
  6
CONTINUOUS
 62
    7
 10
252.5311585
 20
159.41683999999998
 11
243.2811585
 21
159.41683999999998
  0
LINE
  8
_0-0_0
  6
CONTINUOUS
 62
    7
 10
252.7811585
 20
159.20632899999998
 11
243.0311585
 21
159.20632899999998
  0
LINE
  8
_0-0_0
  6
CONTINUOUS
 62
    7
 10
252.7811585
 20
159.42147799999998
 11
252.5311585
 21
159.41683999999998
  0
LINE
  8
_0-0_0
  6
CONTINUOUS
 62
    7
 10
252.7811585
 20
158.98234600000001
 11
252.5311585
 21
159.172539
  0
LINE
  8
_0-0_0
  6
CONTINUOUS
 62
    7
 10
252.5311585
 20
159.172539
 11
243.2811585
 21
159.172539
  0
LINE
  8
_0-0_0
  6
CONTINUOUS
 62
    7
 10
252.7811585
 20
158.98234600000001
 11
243.0311585
 21
158.98234600000001
  0
LINE
  8
_0-0_0
  6
CONTINUOUS
 62
    7
 10
252.7811585
 20
159.20632899999998
 11
252.5311585
 21
159.172539
  0
LINE
  8
_0-0_0
  6
CONTINUOUS
 62
    7
 10
252.7811585
 20
158.75197600000001
 11
252.5311585
 21
158.91977700000001
  0
LINE
  8
_0-0_0
  6
CONTINUOUS
 62
    7
 10
252.5311585
 20
158.91977700000001
 11
243.2811585
 21
158.91977700000001
  0
LINE
  8
_0-0_0
  6
CONTINUOUS
 62
    7
 10
252.7811585
 20
158.75197600000001
 11
243.0311585
 21
158.75197600000001
  0
LINE
  8
_0-0_0
  6
CONTINUOUS
 62
    7
 10
252.7811585
 20
158.98234600000001
 11
252.5311585
 21
158.91977700000001
  0
LINE
  8
_0-0_0
  6
CONTINUOUS
 62
    7
 10
252.7811585
 20
158.517754
 11
252.5311585
 21
158.66132399999998
  0
LINE
  8
_0-0_0
  6
CONTINUOUS
 62
    7
 10
252.5311585
 20
158.66132399999998
 11
243.2811585
 21
158.66132399999998
  0
LINE
  8
_0-0_0
  6
CONTINUOUS
 62
    7
 10
252.7811585
 20
158.517754
 11
243.0311585
 21
158.517754
  0
LINE
  8
_0-0_0
  6
CONTINUOUS
 62
    7
 10
252.7811585
 20
158.75197600000001
 11
252.5311585
 21
158.66132399999998
  0
LINE
  8
_0-0_0
  6
CONTINUOUS
 62
    7
 10
252.7811585
 20
158.282242
 11
252.5311585
 21
158.400002
  0
LINE
  8
_0-0_0
  6
CONTINUOUS
 62
    7
 10
252.5311585
 20
158.400002
 11
243.2811585
 21
158.400002
  0
LINE
  8
_0-0_0
  6
CONTINUOUS
 62
    7
 10
252.7811585
 20
158.282242
 11
243.0311585
 21
158.282242
  0
LINE
  8
_0-0_0
  6
CONTINUOUS
 62
    7
 10
252.7811585
 20
158.517754
 11
252.5311585
 21
158.400002
  0
LINE
  8
_0-0_0
  6
CONTINUOUS
 62
    7
 10
252.7811585
 20
158.04801900000001
 11
252.5311585
 21
158.13867999999999
  0
LINE
  8
_0-0_0
  6
CONTINUOUS
 62
    7
 10
252.5311585
 20
158.13867999999999
 11
243.2811585
 21
158.13867999999999
  0
LINE
  8
_0-0_0
  6
CONTINUOUS
 62
    7
 10
252.7811585
 20
158.04801900000001
 11
243.0311585
 21
158.04801900000001
  0
LINE
  8
_0-0_0
  6
CONTINUOUS
 62
    7
 10
252.7811585
 20
158.282242
 11
252.5311585
 21
158.13867999999999
  0
LINE
  8
_0-0_0
  6
CONTINUOUS
 62
    7
 10
252.7811585
 20
157.817657
 11
252.5311585
 21
157.88021900000001
  0
LINE
  8
_0-0_0
  6
CONTINUOUS
 62
    7
 10
252.5311585
 20
157.88021900000001
 11
243.2811585
 21
157.88021900000001
  0
LINE
  8
_0-0_0
  6
CONTINUOUS
 62
    7
 10
252.7811585
 20
157.817657
 11
243.0311585
 21
157.817657
  0
LINE
  8
_0-0_0
  6
CONTINUOUS
 62
    7
 10
252.7811585
 20
158.04801900000001
 11
252.5311585
 21
157.88021900000001
  0
LINE
  8
_0-0_0
  6
CONTINUOUS
 62
    7
 10
252.7811585
 20
157.59367399999999
 11
252.5311585
 21
157.62745699999999
  0
LINE
  8
_0-0_0
  6
CONTINUOUS
 62
    7
 10
252.5311585
 20
157.62745699999999
 11
243.2811585
 21
157.62745699999999
  0
LINE
  8
_0-0_0
  6
CONTINUOUS
 62
    7
 10
252.7811585
 20
157.59367399999999
 11
243.0311585
 21
157.59367399999999
  0
LINE
  8
_0-0_0
  6
CONTINUOUS
 62
    7
 10
252.7811585
 20
157.817657
 11
252.5311585
 21
157.62745699999999
  0
LINE
  8
_0-0_0
  6
CONTINUOUS
 62
    7
 10
252.7811585
 20
157.378525
 11
252.5311585
 21
157.38315599999999
  0
LINE
  8
_0-0_0
  6
CONTINUOUS
 62
    7
 10
252.5311585
 20
157.38315599999999
 11
243.2811585
 21
157.38315599999999
  0
LINE
  8
_0-0_0
  6
CONTINUOUS
 62
    7
 10
252.7811585
 20
157.59367399999999
 11
252.5311585
 21
157.38315599999999
  0
LINE
  8
_0-0_0
  6
CONTINUOUS
 62
    7
 10
253.0311585
 20
156.400002
 11
253.0311585
 21
160.15516700000001
  0
LINE
  8
_0-0_0
  6
CONTINUOUS
 62
    7
 10
253.0311585
 20
160.15516700000001
 11
253.0311585
 21
160.400002
  0
LINE
  8
_0-0_0
  6
CONTINUOUS
 62
    7
 10
239.4311525
 20
161.699997
 11
239.4311525
 21
164.199997
  0
LINE
  8
_0-0_0
  6
CONTINUOUS
 62
    7
 10
239.4311525
 20
164.199997
 11
239.4311525
 21
171.699997
  0
LINE
  8
_0-0_0
  6
CONTINUOUS
 62
    7
 10
240.23117049999999
 20
162.16188
 11
240.23117049999999
 21
164.430939
  0
LINE
  8
_0-0_0
  6
CONTINUOUS
 62
    7
 10
240.23117049999999
 20
164.430939
 11
240.23117049999999
 21
171.23812100000001
  0
LINE
  8
_0-0_0
  6
CONTINUOUS
 62
    7
 10
298.23117050000002
 20
162.699997
 11
298.23117050000002
 21
162.70135500000001
  0
LINE
  8
_0-0_0
  6
CONTINUOUS
 62
    7
 10
298.23117050000002
 20
162.70135500000001
 11
298.23117050000002
 21
170.699997
  0
LINE
  8
_0-0_0
  6
CONTINUOUS
 62
    7
 10
243.0311585
 20
177.24691799999999
 11
243.0311585
 21
177.25
  0
LINE
  8
_0-0_0
  6
CONTINUOUS
 62
    7
 10
243.0311585
 20
177.22229799999999
 11
243.0311585
 21
177.25
  0
LINE
  8
_0-0_0
  6
CONTINUOUS
 62
    7
 10
243.0311585
 20
177.17333200000002
 11
243.0311585
 21
177.22229799999999
  0
LINE
  8
_0-0_0
  6
CONTINUOUS
 62
    7
 10
243.0311585
 20
177.10055499999999
 11
243.0311585
 21
177.17333200000002
  0
LINE
  8
_0-0_0
  6
CONTINUOUS
 62
    7
 10
243.0311585
 20
177.004761
 11
243.0311585
 21
177.10055499999999
  0
LINE
  8
_0-0_0
  6
CONTINUOUS
 62
    7
 10
243.0311585
 20
176.97456399999999
 11
243.0311585
 21
177.004761
  0
LINE
  8
_0-0_0
  6
CONTINUOUS
 62
    7
 10
243.0311585
 20
176.88700900000001
 11
243.0311585
 21
176.97456399999999
  0
LINE
  8
_0-0_0
  6
CONTINUOUS
 62
    7
 10
243.0311585
 20
176.748581
 11
243.0311585
 21
176.88700900000001
  0
LINE
  8
_0-0_0
  6
CONTINUOUS
 62
    7
 10
243.0311585
 20
176.59098799999998
 11
243.0311585
 21
176.748581
  0
LINE
  8
_0-0_0
  6
CONTINUOUS
 62
    7
 10
243.0311585
 20
176.41597000000002
 11
243.0311585
 21
176.59098799999998
  0
LINE
  8
_0-0_0
  6
CONTINUOUS
 62
    7
 10
243.0311585
 20
176.22543300000001
 11
243.0311585
 21
176.41597000000002
  0
LINE
  8
_0-0_0
  6
CONTINUOUS
 62
    7
 10
243.0311585
 20
176.021477
 11
243.0311585
 21
176.22543300000001
  0
LINE
  8
_0-0_0
  6
CONTINUOUS
 62
    7
 10
243.0311585
 20
175.80632800000001
 11
243.0311585
 21
176.021477
  0
LINE
  8
_0-0_0
  6
CONTINUOUS
 62
    7
 10
243.0311585
 20
175.58234400000001
 11
243.0311585
 21
175.80632800000001
  0
LINE
  8
_0-0_0
  6
CONTINUOUS
 62
    7
 10
243.0311585
 20
175.35197399999998
 11
243.0311585
 21
175.58234400000001
  0
LINE
  8
_0-0_0
  6
CONTINUOUS
 62
    7
 10
243.0311585
 20
175.117752
 11
243.0311585
 21
175.35197399999998
  0
LINE
  8
_0-0_0
  6
CONTINUOUS
 62
    7
 10
243.0311585
 20
174.882248
 11
243.0311585
 21
175.117752
  0
LINE
  8
_0-0_0
  6
CONTINUOUS
 62
    7
 10
243.0311585
 20
174.64802600000002
 11
243.0311585
 21
174.882248
  0
LINE
  8
_0-0_0
  6
CONTINUOUS
 62
    7
 10
243.0311585
 20
174.41765599999999
 11
243.0311585
 21
174.64802600000002
  0
LINE
  8
_0-0_0
  6
CONTINUOUS
 62
    7
 10
243.0311585
 20
174.19367199999999
 11
243.0311585
 21
174.41765599999999
  0
LINE
  8
_0-0_0
  6
CONTINUOUS
 62
    7
 10
243.0311585
 20
173.978523
 11
243.0311585
 21
174.19367199999999
  0
LINE
  8
_0-0_0
  6
CONTINUOUS
 62
    7
 10
243.0311585
 20
173.92129499999999
 11
243.0311585
 21
173.978523
  0
LINE
  8
_0-0_0
  6
CONTINUOUS
 62
    7
 10
243.0311585
 20
177.24691799999999
 11
243.2811585
 21
177.5
  0
LINE
  8
_0-0_0
  6
CONTINUOUS
 62
    7
 10
243.0311585
 20
177.22229799999999
 11
243.2811585
 21
177.48630500000002
  0
LINE
  8
_0-0_0
  6
CONTINUOUS
 62
    7
 10
243.0311585
 20
177.24691799999999
 11
243.2811585
 21
177.48630500000002
  0
LINE
  8
_0-0_0
  6
CONTINUOUS
 62
    7
 10
243.0311585
 20
177.17333200000002
 11
243.2811585
 21
177.44537400000002
  0
LINE
  8
_0-0_0
  6
CONTINUOUS
 62
    7
 10
243.0311585
 20
177.22229799999999
 11
243.2811585
 21
177.44537400000002
  0
LINE
  8
_0-0_0
  6
CONTINUOUS
 62
    7
 10
243.0311585
 20
177.10055499999999
 11
243.2811585
 21
177.37763999999999
  0
LINE
  8
_0-0_0
  6
CONTINUOUS
 62
    7
 10
243.0311585
 20
177.17333200000002
 11
243.2811585
 21
177.37763999999999
  0
LINE
  8
_0-0_0
  6
CONTINUOUS
 62
    7
 10
243.0311585
 20
177.004761
 11
243.2811585
 21
177.28385900000001
  0
LINE
  8
_0-0_0
  6
CONTINUOUS
 62
    7
 10
243.0311585
 20
177.10055499999999
 11
243.2811585
 21
177.28385900000001
  0
LINE
  8
_0-0_0
  6
CONTINUOUS
 62
    7
 10
243.0311585
 20
177.004761
 11
243.16113250000001
 21
177.088615
  0
LINE
  8
_0-0_0
  6
CONTINUOUS
 62
    7
 10
243.0311585
 20
176.88700900000001
 11
243.2811585
 21
177.16506200000001
  0
LINE
  8
_0-0_0
  6
CONTINUOUS
 62
    7
 10
243.16113250000001
 20
177.088615
 11
243.2811585
 21
177.16506200000001
  0
LINE
  8
_0-0_0
  6
CONTINUOUS
 62
    7
 10
243.0311585
 20
176.748581
 11
243.2811585
 21
177.022537
  0
LINE
  8
_0-0_0
  6
CONTINUOUS
 62
    7
 10
243.0311585
 20
176.88700900000001
 11
243.2811585
 21
177.022537
  0
LINE
  8
_0-0_0
  6
CONTINUOUS
 62
    7
 10
243.0311585
 20
176.59098799999998
 11
243.2811585
 21
176.85786400000001
  0
LINE
  8
_0-0_0
  6
CONTINUOUS
 62
    7
 10
243.0311585
 20
176.748581
 11
243.2811585
 21
176.85786400000001
  0
LINE
  8
_0-0_0
  6
CONTINUOUS
 62
    7
 10
243.0311585
 20
176.41597000000002
 11
243.2811585
 21
176.672821
  0
LINE
  8
_0-0_0
  6
CONTINUOUS
 62
    7
 10
243.0311585
 20
176.59098799999998
 11
243.2811585
 21
176.672821
  0
LINE
  8
_0-0_0
  6
CONTINUOUS
 62
    7
 10
243.0311585
 20
176.22543300000001
 11
243.2811585
 21
176.46946700000001
  0
LINE
  8
_0-0_0
  6
CONTINUOUS
 62
    7
 10
243.0311585
 20
176.41597000000002
 11
243.2811585
 21
176.46946700000001
  0
LINE
  8
_0-0_0
  6
CONTINUOUS
 62
    7
 10
243.0311585
 20
176.021477
 11
243.2811585
 21
176.25
  0
LINE
  8
_0-0_0
  6
CONTINUOUS
 62
    7
 10
243.0311585
 20
176.22543300000001
 11
243.2811585
 21
176.25
  0
LINE
  8
_0-0_0
  6
CONTINUOUS
 62
    7
 10
243.0311585
 20
175.80632800000001
 11
243.2811585
 21
176.01684599999999
  0
LINE
  8
_0-0_0
  6
CONTINUOUS
 62
    7
 10
243.0311585
 20
176.021477
 11
243.2811585
 21
176.01684599999999
  0
LINE
  8
_0-0_0
  6
CONTINUOUS
 62
    7
 10
243.0311585
 20
175.58234400000001
 11
243.2811585
 21
175.772537
  0
LINE
  8
_0-0_0
  6
CONTINUOUS
 62
    7
 10
243.0311585
 20
175.80632800000001
 11
243.2811585
 21
175.772537
  0
LINE
  8
_0-0_0
  6
CONTINUOUS
 62
    7
 10
243.0311585
 20
175.35197399999998
 11
243.2811585
 21
175.51977499999998
  0
LINE
  8
_0-0_0
  6
CONTINUOUS
 62
    7
 10
243.0311585
 20
175.58234400000001
 11
243.2811585
 21
175.51977499999998
  0
LINE
  8
_0-0_0
  6
CONTINUOUS
 62
    7
 10
243.0311585
 20
175.117752
 11
243.2811585
 21
175.26132200000001
  0
LINE
  8
_0-0_0
  6
CONTINUOUS
 62
    7
 10
243.0311585
 20
175.35197399999998
 11
243.2811585
 21
175.26132200000001
  0
LINE
  8
_0-0_0
  6
CONTINUOUS
 62
    7
 10
243.0311585
 20
174.882248
 11
243.2811585
 21
175
  0
LINE
  8
_0-0_0
  6
CONTINUOUS
 62
    7
 10
243.0311585
 20
175.117752
 11
243.2811585
 21
175
  0
LINE
  8
_0-0_0
  6
CONTINUOUS
 62
    7
 10
243.0311585
 20
174.64802600000002
 11
243.2811585
 21
174.73867799999999
  0
LINE
  8
_0-0_0
  6
CONTINUOUS
 62
    7
 10
243.0311585
 20
174.882248
 11
243.2811585
 21
174.73867799999999
  0
LINE
  8
_0-0_0
  6
CONTINUOUS
 62
    7
 10
243.0311585
 20
174.41765599999999
 11
243.2811585
 21
174.48022500000002
  0
LINE
  8
_0-0_0
  6
CONTINUOUS
 62
    7
 10
243.0311585
 20
174.64802600000002
 11
243.2811585
 21
174.48022500000002
  0
LINE
  8
_0-0_0
  6
CONTINUOUS
 62
    7
 10
243.0311585
 20
174.19367199999999
 11
243.2811585
 21
174.227463
  0
LINE
  8
_0-0_0
  6
CONTINUOUS
 62
    7
 10
243.0311585
 20
174.41765599999999
 11
243.2811585
 21
174.227463
  0
LINE
  8
_0-0_0
  6
CONTINUOUS
 62
    7
 10
243.0311585
 20
173.978523
 11
243.2811585
 21
173.98315400000001
  0
LINE
  8
_0-0_0
  6
CONTINUOUS
 62
    7
 10
243.0311585
 20
174.19367199999999
 11
243.2811585
 21
173.98315400000001
  0
LINE
  8
_0-0_0
  6
CONTINUOUS
 62
    7
 10
243.0311585
 20
173.77456699999999
 11
243.0311585
 21
173.92129499999999
  0
LINE
  8
_0-0_0
  6
CONTINUOUS
 62
    7
 10
243.0311585
 20
173.77456699999999
 11
243.2811585
 21
173.75
  0
LINE
  8
_0-0_0
  6
CONTINUOUS
 62
    7
 10
243.0311585
 20
173.978523
 11
243.2811585
 21
173.75
  0
LINE
  8
_0-0_0
  6
CONTINUOUS
 62
    7
 10
243.0311585
 20
173.58402999999998
 11
243.0311585
 21
173.77456699999999
  0
LINE
  8
_0-0_0
  6
CONTINUOUS
 62
    7
 10
243.0311585
 20
173.40901200000002
 11
243.0311585
 21
173.58402999999998
  0
LINE
  8
_0-0_0
  6
CONTINUOUS
 62
    7
 10
243.0311585
 20
173.251419
 11
243.0311585
 21
173.40901200000002
  0
LINE
  8
_0-0_0
  6
CONTINUOUS
 62
    7
 10
243.0311585
 20
173.11299099999999
 11
243.0311585
 21
173.251419
  0
LINE
  8
_0-0_0
  6
CONTINUOUS
 62
    7
 10
243.0311585
 20
172.995239
 11
243.0311585
 21
173.11299099999999
  0
LINE
  8
_0-0_0
  6
CONTINUOUS
 62
    7
 10
243.0311585
 20
172.89944500000001
 11
243.0311585
 21
172.995239
  0
LINE
  8
_0-0_0
  6
CONTINUOUS
 62
    7
 10
243.0311585
 20
172.82666799999998
 11
243.0311585
 21
172.89944500000001
  0
LINE
  8
_0-0_0
  6
CONTINUOUS
 62
    7
 10
243.0311585
 20
172.77770200000001
 11
243.0311585
 21
172.82666799999998
  0
LINE
  8
_0-0_0
  6
CONTINUOUS
 62
    7
 10
243.0311585
 20
172.75308200000001
 11
243.0311585
 21
172.77770200000001
  0
LINE
  8
_0-0_0
  6
CONTINUOUS
 62
    7
 10
243.0311585
 20
172.75
 11
243.0311585
 21
172.75308200000001
  0
LINE
  8
_0-0_0
  6
CONTINUOUS
 62
    7
 10
252.7811585
 20
177.24691799999999
 11
252.5311585
 21
177.5
  0
LINE
  8
_0-0_0
  6
CONTINUOUS
 62
    7
 10
252.5311585
 20
177.5
 11
243.2811585
 21
177.5
  0
LINE
  8
_0-0_0
  6
CONTINUOUS
 62
    7
 10
252.7811585
 20
177.22229799999999
 11
252.5311585
 21
177.48630500000002
  0
LINE
  8
_0-0_0
  6
CONTINUOUS
 62
    7
 10
252.5311585
 20
177.48630500000002
 11
243.2811585
 21
177.48630500000002
  0
LINE
  8
_0-0_0
  6
CONTINUOUS
 62
    7
 10
252.7811585
 20
177.24691799999999
 11
252.5311585
 21
177.48630500000002
  0
LINE
  8
_0-0_0
  6
CONTINUOUS
 62
    7
 10
252.7811585
 20
177.17333200000002
 11
252.5311585
 21
177.44537400000002
  0
LINE
  8
_0-0_0
  6
CONTINUOUS
 62
    7
 10
252.5311585
 20
177.44537400000002
 11
243.2811585
 21
177.44537400000002
  0
LINE
  8
_0-0_0
  6
CONTINUOUS
 62
    7
 10
252.7811585
 20
177.22229799999999
 11
252.5311585
 21
177.44537400000002
  0
LINE
  8
_0-0_0
  6
CONTINUOUS
 62
    7
 10
252.7811585
 20
177.10055499999999
 11
252.5311585
 21
177.37763999999999
  0
LINE
  8
_0-0_0
  6
CONTINUOUS
 62
    7
 10
252.5311585
 20
177.37763999999999
 11
243.2811585
 21
177.37763999999999
  0
LINE
  8
_0-0_0
  6
CONTINUOUS
 62
    7
 10
252.7811585
 20
177.17333200000002
 11
252.5311585
 21
177.37763999999999
  0
LINE
  8
_0-0_0
  6
CONTINUOUS
 62
    7
 10
252.7811585
 20
177.004761
 11
252.5311585
 21
177.28385900000001
  0
LINE
  8
_0-0_0
  6
CONTINUOUS
 62
    7
 10
252.5311585
 20
177.28385900000001
 11
243.2811585
 21
177.28385900000001
  0
LINE
  8
_0-0_0
  6
CONTINUOUS
 62
    7
 10
252.7811585
 20
177.10055499999999
 11
252.5311585
 21
177.28385900000001
  0
LINE
  8
_0-0_0
  6
CONTINUOUS
 62
    7
 10
252.5311585
 20
177.16506200000001
 11
243.2811585
 21
177.16506200000001
  0
LINE
  8
_0-0_0
  6
CONTINUOUS
 62
    7
 10
252.65121450000001
 20
177.088615
 11
252.5311585
 21
177.16506200000001
  0
LINE
  8
_0-0_0
  6
CONTINUOUS
 62
    7
 10
252.7811585
 20
177.004761
 11
252.65121450000001
 21
177.088615
  0
LINE
  8
_0-0_0
  6
CONTINUOUS
 62
    7
 10
252.7811585
 20
176.88700900000001
 11
252.5311585
 21
177.16506200000001
  0
LINE
  8
_0-0_0
  6
CONTINUOUS
 62
    7
 10
252.7811585
 20
176.748581
 11
252.5311585
 21
177.022537
  0
LINE
  8
_0-0_0
  6
CONTINUOUS
 62
    7
 10
252.5311585
 20
177.022537
 11
243.2811585
 21
177.022537
  0
LINE
  8
_0-0_0
  6
CONTINUOUS
 62
    7
 10
252.7811585
 20
176.88700900000001
 11
252.5311585
 21
177.022537
  0
LINE
  8
_0-0_0
  6
CONTINUOUS
 62
    7
 10
252.7811585
 20
176.59098799999998
 11
252.5311585
 21
176.85786400000001
  0
LINE
  8
_0-0_0
  6
CONTINUOUS
 62
    7
 10
252.5311585
 20
176.85786400000001
 11
243.2811585
 21
176.85786400000001
  0
LINE
  8
_0-0_0
  6
CONTINUOUS
 62
    7
 10
252.7811585
 20
176.748581
 11
252.5311585
 21
176.85786400000001
  0
LINE
  8
_0-0_0
  6
CONTINUOUS
 62
    7
 10
252.7811585
 20
176.41597000000002
 11
252.5311585
 21
176.672821
  0
LINE
  8
_0-0_0
  6
CONTINUOUS
 62
    7
 10
252.5311585
 20
176.672821
 11
243.2811585
 21
176.672821
  0
LINE
  8
_0-0_0
  6
CONTINUOUS
 62
    7
 10
252.7811585
 20
176.59098799999998
 11
252.5311585
 21
176.672821
  0
LINE
  8
_0-0_0
  6
CONTINUOUS
 62
    7
 10
252.7811585
 20
176.22543300000001
 11
252.5311585
 21
176.46946700000001
  0
LINE
  8
_0-0_0
  6
CONTINUOUS
 62
    7
 10
252.5311585
 20
176.46946700000001
 11
243.2811585
 21
176.46946700000001
  0
LINE
  8
_0-0_0
  6
CONTINUOUS
 62
    7
 10
252.7811585
 20
176.41597000000002
 11
252.5311585
 21
176.46946700000001
  0
LINE
  8
_0-0_0
  6
CONTINUOUS
 62
    7
 10
252.7811585
 20
176.021477
 11
252.5311585
 21
176.25
  0
LINE
  8
_0-0_0
  6
CONTINUOUS
 62
    7
 10
252.5311585
 20
176.25
 11
243.2811585
 21
176.25
  0
LINE
  8
_0-0_0
  6
CONTINUOUS
 62
    7
 10
252.7811585
 20
176.021477
 11
243.0311585
 21
176.021477
  0
LINE
  8
_0-0_0
  6
CONTINUOUS
 62
    7
 10
252.7811585
 20
176.22543300000001
 11
252.5311585
 21
176.25
  0
LINE
  8
_0-0_0
  6
CONTINUOUS
 62
    7
 10
252.7811585
 20
175.80632800000001
 11
252.5311585
 21
176.01684599999999
  0
LINE
  8
_0-0_0
  6
CONTINUOUS
 62
    7
 10
252.5311585
 20
176.01684599999999
 11
243.2811585
 21
176.01684599999999
  0
LINE
  8
_0-0_0
  6
CONTINUOUS
 62
    7
 10
252.7811585
 20
175.80632800000001
 11
243.0311585
 21
175.80632800000001
  0
LINE
  8
_0-0_0
  6
CONTINUOUS
 62
    7
 10
252.7811585
 20
176.021477
 11
252.5311585
 21
176.01684599999999
  0
LINE
  8
_0-0_0
  6
CONTINUOUS
 62
    7
 10
252.7811585
 20
175.58234400000001
 11
252.5311585
 21
175.772537
  0
LINE
  8
_0-0_0
  6
CONTINUOUS
 62
    7
 10
252.5311585
 20
175.772537
 11
243.2811585
 21
175.772537
  0
LINE
  8
_0-0_0
  6
CONTINUOUS
 62
    7
 10
252.7811585
 20
175.58234400000001
 11
243.0311585
 21
175.58234400000001
  0
LINE
  8
_0-0_0
  6
CONTINUOUS
 62
    7
 10
252.7811585
 20
175.80632800000001
 11
252.5311585
 21
175.772537
  0
LINE
  8
_0-0_0
  6
CONTINUOUS
 62
    7
 10
252.7811585
 20
175.35197399999998
 11
252.5311585
 21
175.51977499999998
  0
LINE
  8
_0-0_0
  6
CONTINUOUS
 62
    7
 10
252.5311585
 20
175.51977499999998
 11
243.2811585
 21
175.51977499999998
  0
LINE
  8
_0-0_0
  6
CONTINUOUS
 62
    7
 10
252.7811585
 20
175.35197399999998
 11
243.0311585
 21
175.35197399999998
  0
LINE
  8
_0-0_0
  6
CONTINUOUS
 62
    7
 10
252.7811585
 20
175.58234400000001
 11
252.5311585
 21
175.51977499999998
  0
LINE
  8
_0-0_0
  6
CONTINUOUS
 62
    7
 10
252.7811585
 20
175.117752
 11
252.5311585
 21
175.26132200000001
  0
LINE
  8
_0-0_0
  6
CONTINUOUS
 62
    7
 10
252.5311585
 20
175.26132200000001
 11
243.2811585
 21
175.26132200000001
  0
LINE
  8
_0-0_0
  6
CONTINUOUS
 62
    7
 10
252.7811585
 20
175.117752
 11
243.0311585
 21
175.117752
  0
LINE
  8
_0-0_0
  6
CONTINUOUS
 62
    7
 10
252.7811585
 20
175.35197399999998
 11
252.5311585
 21
175.26132200000001
  0
LINE
  8
_0-0_0
  6
CONTINUOUS
 62
    7
 10
252.7811585
 20
174.882248
 11
252.5311585
 21
175
  0
LINE
  8
_0-0_0
  6
CONTINUOUS
 62
    7
 10
252.5311585
 20
175
 11
243.2811585
 21
175
  0
LINE
  8
_0-0_0
  6
CONTINUOUS
 62
    7
 10
252.7811585
 20
174.882248
 11
243.0311585
 21
174.882248
  0
LINE
  8
_0-0_0
  6
CONTINUOUS
 62
    7
 10
252.7811585
 20
175.117752
 11
252.5311585
 21
175
  0
LINE
  8
_0-0_0
  6
CONTINUOUS
 62
    7
 10
252.7811585
 20
174.64802600000002
 11
252.5311585
 21
174.73867799999999
  0
LINE
  8
_0-0_0
  6
CONTINUOUS
 62
    7
 10
252.5311585
 20
174.73867799999999
 11
243.2811585
 21
174.73867799999999
  0
LINE
  8
_0-0_0
  6
CONTINUOUS
 62
    7
 10
252.7811585
 20
174.64802600000002
 11
243.0311585
 21
174.64802600000002
  0
LINE
  8
_0-0_0
  6
CONTINUOUS
 62
    7
 10
252.7811585
 20
174.882248
 11
252.5311585
 21
174.73867799999999
  0
LINE
  8
_0-0_0
  6
CONTINUOUS
 62
    7
 10
252.7811585
 20
174.41765599999999
 11
252.5311585
 21
174.48022500000002
  0
LINE
  8
_0-0_0
  6
CONTINUOUS
 62
    7
 10
252.5311585
 20
174.48022500000002
 11
243.2811585
 21
174.48022500000002
  0
LINE
  8
_0-0_0
  6
CONTINUOUS
 62
    7
 10
252.7811585
 20
174.41765599999999
 11
243.0311585
 21
174.41765599999999
  0
LINE
  8
_0-0_0
  6
CONTINUOUS
 62
    7
 10
252.7811585
 20
174.64802600000002
 11
252.5311585
 21
174.48022500000002
  0
LINE
  8
_0-0_0
  6
CONTINUOUS
 62
    7
 10
252.7811585
 20
174.19367199999999
 11
252.5311585
 21
174.227463
  0
LINE
  8
_0-0_0
  6
CONTINUOUS
 62
    7
 10
252.5311585
 20
174.227463
 11
243.2811585
 21
174.227463
  0
LINE
  8
_0-0_0
  6
CONTINUOUS
 62
    7
 10
252.7811585
 20
174.19367199999999
 11
243.0311585
 21
174.19367199999999
  0
LINE
  8
_0-0_0
  6
CONTINUOUS
 62
    7
 10
252.7811585
 20
174.41765599999999
 11
252.5311585
 21
174.227463
  0
LINE
  8
_0-0_0
  6
CONTINUOUS
 62
    7
 10
252.7811585
 20
173.978523
 11
252.5311585
 21
173.98315400000001
  0
LINE
  8
_0-0_0
  6
CONTINUOUS
 62
    7
 10
252.5311585
 20
173.98315400000001
 11
243.2811585
 21
173.98315400000001
  0
LINE
  8
_0-0_0
  6
CONTINUOUS
 62
    7
 10
252.7811585
 20
173.978523
 11
243.0311585
 21
173.978523
  0
LINE
  8
_0-0_0
  6
CONTINUOUS
 62
    7
 10
252.7811585
 20
174.19367199999999
 11
252.5311585
 21
173.98315400000001
  0
LINE
  8
_0-0_0
  6
CONTINUOUS
 62
    7
 10
252.7811585
 20
173.77456699999999
 11
252.5311585
 21
173.75
  0
LINE
  8
_0-0_0
  6
CONTINUOUS
 62
    7
 10
252.5311585
 20
173.75
 11
243.2811585
 21
173.75
  0
LINE
  8
_0-0_0
  6
CONTINUOUS
 62
    7
 10
252.7811585
 20
173.978523
 11
252.5311585
 21
173.75
  0
LINE
  8
_0-0_0
  6
CONTINUOUS
 62
    7
 10
243.0311585
 20
173.58402999999998
 11
243.2811585
 21
173.53053299999999
  0
LINE
  8
_0-0_0
  6
CONTINUOUS
 62
    7
 10
243.0311585
 20
173.77456699999999
 11
243.2811585
 21
173.53053299999999
  0
LINE
  8
_0-0_0
  6
CONTINUOUS
 62
    7
 10
243.0311585
 20
173.40901200000002
 11
243.2811585
 21
173.327179
  0
LINE
  8
_0-0_0
  6
CONTINUOUS
 62
    7
 10
243.0311585
 20
173.58402999999998
 11
243.2811585
 21
173.327179
  0
LINE
  8
_0-0_0
  6
CONTINUOUS
 62
    7
 10
243.0311585
 20
173.251419
 11
243.2811585
 21
173.14213599999999
  0
LINE
  8
_0-0_0
  6
CONTINUOUS
 62
    7
 10
243.0311585
 20
173.40901200000002
 11
243.2811585
 21
173.14213599999999
  0
LINE
  8
_0-0_0
  6
CONTINUOUS
 62
    7
 10
243.0311585
 20
173.11299099999999
 11
243.2811585
 21
172.977463
  0
LINE
  8
_0-0_0
  6
CONTINUOUS
 62
    7
 10
243.0311585
 20
173.251419
 11
243.2811585
 21
172.977463
  0
LINE
  8
_0-0_0
  6
CONTINUOUS
 62
    7
 10
243.0311585
 20
172.995239
 11
243.2811585
 21
172.83493799999999
  0
LINE
  8
_0-0_0
  6
CONTINUOUS
 62
    7
 10
243.0311585
 20
173.11299099999999
 11
243.2811585
 21
172.83493799999999
  0
LINE
  8
_0-0_0
  6
CONTINUOUS
 62
    7
 10
243.0311585
 20
172.89944500000001
 11
243.2811585
 21
172.71614099999999
  0
LINE
  8
_0-0_0
  6
CONTINUOUS
 62
    7
 10
243.0311585
 20
172.995239
 11
243.2811585
 21
172.71614099999999
  0
LINE
  8
_0-0_0
  6
CONTINUOUS
 62
    7
 10
243.0311585
 20
172.82666799999998
 11
243.2811585
 21
172.62236000000001
  0
LINE
  8
_0-0_0
  6
CONTINUOUS
 62
    7
 10
243.0311585
 20
172.89944500000001
 11
243.2811585
 21
172.62236000000001
  0
LINE
  8
_0-0_0
  6
CONTINUOUS
 62
    7
 10
243.0311585
 20
172.77770200000001
 11
243.2811585
 21
172.55462599999998
  0
LINE
  8
_0-0_0
  6
CONTINUOUS
 62
    7
 10
243.0311585
 20
172.82666799999998
 11
243.2811585
 21
172.55462599999998
  0
LINE
  8
_0-0_0
  6
CONTINUOUS
 62
    7
 10
243.0311585
 20
172.75308200000001
 11
243.2811585
 21
172.51369499999998
  0
LINE
  8
_0-0_0
  6
CONTINUOUS
 62
    7
 10
243.0311585
 20
172.77770200000001
 11
243.2811585
 21
172.51369499999998
  0
LINE
  8
_0-0_0
  6
CONTINUOUS
 62
    7
 10
243.0311585
 20
172.75308200000001
 11
243.2811585
 21
172.5
  0
LINE
  8
_0-0_0
  6
CONTINUOUS
 62
    7
 10
253.0311585
 20
176.75516500000001
 11
253.0311585
 21
177
  0
LINE
  8
_0-0_0
  6
CONTINUOUS
 62
    7
 10
252.7811585
 20
173.77456699999999
 11
252.5311585
 21
173.53053299999999
  0
LINE
  8
_0-0_0
  6
CONTINUOUS
 62
    7
 10
252.7811585
 20
173.58402999999998
 11
252.5311585
 21
173.53053299999999
  0
LINE
  8
_0-0_0
  6
CONTINUOUS
 62
    7
 10
252.7811585
 20
173.58402999999998
 11
252.5311585
 21
173.327179
  0
LINE
  8
_0-0_0
  6
CONTINUOUS
 62
    7
 10
252.7811585
 20
173.40901200000002
 11
252.5311585
 21
173.327179
  0
LINE
  8
_0-0_0
  6
CONTINUOUS
 62
    7
 10
252.7811585
 20
173.40901200000002
 11
252.5311585
 21
173.14213599999999
  0
LINE
  8
_0-0_0
  6
CONTINUOUS
 62
    7
 10
252.7811585
 20
173.251419
 11
252.5311585
 21
173.14213599999999
  0
LINE
  8
_0-0_0
  6
CONTINUOUS
 62
    7
 10
252.7811585
 20
173.251419
 11
252.5311585
 21
172.977463
  0
LINE
  8
_0-0_0
  6
CONTINUOUS
 62
    7
 10
252.7811585
 20
173.11299099999999
 11
252.5311585
 21
172.977463
  0
LINE
  8
_0-0_0
  6
CONTINUOUS
 62
    7
 10
252.7811585
 20
173.11299099999999
 11
252.5311585
 21
172.83493799999999
  0
LINE
  8
_0-0_0
  6
CONTINUOUS
 62
    7
 10
252.7811585
 20
172.995239
 11
252.5311585
 21
172.83493799999999
  0
LINE
  8
_0-0_0
  6
CONTINUOUS
 62
    7
 10
252.7811585
 20
172.995239
 11
252.5311585
 21
172.71614099999999
  0
LINE
  8
_0-0_0
  6
CONTINUOUS
 62
    7
 10
252.7811585
 20
172.89944500000001
 11
252.5311585
 21
172.71614099999999
  0
LINE
  8
_0-0_0
  6
CONTINUOUS
 62
    7
 10
252.7811585
 20
172.89944500000001
 11
252.5311585
 21
172.62236000000001
  0
LINE
  8
_0-0_0
  6
CONTINUOUS
 62
    7
 10
252.7811585
 20
172.82666799999998
 11
252.5311585
 21
172.62236000000001
  0
LINE
  8
_0-0_0
  6
CONTINUOUS
 62
    7
 10
252.7811585
 20
172.82666799999998
 11
252.5311585
 21
172.55462599999998
  0
LINE
  8
_0-0_0
  6
CONTINUOUS
 62
    7
 10
252.7811585
 20
172.77770200000001
 11
252.5311585
 21
172.55462599999998
  0
LINE
  8
_0-0_0
  6
CONTINUOUS
 62
    7
 10
252.7811585
 20
172.77770200000001
 11
252.5311585
 21
172.51369499999998
  0
LINE
  8
_0-0_0
  6
CONTINUOUS
 62
    7
 10
252.7811585
 20
172.75308200000001
 11
252.5311585
 21
172.51369499999998
  0
LINE
  8
_0-0_0
  6
CONTINUOUS
 62
    7
 10
252.7811585
 20
172.75308200000001
 11
252.5311585
 21
172.5
  0
LINE
  8
_0-0_0
  6
CONTINUOUS
 62
    7
 10
253.0311585
 20
173
 11
253.0311585
 21
176.75516500000001
  0
LINE
  8
_0-0_0
  6
CONTINUOUS
 62
    7
 10
252.5311585
 20
173.53053299999999
 11
243.2811585
 21
173.53053299999999
  0
LINE
  8
_0-0_0
  6
CONTINUOUS
 62
    7
 10
252.5311585
 20
173.327179
 11
243.2811585
 21
173.327179
  0
LINE
  8
_0-0_0
  6
CONTINUOUS
 62
    7
 10
252.5311585
 20
173.14213599999999
 11
243.2811585
 21
173.14213599999999
  0
LINE
  8
_0-0_0
  6
CONTINUOUS
 62
    7
 10
252.5311585
 20
172.977463
 11
243.2811585
 21
172.977463
  0
LINE
  8
_0-0_0
  6
CONTINUOUS
 62
    7
 10
252.5311585
 20
172.83493799999999
 11
243.2811585
 21
172.83493799999999
  0
LINE
  8
_0-0_0
  6
CONTINUOUS
 62
    7
 10
252.5311585
 20
172.71614099999999
 11
243.2811585
 21
172.71614099999999
  0
LINE
  8
_0-0_0
  6
CONTINUOUS
 62
    7
 10
252.5311585
 20
172.62236000000001
 11
243.2811585
 21
172.62236000000001
  0
LINE
  8
_0-0_0
  6
CONTINUOUS
 62
    7
 10
252.5311585
 20
172.55462599999998
 11
243.2811585
 21
172.55462599999998
  0
LINE
  8
_0-0_0
  6
CONTINUOUS
 62
    7
 10
252.5311585
 20
172.51369499999998
 11
243.2811585
 21
172.51369499999998
  0
LINE
  8
_0-0_0
  6
CONTINUOUS
 62
    7
 10
252.5311585
 20
172.5
 11
243.2811585
 21
172.5
  0
LINE
  8
_0-0_0
  6
CONTINUOUS
 62
    7
 10
116.0311665
 20
172.75
 11
113.57550049999999
 21
172.75
  0
LINE
  8
_0-0_0
  6
CONTINUOUS
 62
    7
 10
114.0765765
 20
177.25
 11
113.57550049999999
 21
177.25
  0
LINE
  8
_0-0_0
  6
CONTINUOUS
 62
    7
 10
113.4311675
 20
173
 11
113.57550049999999
 21
172.75
  0
LINE
  8
_0-0_0
  6
CONTINUOUS
 62
    7
 10
113.4311675
 20
177
 11
113.57550049999999
 21
177.25
  0
LINE
  8
_0-0_0
  6
CONTINUOUS
 62
    7
 10
217.0311585
 20
156.150002
 11
243.0311585
 21
156.150002
  0
LINE
  8
_0-0_0
  6
CONTINUOUS
 62
    7
 10
217.0311585
 20
160.650002
 11
243.0311585
 21
160.650002
  0
LINE
  8
_0-0_0
  6
CONTINUOUS
 62
    7
 10
243.0311585
 20
156.150002
 11
243.2811585
 21
155.900002
  0
LINE
  8
_0-0_0
  6
CONTINUOUS
 62
    7
 10
243.0311585
 20
160.650002
 11
243.2811585
 21
160.900002
  0
LINE
  8
_0-0_0
  6
CONTINUOUS
 62
    7
 10
239.0311585
 20
171.949997
 11
237.7811585
 21
173.199997
  0
LINE
  8
_0-0_0
  6
CONTINUOUS
 62
    7
 10
239.0311585
 20
161.449997
 11
238.23117049999999
 21
160.64999399999999
  0
LINE
  8
_0-0_0
  6
CONTINUOUS
 62
    7
 10
253.0311585
 20
156.400002
 11
252.5313415
 21
155.90015399999999
  0
LINE
  8
_0-0_0
  6
CONTINUOUS
 62
    7
 10
253.0311585
 20
160.400002
 11
252.5313415
 21
160.89984099999998
  0
LINE
  8
_0-0_0
  6
CONTINUOUS
 62
    7
 10
239.0311585
 20
161.699997
 11
239.4311525
 21
161.699997
  0
LINE
  8
_0-0_0
  6
CONTINUOUS
 62
    7
 10
239.0311585
 20
171.699997
 11
239.4311525
 21
171.699997
  0
LINE
  8
_0-0_0
  6
CONTINUOUS
 62
    7
 10
240.23117049999999
 20
162.16188
 11
239.4311525
 21
161.699997
  0
LINE
  8
_0-0_0
  6
CONTINUOUS
 62
    7
 10
240.23117049999999
 20
171.23812100000001
 11
239.4311525
 21
171.699997
  0
LINE
  8
_0-0_0
  6
CONTINUOUS
 62
    7
 10
240.23117049999999
 20
162.699997
 11
298.23117050000002
 21
162.699997
  0
LINE
  8
_0-0_0
  6
CONTINUOUS
 62
    7
 10
240.23117049999999
 20
170.699997
 11
298.23117050000002
 21
170.699997
  0
LINE
  8
_0-0_0
  6
CONTINUOUS
 62
    7
 10
222.7811275
 20
177.25
 11
243.0311585
 21
177.25
  0
LINE
  8
_0-0_0
  6
CONTINUOUS
 62
    7
 10
243.0311585
 20
177.25
 11
243.2811585
 21
177.5
  0
LINE
  8
_0-0_0
  6
CONTINUOUS
 62
    7
 10
238.23117049999999
 20
172.75
 11
243.0311585
 21
172.75
  0
LINE
  8
_0-0_0
  6
CONTINUOUS
 62
    7
 10
243.0311585
 20
172.75
 11
243.2811585
 21
172.5
  0
LINE
  8
_0-0_0
  6
CONTINUOUS
 62
    7
 10
253.0311585
 20
177
 11
252.5313415
 21
177.49984699999999
  0
LINE
  8
_0-0_0
  6
CONTINUOUS
 62
    7
 10
253.0311585
 20
173
 11
252.5313415
 21
172.50015300000001
  0
LINE
  8
_0-0_0
  6
CONTINUOUS
 62
    7
 10
73.106517499999995
 20
208.89999399999999
 11
73.106517499999995
 21
195.89999399999999
  0
LINE
  8
_0-0_0
  6
CONTINUOUS
 62
    7
 10
73.306518499999981
 20
208.89999399999999
 11
73.106517499999995
 21
208.89999399999999
  0
LINE
  8
_0-0_0
  6
CONTINUOUS
 62
    7
 10
73.306518499999981
 20
195.89999399999999
 11
73.106517499999995
 21
195.89999399999999
  0
LINE
  8
_0-0_0
  6
CONTINUOUS
 62
    7
 10
73.306518499999981
 20
208.89999399999999
 11
73.306518499999981
 21
227.5
  0
LINE
  8
_0-0_0
  6
CONTINUOUS
 62
    7
 10
73.406516500000009
 20
227.5
 11
73.306518499999981
 21
227.5
  0
LINE
  8
_0-0_0
  6
CONTINUOUS
 62
    7
 10
73.406516500000009
 20
230
 11
73.406516500000009
 21
227.5
  0
ARC
  8
_0-0_0
  6
CONTINUOUS
 62
    7
 10
72.906516500000009
 20
230
 40
0.5
 50
0
 51
90.000003000000007
  0
LINE
  8
_0-0_0
  6
CONTINUOUS
 62
    7
 10
72.906516500000009
 20
230.5
 11
69.906516500000009
 21
230.5
  0
ARC
  8
_0-0_0
  6
CONTINUOUS
 62
    7
 10
69.906516500000009
 20
230
 40
0.5
 50
90.000003000000007
 51
179.99999099999999
  0
ARC
  8
_0-0_0
  6
CONTINUOUS
 62
    7
 10
65.406516500000009
 20
182.5
 40
0.5
 50
179.99999099999999
 51
269.99999700000001
  0
LINE
  8
_0-0_0
  6
CONTINUOUS
 62
    7
 10
67.906516500000009
 20
182
 11
65.406516500000009
 21
182
  0
ARC
  8
_0-0_0
  6
CONTINUOUS
 62
    7
 10
67.906516500000009
 20
182.5
 40
0.5
 50
269.99999700000001
 51
0
  0
LINE
  8
_0-0_0
  6
CONTINUOUS
 62
    7
 10
68.406516500000009
 20
187.5
 11
68.406516500000009
 21
182.5
  0
ARC
  8
_0-0_0
  6
CONTINUOUS
 62
    7
 10
68.906516500000009
 20
187.5
 40
0.5
 50
90.000003000000007
 51
179.99999099999999
  0
LINE
  8
_0-0_0
  6
CONTINUOUS
 62
    7
 10
72.906516500000009
 20
188
 11
68.906516500000009
 21
188
  0
ARC
  8
_0-0_0
  6
CONTINUOUS
 62
    7
 10
72.906516500000009
 20
188.5
 40
0.5
 50
269.99999700000001
 51
0
  0
LINE
  8
_0-0_0
  6
CONTINUOUS
 62
    7
 10
73.406516500000009
 20
191.699997
 11
73.406516500000009
 21
188.5
  0
LINE
  8
_0-0_0
  6
CONTINUOUS
 62
    7
 10
73.306518499999981
 20
191.699997
 11
73.406516500000009
 21
191.699997
  0
LINE
  8
_0-0_0
  6
CONTINUOUS
 62
    7
 10
73.306518499999981
 20
191.699997
 11
73.306518499999981
 21
195.89999399999999
  0
LINE
  8
_0-0_0
  6
CONTINUOUS
 62
    7
 10
72.406516500000009
 20
230
 11
54.606517499999995
 21
230
  0
ARC
  8
_0-0_0
  6
CONTINUOUS
 62
    7
 10
72.406516500000009
 20
229.5
 40
0.5
 50
0
 51
90.000003000000007
  0
LINE
  8
_0-0_0
  6
CONTINUOUS
 62
    7
 10
72.906516500000009
 20
229.5
 11
72.906516500000009
 21
189
  0
ARC
  8
_0-0_0
  6
CONTINUOUS
 62
    7
 10
72.406516500000009
 20
189
 40
0.5
 50
269.99999700000001
 51
0
  0
LINE
  8
_0-0_0
  6
CONTINUOUS
 62
    7
 10
68.906516500000009
 20
188.5
 11
72.406516500000009
 21
188.5
  0
ARC
  8
_0-0_0
  6
CONTINUOUS
 62
    7
 10
68.906516500000009
 20
187.5
 40
1
 50
90.000003000000007
 51
179.99999099999999
  0
LINE
  8
_0-0_0
  6
CONTINUOUS
 62
    7
 10
67.906516500000009
 20
187.5
 11
67.906516500000009
 21
183
  0
ARC
  8
_0-0_0
  6
CONTINUOUS
 62
    7
 10
67.406516500000009
 20
183
 40
0.5
 50
269.99999700000001
 51
0
  0
LINE
  8
_0-0_0
  6
CONTINUOUS
 62
    7
 10
50.406516500000009
 20
182.5
 11
67.406516500000009
 21
182.5
  0
LINE
  8
_0-0_0
  6
CONTINUOUS
 62
    7
 10
68.906516500000009
 20
230.199997
 11
68.906516500000009
 21
230
  0
ARC
  8
_0-0_0
  6
CONTINUOUS
 62
    7
 10
68.606517499999995
 20
230.199997
 40
0.2999999999999999
 50
0
 51
90.000003000000007
  0
LINE
  8
_0-0_0
  6
CONTINUOUS
 62
    7
 10
68.606517499999995
 20
230.5
 11
53.906516500000009
 21
230.5
  0
ARC
  8
_0-0_0
  6
CONTINUOUS
 62
    7
 10
53.906516500000009
 20
230.199997
 40
0.2999999999999999
 50
90.000003000000007
 51
179.99999099999999
  0
LINE
  8
_0-0_0
  6
CONTINUOUS
 62
    7
 10
53.606517499999995
 20
230.199997
 11
53.606517499999995
 21
227
  0
LINE
  8
_0-0_0
  6
CONTINUOUS
 62
    7
 10
53.606517499999995
 20
227
 11
47.906516500000009
 21
227
  0
LINE
  8
_0-0_0
  6
CONTINUOUS
 62
    7
 10
47.906516500000009
 20
227
 11
47.106516499999998
 21
226.199997
  0
ARC
  8
_0-0_0
  6
CONTINUOUS
 62
    7
 10
54.606517499999995
 20
229.5
 40
0.5
 50
90.000003000000007
 51
179.99999099999999
  0
LINE
  8
_0-0_0
  6
CONTINUOUS
 62
    7
 10
54.106517499999995
 20
229.5
 11
54.106517499999995
 21
226.699997
  0
ARC
  8
_0-0_0
  6
CONTINUOUS
 62
    7
 10
53.606517499999995
 20
226.699997
 40
0.5
 50
269.99999700000001
 51
0
  0
LINE
  8
_0-0_0
  6
CONTINUOUS
 62
    7
 10
53.606517499999995
 20
226.199997
 11
45.406516500000009
 21
226.199997
  0
ARC
  8
_0-0_0
  6
CONTINUOUS
 62
    7
 10
45.406516500000009
 20
225.699997
 40
0.5
 50
90.000003000000007
 51
179.99999099999999
  0
LINE
  8
_0-0_0
  6
CONTINUOUS
 62
    7
 10
44.906516500000009
 20
189
 11
44.906516500000009
 21
225.699997
  0
ARC
  8
_0-0_0
  6
CONTINUOUS
 62
    7
 10
45.406516500000009
 20
189
 40
0.5
 50
179.99999099999999
 51
269.99999700000001
  0
LINE
  8
_0-0_0
  6
CONTINUOUS
 62
    7
 10
45.406516500000009
 20
188.5
 11
48.906516500000009
 21
188.5
  0
ARC
  8
_0-0_0
  6
CONTINUOUS
 62
    7
 10
48.906516500000009
 20
187.5
 40
1
 50
0
 51
90.000003000000007
  0
LINE
  8
_0-0_0
  6
CONTINUOUS
 62
    7
 10
49.906516500000009
 20
183
 11
49.906516500000009
 21
187.5
  0
ARC
  8
_0-0_0
  6
CONTINUOUS
 62
    7
 10
50.406516500000009
 20
183
 40
0.5
 50
179.99999099999999
 51
269.99999700000001
  0
CIRCLE
  8
_0-0_0
  6
CONTINUOUS
 62
    7
 10
58.906516500000009
 20
191.5
 40
2.0670000000000002
  0
LINE
  8
_0-0_0
  6
CONTINUOUS
 62
    7
 10
46.906516500000009
 20
226.5
 11
46.906516500000009
 21
226.199997
  0
LINE
  8
_0-0_0
  6
CONTINUOUS
 62
    7
 10
46.906516500000009
 20
226.5
 11
44.906516500000009
 21
226.5
  0
ARC
  8
_0-0_0
  6
CONTINUOUS
 62
    7
 10
44.906516500000009
 20
226
 40
0.5
 50
90.000003000000007
 51
179.99999099999999
  0
LINE
  8
_0-0_0
  6
CONTINUOUS
 62
    7
 10
44.406516500000009
 20
226
 11
44.406516500000009
 21
188.5
  0
ARC
  8
_0-0_0
  6
CONTINUOUS
 62
    7
 10
44.906516500000009
 20
188.5
 40
0.5
 50
179.99999099999999
 51
269.99999700000001
  0
LINE
  8
_0-0_0
  6
CONTINUOUS
 62
    7
 10
48.906516500000009
 20
188
 11
44.906516500000009
 21
188
  0
ARC
  8
_0-0_0
  6
CONTINUOUS
 62
    7
 10
48.906516500000009
 20
187.5
 40
0.5
 50
0
 51
90.000003000000007
  0
LINE
  8
_0-0_0
  6
CONTINUOUS
 62
    7
 10
49.406516500000009
 20
182.5
 11
49.406516500000009
 21
187.5
  0
ARC
  8
_0-0_0
  6
CONTINUOUS
 62
    7
 10
49.906516500000009
 20
182.5
 40
0.5
 50
179.99999099999999
 51
269.99999700000001
  0
LINE
  8
_0-0_0
  6
CONTINUOUS
 62
    7
 10
49.906516500000009
 20
182
 11
52.406516500000009
 21
182
  0
ARC
  8
_0-0_0
  6
CONTINUOUS
 62
    7
 10
52.406516500000009
 20
182.5
 40
0.5
 50
269.99999700000001
 51
0
  0
LINE
  8
_0-0_0
  6
CONTINUOUS
 62
    7
 10
68.406516500000009
 20
182.5
 11
68.506517500000001
 21
182.5
  0
LINE
  8
_0-0_0
  6
CONTINUOUS
 62
    7
 10
68.506517500000001
 20
182.5
 11
68.506517500000001
 21
183
  0
LINE
  8
_0-0_0
  6
CONTINUOUS
 62
    7
 10
68.506517500000001
 20
187
 11
68.506517500000001
 21
183
  0
LINE
  8
_0-0_0
  6
CONTINUOUS
 62
    7
 10
68.406516500000009
 20
187.5
 11
68.506517500000001
 21
187.5
  0
LINE
  8
_0-0_0
  6
CONTINUOUS
 62
    7
 10
68.506517500000001
 20
187
 11
68.506517500000001
 21
187.5
  0
LINE
  8
_0-0_0
  6
CONTINUOUS
 62
    7
 10
68.606517499999995
 20
183
 11
68.606517499999995
 21
183.13036299999999
  0
LINE
  8
_0-0_0
  6
CONTINUOUS
 62
    7
 10
68.606517499999995
 20
186.63036299999999
 11
68.606517499999995
 21
183.13036299999999
  0
LINE
  8
_0-0_0
  6
CONTINUOUS
 62
    7
 10
68.506517500000001
 20
186.900002
 11
68.606517499999995
 21
186.900002
  0
LINE
  8
_0-0_0
  6
CONTINUOUS
 62
    7
 10
68.606517499999995
 20
186.63036299999999
 11
68.606517499999995
 21
186.900002
  0
LINE
  8
_0-0_0
  6
CONTINUOUS
 62
    7
 10
68.506517500000001
 20
183
 11
68.606517499999995
 21
183
  0
LINE
  8
_0-0_0
  6
CONTINUOUS
 62
    7
 10
68.506517500000001
 20
183
 11
68.606517499999995
 21
183
  0
LINE
  8
_0-0_0
  6
CONTINUOUS
 62
    7
 10
50.106516499999998
 20
180
 11
50.206512500000002
 21
180
  0
LINE
  8
_0-0_0
  6
CONTINUOUS
 62
    7
 10
65.906516500000009
 20
180
 11
65.206512500000002
 21
180
  0
LINE
  8
_0-0_0
  6
CONTINUOUS
 62
    7
 10
65.906516500000009
 20
180
 11
67.106517499999995
 21
180
  0
ARC
  8
_0-0_0
  6
CONTINUOUS
 62
    7
 10
67.106517499999995
 20
179.5
 40
0.5
 50
0
 51
90.000003000000007
  0
ARC
  8
_0-0_0
  6
CONTINUOUS
 62
    7
 10
65.906516500000009
 20
179.5
 40
0.5
 50
90.000003000000007
 51
179.99999099999999
  0
ARC
  8
_0-0_0
  6
CONTINUOUS
 62
    7
 10
50.106516499999998
 20
179.5
 40
0.5
 50
90.000003000000007
 51
179.99999099999999
  0
ARC
  8
_0-0_0
  6
CONTINUOUS
 62
    7
 10
51.606516499999998
 20
180.5
 40
0.5
 50
90.000003000000007
 51
126.868797
  0
LINE
  8
_0-0_0
  6
CONTINUOUS
 62
    7
 10
53.106517499999995
 20
181
 11
51.606516499999998
 21
181
  0
ARC
  8
_0-0_0
  6
CONTINUOUS
 62
    7
 10
53.106517499999995
 20
182
 40
1
 50
269.99999700000001
 51
0
  0
LINE
  8
_0-0_0
  6
CONTINUOUS
 62
    7
 10
54.106517499999995
 20
182.5
 11
54.106517499999995
 21
182
  0
LINE
  8
_0-0_0
  6
CONTINUOUS
 62
    7
 10
54.606517499999995
 20
182.5
 11
54.606517499999995
 21
181.5
  0
ARC
  8
_0-0_0
  6
CONTINUOUS
 62
    7
 10
53.106517499999995
 20
181.5
 40
1.5
 50
336.42205899999999
 51
0
  0
ARC
  8
_0-0_0
  6
CONTINUOUS
 62
    7
 10
64.706516499999992
 20
181.5
 40
1.5
 50
179.99999099999999
 51
203.57793100000001
  0
LINE
  8
_0-0_0
  6
CONTINUOUS
 62
    7
 10
66.706516499999992
 20
180.5
 11
66.706516499999992
 21
180
  0
ARC
  8
_0-0_0
  6
CONTINUOUS
 62
    7
 10
66.206516499999992
 20
180.5
 40
0.5
 50
0
 51
90.000003000000007
  0
LINE
  8
_0-0_0
  6
CONTINUOUS
 62
    7
 10
64.706516499999992
 20
181
 11
66.206516499999992
 21
181
  0
ARC
  8
_0-0_0
  6
CONTINUOUS
 62
    7
 10
64.706516499999992
 20
182
 40
1
 50
179.99999099999999
 51
269.99999700000001
  0
LINE
  8
_0-0_0
  6
CONTINUOUS
 62
    7
 10
63.706516499999992
 20
182.5
 11
63.706516499999992
 21
182
  0
LINE
  8
_0-0_0
  6
CONTINUOUS
 62
    7
 10
63.206516499999992
 20
182.5
 11
63.206516499999992
 21
181.5
  0
LINE
  8
_0-0_0
  6
CONTINUOUS
 62
    7
 10
67.606517499999995
 20
153
 11
67.606517499999995
 21
153.900002
  0
LINE
  8
_0-0_0
  6
CONTINUOUS
 62
    7
 10
67.606517499999995
 20
153.900002
 11
67.606517499999995
 21
156.400002
  0
LINE
  8
_0-0_0
  6
CONTINUOUS
 62
    7
 10
67.606517499999995
 20
156.400002
 11
67.606517499999995
 21
177
  0
LINE
  8
_0-0_0
  6
CONTINUOUS
 62
    7
 10
67.606517499999995
 20
177
 11
67.606517499999995
 21
179.5
  0
LINE
  8
_0-0_0
  6
CONTINUOUS
 62
    7
 10
65.406516500000009
 20
179.5
 11
65.406516500000009
 21
178.254997
  0
LINE
  8
_0-0_0
  6
CONTINUOUS
 62
    7
 10
63.006517500000001
 20
180.90000900000001
 11
63.006517500000001
 21
182.300003
  0
ARC
  8
_0-0_0
  6
CONTINUOUS
 62
    7
 10
62.506517500000001
 20
182.300003
 40
0.5
 50
0
 51
23.579369
  0
LINE
  8
_0-0_0
  6
CONTINUOUS
 62
    7
 10
54.806516499999987
 20
180.90000900000001
 11
54.806516499999987
 21
182.300003
  0
ARC
  8
_0-0_0
  6
CONTINUOUS
 62
    7
 10
55.306516499999987
 20
182.300003
 40
0.5
 50
156.420635
 51
179.99999099999999
  0
LINE
  8
_0-0_0
  6
CONTINUOUS
 62
    7
 10
49.606516499999998
 20
153
 11
49.606516499999998
 21
163.199997
  0
LINE
  8
_0-0_0
  6
CONTINUOUS
 62
    7
 10
49.606516499999998
 20
163.199997
 11
49.606516499999998
 21
164.199997
  0
LINE
  8
_0-0_0
  6
CONTINUOUS
 62
    7
 10
49.606516499999998
 20
164.199997
 11
49.606516499999998
 21
169.199997
  0
LINE
  8
_0-0_0
  6
CONTINUOUS
 62
    7
 10
49.606516499999998
 20
169.199997
 11
49.606516499999998
 21
170.199997
  0
LINE
  8
_0-0_0
  6
CONTINUOUS
 62
    7
 10
49.606516499999998
 20
179.5
 11
49.606516499999998
 21
170.199997
  0
ARC
  8
_0-0_0
  6
CONTINUOUS
 62
    7
 10
50.70651749999999
 20
169.199997
 40
0.5
 50
0
 51
90.000003000000007
  0
LINE
  8
_0-0_0
  6
CONTINUOUS
 62
    7
 10
50.806516499999987
 20
170.150002
 11
50.70651749999999
 21
170.150002
  0
ARC
  8
_0-0_0
  6
CONTINUOUS
 62
    7
 10
50.806516499999987
 20
169.650002
 40
0.5
 50
0
 51
90.000003000000007
  0
LINE
  8
_0-0_0
  6
CONTINUOUS
 62
    7
 10
51.20651749999999
 20
169.199997
 11
51.20651749999999
 21
164.199997
  0
ARC
  8
_0-0_0
  6
CONTINUOUS
 62
    7
 10
50.70651749999999
 20
164.199997
 40
0.5
 50
269.99999700000001
 51
0
  0
ARC
  8
_0-0_0
  6
CONTINUOUS
 62
    7
 10
50.806516499999987
 20
164.099998
 40
0.5
 50
269.99999700000001
 51
0
  0
LINE
  8
_0-0_0
  6
CONTINUOUS
 62
    7
 10
50.70651749999999
 20
163.599998
 11
50.806516499999987
 21
163.599998
  0
LINE
  8
_0-0_0
  6
CONTINUOUS
 62
    7
 10
68.406516500000009
 20
178.5
 11
67.606517499999995
 21
178.5
  0
LINE
  8
_0-0_0
  6
CONTINUOUS
 62
    7
 10
68.406516500000009
 20
179.300003
 11
67.606517499999995
 21
179.300003
  0
LINE
  8
_0-0_0
  6
CONTINUOUS
 62
    7
 10
68.406516500000009
 20
178.300003
 11
68.406516500000009
 21
179.300003
  0
LINE
  8
_0-0_0
  6
CONTINUOUS
 62
    7
 10
68.406516500000009
 20
159.699997
 11
67.606517499999995
 21
159.699997
  0
LINE
  8
_0-0_0
  6
CONTINUOUS
 62
    7
 10
68.406516500000009
 20
159.699997
 11
68.406516500000009
 21
162.699997
  0
LINE
  8
_0-0_0
  6
CONTINUOUS
 62
    7
 10
68.406516500000009
 20
174.93769800000001
 11
68.406516500000009
 21
162.699997
  0
LINE
  8
_0-0_0
  6
CONTINUOUS
 62
    7
 10
68.406516500000009
 20
174.93769800000001
 11
68.406516500000009
 21
175.90048200000001
  0
LINE
  8
_0-0_0
  6
CONTINUOUS
 62
    7
 10
67.606517499999995
 20
175.90048200000001
 11
67.606517499999995
 21
178.5
  0
ARC
  8
_0-0_0
  6
CONTINUOUS
 62
    7
 10
61.991592499999996
 20
175.18204500000002
 40
5.7120379999999997
 50
18.558475999999999
 51
26.433648000000002
  0
ARC
  8
_0-0_0
  6
CONTINUOUS
 62
    7
 10
67.406516500000009
 20
177
 40
0.2
 50
269.99999700000001
 51
0
  0
ARC
  8
_0-0_0
  6
CONTINUOUS
 62
    7
 10
67.406516500000009
 20
156.400002
 40
0.2
 50
0
 51
90.000003000000007
  0
ARC
  8
_0-0_0
  6
CONTINUOUS
 62
    7
 10
61.991708499999987
 20
158.21804800000001
 40
5.711964
 50
333.565022
 51
341.44031000000001
  0
ARC
  8
_0-0_0
  6
CONTINUOUS
 62
    7
 10
67.106517499999995
 20
153.900002
 40
0.5
 50
269.99999700000001
 51
0
  0
LINE
  8
_0-0_0
  6
CONTINUOUS
 62
    7
 10
67.106517499999995
 20
153
 11
67.606517499999995
 21
153
  0
LINE
  8
_0-0_0
  6
CONTINUOUS
 62
    7
 10
67.606517499999995
 20
153
 11
67.106517499999995
 21
152.5
  0
ARC
  8
_0-0_0
  6
CONTINUOUS
 62
    7
 10
65.406516500000009
 20
175.5
 40
2.2999999999999998
 50
34.417387999999995
 51
79.713437000000013
  0
LINE
  8
_0-0_0
  6
CONTINUOUS
 62
    7
 10
67.345199500000007
 20
176.800003
 11
67.303884499999981
 21
176.800003
  0
LINE
  8
_0-0_0
  6
CONTINUOUS
 62
    7
 10
67.345199500000007
 20
176.800003
 11
67.3547595
 21
176.80103300000002
  0
LINE
  8
_0-0_0
  6
CONTINUOUS
 62
    7
 10
67.3547595
 20
176.80103300000002
 11
67.364250499999997
 21
176.80423000000002
  0
LINE
  8
_0-0_0
  6
CONTINUOUS
 62
    7
 10
67.364250499999997
 20
176.80423000000002
 11
67.373504499999996
 21
176.80961600000001
  0
LINE
  8
_0-0_0
  6
CONTINUOUS
 62
    7
 10
67.373504499999996
 20
176.80961600000001
 11
67.382301499999983
 21
176.81712299999998
  0
LINE
  8
_0-0_0
  6
CONTINUOUS
 62
    7
 10
67.382301499999983
 20
176.81712299999998
 11
67.397701499999982
 21
176.83776899999998
  0
LINE
  8
_0-0_0
  6
CONTINUOUS
 62
    7
 10
67.397701499999982
 20
176.83776899999998
 11
67.409477500000008
 21
176.86505099999999
  0
LINE
  8
_0-0_0
  6
CONTINUOUS
 62
    7
 10
67.409477500000008
 20
176.86505099999999
 11
67.416658499999983
 21
176.89717899999999
  0
LINE
  8
_0-0_0
  6
CONTINUOUS
 62
    7
 10
67.416658499999983
 20
176.89717899999999
 11
67.418550499999981
 21
176.93223599999999
  0
LINE
  8
_0-0_0
  6
CONTINUOUS
 62
    7
 10
67.418550499999981
 20
176.93223599999999
 11
67.414701500000007
 21
176.96839900000001
  0
LINE
  8
_0-0_0
  6
CONTINUOUS
 62
    7
 10
67.414701500000007
 20
176.96839900000001
 11
67.406515500000012
 21
177
  0
ARC
  8
_0-0_0
  6
CONTINUOUS
 62
    7
 10
65.906516500000009
 20
178.254997
 40
0.5
 50
179.99999099999999
 51
259.71343899999994
  0
LINE
  8
_0-0_0
  6
CONTINUOUS
 62
    7
 10
65.206516499999992
 20
178.349998
 11
65.206516499999992
 21
178.05657200000002
  0
LINE
  8
_0-0_0
  6
CONTINUOUS
 62
    7
 10
65.206516499999992
 20
178.349998
 11
65.206516499999992
 21
180.400002
  0
ARC
  8
_0-0_0
  6
CONTINUOUS
 62
    7
 10
64.706516499999992
 20
180.400002
 40
0.5
 50
0
 51
90.000003000000007
  0
LINE
  8
_0-0_0
  6
CONTINUOUS
 62
    7
 10
64.706516499999992
 20
180.900002
 11
61.963622499999985
 21
180.900002
  0
ARC
  8
_0-0_0
  6
CONTINUOUS
 62
    7
 10
50.70651749999999
 20
170.650002
 40
0.5
 50
179.99999099999999
 51
269.99999700000001
  0
LINE
  8
_0-0_0
  6
CONTINUOUS
 62
    7
 10
50.20651749999999
 20
180.400002
 11
50.20651749999999
 21
170.650002
  0
LINE
  8
_0-0_0
  6
CONTINUOUS
 62
    7
 10
55.849410500000005
 20
180.900002
 11
50.70651749999999
 21
180.900002
  0
ARC
  8
_0-0_0
  6
CONTINUOUS
 62
    7
 10
50.70651749999999
 20
180.400002
 40
0.5
 50
90.000003000000007
 51
179.99999099999999
  0
LINE
  8
_0-0_0
  6
CONTINUOUS
 62
    7
 10
49.406516500000009
 20
178.5
 11
49.606516499999998
 21
178.5
  0
LINE
  8
_0-0_0
  6
CONTINUOUS
 62
    7
 10
49.406516500000009
 20
179.300003
 11
49.606516499999998
 21
179.300003
  0
LINE
  8
_0-0_0
  6
CONTINUOUS
 62
    7
 10
49.406516500000009
 20
179.300003
 11
49.406516500000009
 21
178.50013000000001
  0
LINE
  8
_0-0_0
  6
CONTINUOUS
 62
    7
 10
49.406516500000009
 20
159.699997
 11
49.606516499999998
 21
159.699997
  0
LINE
  8
_0-0_0
  6
CONTINUOUS
 62
    7
 10
49.406516500000009
 20
162.699997
 11
49.406516500000009
 21
159.699997
  0
LINE
  8
_0-0_0
  6
CONTINUOUS
 62
    7
 10
49.406516500000009
 20
174.93769800000001
 11
49.406516500000009
 21
162.699997
  0
LINE
  8
_0-0_0
  6
CONTINUOUS
 62
    7
 10
49.406516500000009
 20
175.90048200000001
 11
49.406516500000009
 21
174.93769800000001
  0
ARC
  8
_0-0_0
  6
CONTINUOUS
 62
    7
 10
50.106516499999998
 20
169.199997
 40
0.5
 50
90.000003000000007
 51
179.99999099999999
  0
ARC
  8
_0-0_0
  6
CONTINUOUS
 62
    7
 10
50.106516499999998
 20
164.199997
 40
0.5
 50
179.99999099999999
 51
269.99999700000001
  0
LINE
  8
_0-0_0
  6
CONTINUOUS
 62
    7
 10
49.606516499999998
 20
153
 11
50.106516499999998
 21
153
  0
LINE
  8
_0-0_0
  6
CONTINUOUS
 62
    7
 10
49.606516499999998
 20
153
 11
50.106516499999998
 21
152.5
  0
LINE
  8
_0-0_0
  6
CONTINUOUS
 62
    7
 10
50.70651749999999
 20
169.699997
 11
50.106516499999998
 21
169.699997
  0
LINE
  8
_0-0_0
  6
CONTINUOUS
 62
    7
 10
51.306516499999987
 20
169.650002
 11
51.306516499999987
 21
164.099998
  0
LINE
  8
_0-0_0
  6
CONTINUOUS
 62
    7
 10
67.106517499999995
 20
153
 11
50.106516499999998
 21
153
  0
LINE
  8
_0-0_0
  6
CONTINUOUS
 62
    7
 10
50.106516499999998
 20
163.699997
 11
50.70651749999999
 21
163.699997
  0
ARC
  8
_0-0_0
  6
CONTINUOUS
 62
    7
 10
50.70651749999999
 20
163.099998
 40
0.5
 50
90.000003000000007
 51
179.99999099999999
  0
LINE
  8
_0-0_0
  6
CONTINUOUS
 62
    7
 10
68.406516500000009
 20
175.90048200000001
 11
68.406516500000009
 21
178.5
  0
LINE
  8
_0-0_0
  6
CONTINUOUS
 62
    7
 10
67.406516500000009
 20
176.800003
 11
67.345199500000007
 21
176.800003
  0
LINE
  8
_0-0_0
  6
CONTINUOUS
 62
    7
 10
67.303884499999981
 20
176.800003
 11
67.301660499999997
 21
176.800003
  0
LINE
  8
_0-0_0
  6
CONTINUOUS
 62
    7
 10
67.169984499999998
 20
156.800003
 11
67.206909499999995
 21
156.72976699999998
  0
LINE
  8
_0-0_0
  6
CONTINUOUS
 62
    7
 10
67.206909499999995
 20
156.72976699999998
 11
67.226512499999984
 21
156.69529
  0
LINE
  8
_0-0_0
  6
CONTINUOUS
 62
    7
 10
67.226512499999984
 20
156.69529
 11
67.252597500000007
 21
156.65345000000002
  0
LINE
  8
_0-0_0
  6
CONTINUOUS
 62
    7
 10
67.252597500000007
 20
156.65345000000002
 11
67.265907499999997
 21
156.63440700000001
  0
LINE
  8
_0-0_0
  6
CONTINUOUS
 62
    7
 10
67.265907499999997
 20
156.63440700000001
 11
67.284265500000004
 21
156.612022
  0
LINE
  8
_0-0_0
  6
CONTINUOUS
 62
    7
 10
67.284265500000004
 20
156.612022
 11
67.297058499999991
 21
156.601395
  0
LINE
  8
_0-0_0
  6
CONTINUOUS
 62
    7
 10
67.297058499999991
 20
156.601395
 11
67.301660499999997
 21
156.599998
  0
LINE
  8
_0-0_0
  6
CONTINUOUS
 62
    7
 10
67.303884499999981
 20
156.599998
 11
67.301660499999997
 21
156.599998
  0
LINE
  8
_0-0_0
  6
CONTINUOUS
 62
    7
 10
67.169984499999998
 20
176.599998
 11
67.206909499999995
 21
176.67023499999999
  0
LINE
  8
_0-0_0
  6
CONTINUOUS
 62
    7
 10
67.206909499999995
 20
176.67023499999999
 11
67.226514500000008
 21
176.704712
  0
LINE
  8
_0-0_0
  6
CONTINUOUS
 62
    7
 10
67.226514500000008
 20
176.704712
 11
67.252597500000007
 21
176.74655200000001
  0
LINE
  8
_0-0_0
  6
CONTINUOUS
 62
    7
 10
67.252597500000007
 20
176.74655200000001
 11
67.265905500000002
 21
176.76558699999998
  0
LINE
  8
_0-0_0
  6
CONTINUOUS
 62
    7
 10
67.265905500000002
 20
176.76558699999998
 11
67.284265500000004
 21
176.78797900000001
  0
LINE
  8
_0-0_0
  6
CONTINUOUS
 62
    7
 10
67.284265500000004
 20
176.78797900000001
 11
67.297058499999991
 21
176.798599
  0
LINE
  8
_0-0_0
  6
CONTINUOUS
 62
    7
 10
67.297058499999991
 20
176.798599
 11
67.301660499999997
 21
176.800003
  0
LINE
  8
_0-0_0
  6
CONTINUOUS
 62
    7
 10
67.303884499999981
 20
156.599998
 11
67.345199500000007
 21
156.599998
  0
LINE
  8
_0-0_0
  6
CONTINUOUS
 62
    7
 10
67.406516500000009
 20
156.599998
 11
67.345199500000007
 21
156.599998
  0
LINE
  8
_0-0_0
  6
CONTINUOUS
 62
    7
 10
67.345199500000007
 20
156.599998
 11
67.354761499999995
 21
156.59896900000001
  0
LINE
  8
_0-0_0
  6
CONTINUOUS
 62
    7
 10
67.354761499999995
 20
156.59896900000001
 11
67.364252499999992
 21
156.59577200000001
  0
LINE
  8
_0-0_0
  6
CONTINUOUS
 62
    7
 10
67.364252499999992
 20
156.59577200000001
 11
67.373504499999996
 21
156.59037799999999
  0
LINE
  8
_0-0_0
  6
CONTINUOUS
 62
    7
 10
67.373504499999996
 20
156.59037799999999
 11
67.382301499999983
 21
156.58287799999999
  0
LINE
  8
_0-0_0
  6
CONTINUOUS
 62
    7
 10
67.382301499999983
 20
156.58287799999999
 11
67.397701499999982
 21
156.56223299999999
  0
LINE
  8
_0-0_0
  6
CONTINUOUS
 62
    7
 10
67.397701499999982
 20
156.56223299999999
 11
67.409477500000008
 21
156.53494999999998
  0
LINE
  8
_0-0_0
  6
CONTINUOUS
 62
    7
 10
67.409477500000008
 20
156.53494999999998
 11
67.416658499999983
 21
156.50282300000001
  0
LINE
  8
_0-0_0
  6
CONTINUOUS
 62
    7
 10
67.416658499999983
 20
156.50282300000001
 11
67.418550499999981
 21
156.46776599999998
  0
LINE
  8
_0-0_0
  6
CONTINUOUS
 62
    7
 10
67.418550499999981
 20
156.46776599999998
 11
67.414701500000007
 21
156.43159500000002
  0
LINE
  8
_0-0_0
  6
CONTINUOUS
 62
    7
 10
67.414701500000007
 20
156.43159500000002
 11
67.406515500000012
 21
156.400002
  0
ARC
  8
_0-0_0
  6
CONTINUOUS
 62
    7
 10
65.406516500000009
 20
157.900002
 40
2.2999999999999998
 50
280.28656300000006
 51
325.58260500000006
  0
LINE
  8
_0-0_0
  6
CONTINUOUS
 62
    7
 10
67.106517499999995
 20
153.400002
 11
65.906516500000009
 21
153.400002
  0
LINE
  8
_0-0_0
  6
CONTINUOUS
 62
    7
 10
67.106517499999995
 20
152.5
 11
50.106516499999998
 21
152.5
  0
LINE
  8
_0-0_0
  6
CONTINUOUS
 62
    7
 10
65.206516499999992
 20
178.05657200000002
 11
65.20678749999999
 21
178.04014599999999
  0
ARC
  8
_0-0_0
  6
CONTINUOUS
 62
    7
 10
65.706516499999992
 20
178.05657200000002
 40
0.5
 50
181.88290099999998
 51
260.07179799999994
  0
LINE
  8
_0-0_0
  6
CONTINUOUS
 62
    7
 10
64.706516499999992
 20
178.84428400000002
 11
64.906516500000009
 21
178.64999399999999
  0
LINE
  8
_0-0_0
  6
CONTINUOUS
 62
    7
 10
64.906516500000009
 20
178.64999399999999
 11
65.206516499999992
 21
178.349998
  0
LINE
  8
_0-0_0
  6
CONTINUOUS
 62
    7
 10
65.206516499999992
 20
178.349998
 11
64.906516500000009
 21
178.349998
  0
ARC
  8
_0-0_0
  6
CONTINUOUS
 62
    7
 10
61.963622499999985
 20
181.400002
 40
0.5
 50
225
 51
269.99999700000001
  0
ARC
  8
_0-0_0
  6
CONTINUOUS
 62
    7
 10
55.849410500000005
 20
181.400002
 40
0.5
 50
269.99999700000001
 51
314.99999200000002
  0
LINE
  8
_0-0_0
  6
CONTINUOUS
 62
    7
 10
49.406516500000009
 20
178.5
 11
49.406516500000009
 21
175.90048200000001
  0
LINE
  8
_0-0_0
  6
CONTINUOUS
 62
    7
 10
67.606517499999995
 20
179.300049
 11
67.606517499999995
 21
179.5
  0
CIRCLE
  8
_0-0_0
  6
CONTINUOUS
 62
    7
 10
58.906516500000009
 20
178.5
 40
2.25
  0
ARC
  8
_0-0_0
  6
CONTINUOUS
 62
    7
 10
58.906516500000009
 20
158.400002
 40
1.75
 50
179.99999099999999
 51
359.99998299999993
  0
LINE
  8
_0-0_0
  6
CONTINUOUS
 62
    7
 10
57.156516500000009
 20
158.650002
 11
57.156516500000009
 21
158.400002
  0
ARC
  8
_0-0_0
  6
CONTINUOUS
 62
    7
 10
58.906516500000009
 20
158.650002
 40
1.75
 50
0
 51
179.99999099999999
  0
LINE
  8
_0-0_0
  6
CONTINUOUS
 62
    7
 10
60.656516500000009
 20
158.400002
 11
60.656516500000009
 21
158.650002
  0
ARC
  8
_0-0_0
  6
CONTINUOUS
 62
    7
 10
64.606517499999995
 20
158.699997
 40
3
 50
269.99999700000001
 51
0
  0
LINE
  8
_0-0_0
  6
CONTINUOUS
 62
    7
 10
50.20651749999999
 20
163.099998
 11
50.20651749999999
 21
162.25
  0
LINE
  8
_0-0_0
  6
CONTINUOUS
 62
    7
 10
50.20651749999999
 20
156.199997
 11
50.20651749999999
 21
162.25
  0
ARC
  8
_0-0_0
  6
CONTINUOUS
 62
    7
 10
65.206516499999992
 20
175.199997
 40
2.3999999999999999
 50
0
 51
80.071809999999985
  0
LINE
  8
_0-0_0
  6
CONTINUOUS
 62
    7
 10
67.606517499999995
 20
158.699997
 11
67.606517499999995
 21
171.5
  0
LINE
  8
_0-0_0
  6
CONTINUOUS
 62
    7
 10
67.606517499999995
 20
171.5
 11
67.606517499999995
 21
175.199997
  0
ARC
  8
_0-0_0
  6
CONTINUOUS
 62
    7
 10
65.906516500000009
 20
155.145004
 40
0.5
 50
100.28656100000001
 51
179.99999099999999
  0
LINE
  8
_0-0_0
  6
CONTINUOUS
 62
    7
 10
65.406516500000009
 20
153.900002
 11
65.406516500000009
 21
155.145004
  0
ARC
  8
_0-0_0
  6
CONTINUOUS
 62
    7
 10
65.906516500000009
 20
153.900002
 40
0.5
 50
179.99999099999999
 51
269.99999700000001
  0
LINE
  8
_0-0_0
  6
CONTINUOUS
 62
    7
 10
56.202964500000007
 20
181.046448
 11
56.260070499999983
 21
181.103554
  0
ARC
  8
_0-0_0
  6
CONTINUOUS
 62
    7
 10
56.613624499999986
 20
180.75
 40
0.5
 50
90.000003000000007
 51
135
  0
LINE
  8
_0-0_0
  6
CONTINUOUS
 62
    7
 10
61.199409500000002
 20
181.25
 11
56.613624499999986
 21
181.25
  0
ARC
  8
_0-0_0
  6
CONTINUOUS
 62
    7
 10
61.199409500000002
 20
180.75
 40
0.5
 50
45.00000099999999
 51
90.000002999999992
  0
LINE
  8
_0-0_0
  6
CONTINUOUS
 62
    7
 10
61.610071500000004
 20
181.046448
 11
61.552963500000004
 21
181.103554
  0
ARC
  8
_0-0_0
  6
CONTINUOUS
 62
    7
 10
64.906516500000009
 20
175.349998
 40
3
 50
90.000003000000007
 51
179.99999099999999
  0
LINE
  8
_0-0_0
  6
CONTINUOUS
 62
    7
 10
52.906516500000009
 20
161.75
 11
50.70651749999999
 21
161.75
  0
ARC
  8
_0-0_0
  6
CONTINUOUS
 62
    7
 10
52.906516500000009
 20
158.75
 40
3
 50
0
 51
90.000003000000007
  0
LINE
  8
_0-0_0
  6
CONTINUOUS
 62
    7
 10
55.906516500000009
 20
158.75
 11
55.906516500000009
 21
156.199997
  0
LINE
  8
_0-0_0
  6
CONTINUOUS
 62
    7
 10
56.406516500000009
 20
155.699997
 11
64.606517499999995
 21
155.699997
  0
LINE
  8
_0-0_0
  6
CONTINUOUS
 62
    7
 10
64.906516500000009
 20
172
 11
67.106517499999995
 21
172
  0
ARC
  8
_0-0_0
  6
CONTINUOUS
 62
    7
 10
64.906516500000009
 20
175
 40
3
 50
179.99999099999999
 51
269.99999700000001
  0
LINE
  8
_0-0_0
  6
CONTINUOUS
 62
    7
 10
61.906516500000009
 20
175
 11
61.906516500000009
 21
175.349998
  0
CIRCLE
  8
_0-0_0
  6
CONTINUOUS
 62
    7
 10
58.906516500000009
 20
178.5
 40
2.0499999999999998
  0
ARC
  8
_0-0_0
  6
CONTINUOUS
 62
    7
 10
58.906516500000009
 20
158.400002
 40
1.55
 50
179.99999099999999
 51
0
  0
LINE
  8
_0-0_0
  6
CONTINUOUS
 62
    7
 10
57.356517499999995
 20
158.650002
 11
57.356517499999995
 21
158.400002
  0
ARC
  8
_0-0_0
  6
CONTINUOUS
 62
    7
 10
58.906516500000009
 20
158.650002
 40
1.55
 50
0
 51
179.99999099999999
  0
LINE
  8
_0-0_0
  6
CONTINUOUS
 62
    7
 10
60.456516499999992
 20
158.400002
 11
60.456516499999992
 21
158.650002
  0
LINE
  8
_0-0_0
  6
CONTINUOUS
 62
    7
 10
50.70651749999999
 20
155.699997
 11
56.406516500000009
 21
155.699997
  0
ARC
  8
_0-0_0
  6
CONTINUOUS
 62
    7
 10
50.70651749999999
 20
156.199997
 40
0.5
 50
179.99999099999999
 51
269.99999700000001
  0
ARC
  8
_0-0_0
  6
CONTINUOUS
 62
    7
 10
50.70651749999999
 20
162.25
 40
0.5
 50
179.99999099999999
 51
269.99999700000001
  0
ARC
  8
_0-0_0
  6
CONTINUOUS
 62
    7
 10
67.106517499999995
 20
171.5
 40
0.5
 50
0
 51
90.000003000000007
  0
ARC
  8
_0-0_0
  6
CONTINUOUS
 62
    7
 10
56.406516500000009
 20
156.199997
 40
0.5
 50
179.99999099999999
 51
269.99999700000001
  0
CIRCLE
  8
_0-0_0
  6
CONTINUOUS
 62
    7
 10
64.906516500000009
 20
175
 40
2.25
  0
CIRCLE
  8
_0-0_0
  6
CONTINUOUS
 62
    7
 10
52.906516500000009
 20
158.400002
 40
2.25
  0
CIRCLE
  8
_0-0_0
  6
CONTINUOUS
 62
    7
 10
64.906516500000009
 20
175
 40
2
  0
CIRCLE
  8
_0-0_0
  6
CONTINUOUS
 62
    7
 10
52.906516500000009
 20
158.400002
 40
2
  0
LINE
  8
_0-0_0
  6
CONTINUOUS
 62
    7
 10
63.756517500000001
 20
175
 11
64.324407500000007
 21
176
  0
LINE
  8
_0-0_0
  6
CONTINUOUS
 62
    7
 10
64.324407500000007
 20
174
 11
63.756517500000001
 21
175
  0
LINE
  8
_0-0_0
  6
CONTINUOUS
 62
    7
 10
65.488626500000009
 20
174
 11
64.324407500000007
 21
174
  0
LINE
  8
_0-0_0
  6
CONTINUOUS
 62
    7
 10
66.056516499999987
 20
175
 11
65.488626500000009
 21
174
  0
LINE
  8
_0-0_0
  6
CONTINUOUS
 62
    7
 10
65.488626500000009
 20
176
 11
66.056516499999987
 21
175
  0
LINE
  8
_0-0_0
  6
CONTINUOUS
 62
    7
 10
64.324407500000007
 20
176
 11
65.488626500000009
 21
176
  0
LINE
  8
_0-0_0
  6
CONTINUOUS
 62
    7
 10
51.756516500000004
 20
158.400002
 11
52.324407500000007
 21
159.400002
  0
LINE
  8
_0-0_0
  6
CONTINUOUS
 62
    7
 10
52.324407500000007
 20
157.400002
 11
51.756516500000004
 21
158.400002
  0
LINE
  8
_0-0_0
  6
CONTINUOUS
 62
    7
 10
53.488626500000009
 20
157.400002
 11
52.324407500000007
 21
157.400002
  0
LINE
  8
_0-0_0
  6
CONTINUOUS
 62
    7
 10
54.056516499999987
 20
158.400002
 11
53.488626500000009
 21
157.400002
  0
LINE
  8
_0-0_0
  6
CONTINUOUS
 62
    7
 10
53.488626500000009
 20
159.400002
 11
54.056516499999987
 21
158.400002
  0
LINE
  8
_0-0_0
  6
CONTINUOUS
 62
    7
 10
52.324407500000007
 20
159.400002
 11
53.488626500000009
 21
159.400002
  0
LINE
  8
_0-0_0
  6
CONTINUOUS
 62
    7
 10
67.6065155
 20
175.800308
 11
67.606517499999995
 21
175.80628999999999
  0
LINE
  8
_0-0_0
  6
CONTINUOUS
 62
    7
 10
67.606517499999995
 20
177
 11
67.606149499999987
 21
176.98789199999999
  0
LINE
  8
_0-0_0
  6
CONTINUOUS
 62
    7
 10
67.606149499999987
 20
156.41210899999999
 11
67.606517499999995
 21
156.400002
  0
LINE
  8
_0-0_0
  6
CONTINUOUS
 62
    7
 10
67.605800499999987
 20
171.52674100000002
 11
67.606517499999995
 21
171.5
  0
ENDSEC
  0
EOF
