  0
SECTION
  2
HEADER
  9
$ACADVER
  1
AC1009
  9
$INSBASE
 10
0
 20
0
 30
0
  9
$EXTMIN
 10
0
 20
0
  9
$EXTMAX
 10
1682
 20
1188
  9
$LIMMIN
 10
0
 20
0
  9
$LIMMAX
 10
1682
 20
1188
  9
$LTSCALE
 40
2
  0
ENDSEC
  0
SECTION
  2
TABLES
  0
TABLE
  2
LTYPE
 70
     9
  0
LTYPE
  2
CONTINUOUS
 70
    64
  3
実線
 72
    65
 73
     0
 40
0.0
  0
LTYPE
  2
DASHED1
 70
    64
  3
--  --  --  --  --  --  --  --  
 72
    65
 73
     2
 40
2.5
 49
1.25
 49
-1.25
  0
LTYPE
  2
DASHED2
 70
    64
  3
----    ----    ----    ----    
 72
    65
 73
     2
 40
5.0
 49
2.5
 49
-2.5
  0
LTYPE
  2
DASHED3
 70
    64
  3
------  ------  ------  ------  
 72
    65
 73
     2
 40
5.0
 49
3.75
 49
-1.25
  0
LTYPE
  2
CENTER1
 70
    64
  3
----- - ----- - ----- - ----- - 
 72
    65
 73
     4
 40
10.0
 49
6.25
 49
-1.25
 49
1.25
 49
-1.25
  0
LTYPE
  2
CENTER2
 70
    64
  3
----------  --  ----------  --  
 72
    65
 73
     4
 40
20.0
 49
12.5
 49
-2.5
 49
2.5
 49
-2.5
  0
LTYPE
  2
PHANTOM1
 70
    64
  3
--- - - --- - - --- - - --- - - 
 72
    65
 73
     6
 40
10.0
 49
3.25
 49
-1.25
 49
1.25
 49
-1.25
 49
1.25
 49
-1.25
  0
LTYPE
  2
PHANTOM2
 70
    64
  3
--------  -  -  --------  -  -  
 72
    65
 73
     6
 40
20.0
 49
10.0
 49
-2.5
 49
1.25
 49
-2.5
 49
1.25
 49
-2.5
  0
LTYPE
  2
DOT
 70
    64
  3
-   -   -   -   -   -   -   -   
 72
    65
 73
     2
 40
2.5
 49
0.625
 49
-1.875
  0
LTYPE
  2
DUMMY
 70
    64
  3
ダミー
 72
    65
 73
     0
 40
0.0
  0
LTYPE
  2
RAND1
 70
    64
  3
ランダム線1
 72
    65
 73
     4
 40
10.0
 49
1.0
 49
-2.0
 49
3.0
 49
-4.0
  0
LTYPE
  2
RAND2
 70
    64
  3
ランダム線2
 72
    65
 73
     4
 40
14.0
 49
2.0
 49
-3.0
 49
4.0
 49
-5.0
  0
LTYPE
  2
RAND3
 70
    64
  3
ランダム線3
 72
    65
 73
     4
 40
18.0
 49
3.0
 49
-4.0
 49
5.0
 49
-6.0
  0
LTYPE
  2
RAND4
 70
    64
  3
ランダム線4
 72
    65
 73
     4
 40
22.0
 49
4.0
 49
-5.0
 49
6.0
 49
-7.0
  0
LTYPE
  2
RAND5
 70
    64
  3
ランダム線5
 72
    65
 73
     4
 40
26.0
 49
5.0
 49
-6.0
 49
7.0
 49
-8.0
  0
LTYPE
  2
LONG1
 70
    64
  3
----------  --  ----------  --  
 72
    65
 73
     4
 40
40.0
 49
32.5
 49
-2.5
 49
2.5
 49
-2.5
  0
LTYPE
  2
LONG2
 70
    64
  3
--------  -  -  --------  -  -  
 72
    65
 73
     6
 40
40.0
 49
30.0
 49
-2.5
 49
1.25
 49
-2.5
 49
1.25
 49
-2.5
  0
LTYPE
  2
LONG3
 70
    64
  3
+++++++++++++++..+++++++++++++++
 72
    65
 73
     2
 40
40.0
 49
37.5
 49
-2.5
  0
LTYPE
  2
LONG4
 70
    64
  3
+++++++++++++++..+++++++++++++++
 72
    65
 73
     2
 40
80.0
 49
75.0
 49
-5.0
  0
LTYPE
  2
LONG5
 70
    64
  3
----------  --  ----------  --  
 72
    65
 73
     4
 40
60.0
 49
37.5
 49
-7.5
 49
7.5
 49
-7.5
  0
LTYPE
  2
dashed
 70
   64
  3
-------   -------------   ------
 72
   65
 73
    2
 40
7.5
 49
6
 49
-1.5
  0
LTYPE
  2
dashed_spaced
 70
   64
  3
----        --------        ----
 72
   65
 73
    2
 40
12
 49
6
 49
-6
  0
LTYPE
  2
long_dashed_dotted
 70
   64
  3
------------- --- --------------
 72
   65
 73
    4
 40
15.25
 49
12
 49
-1.5
 49
0.25
 49
-1.5
  0
LTYPE
  2
long_dashed_double-dotted
 70
   64
  3
----------- --- --- ------------
 72
   65
 73
    6
 40
17
 49
12
 49
-1.5
 49
0.25
 49
-1.5
 49
0.25
 49
-1.5
  0
LTYPE
  2
long_dashed_triplicate-dotted
 70
   64
  3
--------- --- --- --- ----------
 72
   65
 73
    8
 40
18.75
 49
12
 49
-1.5
 49
0.25
 49
-1.5
 49
0.25
 49
-1.5
 49
0.25
 49
-1.5
  0
LTYPE
  2
dotted
 70
   64
  3
   -       -       -       -    
 72
   65
 73
    2
 40
1.75
 49
0.25
 49
-1.5
  0
LTYPE
  2
chain
 70
   64
  3
-------------- -- --------------
 72
   65
 73
    4
 40
18.5
 49
12
 49
-1.5
 49
3.5
 49
-1.5
  0
LTYPE
  2
chain_double_dash
 70
   64
  3
------------ -- -- -------------
 72
   65
 73
    6
 40
23.5
 49
12
 49
-1.5
 49
3.5
 49
-1.5
 49
3.5
 49
-1.5
  0
LTYPE
  2
dashed_dotted
 70
   64
  3
-----------     -     ----------
 72
   65
 73
    4
 40
9.25
 49
6
 49
-1.5
 49
0.25
 49
-1.5
  0
LTYPE
  2
double-dashed_dotted
 70
   64
  3
------   -----------   -   -----
 72
   65
 73
    6
 40
16.75
 49
6
 49
-1.5
 49
6
 49
-1.5
 49
0.25
 49
-1.5
  0
LTYPE
  2
dashed_double-dotted
 70
   64
  3
---------    -    -    ---------
 72
   65
 73
    6
 40
11
 49
6
 49
-1.5
 49
0.25
 49
-1.5
 49
0.25
 49
-1.5
  0
LTYPE
  2
double-dashed_double-dotted
 70
   64
  3
-----   ---------   -   -   ----
 72
   65
 73
    8
 40
18.5
 49
6
 49
-1.5
 49
6
 49
-1.5
 49
0.25
 49
-1.5
 49
0.25
 49
-1.5
  0
LTYPE
  2
dashed_triplicate-dotted
 70
   64
  3
-------    -    -    -    ------
 72
   65
 73
    8
 40
12.75
 49
6
 49
-1.5
 49
0.25
 49
-1.5
 49
0.25
 49
-1.5
 49
0.25
 49
-1.5
  0
LTYPE
  2
double-dashed_triplicate-dotted
 70
   64
  3
-----  ---------  -  -  -  -----
 72
   65
 73
   10
 40
20.25
 49
6
 49
-1.5
 49
6
 49
-1.5
 49
0.25
 49
-1.5
 49
0.25
 49
-1.5
 49
0.25
 49
-1.5
  0
LTYPE
  2
undefined
 70
   64
  3
--------------------------------
 72
   65
 73
    0
 40
0
  0
ENDTAB
  0
TABLE
  2
STYLE
  5
3
100
AcDbSymbolTable
 70
     1
  0
STYLE
  5
10
100
AcDbSymbolTableRecord
100
AcDbTextStyleTableRecord
  2
STANDARD
 70
     0
 40
0.0
 41
1.0
 50
0.0
 71
     0
 42
0.2
  3
txt
  4
bigfont.shx
  0
STYLE
  5
26
100
AcDbSymbolTableRecord
100
AcDbTextStyleTableRecord
  2
TATEGAKI
 70
    68
 40
0.0
 41
1.0
 50
0.0
 71
     0
 42
1.0
  3
txt
  4
bigfont.shx
  0
ENDTAB
  0
TABLE
  2
LAYER
 70
    2
  0
LAYER
  2
_0-0_0
 70
   64
 62
    7
  6
CONTINUOUS
  0
LAYER
  2
ADD_LINE
 70
   64
 62
    7
  6
CONTINUOUS
  0
ENDTAB
  0
ENDSEC
  0
SECTION
  2
BLOCKS
  0
ENDSEC
  0
SECTION
  2
ENTITIES
  0
ARC
  8
_0-0_0
  6
CONTINUOUS
 62
    7
 10
121.72778349999999
 20
765.34997599999997
 40
0.2
 50
269.99999700000001
 51
20.376440000000013
  0
LINE
  8
_0-0_0
  6
CONTINUOUS
 62
    7
 10
121.91526749999991
 20
765.41961700000002
 11
120.61526449999997
 21
768.91961700000002
  0
ARC
  8
_0-0_0
  6
CONTINUOUS
 62
    7
 10
120.42778049999993
 20
768.84997599999997
 40
0.2
 50
20.376439999999999
 51
159.62355600000001
  0
LINE
  8
_0-0_0
  6
CONTINUOUS
 62
    7
 10
118.94029249999994
 20
765.41961700000002
 11
120.2402955
 21
768.91961700000002
  0
ARC
  8
_0-0_0
  6
CONTINUOUS
 62
    7
 10
119.12777649999998
 20
765.34997599999997
 40
0.2
 50
159.62355600000001
 51
269.99999700000001
  0
LINE
  8
_0-0_0
  6
CONTINUOUS
 62
    7
 10
119.12777649999998
 20
765.14999399999999
 11
121.72778349999999
 21
765.14999399999999
  0
LINE
  8
_0-0_0
  6
CONTINUOUS
 62
    7
 10
-43.505035500000076
 20
813.75271599999996
 11
-43.505035500000076
 21
813.75170900000001
  0
ARC
  8
_0-0_0
  6
CONTINUOUS
 62
    7
 10
119.12777649999998
 20
779.94998199999998
 40
0.2
 50
90.000003000000007
 51
200.37643
  0
LINE
  8
_0-0_0
  6
CONTINUOUS
 62
    7
 10
119.12777649999998
 20
780.14999399999999
 11
121.72778349999999
 21
780.14999399999999
  0
ARC
  8
_0-0_0
  6
CONTINUOUS
 62
    7
 10
116.92778049999993
 20
780.25
 40
0.5
 50
90.000003000000007
 51
179.99999099999999
  0
LINE
  8
_0-0_0
  6
CONTINUOUS
 62
    7
 10
116.42778049999993
 20
780.25
 11
116.42778049999993
 21
776.25
  0
ARC
  8
_0-0_0
  6
CONTINUOUS
 62
    7
 10
116.92778049999993
 20
776.25
 40
0.5
 50
179.99999099999999
 51
269.99999700000001
  0
LINE
  8
_0-0_0
  6
CONTINUOUS
 62
    7
 10
123.92778049999993
 20
775.75
 11
116.92778049999993
 21
775.75
  0
ARC
  8
_0-0_0
  6
CONTINUOUS
 62
    7
 10
123.92778049999993
 20
776.25
 40
0.5
 50
269.99999700000001
 51
0
  0
LINE
  8
_0-0_0
  6
CONTINUOUS
 62
    7
 10
124.42778049999993
 20
776.25
 11
124.42778049999993
 21
780.25
  0
ARC
  8
_0-0_0
  6
CONTINUOUS
 62
    7
 10
123.92778049999993
 20
780.25
 40
0.5
 50
0
 51
90.000003000000007
  0
LINE
  8
_0-0_0
  6
CONTINUOUS
 62
    7
 10
116.92778049999993
 20
780.75
 11
123.92778049999993
 21
780.75
  0
LINE
  8
_0-0_0
  6
CONTINUOUS
 62
    7
 10
118.94029249999994
 20
779.88034100000004
 11
120.2402955
 21
776.38034100000004
  0
ARC
  8
_0-0_0
  6
CONTINUOUS
 62
    7
 10
120.42778049999993
 20
776.44998199999998
 40
0.2
 50
200.37643
 51
339.62356199999999
  0
LINE
  8
_0-0_0
  6
CONTINUOUS
 62
    7
 10
121.91526749999991
 20
779.88034100000004
 11
120.61526449999997
 21
776.38034100000004
  0
ARC
  8
_0-0_0
  6
CONTINUOUS
 62
    7
 10
121.72778349999999
 20
779.94998199999998
 40
0.2
 50
339.62356199999999
 51
90.000002999999978
  0
LINE
  8
_0-0_0
  6
CONTINUOUS
 62
    7
 10
66.427780499999926
 20
781.25
 11
66.427780499999926
 21
780.75
  0
LINE
  8
_0-0_0
  6
CONTINUOUS
 62
    7
 10
1539.4277345
 20
781.25
 11
1539.4277345
 21
780.75
  0
LINE
  8
_0-0_0
  6
CONTINUOUS
 62
    7
 10
66.427780499999926
 20
780.75
 11
66.427780499999926
 21
775.75
  0
LINE
  8
_0-0_0
  6
CONTINUOUS
 62
    7
 10
1539.4277345
 20
775.75
 11
1539.4277345
 21
775.25
  0
LINE
  8
_0-0_0
  6
CONTINUOUS
 62
    7
 10
66.427780499999926
 20
775.25
 11
1539.4277345
 21
775.25
  0
LINE
  8
_0-0_0
  6
CONTINUOUS
 62
    7
 10
66.427780499999926
 20
775.75
 11
66.427780499999926
 21
775.25
  0
LINE
  8
_0-0_0
  6
CONTINUOUS
 62
    7
 10
1539.4277345
 20
780.75
 11
1539.4277345
 21
775.75
  0
LINE
  8
_0-0_0
  6
CONTINUOUS
 62
    7
 10
66.427780499999926
 20
802.14999399999999
 11
66.427780499999926
 21
789.14999399999999
  0
LINE
  8
_0-0_0
  6
CONTINUOUS
 62
    7
 10
66.427780499999926
 20
802.14999399999999
 11
66.427780499999926
 21
820.75
  0
LINE
  8
_0-0_0
  6
CONTINUOUS
 62
    7
 10
66.427780499999926
 20
823.25
 11
66.427780499999926
 21
820.75
  0
LINE
  8
_0-0_0
  6
CONTINUOUS
 62
    7
 10
66.427780499999926
 20
823.75
 11
66.427780499999926
 21
823.25
  0
LINE
  8
_0-0_0
  6
CONTINUOUS
 62
    7
 10
66.427780499999926
 20
781.75
 11
66.427780499999926
 21
781.25
  0
LINE
  8
_0-0_0
  6
CONTINUOUS
 62
    7
 10
66.427780499999926
 20
784.94998199999998
 11
66.427780499999926
 21
781.75
  0
LINE
  8
_0-0_0
  6
CONTINUOUS
 62
    7
 10
66.427780499999926
 20
784.94998199999998
 11
66.427780499999926
 21
789.14999399999999
  0
LINE
  8
_0-0_0
  6
CONTINUOUS
 62
    7
 10
66.427780499999926
 20
781.25
 11
1539.4277345
 21
781.25
  0
LINE
  8
_0-0_0
  6
CONTINUOUS
 62
    7
 10
1539.4277345
 20
784.94998199999998
 11
1539.4277345
 21
789.14999399999999
  0
LINE
  8
_0-0_0
  6
CONTINUOUS
 62
    7
 10
1539.4277345
 20
781.75
 11
1539.4277345
 21
784.94998199999998
  0
LINE
  8
_0-0_0
  6
CONTINUOUS
 62
    7
 10
1539.4277345
 20
781.75
 11
1539.4277345
 21
781.25
  0
LINE
  8
_0-0_0
  6
CONTINUOUS
 62
    7
 10
1539.4277345
 20
823.75
 11
1539.4277345
 21
823.25
  0
LINE
  8
_0-0_0
  6
CONTINUOUS
 62
    7
 10
1539.4277345
 20
820.75
 11
1539.4277345
 21
823.25
  0
LINE
  8
_0-0_0
  6
CONTINUOUS
 62
    7
 10
1539.4277345
 20
802.14999399999999
 11
1539.4277345
 21
820.75
  0
LINE
  8
_0-0_0
  6
CONTINUOUS
 62
    7
 10
1539.4277345
 20
802.14999399999999
 11
1539.4277345
 21
789.14999399999999
  0
LINE
  8
_0-0_0
  6
CONTINUOUS
 62
    7
 10
66.427780499999926
 20
789.14999399999999
 11
1539.4277345
 21
789.14999399999999
  0
LINE
  8
_0-0_0
  6
CONTINUOUS
 62
    7
 10
66.427780499999926
 20
802.14999399999999
 11
1539.4277345
 21
802.14999399999999
  0
CIRCLE
  8
_0-0_0
  6
CONTINUOUS
 62
    7
 10
1502.9277345
 20
811.25
 40
6
  0
CIRCLE
  8
_0-0_0
  6
CONTINUOUS
 62
    7
 10
1402.9277345
 20
811.25
 40
6
  0
CIRCLE
  8
_0-0_0
  6
CONTINUOUS
 62
    7
 10
1302.9277345
 20
811.25
 40
6
  0
CIRCLE
  8
_0-0_0
  6
CONTINUOUS
 62
    7
 10
1202.9277345
 20
811.25
 40
6
  0
CIRCLE
  8
_0-0_0
  6
CONTINUOUS
 62
    7
 10
1102.9277955
 20
811.25
 40
6
  0
CIRCLE
  8
_0-0_0
  6
CONTINUOUS
 62
    7
 10
1002.9277955
 20
811.25
 40
6
  0
CIRCLE
  8
_0-0_0
  6
CONTINUOUS
 62
    7
 10
902.9277955
 20
811.25
 40
6
  0
CIRCLE
  8
_0-0_0
  6
CONTINUOUS
 62
    7
 10
802.9277955
 20
811.25
 40
6
  0
CIRCLE
  8
_0-0_0
  6
CONTINUOUS
 62
    7
 10
702.9277955
 20
811.25
 40
6
  0
CIRCLE
  8
_0-0_0
  6
CONTINUOUS
 62
    7
 10
602.9277955
 20
811.25
 40
6
  0
CIRCLE
  8
_0-0_0
  6
CONTINUOUS
 62
    7
 10
502.92779549999995
 20
811.25
 40
6
  0
CIRCLE
  8
_0-0_0
  6
CONTINUOUS
 62
    7
 10
402.92779549999995
 20
811.25
 40
6
  0
CIRCLE
  8
_0-0_0
  6
CONTINUOUS
 62
    7
 10
302.9277955
 20
811.25
 40
6
  0
CIRCLE
  8
_0-0_0
  6
CONTINUOUS
 62
    7
 10
202.9277955
 20
811.25
 40
6
  0
CIRCLE
  8
_0-0_0
  6
CONTINUOUS
 62
    7
 10
102.92778049999993
 20
811.25
 40
6
  0
LINE
  8
_0-0_0
  6
CONTINUOUS
 62
    7
 10
66.427780499999926
 20
820.75
 11
1539.4277345
 21
820.75
  0
LINE
  8
_0-0_0
  6
CONTINUOUS
 62
    7
 10
66.427780499999926
 20
823.75
 11
1539.4277345
 21
823.75
  0
LINE
  8
_0-0_0
  6
CONTINUOUS
 62
    7
 10
66.427780499999926
 20
823.25
 11
63.927780499999926
 21
823.25
  0
LINE
  8
_0-0_0
  6
CONTINUOUS
 62
    7
 10
63.927780499999926
 20
823.25
 11
63.927780499999926
 21
822.75
  0
LINE
  8
_0-0_0
  6
CONTINUOUS
 62
    7
 10
63.927780499999926
 20
822.75
 11
63.927780499999926
 21
782.25
  0
LINE
  8
_0-0_0
  6
CONTINUOUS
 62
    7
 10
66.427780499999926
 20
781.75
 11
63.927780499999926
 21
781.75
  0
LINE
  8
_0-0_0
  6
CONTINUOUS
 62
    7
 10
63.927780499999926
 20
782.25
 11
63.927780499999926
 21
781.75
  0
LINE
  8
_0-0_0
  6
CONTINUOUS
 62
    7
 10
63.927780499999926
 20
781.75
 11
63.927780499999926
 21
780.75
  0
LINE
  8
_0-0_0
  6
CONTINUOUS
 62
    7
 10
63.927780499999926
 20
780.75
 11
63.927780499999926
 21
776.25
  0
LINE
  8
_0-0_0
  6
CONTINUOUS
 62
    7
 10
66.427780499999926
 20
775.75
 11
63.927780499999926
 21
775.75
  0
LINE
  8
_0-0_0
  6
CONTINUOUS
 62
    7
 10
63.927780499999926
 20
776.25
 11
63.927780499999926
 21
775.75
  0
LINE
  8
_0-0_0
  6
CONTINUOUS
 62
    7
 10
66.427780499999926
 20
784.94998199999998
 11
1539.4277345
 21
784.94998199999998
  0
LINE
  8
_0-0_0
  6
CONTINUOUS
 62
    7
 10
1539.4277345
 20
823.25
 11
1541.9277345
 21
823.25
  0
LINE
  8
_0-0_0
  6
CONTINUOUS
 62
    7
 10
1541.9277345
 20
823.25
 11
1541.9277345
 21
822.75
  0
LINE
  8
_0-0_0
  6
CONTINUOUS
 62
    7
 10
1541.9277345
 20
822.75
 11
1541.9277345
 21
782.25
  0
LINE
  8
_0-0_0
  6
CONTINUOUS
 62
    7
 10
1539.4277345
 20
781.75
 11
1541.9277345
 21
781.75
  0
LINE
  8
_0-0_0
  6
CONTINUOUS
 62
    7
 10
1541.9277345
 20
782.25
 11
1541.9277345
 21
781.75
  0
LINE
  8
_0-0_0
  6
CONTINUOUS
 62
    7
 10
1541.9277345
 20
781.75
 11
1541.9277345
 21
780.75
  0
LINE
  8
_0-0_0
  6
CONTINUOUS
 62
    7
 10
1541.9277345
 20
780.75
 11
1541.9277345
 21
776.25
  0
LINE
  8
_0-0_0
  6
CONTINUOUS
 62
    7
 10
1539.4277345
 20
775.75
 11
1541.9277345
 21
775.75
  0
LINE
  8
_0-0_0
  6
CONTINUOUS
 62
    7
 10
1541.9277345
 20
776.25
 11
1541.9277345
 21
775.75
  0
LINE
  8
_0-0_0
  6
CONTINUOUS
 62
    7
 10
1539.4277345
 20
823.75
 11
1539.4277345
 21
823.44998199999998
  0
LINE
  8
_0-0_0
  6
CONTINUOUS
 62
    7
 10
1539.4277345
 20
823.44998199999998
 11
1539.4277345
 21
823.25
  0
CIRCLE
  8
_0-0_0
  6
CONTINUOUS
 62
    7
 10
1502.9277345
 20
811.25
 40
5.5
  0
CIRCLE
  8
_0-0_0
  6
CONTINUOUS
 62
    7
 10
1402.9277345
 20
811.25
 40
5.5
  0
CIRCLE
  8
_0-0_0
  6
CONTINUOUS
 62
    7
 10
1302.9277345
 20
811.25
 40
5.5
  0
CIRCLE
  8
_0-0_0
  6
CONTINUOUS
 62
    7
 10
1202.9277345
 20
811.25
 40
5.5
  0
CIRCLE
  8
_0-0_0
  6
CONTINUOUS
 62
    7
 10
1102.9277955
 20
811.25
 40
5.5
  0
CIRCLE
  8
_0-0_0
  6
CONTINUOUS
 62
    7
 10
1002.9277955
 20
811.25
 40
5.5
  0
CIRCLE
  8
_0-0_0
  6
CONTINUOUS
 62
    7
 10
902.9277955
 20
811.25
 40
5.5
  0
CIRCLE
  8
_0-0_0
  6
CONTINUOUS
 62
    7
 10
802.9277955
 20
811.25
 40
5.5
  0
CIRCLE
  8
_0-0_0
  6
CONTINUOUS
 62
    7
 10
702.9277955
 20
811.25
 40
5.5
  0
CIRCLE
  8
_0-0_0
  6
CONTINUOUS
 62
    7
 10
602.9277955
 20
811.25
 40
5.5
  0
CIRCLE
  8
_0-0_0
  6
CONTINUOUS
 62
    7
 10
502.92779549999995
 20
811.25
 40
5.5
  0
CIRCLE
  8
_0-0_0
  6
CONTINUOUS
 62
    7
 10
402.92779549999995
 20
811.25
 40
5.5
  0
CIRCLE
  8
_0-0_0
  6
CONTINUOUS
 62
    7
 10
302.9277955
 20
811.25
 40
5.5
  0
CIRCLE
  8
_0-0_0
  6
CONTINUOUS
 62
    7
 10
202.9277955
 20
811.25
 40
5.5
  0
CIRCLE
  8
_0-0_0
  6
CONTINUOUS
 62
    7
 10
102.92778049999993
 20
811.25
 40
5.5
  0
CIRCLE
  8
_0-0_0
  6
CONTINUOUS
 62
    7
 10
1502.9277345
 20
811.25
 40
3.5
  0
CIRCLE
  8
_0-0_0
  6
CONTINUOUS
 62
    7
 10
1402.9277345
 20
811.25
 40
3.5
  0
CIRCLE
  8
_0-0_0
  6
CONTINUOUS
 62
    7
 10
1302.9277345
 20
811.25
 40
3.5
  0
CIRCLE
  8
_0-0_0
  6
CONTINUOUS
 62
    7
 10
1202.9277345
 20
811.25
 40
3.5
  0
CIRCLE
  8
_0-0_0
  6
CONTINUOUS
 62
    7
 10
1102.9277955
 20
811.25
 40
3.5
  0
CIRCLE
  8
_0-0_0
  6
CONTINUOUS
 62
    7
 10
1002.9277955
 20
811.25
 40
3.5
  0
CIRCLE
  8
_0-0_0
  6
CONTINUOUS
 62
    7
 10
902.9277955
 20
811.25
 40
3.5
  0
CIRCLE
  8
_0-0_0
  6
CONTINUOUS
 62
    7
 10
802.9277955
 20
811.25
 40
3.5
  0
CIRCLE
  8
_0-0_0
  6
CONTINUOUS
 62
    7
 10
702.9277955
 20
811.25
 40
3.5
  0
CIRCLE
  8
_0-0_0
  6
CONTINUOUS
 62
    7
 10
602.9277955
 20
811.25
 40
3.5
  0
CIRCLE
  8
_0-0_0
  6
CONTINUOUS
 62
    7
 10
502.92779549999995
 20
811.25
 40
3.5
  0
CIRCLE
  8
_0-0_0
  6
CONTINUOUS
 62
    7
 10
402.92779549999995
 20
811.25
 40
3.5
  0
CIRCLE
  8
_0-0_0
  6
CONTINUOUS
 62
    7
 10
302.9277955
 20
811.25
 40
3.5
  0
CIRCLE
  8
_0-0_0
  6
CONTINUOUS
 62
    7
 10
202.9277955
 20
811.25
 40
3.5
  0
CIRCLE
  8
_0-0_0
  6
CONTINUOUS
 62
    7
 10
102.92778049999993
 20
811.25
 40
3.5
  0
ARC
  8
_0-0_0
  6
CONTINUOUS
 62
    7
 10
1459.1276854999999
 20
779.94998199999998
 40
0.2
 50
90.000003000000007
 51
200.37643
  0
LINE
  8
_0-0_0
  6
CONTINUOUS
 62
    7
 10
1459.1276854999999
 20
780.14999399999999
 11
1461.7277835
 21
780.14999399999999
  0
ARC
  8
_0-0_0
  6
CONTINUOUS
 62
    7
 10
1456.9277345
 20
780.25
 40
0.5
 50
90.000003000000007
 51
179.99999099999999
  0
LINE
  8
_0-0_0
  6
CONTINUOUS
 62
    7
 10
1456.4277345
 20
780.25
 11
1456.4277345
 21
776.25
  0
ARC
  8
_0-0_0
  6
CONTINUOUS
 62
    7
 10
1456.9277345
 20
776.25
 40
0.5
 50
179.99999099999999
 51
269.99999700000001
  0
LINE
  8
_0-0_0
  6
CONTINUOUS
 62
    7
 10
1463.9277345
 20
775.75
 11
1456.9277345
 21
775.75
  0
ARC
  8
_0-0_0
  6
CONTINUOUS
 62
    7
 10
1463.9277345
 20
776.25
 40
0.5
 50
269.99999700000001
 51
0
  0
LINE
  8
_0-0_0
  6
CONTINUOUS
 62
    7
 10
1464.4277345
 20
776.25
 11
1464.4277345
 21
780.25
  0
ARC
  8
_0-0_0
  6
CONTINUOUS
 62
    7
 10
1463.9277345
 20
780.25
 40
0.5
 50
0
 51
90.000003000000007
  0
LINE
  8
_0-0_0
  6
CONTINUOUS
 62
    7
 10
1456.9277345
 20
780.75
 11
1463.9277345
 21
780.75
  0
LINE
  8
_0-0_0
  6
CONTINUOUS
 62
    7
 10
1458.9403075
 20
779.88034100000004
 11
1460.2402345
 21
776.38034100000004
  0
ARC
  8
_0-0_0
  6
CONTINUOUS
 62
    7
 10
1460.4277345
 20
776.44998199999998
 40
0.2
 50
200.37643
 51
339.62356199999999
  0
LINE
  8
_0-0_0
  6
CONTINUOUS
 62
    7
 10
1461.9151615000001
 20
779.88034100000004
 11
1460.6152345
 21
776.38034100000004
  0
ARC
  8
_0-0_0
  6
CONTINUOUS
 62
    7
 10
1461.7277835
 20
779.94998199999998
 40
0.2
 50
339.62356199999999
 51
90.000002999999978
  0
LINE
  8
_0-0_0
  6
CONTINUOUS
 62
    7
 10
72.927780499999926
 20
773.25
 11
77.927780499999926
 21
773.25
  0
LINE
  8
_0-0_0
  6
CONTINUOUS
 62
    7
 10
77.927780499999926
 20
773.25
 11
79.727783499999987
 21
773.25
  0
LINE
  8
_0-0_0
  6
CONTINUOUS
 62
    7
 10
79.727783499999987
 20
773.25
 11
80.427780499999926
 21
773.25
  0
ARC
  8
_0-0_0
  6
CONTINUOUS
 62
    7
 10
79.727783499999987
 20
772.75
 40
0.5
 50
0
 51
90.000003000000007
  0
ARC
  8
_0-0_0
  6
CONTINUOUS
 62
    7
 10
72.927780499999926
 20
772.75
 40
0.5
 50
90.000003000000007
 51
179.99999099999999
  0
ARC
  8
_0-0_0
  6
CONTINUOUS
 62
    7
 10
176.42778049999993
 20
772.75
 40
0.5
 50
0
 51
90.000003000000007
  0
LINE
  8
_0-0_0
  6
CONTINUOUS
 62
    7
 10
80.427780499999926
 20
773.25
 11
80.427780499999926
 21
771.75
  0
LINE
  8
_0-0_0
  6
CONTINUOUS
 62
    7
 10
80.427780499999926
 20
773.75
 11
80.427780499999926
 21
773.25
  0
LINE
  8
_0-0_0
  6
CONTINUOUS
 62
    7
 10
80.427780499999926
 20
774.25
 11
80.427780499999926
 21
773.75
  0
LINE
  8
_0-0_0
  6
CONTINUOUS
 62
    7
 10
80.427780499999926
 20
775.25
 11
80.427780499999926
 21
774.25
  0
LINE
  8
_0-0_0
  6
CONTINUOUS
 62
    7
 10
84.427780499999926
 20
773.25
 11
85.127776499999982
 21
773.25
  0
LINE
  8
_0-0_0
  6
CONTINUOUS
 62
    7
 10
80.227783499999987
 20
772.75
 11
80.227783499999987
 21
771.75
  0
LINE
  8
_0-0_0
  6
CONTINUOUS
 62
    7
 10
83.427780499999926
 20
746.25
 11
83.427780499999926
 21
747.84997599999997
  0
LINE
  8
_0-0_0
  6
CONTINUOUS
 62
    7
 10
83.427780499999926
 20
746.25
 11
77.927780499999926
 21
746.25
  0
LINE
  8
_0-0_0
  6
CONTINUOUS
 62
    7
 10
99.427780499999926
 20
752.94998199999998
 11
141.42777949999993
 21
752.94998199999998
  0
LINE
  8
_0-0_0
  6
CONTINUOUS
 62
    7
 10
99.427780499999926
 20
772.54998799999998
 11
141.42777949999993
 21
772.54998799999998
  0
LINE
  8
_0-0_0
  6
CONTINUOUS
 62
    7
 10
162.92778049999993
 20
746.25
 11
153.42778049999993
 21
746.25
  0
LINE
  8
_0-0_0
  6
CONTINUOUS
 62
    7
 10
153.42778049999993
 20
746.25
 11
153.42778049999993
 21
747.84997599999997
  0
ARC
  8
_0-0_0
  6
CONTINUOUS
 62
    7
 10
153.12777649999998
 20
747.84997599999997
 40
0.2999999999999999
 50
0
 51
90.000003000000007
  0
LINE
  8
_0-0_0
  6
CONTINUOUS
 62
    7
 10
152.42778049999993
 20
748.14999399999999
 11
153.12777649999998
 21
748.14999399999999
  0
LINE
  8
_0-0_0
  6
CONTINUOUS
 62
    7
 10
151.92778049999993
 20
748.54998799999998
 11
152.42778049999993
 21
748.54998799999998
  0
LINE
  8
_0-0_0
  6
CONTINUOUS
 62
    7
 10
138.42777949999993
 20
748.54998799999998
 11
151.92778049999993
 21
748.54998799999998
  0
ARC
  8
_0-0_0
  6
CONTINUOUS
 62
    7
 10
135.92777949999993
 20
748.54998799999998
 40
2.5
 50
0
 51
90.000003000000007
  0
LINE
  8
_0-0_0
  6
CONTINUOUS
 62
    7
 10
104.92778049999993
 20
751.04998799999998
 11
135.92777949999993
 21
751.04998799999998
  0
ARC
  8
_0-0_0
  6
CONTINUOUS
 62
    7
 10
104.92778049999993
 20
748.54998799999998
 40
2.5
 50
90.000003000000007
 51
179.99999099999999
  0
LINE
  8
_0-0_0
  6
CONTINUOUS
 62
    7
 10
84.927780499999926
 20
748.54998799999998
 11
102.42778049999993
 21
748.54998799999998
  0
LINE
  8
_0-0_0
  6
CONTINUOUS
 62
    7
 10
84.427780499999926
 20
748.54998799999998
 11
84.927780499999926
 21
748.54998799999998
  0
LINE
  8
_0-0_0
  6
CONTINUOUS
 62
    7
 10
83.727783499999987
 20
748.14999399999999
 11
84.427780499999926
 21
748.14999399999999
  0
ARC
  8
_0-0_0
  6
CONTINUOUS
 62
    7
 10
83.727783499999987
 20
747.84997599999997
 40
0.2999999999999999
 50
90.000003000000007
 51
179.99999099999999
  0
LINE
  8
_0-0_0
  6
CONTINUOUS
 62
    7
 10
72.427780499999926
 20
770.97485400000005
 11
72.427780499999926
 21
772.75
  0
LINE
  8
_0-0_0
  6
CONTINUOUS
 62
    7
 10
77.427780499999926
 20
773.75
 11
77.427780499999926
 21
773.25
  0
LINE
  8
_0-0_0
  6
CONTINUOUS
 62
    7
 10
77.427780499999926
 20
769.80355800000007
 11
77.427780499999926
 21
769.90853900000002
  0
LINE
  8
_0-0_0
  6
CONTINUOUS
 62
    7
 10
77.427780499999926
 20
773.75
 11
77.427780499999926
 21
775.24996899999996
  0
LINE
  8
_0-0_0
  6
CONTINUOUS
 62
    7
 10
176.92778049999993
 20
775.24996899999996
 11
176.92778049999993
 21
773.75
  0
LINE
  8
_0-0_0
  6
CONTINUOUS
 62
    7
 10
176.92778049999993
 20
773.75
 11
176.92778049999993
 21
772.75
  0
LINE
  8
_0-0_0
  6
CONTINUOUS
 62
    7
 10
176.92778049999993
 20
771.94998199999998
 11
176.92778049999993
 21
772.75
  0
LINE
  8
_0-0_0
  6
CONTINUOUS
 62
    7
 10
176.42778049999993
 20
773.25
 11
176.92778049999993
 21
773.25
  0
LINE
  8
_0-0_0
  6
CONTINUOUS
 62
    7
 10
163.92778049999993
 20
773.25
 11
176.42778049999993
 21
773.25
  0
LINE
  8
_0-0_0
  6
CONTINUOUS
 62
    7
 10
176.92778049999993
 20
775.25
 11
176.92778049999993
 21
774.25
  0
LINE
  8
_0-0_0
  6
CONTINUOUS
 62
    7
 10
176.92778049999993
 20
773.75
 11
176.92778049999993
 21
773.25
  0
LINE
  8
_0-0_0
  6
CONTINUOUS
 62
    7
 10
176.92778049999993
 20
774.25
 11
176.92778049999993
 21
773.75
  0
ARC
  8
_0-0_0
  6
CONTINUOUS
 62
    7
 10
82.427780499999926
 20
771.75
 40
2
 50
179.99999099999999
 51
0
  0
LINE
  8
_0-0_0
  6
CONTINUOUS
 62
    7
 10
163.42778049999993
 20
773.25
 11
163.92778049999993
 21
773.25
  0
LINE
  8
_0-0_0
  6
CONTINUOUS
 62
    7
 10
163.42778049999993
 20
772.75
 11
163.42778049999993
 21
773.25
  0
LINE
  8
_0-0_0
  6
CONTINUOUS
 62
    7
 10
163.42778049999993
 20
771.75
 11
163.42778049999993
 21
771.94998199999998
  0
ARC
  8
_0-0_0
  6
CONTINUOUS
 62
    7
 10
161.42778049999993
 20
771.75
 40
2
 50
179.99999099999999
 51
0
  0
LINE
  8
_0-0_0
  6
CONTINUOUS
 62
    7
 10
159.42778049999993
 20
773.25
 11
159.42778049999993
 21
771.75
  0
LINE
  8
_0-0_0
  6
CONTINUOUS
 62
    7
 10
158.72778349999999
 20
773.25
 11
159.42778049999993
 21
773.25
  0
LINE
  8
_0-0_0
  6
CONTINUOUS
 62
    7
 10
84.427780499999926
 20
771.75
 11
84.427780499999926
 21
773.25
  0
LINE
  8
_0-0_0
  6
CONTINUOUS
 62
    7
 10
80.427780499999926
 20
774.25
 11
176.92778049999993
 21
774.25
  0
ARC
  8
_0-0_0
  6
CONTINUOUS
 62
    7
 10
85.127776499999982
 20
772.75
 40
0.5
 50
90.000003000000007
 51
179.99999099999999
  0
ARC
  8
_0-0_0
  6
CONTINUOUS
 62
    7
 10
82.427780499999926
 20
771.75
 40
2.2000000000000002
 50
179.99999099999999
 51
0
  0
LINE
  8
_0-0_0
  6
CONTINUOUS
 62
    7
 10
84.427780499999926
 20
748.14999399999999
 11
84.927780499999926
 21
748.14999399999999
  0
LINE
  8
_0-0_0
  6
CONTINUOUS
 62
    7
 10
84.927780499999926
 20
748.54998799999998
 11
84.927780499999926
 21
748.14999399999999
  0
LINE
  8
_0-0_0
  6
CONTINUOUS
 62
    7
 10
102.42778049999993
 20
748.54998799999998
 11
138.42777949999993
 21
748.54998799999998
  0
LINE
  8
_0-0_0
  6
CONTINUOUS
 62
    7
 10
151.92778049999993
 20
748.14999399999999
 11
152.42778049999993
 21
748.14999399999999
  0
LINE
  8
_0-0_0
  6
CONTINUOUS
 62
    7
 10
151.92778049999993
 20
748.54998799999998
 11
151.92778049999993
 21
748.14999399999999
  0
LINE
  8
_0-0_0
  6
CONTINUOUS
 62
    7
 10
162.92778049999993
 20
745.75
 11
153.92778049999993
 21
745.75
  0
ARC
  8
_0-0_0
  6
CONTINUOUS
 62
    7
 10
153.92778049999993
 20
746.25
 40
0.5
 50
179.99999099999999
 51
269.99999700000001
  0
LINE
  8
_0-0_0
  6
CONTINUOUS
 62
    7
 10
162.92778049999993
 20
746.25
 11
163.42778049999993
 21
746.25
  0
LINE
  8
_0-0_0
  6
CONTINUOUS
 62
    7
 10
163.42778049999993
 20
746.25
 11
163.42778049999993
 21
746.44998199999998
  0
LINE
  8
_0-0_0
  6
CONTINUOUS
 62
    7
 10
167.92778049999993
 20
746.64999399999999
 11
163.62777649999998
 21
746.64999399999999
  0
LINE
  8
_0-0_0
  6
CONTINUOUS
 62
    7
 10
168.42778049999993
 20
747.14999399999999
 11
168.42778049999993
 21
748.92511000000002
  0
ARC
  8
_0-0_0
  6
CONTINUOUS
 62
    7
 10
165.37982149999993
 20
748.86898799999994
 40
3.0490550000000001
 50
1.0548960000000001
 51
14.838094000000002
  0
LINE
  8
_0-0_0
  6
CONTINUOUS
 62
    7
 10
167.92778049999993
 20
749.84997599999997
 11
163.56024149999996
 21
749.84997599999997
  0
LINE
  8
_0-0_0
  6
CONTINUOUS
 62
    7
 10
163.42778049999993
 20
749.99142499999994
 11
163.42778049999993
 21
750.33367900000007
  0
ARC
  8
_0-0_0
  6
CONTINUOUS
 62
    7
 10
161.42778049999993
 20
771.75
 40
2.2000000000000002
 50
179.99999099999999
 51
303.74900400000001
  0
LINE
  8
_0-0_0
  6
CONTINUOUS
 62
    7
 10
159.22778349999999
 20
772.75
 11
159.22778349999999
 21
771.75
  0
LINE
  8
_0-0_0
  6
CONTINUOUS
 62
    7
 10
158.72778349999999
 20
773.25
 11
85.127776499999982
 21
773.25
  0
LINE
  8
_0-0_0
  6
CONTINUOUS
 62
    7
 10
84.627776499999982
 20
771.75
 11
84.627776499999982
 21
772.75
  0
LINE
  8
_0-0_0
  6
CONTINUOUS
 62
    7
 10
85.127776499999982
 20
771.54998799999998
 11
85.127776499999982
 21
771.75
  0
ARC
  8
_0-0_0
  6
CONTINUOUS
 62
    7
 10
86.127776499999982
 20
771.54998799999998
 40
1
 50
90.000003000000007
 51
179.99999099999999
  0
LINE
  8
_0-0_0
  6
CONTINUOUS
 62
    7
 10
86.127776499999982
 20
772.54998799999998
 11
99.427780499999926
 21
772.54998799999998
  0
LINE
  8
_0-0_0
  6
CONTINUOUS
 62
    7
 10
141.42777949999993
 20
772.54998799999998
 11
155.42778049999993
 21
772.54998799999998
  0
ARC
  8
_0-0_0
  6
CONTINUOUS
 62
    7
 10
155.42778049999993
 20
769.54998799999998
 40
3
 50
0
 51
90.000003000000007
  0
LINE
  8
_0-0_0
  6
CONTINUOUS
 62
    7
 10
158.42778049999993
 20
755.94998199999998
 11
158.42778049999993
 21
769.54998799999998
  0
ARC
  8
_0-0_0
  6
CONTINUOUS
 62
    7
 10
155.42778049999993
 20
755.94998199999998
 40
3
 50
269.99999700000001
 51
0
  0
LINE
  8
_0-0_0
  6
CONTINUOUS
 62
    7
 10
155.42778049999993
 20
752.94998199999998
 11
141.42777949999993
 21
752.94998199999998
  0
LINE
  8
_0-0_0
  6
CONTINUOUS
 62
    7
 10
99.427780499999926
 20
752.94998199999998
 11
85.427780499999926
 21
752.94998199999998
  0
ARC
  8
_0-0_0
  6
CONTINUOUS
 62
    7
 10
85.427780499999926
 20
755.94998199999998
 40
3
 50
179.99999099999999
 51
269.99999700000001
  0
LINE
  8
_0-0_0
  6
CONTINUOUS
 62
    7
 10
82.427780499999926
 20
768.18768299999999
 11
82.427780499999926
 21
755.94998199999998
  0
ARC
  8
_0-0_0
  6
CONTINUOUS
 62
    7
 10
83.427780499999926
 20
768.18768299999999
 40
1
 50
105.68034800000001
 51
179.99999100000002
  0
ARC
  8
_0-0_0
  6
CONTINUOUS
 62
    7
 10
75.475753499999996
 20
771.03097500000001
 40
3.0490550000000001
 50
181.05489
 51
194.838089
  0
LINE
  8
_0-0_0
  6
CONTINUOUS
 62
    7
 10
77.295318500000008
 20
770.04998799999998
 11
72.927780499999926
 21
770.04998799999998
  0
LINE
  8
_0-0_0
  6
CONTINUOUS
 62
    7
 10
77.427780499999926
 20
749.99142499999994
 11
77.427780499999926
 21
750.096405
  0
LINE
  8
_0-0_0
  6
CONTINUOUS
 62
    7
 10
77.295318500000008
 20
749.84997599999997
 11
72.927780499999926
 21
749.84997599999997
  0
ARC
  8
_0-0_0
  6
CONTINUOUS
 62
    7
 10
75.476928499999985
 20
748.86834700000009
 40
3.050319
 50
165.15540799999999
 51
178.932897
  0
LINE
  8
_0-0_0
  6
CONTINUOUS
 62
    7
 10
72.427780499999926
 20
747.14999399999999
 11
72.427780499999926
 21
748.92511000000002
  0
LINE
  8
_0-0_0
  6
CONTINUOUS
 62
    7
 10
77.227783499999987
 20
746.64999399999999
 11
72.927780499999926
 21
746.64999399999999
  0
LINE
  8
_0-0_0
  6
CONTINUOUS
 62
    7
 10
77.427780499999926
 20
746.25
 11
77.427780499999926
 21
746.44998199999998
  0
LINE
  8
_0-0_0
  6
CONTINUOUS
 62
    7
 10
77.427780499999926
 20
746.25
 11
77.927780499999926
 21
746.25
  0
LINE
  8
_0-0_0
  6
CONTINUOUS
 62
    7
 10
82.927780499999926
 20
745.75
 11
77.927780499999926
 21
745.75
  0
ARC
  8
_0-0_0
  6
CONTINUOUS
 62
    7
 10
82.927780499999926
 20
746.25
 40
0.5
 50
269.99999700000001
 51
0
  0
LINE
  8
_0-0_0
  6
CONTINUOUS
 62
    7
 10
72.746032499999956
 20
770.04998799999998
 11
72.725692499999923
 21
770.05099500000006
  0
LINE
  8
_0-0_0
  6
CONTINUOUS
 62
    7
 10
72.725692499999923
 20
770.05099500000006
 11
72.705276499999968
 21
770.05413799999997
  0
LINE
  8
_0-0_0
  6
CONTINUOUS
 62
    7
 10
72.705276499999968
 20
770.05413799999997
 11
72.678466500000013
 21
770.06173699999999
  0
LINE
  8
_0-0_0
  6
CONTINUOUS
 62
    7
 10
72.678466500000013
 20
770.06173699999999
 11
72.652816499999972
 21
770.07312000000002
  0
LINE
  8
_0-0_0
  6
CONTINUOUS
 62
    7
 10
72.652816499999972
 20
770.07312000000002
 11
72.629012499999931
 21
770.08798200000001
  0
LINE
  8
_0-0_0
  6
CONTINUOUS
 62
    7
 10
72.629012499999931
 20
770.08798200000001
 11
72.612258499999939
 21
770.10150099999998
  0
LINE
  8
_0-0_0
  6
CONTINUOUS
 62
    7
 10
72.612258499999939
 20
770.10150099999998
 11
72.596755499999972
 21
770.11672999999996
  0
LINE
  8
_0-0_0
  6
CONTINUOUS
 62
    7
 10
72.596755499999972
 20
770.11672999999996
 11
72.569854500000019
 21
770.15136699999994
  0
LINE
  8
_0-0_0
  6
CONTINUOUS
 62
    7
 10
72.569854500000019
 20
770.15136699999994
 11
72.54881249999994
 21
770.18969700000002
  0
LINE
  8
_0-0_0
  6
CONTINUOUS
 62
    7
 10
72.54881249999994
 20
770.18969700000002
 11
72.536819499999979
 21
770.21963499999993
  0
LINE
  8
_0-0_0
  6
CONTINUOUS
 62
    7
 10
72.536819499999979
 20
770.21963499999993
 11
72.527786499999934
 21
770.25
  0
LINE
  8
_0-0_0
  6
CONTINUOUS
 62
    7
 10
72.438979499999959
 20
770.75
 11
65.427780499999926
 21
770.75
  0
LINE
  8
_0-0_0
  6
CONTINUOUS
 62
    7
 10
65.427780499999926
 20
770.75
 11
60.752334499999961
 21
770.75
  0
LINE
  8
_0-0_0
  6
CONTINUOUS
 62
    7
 10
65.427780499999926
 20
770.75
 11
65.427780499999926
 21
768.75
  0
LINE
  8
_0-0_0
  6
CONTINUOUS
 62
    7
 10
77.427780499999926
 20
768.75
 11
77.427780499999926
 21
769.80355800000007
  0
ARC
  8
_0-0_0
  6
CONTINUOUS
 62
    7
 10
176.42778049999993
 20
771.94998199999998
 40
0.5
 50
269.99999700000001
 51
0
  0
ARC
  8
_0-0_0
  6
CONTINUOUS
 62
    7
 10
163.92778049999993
 20
772.75
 40
0.5
 50
90.000003000000007
 51
179.99999099999999
  0
LINE
  8
_0-0_0
  6
CONTINUOUS
 62
    7
 10
163.42778049999993
 20
771.94998199999998
 11
163.42778049999993
 21
772.75
  0
LINE
  8
_0-0_0
  6
CONTINUOUS
 62
    7
 10
83.627776499999982
 20
748.13284299999998
 11
83.627776499999982
 21
746.14999399999999
  0
LINE
  8
_0-0_0
  6
CONTINUOUS
 62
    7
 10
83.627776499999982
 20
746.14999399999999
 11
84.627776499999982
 21
746.14999399999999
  0
LINE
  8
_0-0_0
  6
CONTINUOUS
 62
    7
 10
84.927780499999926
 20
748.14999399999999
 11
151.92778049999993
 21
748.14999399999999
  0
LINE
  8
_0-0_0
  6
CONTINUOUS
 62
    7
 10
84.627776499999982
 20
746.14999399999999
 11
152.22778349999999
 21
746.14999399999999
  0
LINE
  8
_0-0_0
  6
CONTINUOUS
 62
    7
 10
152.22778349999999
 20
746.14999399999999
 11
153.22778349999999
 21
746.14999399999999
  0
LINE
  8
_0-0_0
  6
CONTINUOUS
 62
    7
 10
153.22778349999999
 20
748.13284299999998
 11
153.22778349999999
 21
746.14999399999999
  0
LINE
  8
_0-0_0
  6
CONTINUOUS
 62
    7
 10
163.42778049999993
 20
746.25
 11
162.92778049999993
 21
745.75
  0
ARC
  8
_0-0_0
  6
CONTINUOUS
 62
    7
 10
163.62777649999998
 20
746.44998199999998
 40
0.2
 50
90.000003000000007
 51
179.99999099999999
  0
ARC
  8
_0-0_0
  6
CONTINUOUS
 62
    7
 10
167.92778049999993
 20
747.14999399999999
 40
0.5
 50
269.99999700000001
 51
0
  0
LINE
  8
_0-0_0
  6
CONTINUOUS
 62
    7
 10
168.10952750000001
 20
749.84997599999997
 11
168.12988250000001
 21
749.84896900000001
  0
LINE
  8
_0-0_0
  6
CONTINUOUS
 62
    7
 10
168.12988250000001
 20
749.84896900000001
 11
168.1502835
 21
749.84582499999999
  0
LINE
  8
_0-0_0
  6
CONTINUOUS
 62
    7
 10
168.1502835
 20
749.84582499999999
 11
168.17710849999992
 21
749.83822600000008
  0
LINE
  8
_0-0_0
  6
CONTINUOUS
 62
    7
 10
168.17710849999992
 20
749.83822600000008
 11
168.2027435
 21
749.82687399999998
  0
LINE
  8
_0-0_0
  6
CONTINUOUS
 62
    7
 10
168.2027435
 20
749.82687399999998
 11
168.22654749999992
 21
749.81198100000006
  0
LINE
  8
_0-0_0
  6
CONTINUOUS
 62
    7
 10
168.22654749999992
 20
749.81198100000006
 11
168.24330149999992
 21
749.79846199999997
  0
LINE
  8
_0-0_0
  6
CONTINUOUS
 62
    7
 10
168.24330149999992
 20
749.79846199999997
 11
168.2588045
 21
749.78326399999992
  0
LINE
  8
_0-0_0
  6
CONTINUOUS
 62
    7
 10
168.2588045
 20
749.78326399999992
 11
168.28570549999995
 21
749.74859600000002
  0
LINE
  8
_0-0_0
  6
CONTINUOUS
 62
    7
 10
168.28570549999995
 20
749.74859600000002
 11
168.30674749999991
 21
749.71026600000005
  0
LINE
  8
_0-0_0
  6
CONTINUOUS
 62
    7
 10
168.30674749999991
 20
749.71026600000005
 11
168.31874049999999
 21
749.68035899999995
  0
LINE
  8
_0-0_0
  6
CONTINUOUS
 62
    7
 10
168.31874049999999
 20
749.68035899999995
 11
168.32778949999999
 21
749.64999399999999
  0
LINE
  8
_0-0_0
  6
CONTINUOUS
 62
    7
 10
168.10952750000001
 20
749.84997599999997
 11
167.92778049999993
 21
749.84997599999997
  0
LINE
  8
_0-0_0
  6
CONTINUOUS
 62
    7
 10
163.42778049999993
 20
768.29998799999998
 11
163.42778049999993
 21
770.79998799999998
  0
LINE
  8
_0-0_0
  6
CONTINUOUS
 62
    7
 10
163.42778049999993
 20
768.29998799999998
 11
163.42778049999993
 21
751.79998799999998
  0
LINE
  8
_0-0_0
  6
CONTINUOUS
 62
    7
 10
163.42778049999993
 20
750.33367900000007
 11
163.42778049999993
 21
751.79998799999998
  0
ARC
  8
_0-0_0
  6
CONTINUOUS
 62
    7
 10
162.92778049999993
 20
769.50500499999998
 40
0.5
 50
0
 51
123.74898500000002
  0
ARC
  8
_0-0_0
  6
CONTINUOUS
 62
    7
 10
163.59806849999995
 20
750.02328499999999
 40
0.1734229999999999
 50
181.12417600000003
 51
270.64883800000007
  0
LINE
  8
_0-0_0
  6
CONTINUOUS
 62
    7
 10
163.4237364999999
 20
750.04998799999998
 11
163.4238284999999
 21
750.01986699999998
  0
ARC
  8
_0-0_0
  6
CONTINUOUS
 62
    7
 10
158.72778349999999
 20
772.75
 40
0.5
 50
0
 51
90.000003000000007
  0
ARC
  8
_0-0_0
  6
CONTINUOUS
 62
    7
 10
82.427780499999926
 20
771.75
 40
2.7000000000000002
 50
285.68033600000007
 51
0.0000000000000381
  0
ARC
  8
_0-0_0
  6
CONTINUOUS
 62
    7
 10
99.427780499999926
 20
755.94998199999998
 40
3
 50
269.99999700000001
 51
0
  0
LINE
  8
_0-0_0
  6
CONTINUOUS
 62
    7
 10
102.42778049999993
 20
755.94998199999998
 11
102.42778049999993
 21
769.54998799999998
  0
ARC
  8
_0-0_0
  6
CONTINUOUS
 62
    7
 10
99.427780499999926
 20
769.54998799999998
 40
3
 50
0
 51
90.000003000000007
  0
ARC
  8
_0-0_0
  6
CONTINUOUS
 62
    7
 10
94.927780499999926
 20
765.25
 40
4.5
 50
269.99999700000001
 51
90.000002999999992
  0
LINE
  8
_0-0_0
  6
CONTINUOUS
 62
    7
 10
94.927780499999926
 20
760.75
 11
89.927780499999926
 21
760.75
  0
ARC
  8
_0-0_0
  6
CONTINUOUS
 62
    7
 10
89.927780499999926
 20
765.25
 40
4.5
 50
90.000003000000007
 51
269.99999700000006
  0
LINE
  8
_0-0_0
  6
CONTINUOUS
 62
    7
 10
89.927780499999926
 20
769.75
 11
94.927780499999926
 21
769.75
  0
ARC
  8
_0-0_0
  6
CONTINUOUS
 62
    7
 10
141.42777949999993
 20
755.94998199999998
 40
3
 50
179.99999099999999
 51
269.99999700000001
  0
LINE
  8
_0-0_0
  6
CONTINUOUS
 62
    7
 10
138.42777949999993
 20
769.54998799999998
 11
138.42777949999993
 21
755.94998199999998
  0
ARC
  8
_0-0_0
  6
CONTINUOUS
 62
    7
 10
141.42777949999993
 20
769.54998799999998
 40
3
 50
90.000003000000007
 51
179.99999099999999
  0
ARC
  8
_0-0_0
  6
CONTINUOUS
 62
    7
 10
150.92778049999993
 20
765.25
 40
4.5
 50
269.99999700000001
 51
90.000002999999992
  0
LINE
  8
_0-0_0
  6
CONTINUOUS
 62
    7
 10
150.92778049999993
 20
760.75
 11
145.92777949999993
 21
760.75
  0
ARC
  8
_0-0_0
  6
CONTINUOUS
 62
    7
 10
145.92777949999993
 20
765.25
 40
4.5
 50
90.000003000000007
 51
269.99999700000006
  0
LINE
  8
_0-0_0
  6
CONTINUOUS
 62
    7
 10
145.92777949999993
 20
769.75
 11
150.92778049999993
 21
769.75
  0
LINE
  8
_0-0_0
  6
CONTINUOUS
 62
    7
 10
72.927780499999926
 20
770.04998799999998
 11
72.746032499999956
 21
770.04998799999998
  0
LINE
  8
_0-0_0
  6
CONTINUOUS
 62
    7
 10
77.427780499999926
 20
768.75
 11
77.427780499999926
 21
751.14999399999999
  0
LINE
  8
_0-0_0
  6
CONTINUOUS
 62
    7
 10
77.427780499999926
 20
750.096405
 11
77.427780499999926
 21
751.14999399999999
  0
ARC
  8
_0-0_0
  6
CONTINUOUS
 62
    7
 10
77.257491500000015
 20
750.02328499999999
 40
0.1734209999999999
 50
269.35085600000002
 51
358.87625300000002
  0
LINE
  8
_0-0_0
  6
CONTINUOUS
 62
    7
 10
77.43182349999995
 20
750.04998799999998
 11
77.431747499999915
 21
750.01986699999998
  0
LINE
  8
_0-0_0
  6
CONTINUOUS
 62
    7
 10
77.43182349999995
 20
769.84997599999997
 11
77.431747499999915
 21
769.88012700000002
  0
ARC
  8
_0-0_0
  6
CONTINUOUS
 62
    7
 10
77.257491500000015
 20
769.87670900000001
 40
0.1734219999999999
 50
1.1236539999999999
 51
90.649110000000007
  0
LINE
  8
_0-0_0
  6
CONTINUOUS
 62
    7
 10
72.927780499999926
 20
749.84997599999997
 11
72.746032499999956
 21
749.84997599999997
  0
LINE
  8
_0-0_0
  6
CONTINUOUS
 62
    7
 10
72.746032499999956
 20
749.84997599999997
 11
72.725692499999923
 21
749.84896900000001
  0
LINE
  8
_0-0_0
  6
CONTINUOUS
 62
    7
 10
72.725692499999923
 20
749.84896900000001
 11
72.705276499999968
 21
749.84582499999999
  0
LINE
  8
_0-0_0
  6
CONTINUOUS
 62
    7
 10
72.705276499999968
 20
749.84582499999999
 11
72.678466500000013
 21
749.83822600000008
  0
LINE
  8
_0-0_0
  6
CONTINUOUS
 62
    7
 10
72.678466500000013
 20
749.83822600000008
 11
72.652816499999972
 21
749.82687399999998
  0
LINE
  8
_0-0_0
  6
CONTINUOUS
 62
    7
 10
72.652816499999972
 20
749.82687399999998
 11
72.629012499999931
 21
749.81198100000006
  0
LINE
  8
_0-0_0
  6
CONTINUOUS
 62
    7
 10
72.629012499999931
 20
749.81198100000006
 11
72.612258499999939
 21
749.79846199999997
  0
LINE
  8
_0-0_0
  6
CONTINUOUS
 62
    7
 10
72.612258499999939
 20
749.79846199999997
 11
72.596755499999972
 21
749.78326399999992
  0
LINE
  8
_0-0_0
  6
CONTINUOUS
 62
    7
 10
72.596755499999972
 20
749.78326399999992
 11
72.569854500000019
 21
749.74859600000002
  0
LINE
  8
_0-0_0
  6
CONTINUOUS
 62
    7
 10
72.569854500000019
 20
749.74859600000002
 11
72.54881249999994
 21
749.71026600000005
  0
LINE
  8
_0-0_0
  6
CONTINUOUS
 62
    7
 10
72.54881249999994
 20
749.71026600000005
 11
72.536819499999979
 21
749.68035899999995
  0
LINE
  8
_0-0_0
  6
CONTINUOUS
 62
    7
 10
72.536819499999979
 20
749.68035899999995
 11
72.527786499999934
 21
749.64999399999999
  0
ARC
  8
_0-0_0
  6
CONTINUOUS
 62
    7
 10
72.927780499999926
 20
747.14999399999999
 40
0.5
 50
179.99999099999999
 51
269.99999700000001
  0
ARC
  8
_0-0_0
  6
CONTINUOUS
 62
    7
 10
77.227783499999987
 20
746.44998199999998
 40
0.2
 50
0
 51
90.000003000000007
  0
LINE
  8
_0-0_0
  6
CONTINUOUS
 62
    7
 10
77.427780499999926
 20
746.25
 11
77.927780499999926
 21
745.75
  0
ARC
  8
_0-0_0
  6
CONTINUOUS
 62
    7
 10
60.752334499999961
 20
768.75
 40
2
 50
90.000003000000007
 51
108.434997
  0
LINE
  8
_0-0_0
  6
CONTINUOUS
 62
    7
 10
65.427780499999926
 20
768.25
 11
65.427780499999926
 21
768.75
  0
LINE
  8
_0-0_0
  6
CONTINUOUS
 62
    7
 10
65.427780499999926
 20
765.25
 11
65.427780499999926
 21
764.75
  0
LINE
  8
_0-0_0
  6
CONTINUOUS
 62
    7
 10
65.427780499999926
 20
765.25
 11
65.427780499999926
 21
768.25
  0
ARC
  8
_0-0_0
  6
CONTINUOUS
 62
    7
 10
71.427795500000002
 20
765.44998199999998
 40
0.500016
 50
0.001164
 51
179.99560600000004
  0
LINE
  8
_0-0_0
  6
CONTINUOUS
 62
    7
 10
70.927780499999926
 20
765.44998199999998
 11
70.927780499999926
 21
753.44998199999998
  0
ARC
  8
_0-0_0
  6
CONTINUOUS
 62
    7
 10
71.427795500000002
 20
753.45001200000002
 40
0.500016
 50
180.00117
 51
359.995611
  0
LINE
  8
_0-0_0
  6
CONTINUOUS
 62
    7
 10
71.927780499999926
 20
765.44998199999998
 11
71.927780499999926
 21
753.44998199999998
  0
ARC
  8
_0-0_0
  6
CONTINUOUS
 62
    7
 10
69.927795500000002
 20
765.44998199999998
 40
0.500016
 50
0.001164
 51
179.99560600000004
  0
LINE
  8
_0-0_0
  6
CONTINUOUS
 62
    7
 10
69.427780499999926
 20
765.44998199999998
 11
69.427780499999926
 21
753.44998199999998
  0
ARC
  8
_0-0_0
  6
CONTINUOUS
 62
    7
 10
69.927795500000002
 20
753.45001200000002
 40
0.500016
 50
180.00117
 51
359.995611
  0
LINE
  8
_0-0_0
  6
CONTINUOUS
 62
    7
 10
70.427780499999926
 20
765.44998199999998
 11
70.427780499999926
 21
753.44998199999998
  0
ARC
  8
_0-0_0
  6
CONTINUOUS
 62
    7
 10
68.427795500000002
 20
765.44998199999998
 40
0.500016
 50
0.001164
 51
179.99560600000004
  0
LINE
  8
_0-0_0
  6
CONTINUOUS
 62
    7
 10
67.927780499999926
 20
765.44998199999998
 11
67.927780499999926
 21
753.44998199999998
  0
ARC
  8
_0-0_0
  6
CONTINUOUS
 62
    7
 10
68.427795500000002
 20
753.45001200000002
 40
0.500016
 50
180.00117
 51
359.995611
  0
LINE
  8
_0-0_0
  6
CONTINUOUS
 62
    7
 10
68.927780499999926
 20
765.44998199999998
 11
68.927780499999926
 21
753.44998199999998
  0
ARC
  8
_0-0_0
  6
CONTINUOUS
 62
    7
 10
66.927795500000002
 20
765.44998199999998
 40
0.500016
 50
0.001164
 51
179.99560600000004
  0
LINE
  8
_0-0_0
  6
CONTINUOUS
 62
    7
 10
66.427780499999926
 20
765.44998199999998
 11
66.427780499999926
 21
753.44998199999998
  0
ARC
  8
_0-0_0
  6
CONTINUOUS
 62
    7
 10
66.927795500000002
 20
753.45001200000002
 40
0.500016
 50
180.00117
 51
359.995611
  0
LINE
  8
_0-0_0
  6
CONTINUOUS
 62
    7
 10
67.427780499999926
 20
765.44998199999998
 11
67.427780499999926
 21
753.44998199999998
  0
LINE
  8
_0-0_0
  6
CONTINUOUS
 62
    7
 10
163.42778049999993
 20
771.44998199999998
 11
163.92778049999993
 21
771.44998199999998
  0
LINE
  8
_0-0_0
  6
CONTINUOUS
 62
    7
 10
163.92778049999993
 20
771.44998199999998
 11
176.42778049999993
 21
771.44998199999998
  0
ARC
  8
_0-0_0
  6
CONTINUOUS
 62
    7
 10
163.92778049999993
 20
771.94998199999998
 40
0.5
 50
179.99999099999999
 51
269.99999700000001
  0
LINE
  8
_0-0_0
  6
CONTINUOUS
 62
    7
 10
163.42778049999993
 20
771.08395399999995
 11
163.42778049999993
 21
771.44998199999998
  0
LINE
  8
_0-0_0
  6
CONTINUOUS
 62
    7
 10
163.42778049999993
 20
770.83346600000004
 11
163.42778049999993
 21
770.79998799999998
  0
LINE
  8
_0-0_0
  6
CONTINUOUS
 62
    7
 10
163.42778049999993
 20
771.08395399999995
 11
163.42778049999993
 21
770.83346600000004
  0
CIRCLE
  8
_0-0_0
  6
CONTINUOUS
 62
    7
 10
82.427780499999926
 20
771.75
 40
1.4750000000000001
  0
CIRCLE
  8
_0-0_0
  6
CONTINUOUS
 62
    7
 10
161.42778049999993
 20
771.75
 40
1.4750000000000001
  0
LINE
  8
_0-0_0
  6
CONTINUOUS
 62
    7
 10
163.42778049999993
 20
746.09997599999997
 11
163.42778049999993
 21
746.25
  0
LINE
  8
_0-0_0
  6
CONTINUOUS
 62
    7
 10
168.92778049999993
 20
746.09997599999997
 11
163.42778049999993
 21
746.09997599999997
  0
LINE
  8
_0-0_0
  6
CONTINUOUS
 62
    7
 10
168.92778049999993
 20
748.64999399999999
 11
168.42778049999993
 21
748.64999399999999
  0
LINE
  8
_0-0_0
  6
CONTINUOUS
 62
    7
 10
163.92778049999993
 20
771.29998799999998
 11
163.42778049999993
 21
770.79998799999998
  0
LINE
  8
_0-0_0
  6
CONTINUOUS
 62
    7
 10
163.92778049999993
 20
771.29998799999998
 11
168.92778049999993
 21
771.29998799999998
  0
LINE
  8
_0-0_0
  6
CONTINUOUS
 62
    7
 10
72.438979499999959
 20
749.14999399999999
 11
60.752334499999961
 21
749.14999399999999
  0
LINE
  8
_0-0_0
  6
CONTINUOUS
 62
    7
 10
59.677780499999926
 20
770.49996899999996
 11
60.119872499999929
 21
770.64733899999999
  0
LINE
  8
_0-0_0
  6
CONTINUOUS
 62
    7
 10
55.953430499999968
 20
765.25
 11
55.260070499999983
 21
765.25
  0
LINE
  8
_0-0_0
  6
CONTINUOUS
 62
    7
 10
55.953430499999968
 20
765.25
 11
60.277999499999964
 21
765.25
  0
LINE
  8
_0-0_0
  6
CONTINUOUS
 62
    7
 10
60.752334499999961
 20
765.25
 11
60.277999499999964
 21
765.25
  0
LINE
  8
_0-0_0
  6
CONTINUOUS
 62
    7
 10
65.427780499999926
 20
765.25
 11
60.752334499999961
 21
765.25
  0
LINE
  8
_0-0_0
  6
CONTINUOUS
 62
    7
 10
163.42778049999993
 20
745.95355199999995
 11
163.42778049999993
 21
746.09997599999997
  0
LINE
  8
_0-0_0
  6
CONTINUOUS
 62
    7
 10
163.42778049999993
 20
745.89642300000003
 11
163.42778049999993
 21
745.95355199999995
  0
LINE
  8
_0-0_0
  6
CONTINUOUS
 62
    7
 10
163.42778049999993
 20
745.75
 11
163.42778049999993
 21
745.89642300000003
  0
ARC
  8
_0-0_0
  6
CONTINUOUS
 62
    7
 10
168.92778049999993
 20
746.59997599999997
 40
0.5
 50
269.99999700000001
 51
0
  0
LINE
  8
_0-0_0
  6
CONTINUOUS
 62
    7
 10
169.42778049999993
 20
748.15570100000002
 11
169.42778049999993
 21
746.59997599999997
  0
ARC
  8
_0-0_0
  6
CONTINUOUS
 62
    7
 10
168.94087249999995
 20
748.15234400000008
 40
0.4869939999999999
 50
0.394923
 51
23.93947
  0
ARC
  8
_0-0_0
  6
CONTINUOUS
 62
    7
 10
168.92778049999993
 20
748.14999399999999
 40
0.5
 50
23.578231000000002
 51
90.000002999999992
  0
LINE
  8
_0-0_0
  6
CONTINUOUS
 62
    7
 10
169.42778049999993
 20
768.29998799999998
 11
169.42778049999993
 21
770.79998799999998
  0
ARC
  8
_0-0_0
  6
CONTINUOUS
 62
    7
 10
168.92778049999993
 20
770.79998799999998
 40
0.5
 50
0
 51
90.000003000000007
  0
LINE
  8
_0-0_0
  6
CONTINUOUS
 62
    7
 10
168.92778049999993
 20
755
 11
166.72778349999999
 21
755
  0
LINE
  8
_0-0_0
  6
CONTINUOUS
 62
    7
 10
169.42778049999993
 20
768.29998799999998
 11
169.42778049999993
 21
755.5
  0
LINE
  8
_0-0_0
  6
CONTINUOUS
 62
    7
 10
166.42778049999993
 20
754.69998199999998
 11
166.42778049999993
 21
752.12167399999998
  0
LINE
  8
_0-0_0
  6
CONTINUOUS
 62
    7
 10
96.399322499999926
 20
761.14999399999999
 11
88.456237499999929
 21
761.14999399999999
  0
ARC
  8
_0-0_0
  6
CONTINUOUS
 62
    7
 10
88.456237499999929
 20
761.64999399999999
 40
0.5
 50
210.00000299999999
 51
269.99999700000001
  0
LINE
  8
_0-0_0
  6
CONTINUOUS
 62
    7
 10
88.023223499999972
 20
761.39999399999999
 11
85.944763499999908
 21
765
  0
ARC
  8
_0-0_0
  6
CONTINUOUS
 62
    7
 10
86.377776499999982
 20
765.25
 40
0.5
 50
149.99999700000001
 51
210.00000299999996
  0
LINE
  8
_0-0_0
  6
CONTINUOUS
 62
    7
 10
85.944763499999908
 20
765.5
 11
88.023223499999972
 21
769.09997599999997
  0
ARC
  8
_0-0_0
  6
CONTINUOUS
 62
    7
 10
88.456237499999929
 20
768.84997599999997
 40
0.5
 50
90.000003000000007
 51
149.99999700000001
  0
LINE
  8
_0-0_0
  6
CONTINUOUS
 62
    7
 10
88.456237499999929
 20
769.34997599999997
 11
96.399322499999926
 21
769.34997599999997
  0
ARC
  8
_0-0_0
  6
CONTINUOUS
 62
    7
 10
96.399322499999926
 20
768.84997599999997
 40
0.5
 50
30.000001000000001
 51
90.000003000000007
  0
LINE
  8
_0-0_0
  6
CONTINUOUS
 62
    7
 10
96.832336499999997
 20
769.09997599999997
 11
98.910796499999947
 21
765.5
  0
ARC
  8
_0-0_0
  6
CONTINUOUS
 62
    7
 10
98.477783499999987
 20
765.25
 40
0.5
 50
329.99998900000003
 51
30.000000999999983
  0
LINE
  8
_0-0_0
  6
CONTINUOUS
 62
    7
 10
98.910796499999947
 20
765
 11
96.832336499999997
 21
761.39999399999999
  0
ARC
  8
_0-0_0
  6
CONTINUOUS
 62
    7
 10
96.399322499999926
 20
761.64999399999999
 40
0.5
 50
269.99999700000001
 51
329.99998900000003
  0
ARC
  8
_0-0_0
  6
CONTINUOUS
 62
    7
 10
144.39851349999992
 20
761.75
 40
0.5
 50
210.00000299999999
 51
269.99999700000001
  0
LINE
  8
_0-0_0
  6
CONTINUOUS
 62
    7
 10
143.96549949999996
 20
761.5
 11
141.94477849999998
 21
765
  0
ARC
  8
_0-0_0
  6
CONTINUOUS
 62
    7
 10
142.37777649999998
 20
765.25
 40
0.5
 50
149.99999700000001
 51
210.00000299999996
  0
LINE
  8
_0-0_0
  6
CONTINUOUS
 62
    7
 10
141.94477849999998
 20
765.5
 11
143.96549949999996
 21
769
  0
ARC
  8
_0-0_0
  6
CONTINUOUS
 62
    7
 10
144.39851349999992
 20
768.75
 40
0.5
 50
90.000003000000007
 51
149.99999700000001
  0
LINE
  8
_0-0_0
  6
CONTINUOUS
 62
    7
 10
144.39851349999992
 20
769.25
 11
152.45706150000001
 21
769.25
  0
ARC
  8
_0-0_0
  6
CONTINUOUS
 62
    7
 10
152.45706150000001
 20
768.75
 40
0.5
 50
30.000001000000001
 51
90.000003000000007
  0
LINE
  8
_0-0_0
  6
CONTINUOUS
 62
    7
 10
152.89007549999997
 20
769
 11
154.91079649999995
 21
765.5
  0
ARC
  8
_0-0_0
  6
CONTINUOUS
 62
    7
 10
154.47778349999999
 20
765.25
 40
0.5
 50
329.99998900000003
 51
30.000000999999983
  0
LINE
  8
_0-0_0
  6
CONTINUOUS
 62
    7
 10
154.91079649999995
 20
765
 11
152.89007549999997
 21
761.5
  0
ARC
  8
_0-0_0
  6
CONTINUOUS
 62
    7
 10
152.45706150000001
 20
761.75
 40
0.5
 50
269.99999700000001
 51
329.99998900000003
  0
LINE
  8
_0-0_0
  6
CONTINUOUS
 62
    7
 10
152.45706150000001
 20
761.25
 11
144.39851349999992
 21
761.25
  0
LINE
  8
_0-0_0
  6
CONTINUOUS
 62
    7
 10
60.119872499999929
 20
749.25262500000008
 11
60.239364499999965
 21
749.21701000000007
  0
LINE
  8
_0-0_0
  6
CONTINUOUS
 62
    7
 10
60.239364499999965
 20
749.21701000000007
 11
60.360931499999992
 21
749.18911700000001
  0
LINE
  8
_0-0_0
  6
CONTINUOUS
 62
    7
 10
60.360931499999992
 20
749.18911700000001
 11
60.484054499999957
 21
749.16906700000004
  0
LINE
  8
_0-0_0
  6
CONTINUOUS
 62
    7
 10
60.484054499999957
 20
749.16906700000004
 11
60.608276499999988
 21
749.15695200000005
  0
LINE
  8
_0-0_0
  6
CONTINUOUS
 62
    7
 10
60.608276499999988
 20
749.15695200000005
 11
60.733108499999958
 21
749.15283199999999
  0
LINE
  8
_0-0_0
  6
CONTINUOUS
 62
    7
 10
60.733108499999958
 20
749.15283199999999
 11
60.752334499999961
 21
749.15289299999995
  0
ARC
  8
_0-0_0
  6
CONTINUOUS
 62
    7
 10
60.752334499999961
 20
751.14999399999999
 40
2
 50
251.56498899999997
 51
269.99999700000001
  0
LINE
  8
_0-0_0
  6
CONTINUOUS
 62
    7
 10
54.427780499999926
 20
766.00003100000004
 11
54.427780499999926
 21
764.87899800000002
  0
LINE
  8
_0-0_0
  6
CONTINUOUS
 62
    7
 10
82.627776499999982
 20
770.64999399999999
 11
82.227783499999987
 21
770.64999399999999
  0
LINE
  8
_0-0_0
  6
CONTINUOUS
 62
    7
 10
82.627776499999982
 20
770.64999399999999
 11
82.627776499999982
 21
771.29998799999998
  0
ARC
  8
_0-0_0
  6
CONTINUOUS
 62
    7
 10
82.877776499999982
 20
771.29998799999998
 40
0.25
 50
90.000003000000007
 51
179.99999099999999
  0
LINE
  8
_0-0_0
  6
CONTINUOUS
 62
    7
 10
82.877776499999982
 20
771.54998799999998
 11
83.527786499999934
 21
771.54998799999998
  0
LINE
  8
_0-0_0
  6
CONTINUOUS
 62
    7
 10
83.527786499999934
 20
771.54998799999998
 11
83.527786499999934
 21
771.94998199999998
  0
LINE
  8
_0-0_0
  6
CONTINUOUS
 62
    7
 10
82.877776499999982
 20
771.94998199999998
 11
83.527786499999934
 21
771.94998199999998
  0
ARC
  8
_0-0_0
  6
CONTINUOUS
 62
    7
 10
82.877776499999982
 20
772.19998199999998
 40
0.25
 50
179.99999099999999
 51
269.99999700000001
  0
LINE
  8
_0-0_0
  6
CONTINUOUS
 62
    7
 10
82.627776499999982
 20
772.84997599999997
 11
82.627776499999982
 21
772.19998199999998
  0
LINE
  8
_0-0_0
  6
CONTINUOUS
 62
    7
 10
82.627776499999982
 20
772.84997599999997
 11
82.227783499999987
 21
772.84997599999997
  0
LINE
  8
_0-0_0
  6
CONTINUOUS
 62
    7
 10
82.227783499999987
 20
772.84997599999997
 11
82.227783499999987
 21
772.19998199999998
  0
ARC
  8
_0-0_0
  6
CONTINUOUS
 62
    7
 10
81.977783499999987
 20
772.19998199999998
 40
0.25
 50
269.99999700000001
 51
0
  0
LINE
  8
_0-0_0
  6
CONTINUOUS
 62
    7
 10
81.977783499999987
 20
771.94998199999998
 11
81.327773499999921
 21
771.94998199999998
  0
LINE
  8
_0-0_0
  6
CONTINUOUS
 62
    7
 10
81.327773499999921
 20
771.54998799999998
 11
81.327773499999921
 21
771.94998199999998
  0
LINE
  8
_0-0_0
  6
CONTINUOUS
 62
    7
 10
81.977783499999987
 20
771.54998799999998
 11
81.327773499999921
 21
771.54998799999998
  0
ARC
  8
_0-0_0
  6
CONTINUOUS
 62
    7
 10
81.977783499999987
 20
771.29998799999998
 40
0.25
 50
0
 51
90.000003000000007
  0
LINE
  8
_0-0_0
  6
CONTINUOUS
 62
    7
 10
82.227783499999987
 20
770.64999399999999
 11
82.227783499999987
 21
771.29998799999998
  0
LINE
  8
_0-0_0
  6
CONTINUOUS
 62
    7
 10
161.62777649999998
 20
770.64999399999999
 11
161.22778349999999
 21
770.64999399999999
  0
LINE
  8
_0-0_0
  6
CONTINUOUS
 62
    7
 10
161.62777649999998
 20
770.64999399999999
 11
161.62777649999998
 21
771.29998799999998
  0
ARC
  8
_0-0_0
  6
CONTINUOUS
 62
    7
 10
161.87777649999998
 20
771.29998799999998
 40
0.25
 50
90.000003000000007
 51
179.99999099999999
  0
LINE
  8
_0-0_0
  6
CONTINUOUS
 62
    7
 10
161.87777649999998
 20
771.54998799999998
 11
162.52778649999993
 21
771.54998799999998
  0
LINE
  8
_0-0_0
  6
CONTINUOUS
 62
    7
 10
162.52778649999993
 20
771.54998799999998
 11
162.52778649999993
 21
771.94998199999998
  0
LINE
  8
_0-0_0
  6
CONTINUOUS
 62
    7
 10
161.87777649999998
 20
771.94998199999998
 11
162.52778649999993
 21
771.94998199999998
  0
ARC
  8
_0-0_0
  6
CONTINUOUS
 62
    7
 10
161.87777649999998
 20
772.19998199999998
 40
0.25
 50
179.99999099999999
 51
269.99999700000001
  0
LINE
  8
_0-0_0
  6
CONTINUOUS
 62
    7
 10
161.62777649999998
 20
772.84997599999997
 11
161.62777649999998
 21
772.19998199999998
  0
LINE
  8
_0-0_0
  6
CONTINUOUS
 62
    7
 10
161.62777649999998
 20
772.84997599999997
 11
161.22778349999999
 21
772.84997599999997
  0
LINE
  8
_0-0_0
  6
CONTINUOUS
 62
    7
 10
161.22778349999999
 20
772.84997599999997
 11
161.22778349999999
 21
772.19998199999998
  0
ARC
  8
_0-0_0
  6
CONTINUOUS
 62
    7
 10
160.97778349999999
 20
772.19998199999998
 40
0.25
 50
269.99999700000001
 51
0
  0
LINE
  8
_0-0_0
  6
CONTINUOUS
 62
    7
 10
160.97778349999999
 20
771.94998199999998
 11
160.32778949999999
 21
771.94998199999998
  0
LINE
  8
_0-0_0
  6
CONTINUOUS
 62
    7
 10
160.32778949999999
 20
771.54998799999998
 11
160.32778949999999
 21
771.94998199999998
  0
LINE
  8
_0-0_0
  6
CONTINUOUS
 62
    7
 10
160.97778349999999
 20
771.54998799999998
 11
160.32778949999999
 21
771.54998799999998
  0
ARC
  8
_0-0_0
  6
CONTINUOUS
 62
    7
 10
160.97778349999999
 20
771.29998799999998
 40
0.25
 50
0
 51
90.000003000000007
  0
LINE
  8
_0-0_0
  6
CONTINUOUS
 62
    7
 10
161.22778349999999
 20
770.64999399999999
 11
161.22778349999999
 21
771.29998799999998
  0
LINE
  8
_0-0_0
  6
CONTINUOUS
 62
    7
 10
168.92778049999993
 20
745.75
 11
163.42778049999993
 21
745.75
  0
LINE
  8
_0-0_0
  6
CONTINUOUS
 62
    7
 10
169.42778049999993
 20
752
 11
169.42778049999993
 21
755.5
  0
LINE
  8
_0-0_0
  6
CONTINUOUS
 62
    7
 10
169.42778049999993
 20
752
 11
169.42778049999993
 21
751.64999399999999
  0
LINE
  8
_0-0_0
  6
CONTINUOUS
 62
    7
 10
169.42778049999993
 20
748.15570100000002
 11
169.42778049999993
 21
751.64999399999999
  0
LINE
  8
_0-0_0
  6
CONTINUOUS
 62
    7
 10
169.42778049999993
 20
746.307098
 11
169.42778049999993
 21
746.59997599999997
  0
LINE
  8
_0-0_0
  6
CONTINUOUS
 62
    7
 10
169.42778049999993
 20
746.307098
 11
169.42778049999993
 21
746.25
  0
LINE
  8
_0-0_0
  6
CONTINUOUS
 62
    7
 10
166.42778049999993
 20
750.57128899999998
 11
166.42778049999993
 21
752.12167399999998
  0
LINE
  8
_0-0_0
  6
CONTINUOUS
 62
    7
 10
166.42778049999993
 20
749.85012800000004
 11
166.42778049999993
 21
750.57128899999998
  0
ARC
  8
_0-0_0
  6
CONTINUOUS
 62
    7
 10
168.92778049999993
 20
755.5
 40
0.5
 50
269.99999700000001
 51
0
  0
ARC
  8
_0-0_0
  6
CONTINUOUS
 62
    7
 10
166.72778349999999
 20
754.69998199999998
 40
0.2999999999999999
 50
90.000003000000007
 51
179.99999099999999
  0
LINE
  8
_0-0_0
  6
CONTINUOUS
 62
    7
 10
55.795318499999894
 20
750.69415299999991
 11
60.119872499999929
 21
749.25262500000008
  0
LINE
  8
_0-0_0
  6
CONTINUOUS
 62
    7
 10
54.427780499999926
 20
752.59149200000002
 11
54.427780499999926
 21
755.94229100000007
  0
LINE
  8
_0-0_0
  6
CONTINUOUS
 62
    7
 10
54.427780499999926
 20
763.957672
 11
54.427780499999926
 21
764.87899800000002
  0
ARC
  8
_0-0_0
  6
CONTINUOUS
 62
    7
 10
56.427780499999926
 20
752.59149200000002
 40
2
 50
179.99999099999999
 51
251.56498899999997
  0
LINE
  8
_0-0_0
  6
CONTINUOUS
 62
    7
 10
39.427780499999926
 20
769.47543300000007
 11
39.427780499999926
 21
769.32870500000001
  0
LINE
  8
_0-0_0
  6
CONTINUOUS
 62
    7
 10
39.427780499999926
 20
769.66595499999994
 11
39.427780499999926
 21
769.47543300000007
  0
LINE
  8
_0-0_0
  6
CONTINUOUS
 62
    7
 10
39.427780499999926
 20
769.84097300000008
 11
39.427780499999926
 21
769.66595499999994
  0
LINE
  8
_0-0_0
  6
CONTINUOUS
 62
    7
 10
39.427780499999926
 20
769.99856599999998
 11
39.427780499999926
 21
769.84097300000008
  0
LINE
  8
_0-0_0
  6
CONTINUOUS
 62
    7
 10
39.427780499999926
 20
770.13699300000007
 11
39.427780499999926
 21
769.99856599999998
  0
LINE
  8
_0-0_0
  6
CONTINUOUS
 62
    7
 10
39.427780499999926
 20
770.25476099999992
 11
39.427780499999926
 21
770.13699300000007
  0
LINE
  8
_0-0_0
  6
CONTINUOUS
 62
    7
 10
39.427780499999926
 20
770.35052500000006
 11
39.427780499999926
 21
770.25476099999992
  0
LINE
  8
_0-0_0
  6
CONTINUOUS
 62
    7
 10
39.427780499999926
 20
770.42330900000002
 11
39.427780499999926
 21
770.35052500000006
  0
LINE
  8
_0-0_0
  6
CONTINUOUS
 62
    7
 10
39.427780499999926
 20
770.47228999999993
 11
39.427780499999926
 21
770.42330900000002
  0
LINE
  8
_0-0_0
  6
CONTINUOUS
 62
    7
 10
39.427780499999926
 20
770.5
 11
39.427780499999926
 21
770.47228999999993
  0
LINE
  8
_0-0_0
  6
CONTINUOUS
 62
    7
 10
39.427780499999926
 20
770.5
 11
39.427780499999926
 21
770.49688700000002
  0
LINE
  8
_0-0_0
  6
CONTINUOUS
 62
    7
 10
39.427780499999926
 20
766.00305200000003
 11
39.427780499999926
 21
766
  0
LINE
  8
_0-0_0
  6
CONTINUOUS
 62
    7
 10
39.427780499999926
 20
766.02767900000003
 11
39.427780499999926
 21
766.00305200000003
  0
LINE
  8
_0-0_0
  6
CONTINUOUS
 62
    7
 10
39.427780499999926
 20
766.07665999999995
 11
39.427780499999926
 21
766
  0
LINE
  8
_0-0_0
  6
CONTINUOUS
 62
    7
 10
39.427780499999926
 20
766.14941399999998
 11
39.427780499999926
 21
766.07665999999995
  0
LINE
  8
_0-0_0
  6
CONTINUOUS
 62
    7
 10
39.427780499999926
 20
766.24520899999993
 11
39.427780499999926
 21
766.14941399999998
  0
LINE
  8
_0-0_0
  6
CONTINUOUS
 62
    7
 10
39.427780499999926
 20
766.27542100000005
 11
39.427780499999926
 21
766.24520899999993
  0
LINE
  8
_0-0_0
  6
CONTINUOUS
 62
    7
 10
39.427780499999926
 20
766.362976
 11
39.427780499999926
 21
766.27542100000005
  0
LINE
  8
_0-0_0
  6
CONTINUOUS
 62
    7
 10
39.427780499999926
 20
766.50140399999998
 11
39.427780499999926
 21
766.362976
  0
LINE
  8
_0-0_0
  6
CONTINUOUS
 62
    7
 10
39.427780499999926
 20
766.658997
 11
39.427780499999926
 21
766.50140399999998
  0
LINE
  8
_0-0_0
  6
CONTINUOUS
 62
    7
 10
39.427780499999926
 20
766.83401500000002
 11
39.427780499999926
 21
766.658997
  0
LINE
  8
_0-0_0
  6
CONTINUOUS
 62
    7
 10
39.427780499999926
 20
767.02453600000001
 11
39.427780499999926
 21
766.83401500000002
  0
LINE
  8
_0-0_0
  6
CONTINUOUS
 62
    7
 10
39.427780499999926
 20
767.22851600000001
 11
39.427780499999926
 21
767.02453600000001
  0
LINE
  8
_0-0_0
  6
CONTINUOUS
 62
    7
 10
39.427780499999926
 20
767.44366500000001
 11
39.427780499999926
 21
767.22851600000001
  0
LINE
  8
_0-0_0
  6
CONTINUOUS
 62
    7
 10
39.427780499999926
 20
767.66763300000002
 11
39.427780499999926
 21
767.44366500000001
  0
LINE
  8
_0-0_0
  6
CONTINUOUS
 62
    7
 10
39.427780499999926
 20
767.89801
 11
39.427780499999926
 21
767.66763300000002
  0
LINE
  8
_0-0_0
  6
CONTINUOUS
 62
    7
 10
39.427780499999926
 20
768.13223300000004
 11
39.427780499999926
 21
767.89801
  0
LINE
  8
_0-0_0
  6
CONTINUOUS
 62
    7
 10
39.427780499999926
 20
768.36773700000003
 11
39.427780499999926
 21
768.13223300000004
  0
LINE
  8
_0-0_0
  6
CONTINUOUS
 62
    7
 10
39.427780499999926
 20
768.60195900000008
 11
39.427780499999926
 21
768.36773700000003
  0
LINE
  8
_0-0_0
  6
CONTINUOUS
 62
    7
 10
39.427780499999926
 20
768.83233599999994
 11
39.427780499999926
 21
768.60195900000008
  0
LINE
  8
_0-0_0
  6
CONTINUOUS
 62
    7
 10
39.427780499999926
 20
769.05630500000007
 11
39.427780499999926
 21
768.83233599999994
  0
LINE
  8
_0-0_0
  6
CONTINUOUS
 62
    7
 10
39.427780499999926
 20
769.27145399999995
 11
39.427780499999926
 21
769.05630500000007
  0
LINE
  8
_0-0_0
  6
CONTINUOUS
 62
    7
 10
39.427780499999926
 20
769.32870500000001
 11
39.427780499999926
 21
769.27145399999995
  0
LINE
  8
_0-0_0
  6
CONTINUOUS
 62
    7
 10
54.727783499999987
 20
762.16198699999995
 11
54.66899049999995
 21
762.40881300000001
  0
LINE
  8
_0-0_0
  6
CONTINUOUS
 62
    7
 10
54.66899049999995
 20
762.40881300000001
 11
54.619216499999993
 21
762.601135
  0
LINE
  8
_0-0_0
  6
CONTINUOUS
 62
    7
 10
54.619216499999993
 20
762.601135
 11
54.548080499999969
 21
762.86694299999999
  0
LINE
  8
_0-0_0
  6
CONTINUOUS
 62
    7
 10
54.548080499999969
 20
762.86694299999999
 11
54.515121499999964
 21
762.993652
  0
LINE
  8
_0-0_0
  6
CONTINUOUS
 62
    7
 10
54.515121499999964
 20
762.993652
 11
54.489868499999943
 21
763.09707600000002
  0
LINE
  8
_0-0_0
  6
CONTINUOUS
 62
    7
 10
54.489868499999943
 20
763.09707600000002
 11
54.467834499999981
 21
763.19702099999995
  0
LINE
  8
_0-0_0
  6
CONTINUOUS
 62
    7
 10
54.467834499999981
 20
763.19702099999995
 11
54.446456499999954
 21
763.31472800000006
  0
LINE
  8
_0-0_0
  6
CONTINUOUS
 62
    7
 10
54.446456499999954
 20
763.31472800000006
 11
54.437881500000003
 21
763.37686200000007
  0
LINE
  8
_0-0_0
  6
CONTINUOUS
 62
    7
 10
54.437881500000003
 20
763.37686200000007
 11
54.431808499999988
 21
763.43746899999996
  0
LINE
  8
_0-0_0
  6
CONTINUOUS
 62
    7
 10
54.431808499999988
 20
763.43746899999996
 11
54.428802499999961
 21
763.48669399999994
  0
LINE
  8
_0-0_0
  6
CONTINUOUS
 62
    7
 10
54.428802499999961
 20
763.48669399999994
 11
54.427780499999926
 21
763.53491200000008
  0
LINE
  8
_0-0_0
  6
CONTINUOUS
 62
    7
 10
54.727783499999987
 20
757.737976
 11
54.81124849999992
 21
758.11663799999997
  0
LINE
  8
_0-0_0
  6
CONTINUOUS
 62
    7
 10
54.81124849999992
 20
758.11663799999997
 11
54.85133350000001
 21
758.30816700000003
  0
LINE
  8
_0-0_0
  6
CONTINUOUS
 62
    7
 10
54.85133350000001
 20
758.30816700000003
 11
54.907409499999972
 21
758.598206
  0
LINE
  8
_0-0_0
  6
CONTINUOUS
 62
    7
 10
54.907409499999972
 20
758.598206
 11
54.945007499999974
 21
758.81778000000008
  0
LINE
  8
_0-0_0
  6
CONTINUOUS
 62
    7
 10
54.945007499999974
 20
758.81778000000008
 11
54.977661499999954
 21
759.03903200000002
  0
LINE
  8
_0-0_0
  6
CONTINUOUS
 62
    7
 10
54.977661499999954
 20
759.03903200000002
 11
55.004821499999935
 21
759.26583900000003
  0
LINE
  8
_0-0_0
  6
CONTINUOUS
 62
    7
 10
55.004821499999935
 20
759.26583900000003
 11
55.02488649999998
 21
759.49322499999994
  0
LINE
  8
_0-0_0
  6
CONTINUOUS
 62
    7
 10
55.02488649999998
 20
759.49322499999994
 11
55.032043499999986
 21
759.60696400000006
  0
LINE
  8
_0-0_0
  6
CONTINUOUS
 62
    7
 10
55.032043499999986
 20
759.60696400000006
 11
55.037200499999926
 21
759.720642
  0
LINE
  8
_0-0_0
  6
CONTINUOUS
 62
    7
 10
55.037200499999926
 20
759.720642
 11
55.040923499999963
 21
759.87207000000001
  0
LINE
  8
_0-0_0
  6
CONTINUOUS
 62
    7
 10
55.040923499999963
 20
759.87207000000001
 11
55.04096949999996
 21
760.02331500000003
  0
LINE
  8
_0-0_0
  6
CONTINUOUS
 62
    7
 10
55.04096949999996
 20
760.02331500000003
 11
55.037399499999992
 21
760.17437700000005
  0
LINE
  8
_0-0_0
  6
CONTINUOUS
 62
    7
 10
55.037399499999992
 20
760.17437700000005
 11
55.027892500000007
 21
760.36291499999993
  0
LINE
  8
_0-0_0
  6
CONTINUOUS
 62
    7
 10
55.027892500000007
 20
760.36291499999993
 11
55.013030500000013
 21
760.55117799999994
  0
LINE
  8
_0-0_0
  6
CONTINUOUS
 62
    7
 10
55.013030500000013
 20
760.55117799999994
 11
54.993102499999964
 21
760.739105
  0
LINE
  8
_0-0_0
  6
CONTINUOUS
 62
    7
 10
54.993102499999964
 20
760.739105
 11
54.976714499999957
 21
760.86798099999999
  0
LINE
  8
_0-0_0
  6
CONTINUOUS
 62
    7
 10
54.976714499999957
 20
760.86798099999999
 11
54.958297499999958
 21
760.99664299999995
  0
LINE
  8
_0-0_0
  6
CONTINUOUS
 62
    7
 10
54.958297499999958
 20
760.99664299999995
 11
54.934142500000007
 21
761.14855999999997
  0
LINE
  8
_0-0_0
  6
CONTINUOUS
 62
    7
 10
54.934142500000007
 20
761.14855999999997
 11
54.907745499999919
 21
761.29992700000003
  0
LINE
  8
_0-0_0
  6
CONTINUOUS
 62
    7
 10
54.907745499999919
 20
761.29992700000003
 11
54.851577499999962
 21
761.59054600000002
  0
LINE
  8
_0-0_0
  6
CONTINUOUS
 62
    7
 10
54.851577499999962
 20
761.59054600000002
 11
54.81141649999995
 21
761.78250100000002
  0
LINE
  8
_0-0_0
  6
CONTINUOUS
 62
    7
 10
54.81141649999995
 20
761.78250100000002
 11
54.727783499999987
 21
762.16198699999995
  0
LINE
  8
_0-0_0
  6
CONTINUOUS
 62
    7
 10
54.727783499999987
 20
757.737976
 11
54.668975499999988
 21
757.49111900000003
  0
LINE
  8
_0-0_0
  6
CONTINUOUS
 62
    7
 10
54.668975499999988
 20
757.49111900000003
 11
54.619216499999993
 21
757.29879800000003
  0
LINE
  8
_0-0_0
  6
CONTINUOUS
 62
    7
 10
54.619216499999993
 20
757.29879800000003
 11
54.548095499999931
 21
757.033051
  0
LINE
  8
_0-0_0
  6
CONTINUOUS
 62
    7
 10
54.548095499999931
 20
757.033051
 11
54.515136499999926
 21
756.906342
  0
LINE
  8
_0-0_0
  6
CONTINUOUS
 62
    7
 10
54.515136499999926
 20
756.906342
 11
54.489868499999943
 21
756.80291699999998
  0
LINE
  8
_0-0_0
  6
CONTINUOUS
 62
    7
 10
54.489868499999943
 20
756.80291699999998
 11
54.467834499999981
 21
756.70294200000001
  0
LINE
  8
_0-0_0
  6
CONTINUOUS
 62
    7
 10
54.467834499999981
 20
756.70294200000001
 11
54.446456499999954
 21
756.58523600000001
  0
LINE
  8
_0-0_0
  6
CONTINUOUS
 62
    7
 10
54.446456499999954
 20
756.58523600000001
 11
54.437881500000003
 21
756.52310199999999
  0
LINE
  8
_0-0_0
  6
CONTINUOUS
 62
    7
 10
54.437881500000003
 20
756.52310199999999
 11
54.431808499999988
 21
756.46249399999999
  0
LINE
  8
_0-0_0
  6
CONTINUOUS
 62
    7
 10
54.431808499999988
 20
756.46249399999999
 11
54.428802499999961
 21
756.41326900000001
  0
LINE
  8
_0-0_0
  6
CONTINUOUS
 62
    7
 10
54.428802499999961
 20
756.41326900000001
 11
54.427780499999926
 21
756.36505099999999
  0
ARC
  8
_0-0_0
  6
CONTINUOUS
 62
    7
 10
168.92778049999993
 20
746.25
 40
0.5
 50
269.99999700000001
 51
0
  0
LINE
  8
_0-0_0
  6
CONTINUOUS
 62
    7
 10
168.88345349999997
 20
750.57128899999998
 11
168.88345349999997
 21
753.89999399999999
  0
LINE
  8
_0-0_0
  6
CONTINUOUS
 62
    7
 10
168.88345349999997
 20
749.39999399999999
 11
168.88345349999997
 21
750.57128899999998
  0
CIRCLE
  8
_0-0_0
  6
CONTINUOUS
 62
    7
 10
92.427780499999926
 20
765.25
 40
2.5
  0
CIRCLE
  8
_0-0_0
  6
CONTINUOUS
 62
    7
 10
148.42778049999993
 20
765.25
 40
2.5
  0
LINE
  8
_0-0_0
  6
CONTINUOUS
 62
    7
 10
54.427780499999926
 20
756.05767800000001
 11
44.719955499999969
 21
756.05767800000001
  0
LINE
  8
_0-0_0
  6
CONTINUOUS
 62
    7
 10
44.719955499999969
 20
753.44998199999998
 11
44.665473499999962
 21
753.51992799999994
  0
LINE
  8
_0-0_0
  6
CONTINUOUS
 62
    7
 10
44.665473499999962
 20
753.51992799999994
 11
44.614372499999945
 21
753.58874500000002
  0
LINE
  8
_0-0_0
  6
CONTINUOUS
 62
    7
 10
44.614372499999945
 20
753.58874500000002
 11
44.566734499999939
 21
753.65625
  0
LINE
  8
_0-0_0
  6
CONTINUOUS
 62
    7
 10
44.566734499999939
 20
753.65625
 11
44.522231499999975
 21
753.72280899999998
  0
LINE
  8
_0-0_0
  6
CONTINUOUS
 62
    7
 10
44.522231499999975
 20
753.72280899999998
 11
44.467513499999995
 21
753.81033300000001
  0
LINE
  8
_0-0_0
  6
CONTINUOUS
 62
    7
 10
44.467513499999995
 20
753.81033300000001
 11
44.418006499999933
 21
753.89645399999995
  0
LINE
  8
_0-0_0
  6
CONTINUOUS
 62
    7
 10
44.418006499999933
 20
753.89645399999995
 11
44.373535500000003
 21
753.98126200000002
  0
LINE
  8
_0-0_0
  6
CONTINUOUS
 62
    7
 10
44.373535500000003
 20
753.98126200000002
 11
44.326568499999894
 21
754.08160399999997
  0
LINE
  8
_0-0_0
  6
CONTINUOUS
 62
    7
 10
44.326568499999894
 20
754.08160399999997
 11
44.286361499999998
 21
754.18051100000002
  0
LINE
  8
_0-0_0
  6
CONTINUOUS
 62
    7
 10
44.286361499999998
 20
754.18051100000002
 11
44.252700499999946
 21
754.27825899999993
  0
LINE
  8
_0-0_0
  6
CONTINUOUS
 62
    7
 10
44.252700499999946
 20
754.27825899999993
 11
44.225410499999953
 21
754.375092
  0
LINE
  8
_0-0_0
  6
CONTINUOUS
 62
    7
 10
44.225410499999953
 20
754.375092
 11
44.204360500000007
 21
754.47113000000002
  0
LINE
  8
_0-0_0
  6
CONTINUOUS
 62
    7
 10
44.204360500000007
 20
754.47113000000002
 11
44.188430499999981
 21
754.57498199999998
  0
LINE
  8
_0-0_0
  6
CONTINUOUS
 62
    7
 10
44.188430499999981
 20
754.57498199999998
 11
44.17967950000002
 21
754.678406
  0
LINE
  8
_0-0_0
  6
CONTINUOUS
 62
    7
 10
44.17967950000002
 20
754.678406
 11
44.178039499999954
 21
754.78164700000002
  0
LINE
  8
_0-0_0
  6
CONTINUOUS
 62
    7
 10
44.178039499999954
 20
754.78164700000002
 11
44.1835094999999
 21
754.88494900000001
  0
LINE
  8
_0-0_0
  6
CONTINUOUS
 62
    7
 10
44.1835094999999
 20
754.88494900000001
 11
44.19611349999991
 21
754.98852499999998
  0
LINE
  8
_0-0_0
  6
CONTINUOUS
 62
    7
 10
44.19611349999991
 20
754.98852499999998
 11
44.215934500000003
 21
755.09268199999997
  0
LINE
  8
_0-0_0
  6
CONTINUOUS
 62
    7
 10
44.215934500000003
 20
755.09268199999997
 11
44.243080499999905
 21
755.197632
  0
LINE
  8
_0-0_0
  6
CONTINUOUS
 62
    7
 10
44.243080499999905
 20
755.197632
 11
44.277725499999974
 21
755.30367999999999
  0
LINE
  8
_0-0_0
  6
CONTINUOUS
 62
    7
 10
44.277725499999974
 20
755.30367999999999
 11
44.320075499999916
 21
755.41104100000007
  0
LINE
  8
_0-0_0
  6
CONTINUOUS
 62
    7
 10
44.320075499999916
 20
755.41104100000007
 11
44.370391499999982
 21
755.52005000000008
  0
LINE
  8
_0-0_0
  6
CONTINUOUS
 62
    7
 10
44.370391499999982
 20
755.52005000000008
 11
44.424636499999906
 21
755.623199
  0
LINE
  8
_0-0_0
  6
CONTINUOUS
 62
    7
 10
44.424636499999906
 20
755.623199
 11
44.486343499999975
 21
755.72824100000003
  0
LINE
  8
_0-0_0
  6
CONTINUOUS
 62
    7
 10
44.486343499999975
 20
755.72824100000003
 11
44.555862499999989
 21
755.83547999999996
  0
LINE
  8
_0-0_0
  6
CONTINUOUS
 62
    7
 10
44.555862499999989
 20
755.83547999999996
 11
44.633582499999989
 21
755.94519000000003
  0
LINE
  8
_0-0_0
  6
CONTINUOUS
 62
    7
 10
44.633582499999989
 20
755.94519000000003
 11
44.719955499999969
 21
756.05767800000001
  0
LINE
  8
_0-0_0
  6
CONTINUOUS
 62
    7
 10
54.427780499999926
 20
753.44998199999998
 11
44.719955499999969
 21
753.44998199999998
  0
LINE
  8
_0-0_0
  6
CONTINUOUS
 62
    7
 10
54.427780499999926
 20
755.94229100000007
 11
54.427780499999926
 21
756.05767800000001
  0
LINE
  8
_0-0_0
  6
CONTINUOUS
 62
    7
 10
44.677780499999926
 20
753.44998199999998
 11
44.719955499999969
 21
753.44998199999998
  0
LINE
  8
_0-0_0
  6
CONTINUOUS
 62
    7
 10
54.427780499999926
 20
763.84228499999995
 11
44.719955499999969
 21
763.84228499999995
  0
LINE
  8
_0-0_0
  6
CONTINUOUS
 62
    7
 10
54.427780499999926
 20
763.957672
 11
54.427780499999926
 21
763.84228499999995
  0
LINE
  8
_0-0_0
  6
CONTINUOUS
 62
    7
 10
44.719955499999969
 20
763.84228499999995
 11
44.665473499999962
 21
763.91223100000002
  0
LINE
  8
_0-0_0
  6
CONTINUOUS
 62
    7
 10
44.665473499999962
 20
763.91223100000002
 11
44.614372499999945
 21
763.98104899999998
  0
LINE
  8
_0-0_0
  6
CONTINUOUS
 62
    7
 10
44.614372499999945
 20
763.98104899999998
 11
44.566734499999939
 21
764.04855300000008
  0
LINE
  8
_0-0_0
  6
CONTINUOUS
 62
    7
 10
44.566734499999939
 20
764.04855300000008
 11
44.522231499999975
 21
764.11511199999995
  0
LINE
  8
_0-0_0
  6
CONTINUOUS
 62
    7
 10
44.522231499999975
 20
764.11511199999995
 11
44.467513499999995
 21
764.20263699999998
  0
LINE
  8
_0-0_0
  6
CONTINUOUS
 62
    7
 10
44.467513499999995
 20
764.20263699999998
 11
44.418006499999933
 21
764.28875700000003
  0
LINE
  8
_0-0_0
  6
CONTINUOUS
 62
    7
 10
44.418006499999933
 20
764.28875700000003
 11
44.373535500000003
 21
764.37359600000002
  0
LINE
  8
_0-0_0
  6
CONTINUOUS
 62
    7
 10
44.373535500000003
 20
764.37359600000002
 11
44.326568499999894
 21
764.47390700000005
  0
LINE
  8
_0-0_0
  6
CONTINUOUS
 62
    7
 10
44.326568499999894
 20
764.47390700000005
 11
44.286361499999998
 21
764.57281499999999
  0
LINE
  8
_0-0_0
  6
CONTINUOUS
 62
    7
 10
44.286361499999998
 20
764.57281499999999
 11
44.252700499999946
 21
764.67059300000005
  0
LINE
  8
_0-0_0
  6
CONTINUOUS
 62
    7
 10
44.252700499999946
 20
764.67059300000005
 11
44.225410499999953
 21
764.76739500000008
  0
LINE
  8
_0-0_0
  6
CONTINUOUS
 62
    7
 10
44.225410499999953
 20
764.76739500000008
 11
44.204360500000007
 21
764.86343399999998
  0
LINE
  8
_0-0_0
  6
CONTINUOUS
 62
    7
 10
44.204360500000007
 20
764.86343399999998
 11
44.188430499999981
 21
764.96728499999995
  0
LINE
  8
_0-0_0
  6
CONTINUOUS
 62
    7
 10
44.188430499999981
 20
764.96728499999995
 11
44.17967950000002
 21
765.07070900000008
  0
LINE
  8
_0-0_0
  6
CONTINUOUS
 62
    7
 10
44.17967950000002
 20
765.07070900000008
 11
44.178039499999954
 21
765.17394999999999
  0
LINE
  8
_0-0_0
  6
CONTINUOUS
 62
    7
 10
44.178039499999954
 20
765.17394999999999
 11
44.1835094999999
 21
765.27725199999998
  0
LINE
  8
_0-0_0
  6
CONTINUOUS
 62
    7
 10
44.1835094999999
 20
765.27725199999998
 11
44.19611349999991
 21
765.38082899999995
  0
LINE
  8
_0-0_0
  6
CONTINUOUS
 62
    7
 10
44.19611349999991
 20
765.38082899999995
 11
44.215934500000003
 21
765.48498500000005
  0
LINE
  8
_0-0_0
  6
CONTINUOUS
 62
    7
 10
44.215934500000003
 20
765.48498500000005
 11
44.243080499999905
 21
765.58993499999997
  0
LINE
  8
_0-0_0
  6
CONTINUOUS
 62
    7
 10
44.243080499999905
 20
765.58993499999997
 11
44.277725499999974
 21
765.69598399999995
  0
LINE
  8
_0-0_0
  6
CONTINUOUS
 62
    7
 10
44.277725499999974
 20
765.69598399999995
 11
44.320075499999916
 21
765.80334500000004
  0
LINE
  8
_0-0_0
  6
CONTINUOUS
 62
    7
 10
44.320075499999916
 20
765.80334500000004
 11
44.370391499999982
 21
765.91235400000005
  0
LINE
  8
_0-0_0
  6
CONTINUOUS
 62
    7
 10
44.370391499999982
 20
765.91235400000005
 11
44.416084499999897
 21
766
  0
LINE
  8
_0-0_0
  6
CONTINUOUS
 62
    7
 10
39.427780499999926
 20
769.47543300000007
 11
39.177780499999926
 21
769.5
  0
LINE
  8
_0-0_0
  6
CONTINUOUS
 62
    7
 10
39.427780499999926
 20
769.27145399999995
 11
39.177780499999926
 21
769.5
  0
LINE
  8
_0-0_0
  6
CONTINUOUS
 62
    7
 10
39.427780499999926
 20
769.66595499999994
 11
39.177780499999926
 21
769.71945200000005
  0
LINE
  8
_0-0_0
  6
CONTINUOUS
 62
    7
 10
39.427780499999926
 20
769.47543300000007
 11
39.177780499999926
 21
769.71945200000005
  0
LINE
  8
_0-0_0
  6
CONTINUOUS
 62
    7
 10
39.427780499999926
 20
769.84097300000008
 11
39.177780499999926
 21
769.922821
  0
LINE
  8
_0-0_0
  6
CONTINUOUS
 62
    7
 10
39.427780499999926
 20
769.66595499999994
 11
39.177780499999926
 21
769.922821
  0
LINE
  8
_0-0_0
  6
CONTINUOUS
 62
    7
 10
39.427780499999926
 20
769.99856599999998
 11
39.177780499999926
 21
770.10784899999999
  0
LINE
  8
_0-0_0
  6
CONTINUOUS
 62
    7
 10
39.427780499999926
 20
769.84097300000008
 11
39.177780499999926
 21
770.10784899999999
  0
LINE
  8
_0-0_0
  6
CONTINUOUS
 62
    7
 10
39.427780499999926
 20
770.13699300000007
 11
39.177780499999926
 21
770.27252199999998
  0
LINE
  8
_0-0_0
  6
CONTINUOUS
 62
    7
 10
39.427780499999926
 20
769.99856599999998
 11
39.177780499999926
 21
770.27252199999998
  0
LINE
  8
_0-0_0
  6
CONTINUOUS
 62
    7
 10
39.427780499999926
 20
770.25476099999992
 11
39.177780499999926
 21
770.41503899999998
  0
LINE
  8
_0-0_0
  6
CONTINUOUS
 62
    7
 10
39.427780499999926
 20
770.13699300000007
 11
39.177780499999926
 21
770.41503899999998
  0
LINE
  8
_0-0_0
  6
CONTINUOUS
 62
    7
 10
39.427780499999926
 20
770.35052500000006
 11
39.177780499999926
 21
770.53384400000004
  0
LINE
  8
_0-0_0
  6
CONTINUOUS
 62
    7
 10
39.427780499999926
 20
770.25476099999992
 11
39.177780499999926
 21
770.53384400000004
  0
LINE
  8
_0-0_0
  6
CONTINUOUS
 62
    7
 10
39.427780499999926
 20
770.42330900000002
 11
39.177780499999926
 21
770.62762500000008
  0
LINE
  8
_0-0_0
  6
CONTINUOUS
 62
    7
 10
39.427780499999926
 20
770.35052500000006
 11
39.177780499999926
 21
770.62762500000008
  0
LINE
  8
_0-0_0
  6
CONTINUOUS
 62
    7
 10
39.427780499999926
 20
770.47228999999993
 11
39.177780499999926
 21
770.69534299999998
  0
LINE
  8
_0-0_0
  6
CONTINUOUS
 62
    7
 10
39.427780499999926
 20
770.42330900000002
 11
39.177780499999926
 21
770.69534299999998
  0
LINE
  8
_0-0_0
  6
CONTINUOUS
 62
    7
 10
39.427780499999926
 20
770.49688700000002
 11
39.177780499999926
 21
770.73629800000003
  0
LINE
  8
_0-0_0
  6
CONTINUOUS
 62
    7
 10
39.427780499999926
 20
770.47228999999993
 11
39.177780499999926
 21
770.73629800000003
  0
LINE
  8
_0-0_0
  6
CONTINUOUS
 62
    7
 10
39.427780499999926
 20
770.49688700000002
 11
39.177780499999926
 21
770.75
  0
LINE
  8
_0-0_0
  6
CONTINUOUS
 62
    7
 10
39.427780499999926
 20
766.00305200000003
 11
39.177780499999926
 21
765.75
  0
LINE
  8
_0-0_0
  6
CONTINUOUS
 62
    7
 10
39.427780499999926
 20
766.02767900000003
 11
39.177780499999926
 21
765.76367200000004
  0
LINE
  8
_0-0_0
  6
CONTINUOUS
 62
    7
 10
39.427780499999926
 20
766.00305200000003
 11
39.177780499999926
 21
765.76367200000004
  0
LINE
  8
_0-0_0
  6
CONTINUOUS
 62
    7
 10
39.427780499999926
 20
766.07665999999995
 11
39.177780499999926
 21
765.80462599999998
  0
LINE
  8
_0-0_0
  6
CONTINUOUS
 62
    7
 10
39.427780499999926
 20
766.02767900000003
 11
39.177780499999926
 21
765.80462599999998
  0
LINE
  8
_0-0_0
  6
CONTINUOUS
 62
    7
 10
39.427780499999926
 20
766.14941399999998
 11
39.177780499999926
 21
765.872345
  0
LINE
  8
_0-0_0
  6
CONTINUOUS
 62
    7
 10
39.427780499999926
 20
766.07665999999995
 11
39.177780499999926
 21
765.872345
  0
LINE
  8
_0-0_0
  6
CONTINUOUS
 62
    7
 10
39.427780499999926
 20
766.24520899999993
 11
39.177780499999926
 21
765.96612499999992
  0
LINE
  8
_0-0_0
  6
CONTINUOUS
 62
    7
 10
39.427780499999926
 20
766.14941399999998
 11
39.177780499999926
 21
765.96612499999992
  0
LINE
  8
_0-0_0
  6
CONTINUOUS
 62
    7
 10
39.427780499999926
 20
766.24520899999993
 11
39.297820499999943
 21
766.16137700000002
  0
LINE
  8
_0-0_0
  6
CONTINUOUS
 62
    7
 10
39.427780499999926
 20
766.362976
 11
39.177780499999926
 21
766.08492999999999
  0
LINE
  8
_0-0_0
  6
CONTINUOUS
 62
    7
 10
39.297820499999943
 20
766.16137700000002
 11
39.177780499999926
 21
766.08492999999999
  0
LINE
  8
_0-0_0
  6
CONTINUOUS
 62
    7
 10
39.427780499999926
 20
766.50140399999998
 11
39.177780499999926
 21
766.22744799999998
  0
LINE
  8
_0-0_0
  6
CONTINUOUS
 62
    7
 10
39.427780499999926
 20
766.362976
 11
39.177780499999926
 21
766.22744799999998
  0
LINE
  8
_0-0_0
  6
CONTINUOUS
 62
    7
 10
39.427780499999926
 20
766.658997
 11
39.177780499999926
 21
766.39211999999998
  0
LINE
  8
_0-0_0
  6
CONTINUOUS
 62
    7
 10
39.427780499999926
 20
766.50140399999998
 11
39.177780499999926
 21
766.39211999999998
  0
LINE
  8
_0-0_0
  6
CONTINUOUS
 62
    7
 10
39.427780499999926
 20
766.83401500000002
 11
39.177780499999926
 21
766.57714800000008
  0
LINE
  8
_0-0_0
  6
CONTINUOUS
 62
    7
 10
39.427780499999926
 20
766.658997
 11
39.177780499999926
 21
766.57714800000008
  0
LINE
  8
_0-0_0
  6
CONTINUOUS
 62
    7
 10
39.427780499999926
 20
767.02453600000001
 11
39.177780499999926
 21
766.78051800000003
  0
LINE
  8
_0-0_0
  6
CONTINUOUS
 62
    7
 10
39.427780499999926
 20
766.83401500000002
 11
39.177780499999926
 21
766.78051800000003
  0
LINE
  8
_0-0_0
  6
CONTINUOUS
 62
    7
 10
39.427780499999926
 20
767.22851600000001
 11
39.177780499999926
 21
767
  0
LINE
  8
_0-0_0
  6
CONTINUOUS
 62
    7
 10
39.427780499999926
 20
767.02453600000001
 11
39.177780499999926
 21
767
  0
LINE
  8
_0-0_0
  6
CONTINUOUS
 62
    7
 10
39.427780499999926
 20
767.44366500000001
 11
39.177780499999926
 21
767.23315400000001
  0
LINE
  8
_0-0_0
  6
CONTINUOUS
 62
    7
 10
39.427780499999926
 20
767.22851600000001
 11
39.177780499999926
 21
767.23315400000001
  0
LINE
  8
_0-0_0
  6
CONTINUOUS
 62
    7
 10
39.427780499999926
 20
767.66763300000002
 11
39.177780499999926
 21
767.47744799999998
  0
LINE
  8
_0-0_0
  6
CONTINUOUS
 62
    7
 10
39.427780499999926
 20
767.44366500000001
 11
39.177780499999926
 21
767.47744799999998
  0
LINE
  8
_0-0_0
  6
CONTINUOUS
 62
    7
 10
39.427780499999926
 20
767.89801
 11
39.177780499999926
 21
767.73019399999998
  0
LINE
  8
_0-0_0
  6
CONTINUOUS
 62
    7
 10
39.427780499999926
 20
767.66763300000002
 11
39.177780499999926
 21
767.73019399999998
  0
LINE
  8
_0-0_0
  6
CONTINUOUS
 62
    7
 10
39.427780499999926
 20
768.13223300000004
 11
39.177780499999926
 21
767.98864700000001
  0
LINE
  8
_0-0_0
  6
CONTINUOUS
 62
    7
 10
39.427780499999926
 20
767.89801
 11
39.177780499999926
 21
767.98864700000001
  0
LINE
  8
_0-0_0
  6
CONTINUOUS
 62
    7
 10
39.427780499999926
 20
768.36773700000003
 11
39.177780499999926
 21
768.25
  0
LINE
  8
_0-0_0
  6
CONTINUOUS
 62
    7
 10
39.427780499999926
 20
768.13223300000004
 11
39.177780499999926
 21
768.25
  0
LINE
  8
_0-0_0
  6
CONTINUOUS
 62
    7
 10
39.427780499999926
 20
768.60195900000008
 11
39.177780499999926
 21
768.51129200000003
  0
LINE
  8
_0-0_0
  6
CONTINUOUS
 62
    7
 10
39.427780499999926
 20
768.36773700000003
 11
39.177780499999926
 21
768.51129200000003
  0
LINE
  8
_0-0_0
  6
CONTINUOUS
 62
    7
 10
39.427780499999926
 20
768.83233599999994
 11
39.177780499999926
 21
768.76977499999998
  0
LINE
  8
_0-0_0
  6
CONTINUOUS
 62
    7
 10
39.427780499999926
 20
768.60195900000008
 11
39.177780499999926
 21
768.76977499999998
  0
LINE
  8
_0-0_0
  6
CONTINUOUS
 62
    7
 10
39.427780499999926
 20
769.05630500000007
 11
39.177780499999926
 21
769.02252199999998
  0
LINE
  8
_0-0_0
  6
CONTINUOUS
 62
    7
 10
39.427780499999926
 20
768.83233599999994
 11
39.177780499999926
 21
769.02252199999998
  0
LINE
  8
_0-0_0
  6
CONTINUOUS
 62
    7
 10
39.427780499999926
 20
769.27145399999995
 11
39.177780499999926
 21
769.26681499999995
  0
LINE
  8
_0-0_0
  6
CONTINUOUS
 62
    7
 10
39.427780499999926
 20
769.05630500000007
 11
39.177780499999926
 21
769.26681499999995
  0
LINE
  8
_0-0_0
  6
CONTINUOUS
 62
    7
 10
54.427780499999926
 20
761.512024
 11
54.427780499999926
 21
762.55767800000001
  0
LINE
  8
_0-0_0
  6
CONTINUOUS
 62
    7
 10
54.427780499999926
 20
763.84228499999995
 11
54.427780499999926
 21
762.55767800000001
  0
LINE
  8
_0-0_0
  6
CONTINUOUS
 62
    7
 10
54.427780499999926
 20
761.512024
 11
54.427780499999926
 21
758.38793899999996
  0
LINE
  8
_0-0_0
  6
CONTINUOUS
 62
    7
 10
54.427780499999926
 20
757.34228499999995
 11
54.427780499999926
 21
756.05767800000001
  0
LINE
  8
_0-0_0
  6
CONTINUOUS
 62
    7
 10
54.427780499999926
 20
757.34228499999995
 11
54.427780499999926
 21
758.38793899999996
  0
LINE
  8
_0-0_0
  6
CONTINUOUS
 62
    7
 10
169.02778649999993
 20
750.69113199999993
 11
169.02778649999993
 21
753.64999399999999
  0
LINE
  8
_0-0_0
  6
CONTINUOUS
 62
    7
 10
169.02778649999993
 20
749.64999399999999
 11
169.02778649999993
 21
750.69113199999993
  0
LINE
  8
_0-0_0
  6
CONTINUOUS
 62
    7
 10
54.427780499999926
 20
757.34228499999995
 11
44.719955499999969
 21
757.34228499999995
  0
ARC
  8
_0-0_0
  6
CONTINUOUS
 62
    7
 10
49.60167649999994
 20
756.69909699999994
 40
4.9238749999999998
 50
172.49424200000001
 51
181.535968
  0
ARC
  8
_0-0_0
  6
CONTINUOUS
 62
    7
 10
49.639694499999905
 20
756.70404099999996
 40
4.9620009999999999
 50
181.58130700000004
 51
187.48478900000003
  0
LINE
  8
_0-0_0
  6
CONTINUOUS
 62
    7
 10
43.427780499999926
 20
757.21844499999997
 11
43.427780499999926
 21
754.69998199999998
  0
LINE
  8
_0-0_0
  6
CONTINUOUS
 62
    7
 10
43.427780499999926
 20
765.19998199999998
 11
43.427780499999926
 21
757.21844499999997
  0
LINE
  8
_0-0_0
  6
CONTINUOUS
 62
    7
 10
44.719955499999969
 20
762.55767800000001
 11
44.625617499999976
 21
762.31106599999998
  0
LINE
  8
_0-0_0
  6
CONTINUOUS
 62
    7
 10
44.625617499999976
 20
762.31106599999998
 11
44.541671500000007
 21
762.07110599999999
  0
LINE
  8
_0-0_0
  6
CONTINUOUS
 62
    7
 10
44.541671500000007
 20
762.07110599999999
 11
44.467513499999995
 21
761.83697499999994
  0
LINE
  8
_0-0_0
  6
CONTINUOUS
 62
    7
 10
44.467513499999995
 20
761.83697499999994
 11
44.402633499999979
 21
761.60794099999998
  0
LINE
  8
_0-0_0
  6
CONTINUOUS
 62
    7
 10
44.402633499999979
 20
761.60794099999998
 11
44.346595499999921
 21
761.38327000000004
  0
LINE
  8
_0-0_0
  6
CONTINUOUS
 62
    7
 10
44.346595499999921
 20
761.38327000000004
 11
44.299026499999968
 21
761.16229199999998
  0
LINE
  8
_0-0_0
  6
CONTINUOUS
 62
    7
 10
44.299026499999968
 20
761.16229199999998
 11
44.259620499999983
 21
760.94436599999995
  0
LINE
  8
_0-0_0
  6
CONTINUOUS
 62
    7
 10
44.259620499999983
 20
760.94436599999995
 11
44.228134499999896
 21
760.72891200000004
  0
LINE
  8
_0-0_0
  6
CONTINUOUS
 62
    7
 10
44.228134499999896
 20
760.72891200000004
 11
44.204360500000007
 21
760.51538099999993
  0
LINE
  8
_0-0_0
  6
CONTINUOUS
 62
    7
 10
44.204360500000007
 20
760.51538099999993
 11
44.188430499999981
 21
760.30767800000001
  0
LINE
  8
_0-0_0
  6
CONTINUOUS
 62
    7
 10
44.188430499999981
 20
760.30767800000001
 11
44.17967950000002
 21
760.10082999999997
  0
LINE
  8
_0-0_0
  6
CONTINUOUS
 62
    7
 10
44.17967950000002
 20
760.10082999999997
 11
44.178039499999954
 21
759.89434800000004
  0
LINE
  8
_0-0_0
  6
CONTINUOUS
 62
    7
 10
44.178039499999954
 20
759.89434800000004
 11
44.1835094999999
 21
759.68777499999999
  0
LINE
  8
_0-0_0
  6
CONTINUOUS
 62
    7
 10
44.1835094999999
 20
759.68777499999999
 11
44.19611349999991
 21
759.480591
  0
LINE
  8
_0-0_0
  6
CONTINUOUS
 62
    7
 10
44.19611349999991
 20
759.480591
 11
44.215934500000003
 21
759.27227799999991
  0
LINE
  8
_0-0_0
  6
CONTINUOUS
 62
    7
 10
44.215934500000003
 20
759.27227799999991
 11
44.243080499999905
 21
759.06237800000008
  0
LINE
  8
_0-0_0
  6
CONTINUOUS
 62
    7
 10
44.243080499999905
 20
759.06237800000008
 11
44.277725499999974
 21
758.85031099999992
  0
LINE
  8
_0-0_0
  6
CONTINUOUS
 62
    7
 10
44.277725499999974
 20
758.85031099999992
 11
44.320075499999916
 21
758.63555900000006
  0
LINE
  8
_0-0_0
  6
CONTINUOUS
 62
    7
 10
44.320075499999916
 20
758.63555900000006
 11
44.370391499999982
 21
758.41754200000003
  0
LINE
  8
_0-0_0
  6
CONTINUOUS
 62
    7
 10
44.370391499999982
 20
758.41754200000003
 11
44.424636499999906
 21
758.21124299999997
  0
LINE
  8
_0-0_0
  6
CONTINUOUS
 62
    7
 10
44.424636499999906
 20
758.21124299999997
 11
44.486343499999975
 21
758.00116000000003
  0
LINE
  8
_0-0_0
  6
CONTINUOUS
 62
    7
 10
44.486343499999975
 20
758.00116000000003
 11
44.555862499999989
 21
757.78668199999993
  0
LINE
  8
_0-0_0
  6
CONTINUOUS
 62
    7
 10
44.555862499999989
 20
757.78668199999993
 11
44.633582499999989
 21
757.56726099999992
  0
LINE
  8
_0-0_0
  6
CONTINUOUS
 62
    7
 10
44.633582499999989
 20
757.56726099999992
 11
44.719955499999969
 21
757.34228499999995
  0
ARC
  8
_0-0_0
  6
CONTINUOUS
 62
    7
 10
49.591514499999903
 20
763.19998199999998
 40
4.9136889999999998
 50
172.48898299999999
 51
187.51101699999998
  0
LINE
  8
_0-0_0
  6
CONTINUOUS
 62
    7
 10
54.427780499999926
 20
762.55767800000001
 11
44.719955499999969
 21
762.55767800000001
  0
LINE
  8
_0-0_0
  6
CONTINUOUS
 62
    7
 10
29.677780499999926
 20
769.47543300000007
 11
29.927780499999926
 21
769.5
  0
LINE
  8
_0-0_0
  6
CONTINUOUS
 62
    7
 10
29.927780499999926
 20
769.5
 11
39.177780499999926
 21
769.5
  0
LINE
  8
_0-0_0
  6
CONTINUOUS
 62
    7
 10
29.677780499999926
 20
769.27145399999995
 11
29.927780499999926
 21
769.5
  0
LINE
  8
_0-0_0
  6
CONTINUOUS
 62
    7
 10
29.677780499999926
 20
769.27145399999995
 11
39.427780499999926
 21
769.27145399999995
  0
LINE
  8
_0-0_0
  6
CONTINUOUS
 62
    7
 10
29.677780499999926
 20
769.66595499999994
 11
29.927780499999926
 21
769.71945200000005
  0
LINE
  8
_0-0_0
  6
CONTINUOUS
 62
    7
 10
29.927780499999926
 20
769.71945200000005
 11
39.177780499999926
 21
769.71945200000005
  0
LINE
  8
_0-0_0
  6
CONTINUOUS
 62
    7
 10
29.677780499999926
 20
769.47543300000007
 11
29.927780499999926
 21
769.71945200000005
  0
LINE
  8
_0-0_0
  6
CONTINUOUS
 62
    7
 10
29.677780499999926
 20
769.84097300000008
 11
29.927780499999926
 21
769.922821
  0
LINE
  8
_0-0_0
  6
CONTINUOUS
 62
    7
 10
29.927780499999926
 20
769.922821
 11
39.177780499999926
 21
769.922821
  0
LINE
  8
_0-0_0
  6
CONTINUOUS
 62
    7
 10
29.677780499999926
 20
769.66595499999994
 11
29.927780499999926
 21
769.922821
  0
LINE
  8
_0-0_0
  6
CONTINUOUS
 62
    7
 10
29.677780499999926
 20
769.99856599999998
 11
29.927780499999926
 21
770.10784899999999
  0
LINE
  8
_0-0_0
  6
CONTINUOUS
 62
    7
 10
29.927780499999926
 20
770.10784899999999
 11
39.177780499999926
 21
770.10784899999999
  0
LINE
  8
_0-0_0
  6
CONTINUOUS
 62
    7
 10
29.677780499999926
 20
769.84097300000008
 11
29.927780499999926
 21
770.10784899999999
  0
LINE
  8
_0-0_0
  6
CONTINUOUS
 62
    7
 10
29.677780499999926
 20
770.13699300000007
 11
29.927780499999926
 21
770.27252199999998
  0
LINE
  8
_0-0_0
  6
CONTINUOUS
 62
    7
 10
29.927780499999926
 20
770.27252199999998
 11
39.177780499999926
 21
770.27252199999998
  0
LINE
  8
_0-0_0
  6
CONTINUOUS
 62
    7
 10
29.677780499999926
 20
769.99856599999998
 11
29.927780499999926
 21
770.27252199999998
  0
LINE
  8
_0-0_0
  6
CONTINUOUS
 62
    7
 10
29.677780499999926
 20
770.25476099999992
 11
29.927780499999926
 21
770.41503899999998
  0
LINE
  8
_0-0_0
  6
CONTINUOUS
 62
    7
 10
29.927780499999926
 20
770.41503899999998
 11
39.177780499999926
 21
770.41503899999998
  0
LINE
  8
_0-0_0
  6
CONTINUOUS
 62
    7
 10
29.677780499999926
 20
770.13699300000007
 11
29.927780499999926
 21
770.41503899999998
  0
LINE
  8
_0-0_0
  6
CONTINUOUS
 62
    7
 10
29.677780499999926
 20
770.35052500000006
 11
29.927780499999926
 21
770.53384400000004
  0
LINE
  8
_0-0_0
  6
CONTINUOUS
 62
    7
 10
29.927780499999926
 20
770.53384400000004
 11
39.177780499999926
 21
770.53384400000004
  0
LINE
  8
_0-0_0
  6
CONTINUOUS
 62
    7
 10
29.677780499999926
 20
770.25476099999992
 11
29.927780499999926
 21
770.53384400000004
  0
LINE
  8
_0-0_0
  6
CONTINUOUS
 62
    7
 10
29.677780499999926
 20
770.42330900000002
 11
29.927780499999926
 21
770.62762500000008
  0
LINE
  8
_0-0_0
  6
CONTINUOUS
 62
    7
 10
29.927780499999926
 20
770.62762500000008
 11
39.177780499999926
 21
770.62762500000008
  0
LINE
  8
_0-0_0
  6
CONTINUOUS
 62
    7
 10
29.677780499999926
 20
770.35052500000006
 11
29.927780499999926
 21
770.62762500000008
  0
LINE
  8
_0-0_0
  6
CONTINUOUS
 62
    7
 10
29.677780499999926
 20
770.47228999999993
 11
29.927780499999926
 21
770.69534299999998
  0
LINE
  8
_0-0_0
  6
CONTINUOUS
 62
    7
 10
29.927780499999926
 20
770.69534299999998
 11
39.177780499999926
 21
770.69534299999998
  0
LINE
  8
_0-0_0
  6
CONTINUOUS
 62
    7
 10
29.677780499999926
 20
770.42330900000002
 11
29.927780499999926
 21
770.69534299999998
  0
LINE
  8
_0-0_0
  6
CONTINUOUS
 62
    7
 10
29.677780499999926
 20
770.49688700000002
 11
29.927780499999926
 21
770.73629800000003
  0
LINE
  8
_0-0_0
  6
CONTINUOUS
 62
    7
 10
29.927780499999926
 20
770.73629800000003
 11
39.177780499999926
 21
770.73629800000003
  0
LINE
  8
_0-0_0
  6
CONTINUOUS
 62
    7
 10
29.677780499999926
 20
770.47228999999993
 11
29.927780499999926
 21
770.73629800000003
  0
LINE
  8
_0-0_0
  6
CONTINUOUS
 62
    7
 10
29.927780499999926
 20
770.75
 11
39.177780499999926
 21
770.75
  0
LINE
  8
_0-0_0
  6
CONTINUOUS
 62
    7
 10
29.677780499999926
 20
770.49688700000002
 11
29.927780499999926
 21
770.75
  0
LINE
  8
_0-0_0
  6
CONTINUOUS
 62
    7
 10
29.677780499999926
 20
766.00305200000003
 11
29.927780499999926
 21
765.75
  0
LINE
  8
_0-0_0
  6
CONTINUOUS
 62
    7
 10
29.927780499999926
 20
765.75
 11
39.177780499999926
 21
765.75
  0
LINE
  8
_0-0_0
  6
CONTINUOUS
 62
    7
 10
29.677780499999926
 20
766.02767900000003
 11
29.927780499999926
 21
765.76367200000004
  0
LINE
  8
_0-0_0
  6
CONTINUOUS
 62
    7
 10
29.927780499999926
 20
765.76367200000004
 11
39.177780499999926
 21
765.76367200000004
  0
LINE
  8
_0-0_0
  6
CONTINUOUS
 62
    7
 10
29.677780499999926
 20
766.00305200000003
 11
29.927780499999926
 21
765.76367200000004
  0
LINE
  8
_0-0_0
  6
CONTINUOUS
 62
    7
 10
29.677780499999926
 20
766.07665999999995
 11
29.927780499999926
 21
765.80462599999998
  0
LINE
  8
_0-0_0
  6
CONTINUOUS
 62
    7
 10
29.927780499999926
 20
765.80462599999998
 11
39.177780499999926
 21
765.80462599999998
  0
LINE
  8
_0-0_0
  6
CONTINUOUS
 62
    7
 10
29.677780499999926
 20
766.02767900000003
 11
29.927780499999926
 21
765.80462599999998
  0
LINE
  8
_0-0_0
  6
CONTINUOUS
 62
    7
 10
29.677780499999926
 20
766.14941399999998
 11
29.927780499999926
 21
765.872345
  0
LINE
  8
_0-0_0
  6
CONTINUOUS
 62
    7
 10
29.927780499999926
 20
765.872345
 11
39.177780499999926
 21
765.872345
  0
LINE
  8
_0-0_0
  6
CONTINUOUS
 62
    7
 10
29.677780499999926
 20
766.07665999999995
 11
29.927780499999926
 21
765.872345
  0
LINE
  8
_0-0_0
  6
CONTINUOUS
 62
    7
 10
29.677780499999926
 20
766.24520899999993
 11
29.927780499999926
 21
765.96612499999992
  0
LINE
  8
_0-0_0
  6
CONTINUOUS
 62
    7
 10
29.927780499999926
 20
765.96612499999992
 11
39.177780499999926
 21
765.96612499999992
  0
LINE
  8
_0-0_0
  6
CONTINUOUS
 62
    7
 10
29.677780499999926
 20
766.14941399999998
 11
29.927780499999926
 21
765.96612499999992
  0
LINE
  8
_0-0_0
  6
CONTINUOUS
 62
    7
 10
29.927780499999926
 20
766.08492999999999
 11
39.177780499999926
 21
766.08492999999999
  0
LINE
  8
_0-0_0
  6
CONTINUOUS
 62
    7
 10
29.807746499999894
 20
766.16137700000002
 11
29.927780499999926
 21
766.08492999999999
  0
LINE
  8
_0-0_0
  6
CONTINUOUS
 62
    7
 10
29.677780499999926
 20
766.24520899999993
 11
29.807746499999894
 21
766.16137700000002
  0
LINE
  8
_0-0_0
  6
CONTINUOUS
 62
    7
 10
29.677780499999926
 20
766.362976
 11
29.927780499999926
 21
766.08492999999999
  0
LINE
  8
_0-0_0
  6
CONTINUOUS
 62
    7
 10
29.677780499999926
 20
766.50140399999998
 11
29.927780499999926
 21
766.22744799999998
  0
LINE
  8
_0-0_0
  6
CONTINUOUS
 62
    7
 10
29.927780499999926
 20
766.22744799999998
 11
39.177780499999926
 21
766.22744799999998
  0
LINE
  8
_0-0_0
  6
CONTINUOUS
 62
    7
 10
29.677780499999926
 20
766.362976
 11
29.927780499999926
 21
766.22744799999998
  0
LINE
  8
_0-0_0
  6
CONTINUOUS
 62
    7
 10
29.677780499999926
 20
766.658997
 11
29.927780499999926
 21
766.39211999999998
  0
LINE
  8
_0-0_0
  6
CONTINUOUS
 62
    7
 10
29.927780499999926
 20
766.39211999999998
 11
39.177780499999926
 21
766.39211999999998
  0
LINE
  8
_0-0_0
  6
CONTINUOUS
 62
    7
 10
29.677780499999926
 20
766.50140399999998
 11
29.927780499999926
 21
766.39211999999998
  0
LINE
  8
_0-0_0
  6
CONTINUOUS
 62
    7
 10
29.677780499999926
 20
766.83401500000002
 11
29.927780499999926
 21
766.57714800000008
  0
LINE
  8
_0-0_0
  6
CONTINUOUS
 62
    7
 10
29.927780499999926
 20
766.57714800000008
 11
39.177780499999926
 21
766.57714800000008
  0
LINE
  8
_0-0_0
  6
CONTINUOUS
 62
    7
 10
29.677780499999926
 20
766.658997
 11
29.927780499999926
 21
766.57714800000008
  0
LINE
  8
_0-0_0
  6
CONTINUOUS
 62
    7
 10
29.677780499999926
 20
767.02453600000001
 11
29.927780499999926
 21
766.78051800000003
  0
LINE
  8
_0-0_0
  6
CONTINUOUS
 62
    7
 10
29.927780499999926
 20
766.78051800000003
 11
39.177780499999926
 21
766.78051800000003
  0
LINE
  8
_0-0_0
  6
CONTINUOUS
 62
    7
 10
29.677780499999926
 20
766.83401500000002
 11
29.927780499999926
 21
766.78051800000003
  0
LINE
  8
_0-0_0
  6
CONTINUOUS
 62
    7
 10
29.677780499999926
 20
767.22851600000001
 11
29.927780499999926
 21
767
  0
LINE
  8
_0-0_0
  6
CONTINUOUS
 62
    7
 10
29.927780499999926
 20
767
 11
39.177780499999926
 21
767
  0
LINE
  8
_0-0_0
  6
CONTINUOUS
 62
    7
 10
29.677780499999926
 20
767.22851600000001
 11
39.427780499999926
 21
767.22851600000001
  0
LINE
  8
_0-0_0
  6
CONTINUOUS
 62
    7
 10
29.677780499999926
 20
767.02453600000001
 11
29.927780499999926
 21
767
  0
LINE
  8
_0-0_0
  6
CONTINUOUS
 62
    7
 10
29.677780499999926
 20
767.44366500000001
 11
29.927780499999926
 21
767.23315400000001
  0
LINE
  8
_0-0_0
  6
CONTINUOUS
 62
    7
 10
29.927780499999926
 20
767.23315400000001
 11
39.177780499999926
 21
767.23315400000001
  0
LINE
  8
_0-0_0
  6
CONTINUOUS
 62
    7
 10
29.677780499999926
 20
767.44366500000001
 11
39.427780499999926
 21
767.44366500000001
  0
LINE
  8
_0-0_0
  6
CONTINUOUS
 62
    7
 10
29.677780499999926
 20
767.22851600000001
 11
29.927780499999926
 21
767.23315400000001
  0
LINE
  8
_0-0_0
  6
CONTINUOUS
 62
    7
 10
29.677780499999926
 20
767.66763300000002
 11
29.927780499999926
 21
767.47744799999998
  0
LINE
  8
_0-0_0
  6
CONTINUOUS
 62
    7
 10
29.927780499999926
 20
767.47744799999998
 11
39.177780499999926
 21
767.47744799999998
  0
LINE
  8
_0-0_0
  6
CONTINUOUS
 62
    7
 10
29.677780499999926
 20
767.66763300000002
 11
39.427780499999926
 21
767.66763300000002
  0
LINE
  8
_0-0_0
  6
CONTINUOUS
 62
    7
 10
29.677780499999926
 20
767.44366500000001
 11
29.927780499999926
 21
767.47744799999998
  0
LINE
  8
_0-0_0
  6
CONTINUOUS
 62
    7
 10
29.677780499999926
 20
767.89801
 11
29.927780499999926
 21
767.73019399999998
  0
LINE
  8
_0-0_0
  6
CONTINUOUS
 62
    7
 10
29.927780499999926
 20
767.73019399999998
 11
39.177780499999926
 21
767.73019399999998
  0
LINE
  8
_0-0_0
  6
CONTINUOUS
 62
    7
 10
29.677780499999926
 20
767.89801
 11
39.427780499999926
 21
767.89801
  0
LINE
  8
_0-0_0
  6
CONTINUOUS
 62
    7
 10
29.677780499999926
 20
767.66763300000002
 11
29.927780499999926
 21
767.73019399999998
  0
LINE
  8
_0-0_0
  6
CONTINUOUS
 62
    7
 10
29.677780499999926
 20
768.13223300000004
 11
29.927780499999926
 21
767.98864700000001
  0
LINE
  8
_0-0_0
  6
CONTINUOUS
 62
    7
 10
29.927780499999926
 20
767.98864700000001
 11
39.177780499999926
 21
767.98864700000001
  0
LINE
  8
_0-0_0
  6
CONTINUOUS
 62
    7
 10
29.677780499999926
 20
768.13223300000004
 11
39.427780499999926
 21
768.13223300000004
  0
LINE
  8
_0-0_0
  6
CONTINUOUS
 62
    7
 10
29.677780499999926
 20
767.89801
 11
29.927780499999926
 21
767.98864700000001
  0
LINE
  8
_0-0_0
  6
CONTINUOUS
 62
    7
 10
29.677780499999926
 20
768.36773700000003
 11
29.927780499999926
 21
768.25
  0
LINE
  8
_0-0_0
  6
CONTINUOUS
 62
    7
 10
29.927780499999926
 20
768.25
 11
39.177780499999926
 21
768.25
  0
LINE
  8
_0-0_0
  6
CONTINUOUS
 62
    7
 10
29.677780499999926
 20
768.36773700000003
 11
39.427780499999926
 21
768.36773700000003
  0
LINE
  8
_0-0_0
  6
CONTINUOUS
 62
    7
 10
29.677780499999926
 20
768.13223300000004
 11
29.927780499999926
 21
768.25
  0
LINE
  8
_0-0_0
  6
CONTINUOUS
 62
    7
 10
29.677780499999926
 20
768.60195900000008
 11
29.927780499999926
 21
768.51129200000003
  0
LINE
  8
_0-0_0
  6
CONTINUOUS
 62
    7
 10
29.927780499999926
 20
768.51129200000003
 11
39.177780499999926
 21
768.51129200000003
  0
LINE
  8
_0-0_0
  6
CONTINUOUS
 62
    7
 10
29.677780499999926
 20
768.60195900000008
 11
39.427780499999926
 21
768.60195900000008
  0
LINE
  8
_0-0_0
  6
CONTINUOUS
 62
    7
 10
29.677780499999926
 20
768.36773700000003
 11
29.927780499999926
 21
768.51129200000003
  0
LINE
  8
_0-0_0
  6
CONTINUOUS
 62
    7
 10
29.677780499999926
 20
768.83233599999994
 11
29.927780499999926
 21
768.76977499999998
  0
LINE
  8
_0-0_0
  6
CONTINUOUS
 62
    7
 10
29.927780499999926
 20
768.76977499999998
 11
39.177780499999926
 21
768.76977499999998
  0
LINE
  8
_0-0_0
  6
CONTINUOUS
 62
    7
 10
29.677780499999926
 20
768.83233599999994
 11
39.427780499999926
 21
768.83233599999994
  0
LINE
  8
_0-0_0
  6
CONTINUOUS
 62
    7
 10
29.677780499999926
 20
768.60195900000008
 11
29.927780499999926
 21
768.76977499999998
  0
LINE
  8
_0-0_0
  6
CONTINUOUS
 62
    7
 10
29.677780499999926
 20
769.05630500000007
 11
29.927780499999926
 21
769.02252199999998
  0
LINE
  8
_0-0_0
  6
CONTINUOUS
 62
    7
 10
29.927780499999926
 20
769.02252199999998
 11
39.177780499999926
 21
769.02252199999998
  0
LINE
  8
_0-0_0
  6
CONTINUOUS
 62
    7
 10
29.677780499999926
 20
769.05630500000007
 11
39.427780499999926
 21
769.05630500000007
  0
LINE
  8
_0-0_0
  6
CONTINUOUS
 62
    7
 10
29.677780499999926
 20
768.83233599999994
 11
29.927780499999926
 21
769.02252199999998
  0
LINE
  8
_0-0_0
  6
CONTINUOUS
 62
    7
 10
29.677780499999926
 20
769.27145399999995
 11
29.927780499999926
 21
769.26681499999995
  0
LINE
  8
_0-0_0
  6
CONTINUOUS
 62
    7
 10
29.927780499999926
 20
769.26681499999995
 11
39.177780499999926
 21
769.26681499999995
  0
LINE
  8
_0-0_0
  6
CONTINUOUS
 62
    7
 10
29.677780499999926
 20
769.05630500000007
 11
29.927780499999926
 21
769.26681499999995
  0
LINE
  8
_0-0_0
  6
CONTINUOUS
 62
    7
 10
29.427780499999926
 20
770.25
 11
29.427780499999926
 21
766.49481200000002
  0
LINE
  8
_0-0_0
  6
CONTINUOUS
 62
    7
 10
29.427780499999926
 20
766.49481200000002
 11
29.427780499999926
 21
766.25
  0
LINE
  8
_0-0_0
  6
CONTINUOUS
 62
    7
 10
43.027778499999954
 20
764.94998199999998
 11
43.027778499999954
 21
762.44998199999998
  0
LINE
  8
_0-0_0
  6
CONTINUOUS
 62
    7
 10
43.027778499999954
 20
762.44998199999998
 11
43.027778499999954
 21
754.94998199999998
  0
LINE
  8
_0-0_0
  6
CONTINUOUS
 62
    7
 10
42.227783499999987
 20
764.48809800000004
 11
42.227783499999987
 21
762.21905500000003
  0
LINE
  8
_0-0_0
  6
CONTINUOUS
 62
    7
 10
42.227783499999987
 20
762.21905500000003
 11
42.227783499999987
 21
755.41186500000003
  0
LINE
  8
_0-0_0
  6
CONTINUOUS
 62
    7
 10
-15.772216500000013
 20
763.94998199999998
 11
-15.772216500000013
 21
763.94863899999996
  0
LINE
  8
_0-0_0
  6
CONTINUOUS
 62
    7
 10
-15.772216500000013
 20
763.94863899999996
 11
-15.772216500000013
 21
755.94998199999998
  0
LINE
  8
_0-0_0
  6
CONTINUOUS
 62
    7
 10
39.427780499999926
 20
749.40307600000006
 11
39.427780499999926
 21
749.39999399999999
  0
LINE
  8
_0-0_0
  6
CONTINUOUS
 62
    7
 10
39.427780499999926
 20
749.42770399999995
 11
39.427780499999926
 21
749.39999399999999
  0
LINE
  8
_0-0_0
  6
CONTINUOUS
 62
    7
 10
39.427780499999926
 20
749.47665400000005
 11
39.427780499999926
 21
749.42770399999995
  0
LINE
  8
_0-0_0
  6
CONTINUOUS
 62
    7
 10
39.427780499999926
 20
749.54943800000001
 11
39.427780499999926
 21
749.47665400000005
  0
LINE
  8
_0-0_0
  6
CONTINUOUS
 62
    7
 10
39.427780499999926
 20
749.64520300000004
 11
39.427780499999926
 21
749.54943800000001
  0
LINE
  8
_0-0_0
  6
CONTINUOUS
 62
    7
 10
39.427780499999926
 20
749.67541499999993
 11
39.427780499999926
 21
749.64520300000004
  0
LINE
  8
_0-0_0
  6
CONTINUOUS
 62
    7
 10
39.427780499999926
 20
749.76297
 11
39.427780499999926
 21
749.67541499999993
  0
LINE
  8
_0-0_0
  6
CONTINUOUS
 62
    7
 10
39.427780499999926
 20
749.90139799999997
 11
39.427780499999926
 21
749.76297
  0
LINE
  8
_0-0_0
  6
CONTINUOUS
 62
    7
 10
39.427780499999926
 20
750.05898999999999
 11
39.427780499999926
 21
749.90139799999997
  0
LINE
  8
_0-0_0
  6
CONTINUOUS
 62
    7
 10
39.427780499999926
 20
750.23400900000001
 11
39.427780499999926
 21
750.05898999999999
  0
LINE
  8
_0-0_0
  6
CONTINUOUS
 62
    7
 10
39.427780499999926
 20
750.42453
 11
39.427780499999926
 21
750.23400900000001
  0
LINE
  8
_0-0_0
  6
CONTINUOUS
 62
    7
 10
39.427780499999926
 20
750.62851000000001
 11
39.427780499999926
 21
750.42453
  0
LINE
  8
_0-0_0
  6
CONTINUOUS
 62
    7
 10
39.427780499999926
 20
750.843658
 11
39.427780499999926
 21
750.62851000000001
  0
LINE
  8
_0-0_0
  6
CONTINUOUS
 62
    7
 10
39.427780499999926
 20
751.06762700000002
 11
39.427780499999926
 21
750.843658
  0
LINE
  8
_0-0_0
  6
CONTINUOUS
 62
    7
 10
39.427780499999926
 20
751.29800399999999
 11
39.427780499999926
 21
751.06762700000002
  0
LINE
  8
_0-0_0
  6
CONTINUOUS
 62
    7
 10
39.427780499999926
 20
751.53222699999992
 11
39.427780499999926
 21
751.29800399999999
  0
LINE
  8
_0-0_0
  6
CONTINUOUS
 62
    7
 10
39.427780499999926
 20
751.76773100000003
 11
39.427780499999926
 21
751.53222699999992
  0
LINE
  8
_0-0_0
  6
CONTINUOUS
 62
    7
 10
39.427780499999926
 20
752.00195299999996
 11
39.427780499999926
 21
751.76773100000003
  0
LINE
  8
_0-0_0
  6
CONTINUOUS
 62
    7
 10
39.427780499999926
 20
752.23233000000005
 11
39.427780499999926
 21
752.00195299999996
  0
LINE
  8
_0-0_0
  6
CONTINUOUS
 62
    7
 10
39.427780499999926
 20
752.45629899999994
 11
39.427780499999926
 21
752.23233000000005
  0
LINE
  8
_0-0_0
  6
CONTINUOUS
 62
    7
 10
39.427780499999926
 20
752.67144800000005
 11
39.427780499999926
 21
752.45629899999994
  0
LINE
  8
_0-0_0
  6
CONTINUOUS
 62
    7
 10
39.427780499999926
 20
752.72869900000001
 11
39.427780499999926
 21
752.67144800000005
  0
LINE
  8
_0-0_0
  6
CONTINUOUS
 62
    7
 10
39.427780499999926
 20
749.40307600000006
 11
39.177780499999926
 21
749.14999399999999
  0
LINE
  8
_0-0_0
  6
CONTINUOUS
 62
    7
 10
39.427780499999926
 20
749.42770399999995
 11
39.177780499999926
 21
749.16369600000007
  0
LINE
  8
_0-0_0
  6
CONTINUOUS
 62
    7
 10
39.427780499999926
 20
749.40307600000006
 11
39.177780499999926
 21
749.16369600000007
  0
LINE
  8
_0-0_0
  6
CONTINUOUS
 62
    7
 10
39.427780499999926
 20
749.47665400000005
 11
39.177780499999926
 21
749.20461999999998
  0
LINE
  8
_0-0_0
  6
CONTINUOUS
 62
    7
 10
39.427780499999926
 20
749.42770399999995
 11
39.177780499999926
 21
749.20461999999998
  0
LINE
  8
_0-0_0
  6
CONTINUOUS
 62
    7
 10
39.427780499999926
 20
749.54943800000001
 11
39.177780499999926
 21
749.27233899999999
  0
LINE
  8
_0-0_0
  6
CONTINUOUS
 62
    7
 10
39.427780499999926
 20
749.47665400000005
 11
39.177780499999926
 21
749.27233899999999
  0
LINE
  8
_0-0_0
  6
CONTINUOUS
 62
    7
 10
39.427780499999926
 20
749.64520300000004
 11
39.177780499999926
 21
749.36611900000003
  0
LINE
  8
_0-0_0
  6
CONTINUOUS
 62
    7
 10
39.427780499999926
 20
749.54943800000001
 11
39.177780499999926
 21
749.36611900000003
  0
LINE
  8
_0-0_0
  6
CONTINUOUS
 62
    7
 10
39.427780499999926
 20
749.64520300000004
 11
39.297820499999943
 21
749.56137100000001
  0
LINE
  8
_0-0_0
  6
CONTINUOUS
 62
    7
 10
39.427780499999926
 20
749.76297
 11
39.177780499999926
 21
749.48492399999998
  0
LINE
  8
_0-0_0
  6
CONTINUOUS
 62
    7
 10
39.297820499999943
 20
749.56137100000001
 11
39.177780499999926
 21
749.48492399999998
  0
LINE
  8
_0-0_0
  6
CONTINUOUS
 62
    7
 10
39.427780499999926
 20
749.90139799999997
 11
39.177780499999926
 21
749.62744099999998
  0
LINE
  8
_0-0_0
  6
CONTINUOUS
 62
    7
 10
39.427780499999926
 20
749.76297
 11
39.177780499999926
 21
749.62744099999998
  0
LINE
  8
_0-0_0
  6
CONTINUOUS
 62
    7
 10
39.427780499999926
 20
750.05898999999999
 11
39.177780499999926
 21
749.79211400000008
  0
LINE
  8
_0-0_0
  6
CONTINUOUS
 62
    7
 10
39.427780499999926
 20
749.90139799999997
 11
39.177780499999926
 21
749.79211400000008
  0
LINE
  8
_0-0_0
  6
CONTINUOUS
 62
    7
 10
39.427780499999926
 20
750.23400900000001
 11
39.177780499999926
 21
749.97717299999999
  0
LINE
  8
_0-0_0
  6
CONTINUOUS
 62
    7
 10
39.427780499999926
 20
750.05898999999999
 11
39.177780499999926
 21
749.97717299999999
  0
LINE
  8
_0-0_0
  6
CONTINUOUS
 62
    7
 10
39.427780499999926
 20
750.42453
 11
39.177780499999926
 21
750.18051100000002
  0
LINE
  8
_0-0_0
  6
CONTINUOUS
 62
    7
 10
39.427780499999926
 20
750.23400900000001
 11
39.177780499999926
 21
750.18051100000002
  0
LINE
  8
_0-0_0
  6
CONTINUOUS
 62
    7
 10
39.427780499999926
 20
750.62851000000001
 11
39.177780499999926
 21
750.39999399999999
  0
LINE
  8
_0-0_0
  6
CONTINUOUS
 62
    7
 10
39.427780499999926
 20
750.42453
 11
39.177780499999926
 21
750.39999399999999
  0
LINE
  8
_0-0_0
  6
CONTINUOUS
 62
    7
 10
39.427780499999926
 20
750.843658
 11
39.177780499999926
 21
750.63314800000001
  0
LINE
  8
_0-0_0
  6
CONTINUOUS
 62
    7
 10
39.427780499999926
 20
750.62851000000001
 11
39.177780499999926
 21
750.63314800000001
  0
LINE
  8
_0-0_0
  6
CONTINUOUS
 62
    7
 10
39.427780499999926
 20
751.06762700000002
 11
39.177780499999926
 21
750.87744099999998
  0
LINE
  8
_0-0_0
  6
CONTINUOUS
 62
    7
 10
39.427780499999926
 20
750.843658
 11
39.177780499999926
 21
750.87744099999998
  0
LINE
  8
_0-0_0
  6
CONTINUOUS
 62
    7
 10
39.427780499999926
 20
751.29800399999999
 11
39.177780499999926
 21
751.13018799999998
  0
LINE
  8
_0-0_0
  6
CONTINUOUS
 62
    7
 10
39.427780499999926
 20
751.06762700000002
 11
39.177780499999926
 21
751.13018799999998
  0
LINE
  8
_0-0_0
  6
CONTINUOUS
 62
    7
 10
39.427780499999926
 20
751.53222699999992
 11
39.177780499999926
 21
751.38867200000004
  0
LINE
  8
_0-0_0
  6
CONTINUOUS
 62
    7
 10
39.427780499999926
 20
751.29800399999999
 11
39.177780499999926
 21
751.38867200000004
  0
LINE
  8
_0-0_0
  6
CONTINUOUS
 62
    7
 10
39.427780499999926
 20
751.76773100000003
 11
39.177780499999926
 21
751.64999399999999
  0
LINE
  8
_0-0_0
  6
CONTINUOUS
 62
    7
 10
39.427780499999926
 20
751.53222699999992
 11
39.177780499999926
 21
751.64999399999999
  0
LINE
  8
_0-0_0
  6
CONTINUOUS
 62
    7
 10
39.427780499999926
 20
752.00195299999996
 11
39.177780499999926
 21
751.91131599999994
  0
LINE
  8
_0-0_0
  6
CONTINUOUS
 62
    7
 10
39.427780499999926
 20
751.76773100000003
 11
39.177780499999926
 21
751.91131599999994
  0
LINE
  8
_0-0_0
  6
CONTINUOUS
 62
    7
 10
39.427780499999926
 20
752.23233000000005
 11
39.177780499999926
 21
752.16976899999997
  0
LINE
  8
_0-0_0
  6
CONTINUOUS
 62
    7
 10
39.427780499999926
 20
752.00195299999996
 11
39.177780499999926
 21
752.16976899999997
  0
LINE
  8
_0-0_0
  6
CONTINUOUS
 62
    7
 10
39.427780499999926
 20
752.45629899999994
 11
39.177780499999926
 21
752.42251599999997
  0
LINE
  8
_0-0_0
  6
CONTINUOUS
 62
    7
 10
39.427780499999926
 20
752.23233000000005
 11
39.177780499999926
 21
752.42251599999997
  0
LINE
  8
_0-0_0
  6
CONTINUOUS
 62
    7
 10
39.427780499999926
 20
752.67144800000005
 11
39.177780499999926
 21
752.66680900000006
  0
LINE
  8
_0-0_0
  6
CONTINUOUS
 62
    7
 10
39.427780499999926
 20
752.45629899999994
 11
39.177780499999926
 21
752.66680900000006
  0
LINE
  8
_0-0_0
  6
CONTINUOUS
 62
    7
 10
39.427780499999926
 20
752.87542699999995
 11
39.427780499999926
 21
752.72869900000001
  0
LINE
  8
_0-0_0
  6
CONTINUOUS
 62
    7
 10
39.427780499999926
 20
752.87542699999995
 11
39.177780499999926
 21
752.89999399999999
  0
LINE
  8
_0-0_0
  6
CONTINUOUS
 62
    7
 10
39.427780499999926
 20
752.67144800000005
 11
39.177780499999926
 21
752.89999399999999
  0
LINE
  8
_0-0_0
  6
CONTINUOUS
 62
    7
 10
39.427780499999926
 20
753.06594799999993
 11
39.427780499999926
 21
752.87542699999995
  0
LINE
  8
_0-0_0
  6
CONTINUOUS
 62
    7
 10
39.427780499999926
 20
753.24096699999996
 11
39.427780499999926
 21
753.06594799999993
  0
LINE
  8
_0-0_0
  6
CONTINUOUS
 62
    7
 10
39.427780499999926
 20
753.39855999999997
 11
39.427780499999926
 21
753.24096699999996
  0
LINE
  8
_0-0_0
  6
CONTINUOUS
 62
    7
 10
39.427780499999926
 20
753.53698699999995
 11
39.427780499999926
 21
753.39855999999997
  0
LINE
  8
_0-0_0
  6
CONTINUOUS
 62
    7
 10
39.427780499999926
 20
753.65475500000002
 11
39.427780499999926
 21
753.53698699999995
  0
LINE
  8
_0-0_0
  6
CONTINUOUS
 62
    7
 10
39.427780499999926
 20
753.75054899999998
 11
39.427780499999926
 21
753.65475500000002
  0
LINE
  8
_0-0_0
  6
CONTINUOUS
 62
    7
 10
39.427780499999926
 20
753.82330300000001
 11
39.427780499999926
 21
753.75054899999998
  0
LINE
  8
_0-0_0
  6
CONTINUOUS
 62
    7
 10
39.427780499999926
 20
753.87228400000004
 11
39.427780499999926
 21
753.82330300000001
  0
LINE
  8
_0-0_0
  6
CONTINUOUS
 62
    7
 10
39.427780499999926
 20
753.89999399999999
 11
39.427780499999926
 21
753.87228400000004
  0
LINE
  8
_0-0_0
  6
CONTINUOUS
 62
    7
 10
39.427780499999926
 20
753.89999399999999
 11
39.427780499999926
 21
753.89691199999993
  0
LINE
  8
_0-0_0
  6
CONTINUOUS
 62
    7
 10
29.677780499999926
 20
749.40307600000006
 11
29.927780499999926
 21
749.14999399999999
  0
LINE
  8
_0-0_0
  6
CONTINUOUS
 62
    7
 10
29.927780499999926
 20
749.14999399999999
 11
39.177780499999926
 21
749.14999399999999
  0
LINE
  8
_0-0_0
  6
CONTINUOUS
 62
    7
 10
29.677780499999926
 20
749.42770399999995
 11
29.927780499999926
 21
749.16369600000007
  0
LINE
  8
_0-0_0
  6
CONTINUOUS
 62
    7
 10
29.927780499999926
 20
749.16369600000007
 11
39.177780499999926
 21
749.16369600000007
  0
LINE
  8
_0-0_0
  6
CONTINUOUS
 62
    7
 10
29.677780499999926
 20
749.40307600000006
 11
29.927780499999926
 21
749.16369600000007
  0
LINE
  8
_0-0_0
  6
CONTINUOUS
 62
    7
 10
29.677780499999926
 20
749.47665400000005
 11
29.927780499999926
 21
749.20461999999998
  0
LINE
  8
_0-0_0
  6
CONTINUOUS
 62
    7
 10
29.927780499999926
 20
749.20461999999998
 11
39.177780499999926
 21
749.20461999999998
  0
LINE
  8
_0-0_0
  6
CONTINUOUS
 62
    7
 10
29.677780499999926
 20
749.42770399999995
 11
29.927780499999926
 21
749.20461999999998
  0
LINE
  8
_0-0_0
  6
CONTINUOUS
 62
    7
 10
29.677780499999926
 20
749.54943800000001
 11
29.927780499999926
 21
749.27233899999999
  0
LINE
  8
_0-0_0
  6
CONTINUOUS
 62
    7
 10
29.927780499999926
 20
749.27233899999999
 11
39.177780499999926
 21
749.27233899999999
  0
LINE
  8
_0-0_0
  6
CONTINUOUS
 62
    7
 10
29.677780499999926
 20
749.47665400000005
 11
29.927780499999926
 21
749.27233899999999
  0
LINE
  8
_0-0_0
  6
CONTINUOUS
 62
    7
 10
29.677780499999926
 20
749.64520300000004
 11
29.927780499999926
 21
749.36611900000003
  0
LINE
  8
_0-0_0
  6
CONTINUOUS
 62
    7
 10
29.927780499999926
 20
749.36611900000003
 11
39.177780499999926
 21
749.36611900000003
  0
LINE
  8
_0-0_0
  6
CONTINUOUS
 62
    7
 10
29.677780499999926
 20
749.54943800000001
 11
29.927780499999926
 21
749.36611900000003
  0
LINE
  8
_0-0_0
  6
CONTINUOUS
 62
    7
 10
29.927780499999926
 20
749.48492399999998
 11
39.177780499999926
 21
749.48492399999998
  0
LINE
  8
_0-0_0
  6
CONTINUOUS
 62
    7
 10
29.807746499999894
 20
749.56137100000001
 11
29.927780499999926
 21
749.48492399999998
  0
LINE
  8
_0-0_0
  6
CONTINUOUS
 62
    7
 10
29.677780499999926
 20
749.64520300000004
 11
29.807746499999894
 21
749.56137100000001
  0
LINE
  8
_0-0_0
  6
CONTINUOUS
 62
    7
 10
29.677780499999926
 20
749.76297
 11
29.927780499999926
 21
749.48492399999998
  0
LINE
  8
_0-0_0
  6
CONTINUOUS
 62
    7
 10
29.677780499999926
 20
749.90139799999997
 11
29.927780499999926
 21
749.62744099999998
  0
LINE
  8
_0-0_0
  6
CONTINUOUS
 62
    7
 10
29.927780499999926
 20
749.62744099999998
 11
39.177780499999926
 21
749.62744099999998
  0
LINE
  8
_0-0_0
  6
CONTINUOUS
 62
    7
 10
29.677780499999926
 20
749.76297
 11
29.927780499999926
 21
749.62744099999998
  0
LINE
  8
_0-0_0
  6
CONTINUOUS
 62
    7
 10
29.677780499999926
 20
750.05898999999999
 11
29.927780499999926
 21
749.79211400000008
  0
LINE
  8
_0-0_0
  6
CONTINUOUS
 62
    7
 10
29.927780499999926
 20
749.79211400000008
 11
39.177780499999926
 21
749.79211400000008
  0
LINE
  8
_0-0_0
  6
CONTINUOUS
 62
    7
 10
29.677780499999926
 20
749.90139799999997
 11
29.927780499999926
 21
749.79211400000008
  0
LINE
  8
_0-0_0
  6
CONTINUOUS
 62
    7
 10
29.677780499999926
 20
750.23400900000001
 11
29.927780499999926
 21
749.97717299999999
  0
LINE
  8
_0-0_0
  6
CONTINUOUS
 62
    7
 10
29.927780499999926
 20
749.97717299999999
 11
39.177780499999926
 21
749.97717299999999
  0
LINE
  8
_0-0_0
  6
CONTINUOUS
 62
    7
 10
29.677780499999926
 20
750.05898999999999
 11
29.927780499999926
 21
749.97717299999999
  0
LINE
  8
_0-0_0
  6
CONTINUOUS
 62
    7
 10
29.677780499999926
 20
750.42453
 11
29.927780499999926
 21
750.18051100000002
  0
LINE
  8
_0-0_0
  6
CONTINUOUS
 62
    7
 10
29.927780499999926
 20
750.18051100000002
 11
39.177780499999926
 21
750.18051100000002
  0
LINE
  8
_0-0_0
  6
CONTINUOUS
 62
    7
 10
29.677780499999926
 20
750.23400900000001
 11
29.927780499999926
 21
750.18051100000002
  0
LINE
  8
_0-0_0
  6
CONTINUOUS
 62
    7
 10
29.677780499999926
 20
750.62851000000001
 11
29.927780499999926
 21
750.39999399999999
  0
LINE
  8
_0-0_0
  6
CONTINUOUS
 62
    7
 10
29.927780499999926
 20
750.39999399999999
 11
39.177780499999926
 21
750.39999399999999
  0
LINE
  8
_0-0_0
  6
CONTINUOUS
 62
    7
 10
29.677780499999926
 20
750.62851000000001
 11
39.427780499999926
 21
750.62851000000001
  0
LINE
  8
_0-0_0
  6
CONTINUOUS
 62
    7
 10
29.677780499999926
 20
750.42453
 11
29.927780499999926
 21
750.39999399999999
  0
LINE
  8
_0-0_0
  6
CONTINUOUS
 62
    7
 10
29.677780499999926
 20
750.843658
 11
29.927780499999926
 21
750.63314800000001
  0
LINE
  8
_0-0_0
  6
CONTINUOUS
 62
    7
 10
29.927780499999926
 20
750.63314800000001
 11
39.177780499999926
 21
750.63314800000001
  0
LINE
  8
_0-0_0
  6
CONTINUOUS
 62
    7
 10
29.677780499999926
 20
750.843658
 11
39.427780499999926
 21
750.843658
  0
LINE
  8
_0-0_0
  6
CONTINUOUS
 62
    7
 10
29.677780499999926
 20
750.62851000000001
 11
29.927780499999926
 21
750.63314800000001
  0
LINE
  8
_0-0_0
  6
CONTINUOUS
 62
    7
 10
29.677780499999926
 20
751.06762700000002
 11
29.927780499999926
 21
750.87744099999998
  0
LINE
  8
_0-0_0
  6
CONTINUOUS
 62
    7
 10
29.927780499999926
 20
750.87744099999998
 11
39.177780499999926
 21
750.87744099999998
  0
LINE
  8
_0-0_0
  6
CONTINUOUS
 62
    7
 10
29.677780499999926
 20
751.06762700000002
 11
39.427780499999926
 21
751.06762700000002
  0
LINE
  8
_0-0_0
  6
CONTINUOUS
 62
    7
 10
29.677780499999926
 20
750.843658
 11
29.927780499999926
 21
750.87744099999998
  0
LINE
  8
_0-0_0
  6
CONTINUOUS
 62
    7
 10
29.677780499999926
 20
751.29800399999999
 11
29.927780499999926
 21
751.13018799999998
  0
LINE
  8
_0-0_0
  6
CONTINUOUS
 62
    7
 10
29.927780499999926
 20
751.13018799999998
 11
39.177780499999926
 21
751.13018799999998
  0
LINE
  8
_0-0_0
  6
CONTINUOUS
 62
    7
 10
29.677780499999926
 20
751.29800399999999
 11
39.427780499999926
 21
751.29800399999999
  0
LINE
  8
_0-0_0
  6
CONTINUOUS
 62
    7
 10
29.677780499999926
 20
751.06762700000002
 11
29.927780499999926
 21
751.13018799999998
  0
LINE
  8
_0-0_0
  6
CONTINUOUS
 62
    7
 10
29.677780499999926
 20
751.53222699999992
 11
29.927780499999926
 21
751.38867200000004
  0
LINE
  8
_0-0_0
  6
CONTINUOUS
 62
    7
 10
29.927780499999926
 20
751.38867200000004
 11
39.177780499999926
 21
751.38867200000004
  0
LINE
  8
_0-0_0
  6
CONTINUOUS
 62
    7
 10
29.677780499999926
 20
751.53222699999992
 11
39.427780499999926
 21
751.53222699999992
  0
LINE
  8
_0-0_0
  6
CONTINUOUS
 62
    7
 10
29.677780499999926
 20
751.29800399999999
 11
29.927780499999926
 21
751.38867200000004
  0
LINE
  8
_0-0_0
  6
CONTINUOUS
 62
    7
 10
29.677780499999926
 20
751.76773100000003
 11
29.927780499999926
 21
751.64999399999999
  0
LINE
  8
_0-0_0
  6
CONTINUOUS
 62
    7
 10
29.927780499999926
 20
751.64999399999999
 11
39.177780499999926
 21
751.64999399999999
  0
LINE
  8
_0-0_0
  6
CONTINUOUS
 62
    7
 10
29.677780499999926
 20
751.76773100000003
 11
39.427780499999926
 21
751.76773100000003
  0
LINE
  8
_0-0_0
  6
CONTINUOUS
 62
    7
 10
29.677780499999926
 20
751.53222699999992
 11
29.927780499999926
 21
751.64999399999999
  0
LINE
  8
_0-0_0
  6
CONTINUOUS
 62
    7
 10
29.677780499999926
 20
752.00195299999996
 11
29.927780499999926
 21
751.91131599999994
  0
LINE
  8
_0-0_0
  6
CONTINUOUS
 62
    7
 10
29.927780499999926
 20
751.91131599999994
 11
39.177780499999926
 21
751.91131599999994
  0
LINE
  8
_0-0_0
  6
CONTINUOUS
 62
    7
 10
29.677780499999926
 20
752.00195299999996
 11
39.427780499999926
 21
752.00195299999996
  0
LINE
  8
_0-0_0
  6
CONTINUOUS
 62
    7
 10
29.677780499999926
 20
751.76773100000003
 11
29.927780499999926
 21
751.91131599999994
  0
LINE
  8
_0-0_0
  6
CONTINUOUS
 62
    7
 10
29.677780499999926
 20
752.23233000000005
 11
29.927780499999926
 21
752.16976899999997
  0
LINE
  8
_0-0_0
  6
CONTINUOUS
 62
    7
 10
29.927780499999926
 20
752.16976899999997
 11
39.177780499999926
 21
752.16976899999997
  0
LINE
  8
_0-0_0
  6
CONTINUOUS
 62
    7
 10
29.677780499999926
 20
752.23233000000005
 11
39.427780499999926
 21
752.23233000000005
  0
LINE
  8
_0-0_0
  6
CONTINUOUS
 62
    7
 10
29.677780499999926
 20
752.00195299999996
 11
29.927780499999926
 21
752.16976899999997
  0
LINE
  8
_0-0_0
  6
CONTINUOUS
 62
    7
 10
29.677780499999926
 20
752.45629899999994
 11
29.927780499999926
 21
752.42251599999997
  0
LINE
  8
_0-0_0
  6
CONTINUOUS
 62
    7
 10
29.927780499999926
 20
752.42251599999997
 11
39.177780499999926
 21
752.42251599999997
  0
LINE
  8
_0-0_0
  6
CONTINUOUS
 62
    7
 10
29.677780499999926
 20
752.45629899999994
 11
39.427780499999926
 21
752.45629899999994
  0
LINE
  8
_0-0_0
  6
CONTINUOUS
 62
    7
 10
29.677780499999926
 20
752.23233000000005
 11
29.927780499999926
 21
752.42251599999997
  0
LINE
  8
_0-0_0
  6
CONTINUOUS
 62
    7
 10
29.677780499999926
 20
752.67144800000005
 11
29.927780499999926
 21
752.66680900000006
  0
LINE
  8
_0-0_0
  6
CONTINUOUS
 62
    7
 10
29.927780499999926
 20
752.66680900000006
 11
39.177780499999926
 21
752.66680900000006
  0
LINE
  8
_0-0_0
  6
CONTINUOUS
 62
    7
 10
29.677780499999926
 20
752.67144800000005
 11
39.427780499999926
 21
752.67144800000005
  0
LINE
  8
_0-0_0
  6
CONTINUOUS
 62
    7
 10
29.677780499999926
 20
752.45629899999994
 11
29.927780499999926
 21
752.66680900000006
  0
LINE
  8
_0-0_0
  6
CONTINUOUS
 62
    7
 10
29.677780499999926
 20
752.87542699999995
 11
29.927780499999926
 21
752.89999399999999
  0
LINE
  8
_0-0_0
  6
CONTINUOUS
 62
    7
 10
29.927780499999926
 20
752.89999399999999
 11
39.177780499999926
 21
752.89999399999999
  0
LINE
  8
_0-0_0
  6
CONTINUOUS
 62
    7
 10
29.677780499999926
 20
752.67144800000005
 11
29.927780499999926
 21
752.89999399999999
  0
LINE
  8
_0-0_0
  6
CONTINUOUS
 62
    7
 10
39.427780499999926
 20
753.06594799999993
 11
39.177780499999926
 21
753.11944599999993
  0
LINE
  8
_0-0_0
  6
CONTINUOUS
 62
    7
 10
39.427780499999926
 20
752.87542699999995
 11
39.177780499999926
 21
753.11944599999993
  0
LINE
  8
_0-0_0
  6
CONTINUOUS
 62
    7
 10
39.427780499999926
 20
753.24096699999996
 11
39.177780499999926
 21
753.32281499999999
  0
LINE
  8
_0-0_0
  6
CONTINUOUS
 62
    7
 10
39.427780499999926
 20
753.06594799999993
 11
39.177780499999926
 21
753.32281499999999
  0
LINE
  8
_0-0_0
  6
CONTINUOUS
 62
    7
 10
39.427780499999926
 20
753.39855999999997
 11
39.177780499999926
 21
753.50784299999998
  0
LINE
  8
_0-0_0
  6
CONTINUOUS
 62
    7
 10
39.427780499999926
 20
753.24096699999996
 11
39.177780499999926
 21
753.50784299999998
  0
LINE
  8
_0-0_0
  6
CONTINUOUS
 62
    7
 10
39.427780499999926
 20
753.53698699999995
 11
39.177780499999926
 21
753.67251599999997
  0
LINE
  8
_0-0_0
  6
CONTINUOUS
 62
    7
 10
39.427780499999926
 20
753.39855999999997
 11
39.177780499999926
 21
753.67251599999997
  0
LINE
  8
_0-0_0
  6
CONTINUOUS
 62
    7
 10
39.427780499999926
 20
753.65475500000002
 11
39.177780499999926
 21
753.81506300000001
  0
LINE
  8
_0-0_0
  6
CONTINUOUS
 62
    7
 10
39.427780499999926
 20
753.53698699999995
 11
39.177780499999926
 21
753.81506300000001
  0
LINE
  8
_0-0_0
  6
CONTINUOUS
 62
    7
 10
39.427780499999926
 20
753.75054899999998
 11
39.177780499999926
 21
753.93383799999992
  0
LINE
  8
_0-0_0
  6
CONTINUOUS
 62
    7
 10
39.427780499999926
 20
753.65475500000002
 11
39.177780499999926
 21
753.93383799999992
  0
LINE
  8
_0-0_0
  6
CONTINUOUS
 62
    7
 10
39.427780499999926
 20
753.82330300000001
 11
39.177780499999926
 21
754.02761800000007
  0
LINE
  8
_0-0_0
  6
CONTINUOUS
 62
    7
 10
39.427780499999926
 20
753.75054899999998
 11
39.177780499999926
 21
754.02761800000007
  0
LINE
  8
_0-0_0
  6
CONTINUOUS
 62
    7
 10
39.427780499999926
 20
753.87228400000004
 11
39.177780499999926
 21
754.09533699999997
  0
LINE
  8
_0-0_0
  6
CONTINUOUS
 62
    7
 10
39.427780499999926
 20
753.82330300000001
 11
39.177780499999926
 21
754.09533699999997
  0
LINE
  8
_0-0_0
  6
CONTINUOUS
 62
    7
 10
39.427780499999926
 20
753.89691199999993
 11
39.177780499999926
 21
754.13629200000003
  0
LINE
  8
_0-0_0
  6
CONTINUOUS
 62
    7
 10
39.427780499999926
 20
753.87228400000004
 11
39.177780499999926
 21
754.13629200000003
  0
LINE
  8
_0-0_0
  6
CONTINUOUS
 62
    7
 10
39.427780499999926
 20
753.89691199999993
 11
39.177780499999926
 21
754.14999399999999
  0
LINE
  8
_0-0_0
  6
CONTINUOUS
 62
    7
 10
29.427780499999926
 20
749.89483599999994
 11
29.427780499999926
 21
749.64999399999999
  0
LINE
  8
_0-0_0
  6
CONTINUOUS
 62
    7
 10
29.677780499999926
 20
752.87542699999995
 11
29.927780499999926
 21
753.11944599999993
  0
LINE
  8
_0-0_0
  6
CONTINUOUS
 62
    7
 10
29.677780499999926
 20
753.06594799999993
 11
29.927780499999926
 21
753.11944599999993
  0
LINE
  8
_0-0_0
  6
CONTINUOUS
 62
    7
 10
29.677780499999926
 20
753.06594799999993
 11
29.927780499999926
 21
753.32281499999999
  0
LINE
  8
_0-0_0
  6
CONTINUOUS
 62
    7
 10
29.677780499999926
 20
753.24096699999996
 11
29.927780499999926
 21
753.32281499999999
  0
LINE
  8
_0-0_0
  6
CONTINUOUS
 62
    7
 10
29.677780499999926
 20
753.24096699999996
 11
29.927780499999926
 21
753.50784299999998
  0
LINE
  8
_0-0_0
  6
CONTINUOUS
 62
    7
 10
29.677780499999926
 20
753.39855999999997
 11
29.927780499999926
 21
753.50784299999998
  0
LINE
  8
_0-0_0
  6
CONTINUOUS
 62
    7
 10
29.677780499999926
 20
753.39855999999997
 11
29.927780499999926
 21
753.67251599999997
  0
LINE
  8
_0-0_0
  6
CONTINUOUS
 62
    7
 10
29.677780499999926
 20
753.53698699999995
 11
29.927780499999926
 21
753.67251599999997
  0
LINE
  8
_0-0_0
  6
CONTINUOUS
 62
    7
 10
29.677780499999926
 20
753.53698699999995
 11
29.927780499999926
 21
753.81506300000001
  0
LINE
  8
_0-0_0
  6
CONTINUOUS
 62
    7
 10
29.677780499999926
 20
753.65475500000002
 11
29.927780499999926
 21
753.81506300000001
  0
LINE
  8
_0-0_0
  6
CONTINUOUS
 62
    7
 10
29.677780499999926
 20
753.65475500000002
 11
29.927780499999926
 21
753.93383799999992
  0
LINE
  8
_0-0_0
  6
CONTINUOUS
 62
    7
 10
29.677780499999926
 20
753.75054899999998
 11
29.927780499999926
 21
753.93383799999992
  0
LINE
  8
_0-0_0
  6
CONTINUOUS
 62
    7
 10
29.677780499999926
 20
753.75054899999998
 11
29.927780499999926
 21
754.02761800000007
  0
LINE
  8
_0-0_0
  6
CONTINUOUS
 62
    7
 10
29.677780499999926
 20
753.82330300000001
 11
29.927780499999926
 21
754.02761800000007
  0
LINE
  8
_0-0_0
  6
CONTINUOUS
 62
    7
 10
29.677780499999926
 20
753.82330300000001
 11
29.927780499999926
 21
754.09533699999997
  0
LINE
  8
_0-0_0
  6
CONTINUOUS
 62
    7
 10
29.677780499999926
 20
753.87228400000004
 11
29.927780499999926
 21
754.09533699999997
  0
LINE
  8
_0-0_0
  6
CONTINUOUS
 62
    7
 10
29.677780499999926
 20
753.87228400000004
 11
29.927780499999926
 21
754.13629200000003
  0
LINE
  8
_0-0_0
  6
CONTINUOUS
 62
    7
 10
29.677780499999926
 20
753.89691199999993
 11
29.927780499999926
 21
754.13629200000003
  0
LINE
  8
_0-0_0
  6
CONTINUOUS
 62
    7
 10
29.677780499999926
 20
753.89691199999993
 11
29.927780499999926
 21
754.14999399999999
  0
LINE
  8
_0-0_0
  6
CONTINUOUS
 62
    7
 10
29.427780499999926
 20
753.64999399999999
 11
29.427780499999926
 21
749.89483599999994
  0
LINE
  8
_0-0_0
  6
CONTINUOUS
 62
    7
 10
29.927780499999926
 20
753.11944599999993
 11
39.177780499999926
 21
753.11944599999993
  0
LINE
  8
_0-0_0
  6
CONTINUOUS
 62
    7
 10
29.927780499999926
 20
753.32281499999999
 11
39.177780499999926
 21
753.32281499999999
  0
LINE
  8
_0-0_0
  6
CONTINUOUS
 62
    7
 10
29.927780499999926
 20
753.50784299999998
 11
39.177780499999926
 21
753.50784299999998
  0
LINE
  8
_0-0_0
  6
CONTINUOUS
 62
    7
 10
29.927780499999926
 20
753.67251599999997
 11
39.177780499999926
 21
753.67251599999997
  0
LINE
  8
_0-0_0
  6
CONTINUOUS
 62
    7
 10
29.927780499999926
 20
753.81506300000001
 11
39.177780499999926
 21
753.81506300000001
  0
LINE
  8
_0-0_0
  6
CONTINUOUS
 62
    7
 10
29.927780499999926
 20
753.93383799999992
 11
39.177780499999926
 21
753.93383799999992
  0
LINE
  8
_0-0_0
  6
CONTINUOUS
 62
    7
 10
29.927780499999926
 20
754.02761800000007
 11
39.177780499999926
 21
754.02761800000007
  0
LINE
  8
_0-0_0
  6
CONTINUOUS
 62
    7
 10
29.927780499999926
 20
754.09533699999997
 11
39.177780499999926
 21
754.09533699999997
  0
LINE
  8
_0-0_0
  6
CONTINUOUS
 62
    7
 10
29.927780499999926
 20
754.13629200000003
 11
39.177780499999926
 21
754.13629200000003
  0
LINE
  8
_0-0_0
  6
CONTINUOUS
 62
    7
 10
29.927780499999926
 20
754.14999399999999
 11
39.177780499999926
 21
754.14999399999999
  0
LINE
  8
_0-0_0
  6
CONTINUOUS
 62
    7
 10
65.427780499999926
 20
770.5
 11
39.427780499999926
 21
770.5
  0
LINE
  8
_0-0_0
  6
CONTINUOUS
 62
    7
 10
65.427780499999926
 20
766
 11
39.427780499999926
 21
766
  0
LINE
  8
_0-0_0
  6
CONTINUOUS
 62
    7
 10
166.42778049999993
 20
753.89999399999999
 11
168.88345349999997
 21
753.89999399999999
  0
LINE
  8
_0-0_0
  6
CONTINUOUS
 62
    7
 10
168.38236949999998
 20
749.39999399999999
 11
168.88345349999997
 21
749.39999399999999
  0
LINE
  8
_0-0_0
  6
CONTINUOUS
 62
    7
 10
39.427780499999926
 20
770.5
 11
39.177780499999926
 21
770.75
  0
LINE
  8
_0-0_0
  6
CONTINUOUS
 62
    7
 10
39.427780499999926
 20
766
 11
39.177780499999926
 21
765.75
  0
LINE
  8
_0-0_0
  6
CONTINUOUS
 62
    7
 10
169.02778649999993
 20
753.64999399999999
 11
168.88345349999997
 21
753.89999399999999
  0
LINE
  8
_0-0_0
  6
CONTINUOUS
 62
    7
 10
169.02778649999993
 20
749.64999399999999
 11
168.88345349999997
 21
749.39999399999999
  0
LINE
  8
_0-0_0
  6
CONTINUOUS
 62
    7
 10
43.427780499999926
 20
754.69998199999998
 11
44.677780499999926
 21
753.44998199999998
  0
LINE
  8
_0-0_0
  6
CONTINUOUS
 62
    7
 10
43.427780499999926
 20
765.19998199999998
 11
44.227775500000007
 21
765.99996899999996
  0
LINE
  8
_0-0_0
  6
CONTINUOUS
 62
    7
 10
29.427780499999926
 20
770.25
 11
29.927627499999971
 21
770.74981700000001
  0
LINE
  8
_0-0_0
  6
CONTINUOUS
 62
    7
 10
29.427780499999926
 20
766.25
 11
29.927627499999971
 21
765.75015299999995
  0
LINE
  8
_0-0_0
  6
CONTINUOUS
 62
    7
 10
43.427780499999926
 20
764.94998199999998
 11
43.027778499999954
 21
764.94998199999998
  0
LINE
  8
_0-0_0
  6
CONTINUOUS
 62
    7
 10
43.427780499999926
 20
754.94998199999998
 11
43.027778499999954
 21
754.94998199999998
  0
LINE
  8
_0-0_0
  6
CONTINUOUS
 62
    7
 10
42.227783499999987
 20
764.48809800000004
 11
43.027778499999954
 21
764.94998199999998
  0
LINE
  8
_0-0_0
  6
CONTINUOUS
 62
    7
 10
42.227783499999987
 20
755.41186500000003
 11
43.027778499999954
 21
754.94998199999998
  0
LINE
  8
_0-0_0
  6
CONTINUOUS
 62
    7
 10
42.227783499999987
 20
763.94998199999998
 11
-15.772216500000013
 21
763.94998199999998
  0
LINE
  8
_0-0_0
  6
CONTINUOUS
 62
    7
 10
42.227783499999987
 20
755.94998199999998
 11
-15.772216500000013
 21
755.94998199999998
  0
LINE
  8
_0-0_0
  6
CONTINUOUS
 62
    7
 10
59.677749500000004
 20
749.39999399999999
 11
39.427780499999926
 21
749.39999399999999
  0
LINE
  8
_0-0_0
  6
CONTINUOUS
 62
    7
 10
39.427780499999926
 20
749.39999399999999
 11
39.177780499999926
 21
749.14999399999999
  0
LINE
  8
_0-0_0
  6
CONTINUOUS
 62
    7
 10
44.227775500000007
 20
753.89999399999999
 11
39.427780499999926
 21
753.89999399999999
  0
LINE
  8
_0-0_0
  6
CONTINUOUS
 62
    7
 10
39.427780499999926
 20
753.89999399999999
 11
39.177780499999926
 21
754.14999399999999
  0
LINE
  8
_0-0_0
  6
CONTINUOUS
 62
    7
 10
29.427780499999926
 20
749.64999399999999
 11
29.927627499999971
 21
749.15014599999995
  0
LINE
  8
_0-0_0
  6
CONTINUOUS
 62
    7
 10
29.427780499999926
 20
753.64999399999999
 11
29.927627499999971
 21
754.14984099999992
  0
LINE
  8
_0-0_0
  6
CONTINUOUS
 62
    7
 10
-48.683212500000081
 20
780.14999399999999
 11
-48.583221500000036
 21
780.14999399999999
  0
LINE
  8
_0-0_0
  6
CONTINUOUS
 62
    7
 10
-48.583221500000036
 20
779.88034100000004
 11
-48.583221500000036
 21
780.14999399999999
  0
LINE
  8
_0-0_0
  6
CONTINUOUS
 62
    7
 10
-48.683212500000081
 20
780.25
 11
-48.683212500000081
 21
780.75
  0
LINE
  8
_0-0_0
  6
CONTINUOUS
 62
    7
 10
-48.683212500000081
 20
780.25
 11
-48.683212500000081
 21
776.25
  0
LINE
  8
_0-0_0
  6
CONTINUOUS
 62
    7
 10
-48.683212500000081
 20
775.75
 11
-48.683212500000081
 21
776.25
  0
LINE
  8
_0-0_0
  6
CONTINUOUS
 62
    7
 10
-48.583221500000036
 20
779.88034100000004
 11
-48.583221500000036
 21
776.38034100000004
  0
LINE
  8
_0-0_0
  6
CONTINUOUS
 62
    7
 10
-48.583221500000036
 20
776.25
 11
-48.583221500000036
 21
776.38034100000004
  0
LINE
  8
_0-0_0
  6
CONTINUOUS
 62
    7
 10
-48.783218499999975
 20
780.75
 11
-48.683212500000081
 21
780.75
  0
LINE
  8
_0-0_0
  6
CONTINUOUS
 62
    7
 10
-48.783218499999975
 20
775.75
 11
-48.683212500000081
 21
775.75
  0
ARC
  8
_0-0_0
  6
CONTINUOUS
 62
    7
 10
-48.283218499999975
 20
780.75
 40
0.5
 50
90.000003000000007
 51
179.99999099999999
  0
LINE
  8
_0-0_0
  6
CONTINUOUS
 62
    7
 10
-48.783218499999975
 20
780.75
 11
-48.783218499999975
 21
775.75
  0
ARC
  8
_0-0_0
  6
CONTINUOUS
 62
    7
 10
-49.283218499999975
 20
775.75
 40
0.5
 50
269.99999700000001
 51
0
  0
LINE
  8
_0-0_0
  6
CONTINUOUS
 62
    7
 10
-43.883224500000097
 20
789.14999399999999
 11
-44.083221500000036
 21
789.14999399999999
  0
LINE
  8
_0-0_0
  6
CONTINUOUS
 62
    7
 10
-44.083221500000036
 20
802.14999399999999
 11
-44.083221500000036
 21
789.14999399999999
  0
LINE
  8
_0-0_0
  6
CONTINUOUS
 62
    7
 10
-43.883224500000097
 20
802.14999399999999
 11
-44.083221500000036
 21
802.14999399999999
  0
LINE
  8
_0-0_0
  6
CONTINUOUS
 62
    7
 10
-43.883224500000097
 20
802.14999399999999
 11
-43.883224500000097
 21
820.75
  0
LINE
  8
_0-0_0
  6
CONTINUOUS
 62
    7
 10
-43.783218499999975
 20
820.75
 11
-43.883224500000097
 21
820.75
  0
LINE
  8
_0-0_0
  6
CONTINUOUS
 62
    7
 10
-43.783218499999975
 20
823.25
 11
-43.783218499999975
 21
820.75
  0
ARC
  8
_0-0_0
  6
CONTINUOUS
 62
    7
 10
-44.283218499999975
 20
823.25
 40
0.5
 50
0
 51
90.000003000000007
  0
LINE
  8
_0-0_0
  6
CONTINUOUS
 62
    7
 10
-44.283218499999975
 20
823.75
 11
-47.283218499999975
 21
823.75
  0
ARC
  8
_0-0_0
  6
CONTINUOUS
 62
    7
 10
-47.283218499999975
 20
823.25
 40
0.5
 50
90.000003000000007
 51
179.99999099999999
  0
ARC
  8
_0-0_0
  6
CONTINUOUS
 62
    7
 10
-51.783218499999975
 20
775.75
 40
0.5
 50
179.99999099999999
 51
269.99999700000001
  0
LINE
  8
_0-0_0
  6
CONTINUOUS
 62
    7
 10
-49.283218499999975
 20
775.25
 11
-51.783218499999975
 21
775.25
  0
LINE
  8
_0-0_0
  6
CONTINUOUS
 62
    7
 10
-44.283218499999975
 20
781.25
 11
-48.283218499999975
 21
781.25
  0
ARC
  8
_0-0_0
  6
CONTINUOUS
 62
    7
 10
-44.283218499999975
 20
781.75
 40
0.5
 50
269.99999700000001
 51
0
  0
LINE
  8
_0-0_0
  6
CONTINUOUS
 62
    7
 10
-43.783218499999975
 20
784.94998199999998
 11
-43.783218499999975
 21
781.75
  0
LINE
  8
_0-0_0
  6
CONTINUOUS
 62
    7
 10
-43.883224500000097
 20
784.94998199999998
 11
-43.783218499999975
 21
784.94998199999998
  0
LINE
  8
_0-0_0
  6
CONTINUOUS
 62
    7
 10
-43.883224500000097
 20
784.94998199999998
 11
-43.883224500000097
 21
789.14999399999999
  0
LINE
  8
_0-0_0
  6
CONTINUOUS
 62
    7
 10
-44.783218499999975
 20
823.25
 11
-62.583221500000036
 21
823.25
  0
ARC
  8
_0-0_0
  6
CONTINUOUS
 62
    7
 10
-44.783218499999975
 20
822.75
 40
0.5
 50
0
 51
90.000003000000007
  0
LINE
  8
_0-0_0
  6
CONTINUOUS
 62
    7
 10
-44.283218499999975
 20
822.75
 11
-44.283218499999975
 21
782.25
  0
ARC
  8
_0-0_0
  6
CONTINUOUS
 62
    7
 10
-44.783218499999975
 20
782.25
 40
0.5
 50
269.99999700000001
 51
0
  0
LINE
  8
_0-0_0
  6
CONTINUOUS
 62
    7
 10
-48.283218499999975
 20
781.75
 11
-44.783218499999975
 21
781.75
  0
ARC
  8
_0-0_0
  6
CONTINUOUS
 62
    7
 10
-48.283218499999975
 20
780.75
 40
1
 50
90.000003000000007
 51
179.99999099999999
  0
LINE
  8
_0-0_0
  6
CONTINUOUS
 62
    7
 10
-49.283218499999975
 20
780.75
 11
-49.283218499999975
 21
776.25
  0
ARC
  8
_0-0_0
  6
CONTINUOUS
 62
    7
 10
-49.783218499999975
 20
776.25
 40
0.5
 50
269.99999700000001
 51
0
  0
LINE
  8
_0-0_0
  6
CONTINUOUS
 62
    7
 10
-66.783218499999975
 20
775.75
 11
-49.783218499999975
 21
775.75
  0
LINE
  8
_0-0_0
  6
CONTINUOUS
 62
    7
 10
-48.283218499999975
 20
823.44998199999998
 11
-48.283218499999975
 21
823.25
  0
ARC
  8
_0-0_0
  6
CONTINUOUS
 62
    7
 10
-48.583221500000036
 20
823.44998199999998
 40
0.2999999999999999
 50
0
 51
90.000003000000007
  0
LINE
  8
_0-0_0
  6
CONTINUOUS
 62
    7
 10
-48.583221500000036
 20
823.75
 11
-63.283218499999975
 21
823.75
  0
ARC
  8
_0-0_0
  6
CONTINUOUS
 62
    7
 10
-63.283218499999975
 20
823.44998199999998
 40
0.2999999999999999
 50
90.000003000000007
 51
179.99999099999999
  0
LINE
  8
_0-0_0
  6
CONTINUOUS
 62
    7
 10
-63.583221500000036
 20
823.44998199999998
 11
-63.583221500000036
 21
820.25
  0
LINE
  8
_0-0_0
  6
CONTINUOUS
 62
    7
 10
-63.583221500000036
 20
820.25
 11
-69.283218499999975
 21
820.25
  0
LINE
  8
_0-0_0
  6
CONTINUOUS
 62
    7
 10
-69.283218499999975
 20
820.25
 11
-70.083221500000036
 21
819.44998199999998
  0
ARC
  8
_0-0_0
  6
CONTINUOUS
 62
    7
 10
-62.583221500000036
 20
822.75
 40
0.5
 50
90.000003000000007
 51
179.99999099999999
  0
LINE
  8
_0-0_0
  6
CONTINUOUS
 62
    7
 10
-63.083221500000036
 20
822.75
 11
-63.083221500000036
 21
819.94998199999998
  0
ARC
  8
_0-0_0
  6
CONTINUOUS
 62
    7
 10
-63.583221500000036
 20
819.94998199999998
 40
0.5
 50
269.99999700000001
 51
0
  0
LINE
  8
_0-0_0
  6
CONTINUOUS
 62
    7
 10
-63.583221500000036
 20
819.44998199999998
 11
-71.783218499999975
 21
819.44998199999998
  0
ARC
  8
_0-0_0
  6
CONTINUOUS
 62
    7
 10
-71.783218499999975
 20
818.94998199999998
 40
0.5
 50
90.000003000000007
 51
179.99999099999999
  0
LINE
  8
_0-0_0
  6
CONTINUOUS
 62
    7
 10
-72.283218499999975
 20
782.25
 11
-72.283218499999975
 21
818.94998199999998
  0
ARC
  8
_0-0_0
  6
CONTINUOUS
 62
    7
 10
-71.783218499999975
 20
782.25
 40
0.5
 50
179.99999099999999
 51
269.99999700000001
  0
LINE
  8
_0-0_0
  6
CONTINUOUS
 62
    7
 10
-71.783218499999975
 20
781.75
 11
-68.283218499999975
 21
781.75
  0
ARC
  8
_0-0_0
  6
CONTINUOUS
 62
    7
 10
-68.283218499999975
 20
780.75
 40
1
 50
0
 51
90.000003000000007
  0
LINE
  8
_0-0_0
  6
CONTINUOUS
 62
    7
 10
-67.283218499999975
 20
776.25
 11
-67.283218499999975
 21
780.75
  0
ARC
  8
_0-0_0
  6
CONTINUOUS
 62
    7
 10
-66.783218499999975
 20
776.25
 40
0.5
 50
179.99999099999999
 51
269.99999700000001
  0
CIRCLE
  8
_0-0_0
  6
CONTINUOUS
 62
    7
 10
-58.283218499999975
 20
784.75
 40
2.0670000000000002
  0
LINE
  8
_0-0_0
  6
CONTINUOUS
 62
    7
 10
-70.283218499999975
 20
819.75
 11
-70.283218499999975
 21
819.44998199999998
  0
LINE
  8
_0-0_0
  6
CONTINUOUS
 62
    7
 10
-70.283218499999975
 20
819.75
 11
-72.283218499999975
 21
819.75
  0
ARC
  8
_0-0_0
  6
CONTINUOUS
 62
    7
 10
-72.283218499999975
 20
819.25
 40
0.5
 50
90.000003000000007
 51
179.99999099999999
  0
LINE
  8
_0-0_0
  6
CONTINUOUS
 62
    7
 10
-72.783218499999975
 20
819.25
 11
-72.783218499999975
 21
781.75
  0
ARC
  8
_0-0_0
  6
CONTINUOUS
 62
    7
 10
-72.283218499999975
 20
781.75
 40
0.5
 50
179.99999099999999
 51
269.99999700000001
  0
LINE
  8
_0-0_0
  6
CONTINUOUS
 62
    7
 10
-68.283218499999975
 20
781.25
 11
-72.283218499999975
 21
781.25
  0
ARC
  8
_0-0_0
  6
CONTINUOUS
 62
    7
 10
-68.283218499999975
 20
780.75
 40
0.5
 50
0
 51
90.000003000000007
  0
LINE
  8
_0-0_0
  6
CONTINUOUS
 62
    7
 10
-67.783218499999975
 20
775.75
 11
-67.783218499999975
 21
780.75
  0
ARC
  8
_0-0_0
  6
CONTINUOUS
 62
    7
 10
-67.283218499999975
 20
775.75
 40
0.5
 50
179.99999099999999
 51
269.99999700000001
  0
LINE
  8
_0-0_0
  6
CONTINUOUS
 62
    7
 10
-67.283218499999975
 20
775.25
 11
-64.783218499999975
 21
775.25
  0
ARC
  8
_0-0_0
  6
CONTINUOUS
 62
    7
 10
-64.783218499999975
 20
775.75
 40
0.5
 50
269.99999700000001
 51
0
  0
LINE
  8
_0-0_0
  6
CONTINUOUS
 62
    7
 10
-48.683212500000081
 20
776.25
 11
-48.583221500000036
 21
776.25
  0
LINE
  8
_0-0_0
  6
CONTINUOUS
 62
    7
 10
-48.683212500000081
 20
776.25
 11
-48.583221500000036
 21
776.25
  0
LINE
  8
_0-0_0
  6
CONTINUOUS
 62
    7
 10
-67.083221500000036
 20
773.25
 11
-62.883224500000097
 21
773.25
  0
LINE
  8
_0-0_0
  6
CONTINUOUS
 62
    7
 10
-51.283218499999975
 20
773.25
 11
-53.683212500000081
 21
773.25
  0
LINE
  8
_0-0_0
  6
CONTINUOUS
 62
    7
 10
-51.283218499999975
 20
773.25
 11
-50.083221500000036
 21
773.25
  0
ARC
  8
_0-0_0
  6
CONTINUOUS
 62
    7
 10
-50.083221500000036
 20
772.75
 40
0.5
 50
0
 51
90.000003000000007
  0
ARC
  8
_0-0_0
  6
CONTINUOUS
 62
    7
 10
-51.283218499999975
 20
772.75
 40
0.5
 50
90.000003000000007
 51
179.99999099999999
  0
ARC
  8
_0-0_0
  6
CONTINUOUS
 62
    7
 10
-53.683212500000081
 20
773.75
 40
0.5
 50
179.99999099999999
 51
269.99999700000001
  0
ARC
  8
_0-0_0
  6
CONTINUOUS
 62
    7
 10
-62.883224500000097
 20
773.75
 40
0.5
 50
269.99999700000001
 51
0
  0
ARC
  8
_0-0_0
  6
CONTINUOUS
 62
    7
 10
-67.083221500000036
 20
772.75
 40
0.5
 50
90.000003000000007
 51
179.99999099999999
  0
LINE
  8
_0-0_0
  6
CONTINUOUS
 62
    7
 10
-66.083221500000036
 20
773.75
 11
-66.083221500000036
 21
773.25
  0
ARC
  8
_0-0_0
  6
CONTINUOUS
 62
    7
 10
-65.583221500000036
 20
773.75
 40
0.5
 50
90.000003000000007
 51
179.99999099999999
  0
LINE
  8
_0-0_0
  6
CONTINUOUS
 62
    7
 10
-64.083221500000036
 20
774.25
 11
-65.583221500000036
 21
774.25
  0
ARC
  8
_0-0_0
  6
CONTINUOUS
 62
    7
 10
-64.083221500000036
 20
775.25
 40
1
 50
269.99999700000001
 51
0
  0
LINE
  8
_0-0_0
  6
CONTINUOUS
 62
    7
 10
-63.083221500000036
 20
775.75
 11
-63.083221500000036
 21
775.25
  0
LINE
  8
_0-0_0
  6
CONTINUOUS
 62
    7
 10
-62.583221500000036
 20
775.75
 11
-62.583221500000036
 21
774.75
  0
ARC
  8
_0-0_0
  6
CONTINUOUS
 62
    7
 10
-64.083221500000036
 20
774.75
 40
1.5
 50
269.99999700000001
 51
0
  0
ARC
  8
_0-0_0
  6
CONTINUOUS
 62
    7
 10
-52.483215500000028
 20
774.75
 40
1.5
 50
179.99999099999999
 51
269.99999700000001
  0
LINE
  8
_0-0_0
  6
CONTINUOUS
 62
    7
 10
-50.483215500000028
 20
773.75
 11
-50.483215500000028
 21
773.25
  0
ARC
  8
_0-0_0
  6
CONTINUOUS
 62
    7
 10
-50.983215500000028
 20
773.75
 40
0.5
 50
0
 51
90.000003000000007
  0
LINE
  8
_0-0_0
  6
CONTINUOUS
 62
    7
 10
-52.483215500000028
 20
774.25
 11
-50.983215500000028
 21
774.25
  0
ARC
  8
_0-0_0
  6
CONTINUOUS
 62
    7
 10
-52.483215500000028
 20
775.25
 40
1
 50
179.99999099999999
 51
269.99999700000001
  0
LINE
  8
_0-0_0
  6
CONTINUOUS
 62
    7
 10
-53.483215500000028
 20
775.75
 11
-53.483215500000028
 21
775.25
  0
LINE
  8
_0-0_0
  6
CONTINUOUS
 62
    7
 10
-53.983215500000028
 20
775.75
 11
-53.983215500000028
 21
774.75
  0
LINE
  8
_0-0_0
  6
CONTINUOUS
 62
    7
 10
-49.583221500000036
 20
746.25
 11
-49.583221500000036
 21
747.14999399999999
  0
LINE
  8
_0-0_0
  6
CONTINUOUS
 62
    7
 10
-49.583221500000036
 20
747.14999399999999
 11
-49.583221500000036
 21
749.64999399999999
  0
LINE
  8
_0-0_0
  6
CONTINUOUS
 62
    7
 10
-49.583221500000036
 20
749.64999399999999
 11
-49.583221500000036
 21
770.25
  0
LINE
  8
_0-0_0
  6
CONTINUOUS
 62
    7
 10
-49.583221500000036
 20
770.25
 11
-49.583221500000036
 21
772.75
  0
LINE
  8
_0-0_0
  6
CONTINUOUS
 62
    7
 10
-51.783218499999975
 20
772.75
 11
-51.783218499999975
 21
771.50497399999995
  0
LINE
  8
_0-0_0
  6
CONTINUOUS
 62
    7
 10
-54.183212500000081
 20
773.75
 11
-54.183212500000081
 21
775.54998799999998
  0
ARC
  8
_0-0_0
  6
CONTINUOUS
 62
    7
 10
-54.683212500000081
 20
775.54998799999998
 40
0.5
 50
0
 51
23.579369
  0
LINE
  8
_0-0_0
  6
CONTINUOUS
 62
    7
 10
-62.383224500000097
 20
773.75
 11
-62.383224500000097
 21
775.54998799999998
  0
ARC
  8
_0-0_0
  6
CONTINUOUS
 62
    7
 10
-61.883224500000097
 20
775.54998799999998
 40
0.5
 50
156.420635
 51
179.99999099999999
  0
LINE
  8
_0-0_0
  6
CONTINUOUS
 62
    7
 10
-67.583221500000036
 20
746.25
 11
-67.583221500000036
 21
756.44998199999998
  0
LINE
  8
_0-0_0
  6
CONTINUOUS
 62
    7
 10
-67.583221500000036
 20
756.44998199999998
 11
-67.583221500000036
 21
757.44998199999998
  0
LINE
  8
_0-0_0
  6
CONTINUOUS
 62
    7
 10
-67.583221500000036
 20
757.44998199999998
 11
-67.583221500000036
 21
762.44998199999998
  0
LINE
  8
_0-0_0
  6
CONTINUOUS
 62
    7
 10
-67.583221500000036
 20
762.44998199999998
 11
-67.583221500000036
 21
763.44998199999998
  0
LINE
  8
_0-0_0
  6
CONTINUOUS
 62
    7
 10
-67.583221500000036
 20
772.75
 11
-67.583221500000036
 21
763.44998199999998
  0
LINE
  8
_0-0_0
  6
CONTINUOUS
 62
    7
 10
-48.783218499999975
 20
771.75
 11
-49.583221500000036
 21
771.75
  0
LINE
  8
_0-0_0
  6
CONTINUOUS
 62
    7
 10
-48.783218499999975
 20
772.54998799999998
 11
-49.583221500000036
 21
772.54998799999998
  0
LINE
  8
_0-0_0
  6
CONTINUOUS
 62
    7
 10
-48.783218499999975
 20
771.54998799999998
 11
-48.783218499999975
 21
772.54998799999998
  0
LINE
  8
_0-0_0
  6
CONTINUOUS
 62
    7
 10
-48.783218499999975
 20
752.94998199999998
 11
-49.583221500000036
 21
752.94998199999998
  0
LINE
  8
_0-0_0
  6
CONTINUOUS
 62
    7
 10
-48.783218499999975
 20
752.94998199999998
 11
-48.783218499999975
 21
755.94998199999998
  0
LINE
  8
_0-0_0
  6
CONTINUOUS
 62
    7
 10
-48.783218499999975
 20
768.18768299999999
 11
-48.783218499999975
 21
755.94998199999998
  0
LINE
  8
_0-0_0
  6
CONTINUOUS
 62
    7
 10
-48.783218499999975
 20
768.18768299999999
 11
-48.783218499999975
 21
769.15045199999997
  0
LINE
  8
_0-0_0
  6
CONTINUOUS
 62
    7
 10
-49.583221500000036
 20
769.15045199999997
 11
-49.583221500000036
 21
771.75
  0
ARC
  8
_0-0_0
  6
CONTINUOUS
 62
    7
 10
-55.198135500000035
 20
768.43203700000004
 40
5.7120379999999997
 50
18.558475999999999
 51
26.433648000000002
  0
ARC
  8
_0-0_0
  6
CONTINUOUS
 62
    7
 10
-49.783218499999975
 20
770.25
 40
0.2
 50
269.99999700000001
 51
0
  0
ARC
  8
_0-0_0
  6
CONTINUOUS
 62
    7
 10
-49.783218499999975
 20
749.64999399999999
 40
0.2
 50
0
 51
90.000003000000007
  0
ARC
  8
_0-0_0
  6
CONTINUOUS
 62
    7
 10
-55.198028500000078
 20
751.46801800000003
 40
5.711964
 50
333.565022
 51
341.44031000000001
  0
ARC
  8
_0-0_0
  6
CONTINUOUS
 62
    7
 10
-50.083221500000036
 20
747.14999399999999
 40
0.5
 50
269.99999700000001
 51
0
  0
LINE
  8
_0-0_0
  6
CONTINUOUS
 62
    7
 10
-50.083221500000036
 20
746.25
 11
-49.583221500000036
 21
746.25
  0
LINE
  8
_0-0_0
  6
CONTINUOUS
 62
    7
 10
-49.583221500000036
 20
746.25
 11
-50.083221500000036
 21
745.75
  0
ARC
  8
_0-0_0
  6
CONTINUOUS
 62
    7
 10
-51.783218499999975
 20
768.75
 40
2.2999999999999998
 50
34.417387999999995
 51
79.713437000000013
  0
LINE
  8
_0-0_0
  6
CONTINUOUS
 62
    7
 10
-49.844528500000024
 20
770.04998799999998
 11
-49.885849500000063
 21
770.04998799999998
  0
LINE
  8
_0-0_0
  6
CONTINUOUS
 62
    7
 10
-49.844528500000024
 20
770.04998799999998
 11
-49.834976500000039
 21
770.05102499999998
  0
LINE
  8
_0-0_0
  6
CONTINUOUS
 62
    7
 10
-49.834976500000039
 20
770.05102499999998
 11
-49.825485500000013
 21
770.05419899999993
  0
LINE
  8
_0-0_0
  6
CONTINUOUS
 62
    7
 10
-49.825485500000013
 20
770.05419899999993
 11
-49.816238500000054
 21
770.05960099999993
  0
LINE
  8
_0-0_0
  6
CONTINUOUS
 62
    7
 10
-49.816238500000054
 20
770.05960099999993
 11
-49.807434499999999
 21
770.06710799999996
  0
LINE
  8
_0-0_0
  6
CONTINUOUS
 62
    7
 10
-49.807434499999999
 20
770.06710799999996
 11
-49.79203849999999
 21
770.08776899999998
  0
LINE
  8
_0-0_0
  6
CONTINUOUS
 62
    7
 10
-49.79203849999999
 20
770.08776899999998
 11
-49.780258500000059
 21
770.11502100000007
  0
LINE
  8
_0-0_0
  6
CONTINUOUS
 62
    7
 10
-49.780258500000059
 20
770.11502100000007
 11
-49.773071500000015
 21
770.147156
  0
LINE
  8
_0-0_0
  6
CONTINUOUS
 62
    7
 10
-49.773071500000015
 20
770.147156
 11
-49.771179500000017
 21
770.18221999999992
  0
LINE
  8
_0-0_0
  6
CONTINUOUS
 62
    7
 10
-49.771179500000017
 20
770.18221999999992
 11
-49.775039500000048
 21
770.21838400000001
  0
LINE
  8
_0-0_0
  6
CONTINUOUS
 62
    7
 10
-49.775039500000048
 20
770.21838400000001
 11
-49.783218499999975
 21
770.25
  0
ARC
  8
_0-0_0
  6
CONTINUOUS
 62
    7
 10
-51.283218499999975
 20
771.50497399999995
 40
0.5
 50
179.99999099999999
 51
259.71343899999994
  0
LINE
  8
_0-0_0
  6
CONTINUOUS
 62
    7
 10
-66.783218499999975
 20
768.75
 11
-66.783218499999975
 21
755.14999399999999
  0
LINE
  8
_0-0_0
  6
CONTINUOUS
 62
    7
 10
-66.783218499999975
 20
754.64999399999999
 11
-66.783218499999975
 21
755.14999399999999
  0
LINE
  8
_0-0_0
  6
CONTINUOUS
 62
    7
 10
-66.783218499999975
 20
751.64999399999999
 11
-66.783218499999975
 21
754.64999399999999
  0
LINE
  8
_0-0_0
  6
CONTINUOUS
 62
    7
 10
-66.783218499999975
 20
751.14999399999999
 11
-66.783218499999975
 21
751.64999399999999
  0
ARC
  8
_0-0_0
  6
CONTINUOUS
 62
    7
 10
-64.783218499999975
 20
768.75
 40
2
 50
93.840255999999997
 51
179.99999099999999
  0
LINE
  8
_0-0_0
  6
CONTINUOUS
 62
    7
 10
-64.783218499999975
 20
770.75
 11
-55.783218499999975
 21
770.75
  0
LINE
  8
_0-0_0
  6
CONTINUOUS
 62
    7
 10
-51.783218499999975
 20
770.75
 11
-52.283218499999975
 21
770.75
  0
LINE
  8
_0-0_0
  6
CONTINUOUS
 62
    7
 10
-52.283218499999975
 20
770.75
 11
-55.283218499999975
 21
770.75
  0
LINE
  8
_0-0_0
  6
CONTINUOUS
 62
    7
 10
-55.783218499999975
 20
770.75
 11
-55.283218499999975
 21
770.75
  0
ARC
  8
_0-0_0
  6
CONTINUOUS
 62
    7
 10
-51.783218499999975
 20
768.75
 40
2
 50
0
 51
90.000003000000007
  0
LINE
  8
_0-0_0
  6
CONTINUOUS
 62
    7
 10
-67.783218499999975
 20
771.75
 11
-67.583221500000036
 21
771.75
  0
LINE
  8
_0-0_0
  6
CONTINUOUS
 62
    7
 10
-67.783218499999975
 20
772.54998799999998
 11
-67.583221500000036
 21
772.54998799999998
  0
LINE
  8
_0-0_0
  6
CONTINUOUS
 62
    7
 10
-67.783218499999975
 20
772.54998799999998
 11
-67.783218499999975
 21
771.75012199999992
  0
LINE
  8
_0-0_0
  6
CONTINUOUS
 62
    7
 10
-67.783218499999975
 20
752.94998199999998
 11
-67.583221500000036
 21
752.94998199999998
  0
LINE
  8
_0-0_0
  6
CONTINUOUS
 62
    7
 10
-67.783218499999975
 20
755.94998199999998
 11
-67.783218499999975
 21
752.94998199999998
  0
LINE
  8
_0-0_0
  6
CONTINUOUS
 62
    7
 10
-67.783218499999975
 20
768.18768299999999
 11
-67.783218499999975
 21
755.94998199999998
  0
LINE
  8
_0-0_0
  6
CONTINUOUS
 62
    7
 10
-67.783218499999975
 20
769.15045199999997
 11
-67.783218499999975
 21
768.18768299999999
  0
ARC
  8
_0-0_0
  6
CONTINUOUS
 62
    7
 10
-67.083221500000036
 20
762.44998199999998
 40
0.5
 50
90.000003000000007
 51
179.99999099999999
  0
ARC
  8
_0-0_0
  6
CONTINUOUS
 62
    7
 10
-67.083221500000036
 20
757.44998199999998
 40
0.5
 50
179.99999099999999
 51
269.99999700000001
  0
LINE
  8
_0-0_0
  6
CONTINUOUS
 62
    7
 10
-67.583221500000036
 20
746.25
 11
-67.083221500000036
 21
746.25
  0
LINE
  8
_0-0_0
  6
CONTINUOUS
 62
    7
 10
-67.583221500000036
 20
746.25
 11
-67.083221500000036
 21
745.75
  0
LINE
  8
_0-0_0
  6
CONTINUOUS
 62
    7
 10
-49.583221500000036
 20
752.95001200000002
 11
-49.583221500000036
 21
751.79998799999998
  0
ARC
  8
_0-0_0
  6
CONTINUOUS
 62
    7
 10
-51.983215500000028
 20
751.79998799999998
 40
2.3999999999999999
 50
359.58604600000001
 51
0.0000099999999787
  0
LINE
  8
_0-0_0
  6
CONTINUOUS
 62
    7
 10
-48.783218499999975
 20
769.15045199999997
 11
-48.783218499999975
 21
771.75
  0
LINE
  8
_0-0_0
  6
CONTINUOUS
 62
    7
 10
-49.783218499999975
 20
770.04998799999998
 11
-49.844528500000024
 21
770.04998799999998
  0
LINE
  8
_0-0_0
  6
CONTINUOUS
 62
    7
 10
-49.885849500000063
 20
770.04998799999998
 11
-49.888076500000011
 21
770.04998799999998
  0
LINE
  8
_0-0_0
  6
CONTINUOUS
 62
    7
 10
-50.083221500000036
 20
746.25
 11
-67.083221500000036
 21
746.25
  0
LINE
  8
_0-0_0
  6
CONTINUOUS
 62
    7
 10
-50.019744500000002
 20
750.04998799999998
 11
-49.982833500000083
 21
749.97976700000004
  0
LINE
  8
_0-0_0
  6
CONTINUOUS
 62
    7
 10
-49.982833500000083
 20
749.97976700000004
 11
-49.963226500000019
 21
749.94528200000002
  0
LINE
  8
_0-0_0
  6
CONTINUOUS
 62
    7
 10
-49.963226500000019
 20
749.94528200000002
 11
-49.937133500000073
 21
749.90344200000004
  0
LINE
  8
_0-0_0
  6
CONTINUOUS
 62
    7
 10
-49.937133500000073
 20
749.90344200000004
 11
-49.923828500000013
 21
749.88439900000003
  0
LINE
  8
_0-0_0
  6
CONTINUOUS
 62
    7
 10
-49.923828500000013
 20
749.88439900000003
 11
-49.905471499999976
 21
749.86200000000008
  0
LINE
  8
_0-0_0
  6
CONTINUOUS
 62
    7
 10
-49.905471499999976
 20
749.86200000000008
 11
-49.892685500000084
 21
749.85137899999995
  0
LINE
  8
_0-0_0
  6
CONTINUOUS
 62
    7
 10
-49.892685500000084
 20
749.85137899999995
 11
-49.888076500000011
 21
749.84997599999997
  0
LINE
  8
_0-0_0
  6
CONTINUOUS
 62
    7
 10
-49.885849500000063
 20
749.84997599999997
 11
-49.888076500000011
 21
749.84997599999997
  0
LINE
  8
_0-0_0
  6
CONTINUOUS
 62
    7
 10
-50.019744500000002
 20
769.84997599999997
 11
-49.982833500000083
 21
769.92022700000007
  0
LINE
  8
_0-0_0
  6
CONTINUOUS
 62
    7
 10
-49.982833500000083
 20
769.92022700000007
 11
-49.963226500000019
 21
769.95468099999994
  0
LINE
  8
_0-0_0
  6
CONTINUOUS
 62
    7
 10
-49.963226500000019
 20
769.95468099999994
 11
-49.937133500000073
 21
769.99652100000003
  0
LINE
  8
_0-0_0
  6
CONTINUOUS
 62
    7
 10
-49.937133500000073
 20
769.99652100000003
 11
-49.923828500000013
 21
770.01556400000004
  0
LINE
  8
_0-0_0
  6
CONTINUOUS
 62
    7
 10
-49.923828500000013
 20
770.01556400000004
 11
-49.905471499999976
 21
770.03796399999999
  0
LINE
  8
_0-0_0
  6
CONTINUOUS
 62
    7
 10
-49.905471499999976
 20
770.03796399999999
 11
-49.892685500000084
 21
770.04858400000001
  0
LINE
  8
_0-0_0
  6
CONTINUOUS
 62
    7
 10
-49.892685500000084
 20
770.04858400000001
 11
-49.888076500000011
 21
770.04998799999998
  0
LINE
  8
_0-0_0
  6
CONTINUOUS
 62
    7
 10
-49.885849500000063
 20
749.84997599999997
 11
-49.844528500000024
 21
749.84997599999997
  0
LINE
  8
_0-0_0
  6
CONTINUOUS
 62
    7
 10
-49.783218499999975
 20
749.84997599999997
 11
-49.844528500000024
 21
749.84997599999997
  0
LINE
  8
_0-0_0
  6
CONTINUOUS
 62
    7
 10
-49.844528500000024
 20
749.84997599999997
 11
-49.834976500000039
 21
749.84893799999998
  0
LINE
  8
_0-0_0
  6
CONTINUOUS
 62
    7
 10
-49.834976500000039
 20
749.84893799999998
 11
-49.825485500000013
 21
749.84576399999992
  0
LINE
  8
_0-0_0
  6
CONTINUOUS
 62
    7
 10
-49.825485500000013
 20
749.84576399999992
 11
-49.816238500000054
 21
749.84036300000002
  0
LINE
  8
_0-0_0
  6
CONTINUOUS
 62
    7
 10
-49.816238500000054
 20
749.84036300000002
 11
-49.807434499999999
 21
749.832855
  0
LINE
  8
_0-0_0
  6
CONTINUOUS
 62
    7
 10
-49.807434499999999
 20
749.832855
 11
-49.79203849999999
 21
749.81222500000001
  0
LINE
  8
_0-0_0
  6
CONTINUOUS
 62
    7
 10
-49.79203849999999
 20
749.81222500000001
 11
-49.780258500000059
 21
749.784943
  0
LINE
  8
_0-0_0
  6
CONTINUOUS
 62
    7
 10
-49.780258500000059
 20
749.784943
 11
-49.773071500000015
 21
749.75280799999996
  0
LINE
  8
_0-0_0
  6
CONTINUOUS
 62
    7
 10
-49.773071500000015
 20
749.75280799999996
 11
-49.771179500000017
 21
749.71774299999993
  0
LINE
  8
_0-0_0
  6
CONTINUOUS
 62
    7
 10
-49.771179500000017
 20
749.71774299999993
 11
-49.775039500000048
 21
749.68157999999994
  0
LINE
  8
_0-0_0
  6
CONTINUOUS
 62
    7
 10
-49.775039500000048
 20
749.68157999999994
 11
-49.783218499999975
 21
749.64999399999999
  0
ARC
  8
_0-0_0
  6
CONTINUOUS
 62
    7
 10
-51.783218499999975
 20
751.14999399999999
 40
2.2999999999999998
 50
280.28656300000006
 51
325.58260500000006
  0
LINE
  8
_0-0_0
  6
CONTINUOUS
 62
    7
 10
-50.083221500000036
 20
746.64999399999999
 11
-51.283218499999975
 21
746.64999399999999
  0
LINE
  8
_0-0_0
  6
CONTINUOUS
 62
    7
 10
-50.083221500000036
 20
745.75
 11
-67.083221500000036
 21
745.75
  0
LINE
  8
_0-0_0
  6
CONTINUOUS
 62
    7
 10
-66.783233500000051
 20
762.94998199999998
 11
-67.083221500000036
 21
762.94998199999998
  0
ARC
  8
_0-0_0
  6
CONTINUOUS
 62
    7
 10
-66.283218499999975
 20
755.14999399999999
 40
0.5
 50
179.99999099999999
 51
269.99999700000001
  0
CIRCLE
  8
_0-0_0
  6
CONTINUOUS
 62
    7
 10
-64.283218499999975
 20
751.64999399999999
 40
2.5
  0
LINE
  8
_0-0_0
  6
CONTINUOUS
 62
    7
 10
-61.283218499999975
 20
749.14999399999999
 11
-64.283218499999975
 21
749.14999399999999
  0
LINE
  8
_0-0_0
  6
CONTINUOUS
 62
    7
 10
-60.783218499999975
 20
749.14999399999999
 11
-61.283218499999975
 21
749.14999399999999
  0
ARC
  8
_0-0_0
  6
CONTINUOUS
 62
    7
 10
-64.783218499999975
 20
751.14999399999999
 40
2
 50
179.99999099999999
 51
269.99999700000001
  0
LINE
  8
_0-0_0
  6
CONTINUOUS
 62
    7
 10
-64.283218499999975
 20
749.14999399999999
 11
-64.783218499999975
 21
749.14999399999999
  0
LINE
  8
_0-0_0
  6
CONTINUOUS
 62
    7
 10
-64.783218499999975
 20
770.64733899999999
 11
-64.799102500000004
 21
770.67459099999996
  0
LINE
  8
_0-0_0
  6
CONTINUOUS
 62
    7
 10
-64.799102500000004
 20
770.67459099999996
 11
-64.814941500000032
 21
770.69757099999993
  0
LINE
  8
_0-0_0
  6
CONTINUOUS
 62
    7
 10
-64.814941500000032
 20
770.69757099999993
 11
-64.8289185000001
 21
770.71432499999992
  0
LINE
  8
_0-0_0
  6
CONTINUOUS
 62
    7
 10
-64.8289185000001
 20
770.71432499999992
 11
-64.842819500000019
 21
770.72766100000001
  0
LINE
  8
_0-0_0
  6
CONTINUOUS
 62
    7
 10
-64.842819500000019
 20
770.72766100000001
 11
-64.855041500000084
 21
770.73660300000006
  0
LINE
  8
_0-0_0
  6
CONTINUOUS
 62
    7
 10
-64.855041500000084
 20
770.73660300000006
 11
-64.867157500000076
 21
770.74279799999999
  0
LINE
  8
_0-0_0
  6
CONTINUOUS
 62
    7
 10
-64.867157500000076
 20
770.74279799999999
 11
-64.878021500000045
 21
770.74609400000008
  0
LINE
  8
_0-0_0
  6
CONTINUOUS
 62
    7
 10
-64.878021500000045
 20
770.74609400000008
 11
-64.888778500000058
 21
770.74713100000008
  0
LINE
  8
_0-0_0
  6
CONTINUOUS
 62
    7
 10
-64.888778500000058
 20
770.74713100000008
 11
-64.891250500000069
 21
770.74707000000001
  0
LINE
  8
_0-0_0
  6
CONTINUOUS
 62
    7
 10
-49.783218499999975
 20
768.25
 11
-49.783218499999975
 21
768.75
  0
CIRCLE
  8
_0-0_0
  6
CONTINUOUS
 62
    7
 10
-52.283218499999975
 20
768.25
 40
2.5
  0
LINE
  8
_0-0_0
  6
CONTINUOUS
 62
    7
 10
-49.783218499999975
 20
765.25
 11
-49.783218499999975
 21
764.75
  0
LINE
  8
_0-0_0
  6
CONTINUOUS
 62
    7
 10
-49.783218499999975
 20
765.25
 11
-49.783218499999975
 21
768.25
  0
ARC
  8
_0-0_0
  6
CONTINUOUS
 62
    7
 10
-55.783218499999975
 20
770.25
 40
0.5
 50
0
 51
90.000003000000007
  0
LINE
  8
_0-0_0
  6
CONTINUOUS
 62
    7
 10
-49.783218499999975
 20
751.14999399999999
 11
-49.783218499999975
 21
764.75
  0
LINE
  8
_0-0_0
  6
CONTINUOUS
 62
    7
 10
-67.783218499999975
 20
771.75
 11
-67.783218499999975
 21
769.15045199999997
  0
LINE
  8
_0-0_0
  6
CONTINUOUS
 62
    7
 10
-67.083221500000036
 20
756.94998199999998
 11
-66.783233500000051
 21
756.94998199999998
  0
LINE
  8
_0-0_0
  6
CONTINUOUS
 62
    7
 10
-49.583221500000036
 20
772.55004899999994
 11
-49.583221500000036
 21
772.75
  0
ARC
  8
_0-0_0
  6
CONTINUOUS
 62
    7
 10
-51.783218499999975
 20
751.14999399999999
 40
2
 50
273.84026500000004
 51
0.000010000000014
  0
LINE
  8
_0-0_0
  6
CONTINUOUS
 62
    7
 10
-51.783218499999975
 20
749.14999399999999
 11
-60.783218499999975
 21
749.14999399999999
  0
ARC
  8
_0-0_0
  6
CONTINUOUS
 62
    7
 10
-51.283218499999975
 20
748.39498900000001
 40
0.5
 50
100.28656100000001
 51
179.99999099999999
  0
LINE
  8
_0-0_0
  6
CONTINUOUS
 62
    7
 10
-51.783218499999975
 20
747.14999399999999
 11
-51.783218499999975
 21
748.39498900000001
  0
ARC
  8
_0-0_0
  6
CONTINUOUS
 62
    7
 10
-51.283218499999975
 20
747.14999399999999
 40
0.5
 50
179.99999099999999
 51
269.99999700000001
  0
LINE
  8
_0-0_0
  6
CONTINUOUS
 62
    7
 10
-66.206237500000043
 20
754.64999399999999
 11
-66.283218499999975
 21
754.64999399999999
  0
LINE
  8
_0-0_0
  6
CONTINUOUS
 62
    7
 10
-64.283218499999975
 20
754.64999399999999
 11
-64.764724500000057
 21
754.64999399999999
  0
LINE
  8
_0-0_0
  6
CONTINUOUS
 62
    7
 10
-64.764724500000057
 20
754.64999399999999
 11
-66.206237500000043
 21
754.64999399999999
  0
LINE
  8
_0-0_0
  6
CONTINUOUS
 62
    7
 10
-61.283218499999975
 20
749.64999399999999
 11
-61.283218499999975
 21
749.72695900000008
  0
LINE
  8
_0-0_0
  6
CONTINUOUS
 62
    7
 10
-61.283218499999975
 20
751.16848800000002
 11
-61.283218499999975
 21
749.72695900000008
  0
LINE
  8
_0-0_0
  6
CONTINUOUS
 62
    7
 10
-61.283218499999975
 20
751.16848800000002
 11
-61.283218499999975
 21
751.64999399999999
  0
ARC
  8
_0-0_0
  6
CONTINUOUS
 62
    7
 10
-64.283218499999975
 20
751.64999399999999
 40
3
 50
0
 51
89.999995999999996
  0
ARC
  8
_0-0_0
  6
CONTINUOUS
 62
    7
 10
-60.783218499999975
 20
749.64999399999999
 40
0.5
 50
179.99999099999999
 51
269.99999700000001
  0
LINE
  8
_0-0_0
  6
CONTINUOUS
 62
    7
 10
-55.283218499999975
 20
770.17300399999999
 11
-55.283218499999975
 21
770.25
  0
LINE
  8
_0-0_0
  6
CONTINUOUS
 62
    7
 10
-55.283218499999975
 20
768.73147599999993
 11
-55.283218499999975
 21
770.17300399999999
  0
LINE
  8
_0-0_0
  6
CONTINUOUS
 62
    7
 10
-55.283218499999975
 20
768.25
 11
-55.283218499999975
 21
768.73147599999993
  0
ARC
  8
_0-0_0
  6
CONTINUOUS
 62
    7
 10
-52.283218499999975
 20
768.25
 40
3
 50
179.99999099999999
 51
269.99999700000001
  0
LINE
  8
_0-0_0
  6
CONTINUOUS
 62
    7
 10
-51.801712500000008
 20
765.25
 11
-52.283218499999975
 21
765.25
  0
LINE
  8
_0-0_0
  6
CONTINUOUS
 62
    7
 10
-51.801712500000008
 20
765.25
 11
-50.360199500000022
 21
765.25
  0
LINE
  8
_0-0_0
  6
CONTINUOUS
 62
    7
 10
-50.283218499999975
 20
765.25
 11
-50.360199500000022
 21
765.25
  0
ARC
  8
_0-0_0
  6
CONTINUOUS
 62
    7
 10
-50.283218499999975
 20
764.75
 40
0.5
 50
0
 51
90.000003000000007
  0
LINE
  8
_0-0_0
  6
CONTINUOUS
 62
    7
 10
-51.783218499999975
 20
749.25262500000008
 11
-51.767334500000061
 21
749.22537199999999
  0
LINE
  8
_0-0_0
  6
CONTINUOUS
 62
    7
 10
-51.767334500000061
 20
749.22537199999999
 11
-51.751495500000033
 21
749.20239300000003
  0
LINE
  8
_0-0_0
  6
CONTINUOUS
 62
    7
 10
-51.751495500000033
 20
749.20239300000003
 11
-51.737518500000078
 21
749.18563799999993
  0
LINE
  8
_0-0_0
  6
CONTINUOUS
 62
    7
 10
-51.737518500000078
 20
749.18563799999993
 11
-51.723617500000046
 21
749.17230199999995
  0
LINE
  8
_0-0_0
  6
CONTINUOUS
 62
    7
 10
-51.723617500000046
 20
749.17230199999995
 11
-51.711395499999981
 21
749.16339100000005
  0
LINE
  8
_0-0_0
  6
CONTINUOUS
 62
    7
 10
-51.711395499999981
 20
749.16339100000005
 11
-51.699279500000102
 21
749.15716599999996
  0
LINE
  8
_0-0_0
  6
CONTINUOUS
 62
    7
 10
-51.699279500000102
 20
749.15716599999996
 11
-51.688415500000019
 21
749.15390000000002
  0
LINE
  8
_0-0_0
  6
CONTINUOUS
 62
    7
 10
-51.688415500000019
 20
749.15390000000002
 11
-51.677658500000007
 21
749.15283199999999
  0
LINE
  8
_0-0_0
  6
CONTINUOUS
 62
    7
 10
-51.677658500000007
 20
749.15283199999999
 11
-51.675186500000109
 21
749.15289299999995
  0
ARC
  8
_0-0_0
  6
CONTINUOUS
 62
    7
 10
-61.513336500000037
 20
758.77673299999992
 40
3.063399
 50
199.82113599999997
 51
205.28948099999999
  0
ARC
  8
_0-0_0
  6
CONTINUOUS
 62
    7
 10
-61.513656500000025
 20
761.12335200000007
 40
3.0630549999999999
 50
154.710137
 51
160.17869999999999
  0
ARC
  8
_0-0_0
  6
CONTINUOUS
 62
    7
 10
-58.283218499999975
 20
759.94998199999998
 40
6.5
 50
160.10415599999999
 51
199.895612
  0
ARC
  8
_0-0_0
  6
CONTINUOUS
 62
    7
 10
-55.053100500000028
 20
761.12322999999992
 40
3.0633949999999999
 50
19.82113
 51
25.289566000000001
  0
ARC
  8
_0-0_0
  6
CONTINUOUS
 62
    7
 10
-55.05278050000004
 20
758.776611
 40
3.0630519999999999
 50
334.71006
 51
340.17869200000001
  0
LINE
  8
_0-0_0
  6
CONTINUOUS
 62
    7
 10
-57.541549499999974
 20
753.44998199999998
 11
-53.024887499999977
 21
756.05767800000001
  0
LINE
  8
_0-0_0
  6
CONTINUOUS
 62
    7
 10
-59.024887499999977
 20
753.44998199999998
 11
-57.541549499999974
 21
753.44998199999998
  0
LINE
  8
_0-0_0
  6
CONTINUOUS
 62
    7
 10
-63.541549499999974
 20
756.05767800000001
 11
-59.024887499999977
 21
753.44998199999998
  0
LINE
  8
_0-0_0
  6
CONTINUOUS
 62
    7
 10
-64.283218499999975
 20
762.55767800000001
 11
-64.283218499999975
 21
757.34228499999995
  0
LINE
  8
_0-0_0
  6
CONTINUOUS
 62
    7
 10
-63.541549499999974
 20
756.05767800000001
 11
-64.283218499999975
 21
757.34228499999995
  0
LINE
  8
_0-0_0
  6
CONTINUOUS
 62
    7
 10
-59.024887499999977
 20
766.44998199999998
 11
-63.541549499999974
 21
763.84228499999995
  0
LINE
  8
_0-0_0
  6
CONTINUOUS
 62
    7
 10
-63.835678500000085
 20
763.332855
 11
-64.283218499999975
 21
762.55767800000001
  0
LINE
  8
_0-0_0
  6
CONTINUOUS
 62
    7
 10
-63.835678500000085
 20
763.332855
 11
-63.541549499999974
 21
763.84228499999995
  0
LINE
  8
_0-0_0
  6
CONTINUOUS
 62
    7
 10
-57.541549499999974
 20
766.44998199999998
 11
-59.024887499999977
 21
766.44998199999998
  0
LINE
  8
_0-0_0
  6
CONTINUOUS
 62
    7
 10
-53.024887499999977
 20
763.84228499999995
 11
-57.541549499999974
 21
766.44998199999998
  0
ARC
  8
_0-0_0
  6
CONTINUOUS
 62
    7
 10
-58.283218499999975
 20
759.94998199999998
 40
6.5
 50
340.10416099999998
 51
19.895609999999952
  0
LINE
  8
_0-0_0
  6
CONTINUOUS
 62
    7
 10
-52.730758500000093
 20
756.56710799999996
 11
-52.283218499999975
 21
757.34228499999995
  0
LINE
  8
_0-0_0
  6
CONTINUOUS
 62
    7
 10
-52.730758500000093
 20
756.56710799999996
 11
-53.024887499999977
 21
756.05767800000001
  0
CIRCLE
  8
_0-0_0
  6
CONTINUOUS
 62
    7
 10
-58.283218499999975
 20
759.94998199999998
 40
5.25
  0
LINE
  8
_0-0_0
  6
CONTINUOUS
 62
    7
 10
-52.283218499999975
 20
762.55767800000001
 11
-52.283218499999975
 21
757.34228499999995
  0
LINE
  8
_0-0_0
  6
CONTINUOUS
 62
    7
 10
-53.024887499999977
 20
763.84228499999995
 11
-52.283218499999975
 21
762.55767800000001
  0
LINE
  8
_0-0_0
  6
CONTINUOUS
 62
    7
 10
-50.396209500000055
 20
769.47543300000007
 11
-50.118148500000075
 21
769.5
  0
LINE
  8
_0-0_0
  6
CONTINUOUS
 62
    7
 10
-50.278457500000059
 20
769.27145399999995
 11
-50.118148500000075
 21
769.5
  0
LINE
  8
_0-0_0
  6
CONTINUOUS
 62
    7
 10
-50.534637500000031
 20
769.66595499999994
 11
-50.260681500000032
 21
769.71945200000005
  0
LINE
  8
_0-0_0
  6
CONTINUOUS
 62
    7
 10
-50.396209500000055
 20
769.47543300000007
 11
-50.260681500000032
 21
769.71945200000005
  0
LINE
  8
_0-0_0
  6
CONTINUOUS
 62
    7
 10
-50.692230500000051
 20
769.84097300000008
 11
-50.425354500000026
 21
769.922821
  0
LINE
  8
_0-0_0
  6
CONTINUOUS
 62
    7
 10
-50.534637500000031
 20
769.66595499999994
 11
-50.425354500000026
 21
769.922821
  0
LINE
  8
_0-0_0
  6
CONTINUOUS
 62
    7
 10
-50.867248500000073
 20
769.99856599999998
 11
-50.61039750000009
 21
770.10784899999999
  0
LINE
  8
_0-0_0
  6
CONTINUOUS
 62
    7
 10
-50.692230500000051
 20
769.84097300000008
 11
-50.61039750000009
 21
770.10784899999999
  0
LINE
  8
_0-0_0
  6
CONTINUOUS
 62
    7
 10
-51.057785500000023
 20
770.13699300000007
 11
-50.81375150000008
 21
770.27252199999998
  0
LINE
  8
_0-0_0
  6
CONTINUOUS
 62
    7
 10
-50.867248500000073
 20
769.99856599999998
 11
-50.81375150000008
 21
770.27252199999998
  0
LINE
  8
_0-0_0
  6
CONTINUOUS
 62
    7
 10
-51.261734500000102
 20
770.25476099999992
 11
-51.033218499999975
 21
770.41503899999998
  0
LINE
  8
_0-0_0
  6
CONTINUOUS
 62
    7
 10
-51.057785500000023
 20
770.13699300000007
 11
-51.033218499999975
 21
770.41503899999998
  0
LINE
  8
_0-0_0
  6
CONTINUOUS
 62
    7
 10
-51.476883499999985
 20
770.35052500000006
 11
-51.266372499999989
 21
770.53384400000004
  0
LINE
  8
_0-0_0
  6
CONTINUOUS
 62
    7
 10
-51.261734500000102
 20
770.25476099999992
 11
-51.266372499999989
 21
770.53384400000004
  0
LINE
  8
_0-0_0
  6
CONTINUOUS
 62
    7
 10
-51.700882500000034
 20
770.42330900000002
 11
-51.510681500000032
 21
770.62762500000008
  0
LINE
  8
_0-0_0
  6
CONTINUOUS
 62
    7
 10
-51.476883499999985
 20
770.35052500000006
 11
-51.510681500000032
 21
770.62762500000008
  0
LINE
  8
_0-0_0
  6
CONTINUOUS
 62
    7
 10
-51.931244500000048
 20
770.47228999999993
 11
-51.763443499999994
 21
770.69534299999998
  0
LINE
  8
_0-0_0
  6
CONTINUOUS
 62
    7
 10
-51.700882500000034
 20
770.42330900000002
 11
-51.763443499999994
 21
770.69534299999998
  0
LINE
  8
_0-0_0
  6
CONTINUOUS
 62
    7
 10
-52.165466500000093
 20
770.49688700000002
 11
-52.021896500000025
 21
770.73629800000003
  0
LINE
  8
_0-0_0
  6
CONTINUOUS
 62
    7
 10
-51.931244500000048
 20
770.47228999999993
 11
-52.021896500000025
 21
770.73629800000003
  0
LINE
  8
_0-0_0
  6
CONTINUOUS
 62
    7
 10
-52.400970500000085
 20
770.49688700000002
 11
-52.283218499999975
 21
770.75
  0
LINE
  8
_0-0_0
  6
CONTINUOUS
 62
    7
 10
-52.165466500000093
 20
770.49688700000002
 11
-52.283218499999975
 21
770.75
  0
LINE
  8
_0-0_0
  6
CONTINUOUS
 62
    7
 10
-52.635192500000016
 20
770.47228999999993
 11
-52.544540500000039
 21
770.73629800000003
  0
LINE
  8
_0-0_0
  6
CONTINUOUS
 62
    7
 10
-52.400970500000085
 20
770.49688700000002
 11
-52.544540500000039
 21
770.73629800000003
  0
LINE
  8
_0-0_0
  6
CONTINUOUS
 62
    7
 10
-52.86555450000003
 20
770.42330900000002
 11
-52.802993500000071
 21
770.69534299999998
  0
LINE
  8
_0-0_0
  6
CONTINUOUS
 62
    7
 10
-52.635192500000016
 20
770.47228999999993
 11
-52.802993500000071
 21
770.69534299999998
  0
LINE
  8
_0-0_0
  6
CONTINUOUS
 62
    7
 10
-53.089553500000079
 20
770.35052500000006
 11
-53.055755500000032
 21
770.62762500000008
  0
LINE
  8
_0-0_0
  6
CONTINUOUS
 62
    7
 10
-52.86555450000003
 20
770.42330900000002
 11
-53.055755500000032
 21
770.62762500000008
  0
LINE
  8
_0-0_0
  6
CONTINUOUS
 62
    7
 10
-53.304702500000076
 20
770.25476099999992
 11
-53.300064500000076
 21
770.53384400000004
  0
LINE
  8
_0-0_0
  6
CONTINUOUS
 62
    7
 10
-53.089553500000079
 20
770.35052500000006
 11
-53.300064500000076
 21
770.53384400000004
  0
LINE
  8
_0-0_0
  6
CONTINUOUS
 62
    7
 10
-53.424240499999996
 20
770.33859299999995
 11
-53.533218499999975
 21
770.41503899999998
  0
LINE
  8
_0-0_0
  6
CONTINUOUS
 62
    7
 10
-53.304702500000076
 20
770.25476099999992
 11
-53.424240499999996
 21
770.33859299999995
  0
LINE
  8
_0-0_0
  6
CONTINUOUS
 62
    7
 10
-53.508651500000042
 20
770.13699300000007
 11
-53.533218499999975
 21
770.41503899999998
  0
LINE
  8
_0-0_0
  6
CONTINUOUS
 62
    7
 10
-53.699188499999991
 20
769.99856599999998
 11
-53.752685500000098
 21
770.27252199999998
  0
LINE
  8
_0-0_0
  6
CONTINUOUS
 62
    7
 10
-53.508651500000042
 20
770.13699300000007
 11
-53.752685500000098
 21
770.27252199999998
  0
LINE
  8
_0-0_0
  6
CONTINUOUS
 62
    7
 10
-53.874206500000014
 20
769.84097300000008
 11
-53.956039500000088
 21
770.10784899999999
  0
LINE
  8
_0-0_0
  6
CONTINUOUS
 62
    7
 10
-53.699188499999991
 20
769.99856599999998
 11
-53.956039500000088
 21
770.10784899999999
  0
LINE
  8
_0-0_0
  6
CONTINUOUS
 62
    7
 10
-54.031799500000034
 20
769.66595499999994
 11
-54.141082500000039
 21
769.922821
  0
LINE
  8
_0-0_0
  6
CONTINUOUS
 62
    7
 10
-53.874206500000014
 20
769.84097300000008
 11
-54.141082500000039
 21
769.922821
  0
LINE
  8
_0-0_0
  6
CONTINUOUS
 62
    7
 10
-54.17022750000001
 20
769.47543300000007
 11
-54.305755500000032
 21
769.71945200000005
  0
LINE
  8
_0-0_0
  6
CONTINUOUS
 62
    7
 10
-54.031799500000034
 20
769.66595499999994
 11
-54.305755500000032
 21
769.71945200000005
  0
LINE
  8
_0-0_0
  6
CONTINUOUS
 62
    7
 10
-54.287979500000006
 20
769.27145399999995
 11
-54.44828849999999
 21
769.5
  0
LINE
  8
_0-0_0
  6
CONTINUOUS
 62
    7
 10
-54.17022750000001
 20
769.47543300000007
 11
-54.44828849999999
 21
769.5
  0
LINE
  8
_0-0_0
  6
CONTINUOUS
 62
    7
 10
-54.383773500000075
 20
769.05630500000007
 11
-54.567077500000096
 21
769.26681499999995
  0
LINE
  8
_0-0_0
  6
CONTINUOUS
 62
    7
 10
-54.287979500000006
 20
769.27145399999995
 11
-54.567077500000096
 21
769.26681499999995
  0
LINE
  8
_0-0_0
  6
CONTINUOUS
 62
    7
 10
-54.456558500000028
 20
768.83233599999994
 11
-54.660858500000018
 21
769.02252199999998
  0
LINE
  8
_0-0_0
  6
CONTINUOUS
 62
    7
 10
-54.383773500000075
 20
769.05630500000007
 11
-54.660858500000018
 21
769.02252199999998
  0
LINE
  8
_0-0_0
  6
CONTINUOUS
 62
    7
 10
-54.505523499999981
 20
768.60195900000008
 11
-54.728592500000104
 21
768.76977499999998
  0
LINE
  8
_0-0_0
  6
CONTINUOUS
 62
    7
 10
-54.456558500000028
 20
768.83233599999994
 11
-54.728592500000104
 21
768.76977499999998
  0
LINE
  8
_0-0_0
  6
CONTINUOUS
 62
    7
 10
-54.505523499999981
 20
768.60195900000008
 11
-54.769516500000009
 21
768.51129200000003
  0
LINE
  8
_0-0_0
  6
CONTINUOUS
 62
    7
 10
-54.530136500000026
 20
768.36773700000003
 11
-54.769516500000009
 21
768.51129200000003
  0
LINE
  8
_0-0_0
  6
CONTINUOUS
 62
    7
 10
-54.530136500000026
 20
768.13223300000004
 11
-54.783218499999975
 21
768.25
  0
LINE
  8
_0-0_0
  6
CONTINUOUS
 62
    7
 10
-54.530136500000026
 20
768.36773700000003
 11
-54.783218499999975
 21
768.25
  0
LINE
  8
_0-0_0
  6
CONTINUOUS
 62
    7
 10
-54.505523499999981
 20
767.89801
 11
-54.769516500000009
 21
767.98864700000001
  0
LINE
  8
_0-0_0
  6
CONTINUOUS
 62
    7
 10
-54.530136500000026
 20
768.13223300000004
 11
-54.769516500000009
 21
767.98864700000001
  0
LINE
  8
_0-0_0
  6
CONTINUOUS
 62
    7
 10
-54.456558500000028
 20
767.66763300000002
 11
-54.728592500000104
 21
767.73019399999998
  0
LINE
  8
_0-0_0
  6
CONTINUOUS
 62
    7
 10
-54.505523499999981
 20
767.89801
 11
-54.728592500000104
 21
767.73019399999998
  0
LINE
  8
_0-0_0
  6
CONTINUOUS
 62
    7
 10
-54.383773500000075
 20
767.44366500000001
 11
-54.660858500000018
 21
767.47744799999998
  0
LINE
  8
_0-0_0
  6
CONTINUOUS
 62
    7
 10
-54.456558500000028
 20
767.66763300000002
 11
-54.660858500000018
 21
767.47744799999998
  0
LINE
  8
_0-0_0
  6
CONTINUOUS
 62
    7
 10
-54.287979500000006
 20
767.22851600000001
 11
-54.567077500000096
 21
767.23315400000001
  0
LINE
  8
_0-0_0
  6
CONTINUOUS
 62
    7
 10
-54.383773500000075
 20
767.44366500000001
 11
-54.567077500000096
 21
767.23315400000001
  0
LINE
  8
_0-0_0
  6
CONTINUOUS
 62
    7
 10
-54.17022750000001
 20
767.02453600000001
 11
-54.44828849999999
 21
767
  0
LINE
  8
_0-0_0
  6
CONTINUOUS
 62
    7
 10
-54.287979500000006
 20
767.22851600000001
 11
-54.44828849999999
 21
767
  0
LINE
  8
_0-0_0
  6
CONTINUOUS
 62
    7
 10
-54.031799500000034
 20
766.83401500000002
 11
-54.305755500000032
 21
766.78051800000003
  0
LINE
  8
_0-0_0
  6
CONTINUOUS
 62
    7
 10
-54.17022750000001
 20
767.02453600000001
 11
-54.305755500000032
 21
766.78051800000003
  0
LINE
  8
_0-0_0
  6
CONTINUOUS
 62
    7
 10
-53.874206500000014
 20
766.658997
 11
-54.141082500000039
 21
766.57714800000008
  0
LINE
  8
_0-0_0
  6
CONTINUOUS
 62
    7
 10
-54.031799500000034
 20
766.83401500000002
 11
-54.141082500000039
 21
766.57714800000008
  0
LINE
  8
_0-0_0
  6
CONTINUOUS
 62
    7
 10
-53.699188499999991
 20
766.50140399999998
 11
-53.956039500000088
 21
766.39211999999998
  0
LINE
  8
_0-0_0
  6
CONTINUOUS
 62
    7
 10
-53.874206500000014
 20
766.658997
 11
-53.956039500000088
 21
766.39211999999998
  0
LINE
  8
_0-0_0
  6
CONTINUOUS
 62
    7
 10
-53.508651500000042
 20
766.362976
 11
-53.752685500000098
 21
766.22744799999998
  0
LINE
  8
_0-0_0
  6
CONTINUOUS
 62
    7
 10
-53.699188499999991
 20
766.50140399999998
 11
-53.752685500000098
 21
766.22744799999998
  0
LINE
  8
_0-0_0
  6
CONTINUOUS
 62
    7
 10
-53.304702500000076
 20
766.24520899999993
 11
-53.533218499999975
 21
766.08492999999999
  0
LINE
  8
_0-0_0
  6
CONTINUOUS
 62
    7
 10
-53.508651500000042
 20
766.362976
 11
-53.533218499999975
 21
766.08492999999999
  0
LINE
  8
_0-0_0
  6
CONTINUOUS
 62
    7
 10
-53.089553500000079
 20
766.14941399999998
 11
-53.300064500000076
 21
765.96612499999992
  0
LINE
  8
_0-0_0
  6
CONTINUOUS
 62
    7
 10
-53.304702500000076
 20
766.24520899999993
 11
-53.300064500000076
 21
765.96612499999992
  0
LINE
  8
_0-0_0
  6
CONTINUOUS
 62
    7
 10
-52.86555450000003
 20
766.07665999999995
 11
-53.055755500000032
 21
765.872345
  0
LINE
  8
_0-0_0
  6
CONTINUOUS
 62
    7
 10
-53.089553500000079
 20
766.14941399999998
 11
-53.055755500000032
 21
765.872345
  0
LINE
  8
_0-0_0
  6
CONTINUOUS
 62
    7
 10
-52.635192500000016
 20
766.02767900000003
 11
-52.802993500000071
 21
765.80462599999998
  0
LINE
  8
_0-0_0
  6
CONTINUOUS
 62
    7
 10
-52.86555450000003
 20
766.07665999999995
 11
-52.802993500000071
 21
765.80462599999998
  0
LINE
  8
_0-0_0
  6
CONTINUOUS
 62
    7
 10
-52.400970500000085
 20
766.00305200000003
 11
-52.544540500000039
 21
765.76367200000004
  0
LINE
  8
_0-0_0
  6
CONTINUOUS
 62
    7
 10
-52.635192500000016
 20
766.02767900000003
 11
-52.544540500000039
 21
765.76367200000004
  0
LINE
  8
_0-0_0
  6
CONTINUOUS
 62
    7
 10
-52.165466500000093
 20
766.00305200000003
 11
-52.283218499999975
 21
765.75
  0
LINE
  8
_0-0_0
  6
CONTINUOUS
 62
    7
 10
-52.400970500000085
 20
766.00305200000003
 11
-52.283218499999975
 21
765.75
  0
LINE
  8
_0-0_0
  6
CONTINUOUS
 62
    7
 10
-51.931244500000048
 20
766.02767900000003
 11
-52.021896500000025
 21
765.76367200000004
  0
LINE
  8
_0-0_0
  6
CONTINUOUS
 62
    7
 10
-52.165466500000093
 20
766.00305200000003
 11
-52.021896500000025
 21
765.76367200000004
  0
LINE
  8
_0-0_0
  6
CONTINUOUS
 62
    7
 10
-51.700882500000034
 20
766.07665999999995
 11
-51.763443499999994
 21
765.80462599999998
  0
LINE
  8
_0-0_0
  6
CONTINUOUS
 62
    7
 10
-51.931244500000048
 20
766.02767900000003
 11
-51.763443499999994
 21
765.80462599999998
  0
LINE
  8
_0-0_0
  6
CONTINUOUS
 62
    7
 10
-51.476883499999985
 20
766.14941399999998
 11
-51.510681500000032
 21
765.872345
  0
LINE
  8
_0-0_0
  6
CONTINUOUS
 62
    7
 10
-51.700882500000034
 20
766.07665999999995
 11
-51.510681500000032
 21
765.872345
  0
LINE
  8
_0-0_0
  6
CONTINUOUS
 62
    7
 10
-51.261734500000102
 20
766.24520899999993
 11
-51.266372499999989
 21
765.96612499999992
  0
LINE
  8
_0-0_0
  6
CONTINUOUS
 62
    7
 10
-51.476883499999985
 20
766.14941399999998
 11
-51.266372499999989
 21
765.96612499999992
  0
LINE
  8
_0-0_0
  6
CONTINUOUS
 62
    7
 10
-51.142196500000068
 20
766.16137700000002
 11
-51.033218499999975
 21
766.08492999999999
  0
LINE
  8
_0-0_0
  6
CONTINUOUS
 62
    7
 10
-51.261734500000102
 20
766.24520899999993
 11
-51.142196500000068
 21
766.16137700000002
  0
LINE
  8
_0-0_0
  6
CONTINUOUS
 62
    7
 10
-51.057785500000023
 20
766.362976
 11
-51.033218499999975
 21
766.08492999999999
  0
LINE
  8
_0-0_0
  6
CONTINUOUS
 62
    7
 10
-50.867248500000073
 20
766.50140399999998
 11
-50.81375150000008
 21
766.22744799999998
  0
LINE
  8
_0-0_0
  6
CONTINUOUS
 62
    7
 10
-51.057785500000023
 20
766.362976
 11
-50.81375150000008
 21
766.22744799999998
  0
LINE
  8
_0-0_0
  6
CONTINUOUS
 62
    7
 10
-50.692230500000051
 20
766.658997
 11
-50.61039750000009
 21
766.39211999999998
  0
LINE
  8
_0-0_0
  6
CONTINUOUS
 62
    7
 10
-50.867248500000073
 20
766.50140399999998
 11
-50.61039750000009
 21
766.39211999999998
  0
LINE
  8
_0-0_0
  6
CONTINUOUS
 62
    7
 10
-50.534637500000031
 20
766.83401500000002
 11
-50.425354500000026
 21
766.57714800000008
  0
LINE
  8
_0-0_0
  6
CONTINUOUS
 62
    7
 10
-50.692230500000051
 20
766.658997
 11
-50.425354500000026
 21
766.57714800000008
  0
LINE
  8
_0-0_0
  6
CONTINUOUS
 62
    7
 10
-50.396209500000055
 20
767.02453600000001
 11
-50.260681500000032
 21
766.78051800000003
  0
LINE
  8
_0-0_0
  6
CONTINUOUS
 62
    7
 10
-50.534637500000031
 20
766.83401500000002
 11
-50.260681500000032
 21
766.78051800000003
  0
LINE
  8
_0-0_0
  6
CONTINUOUS
 62
    7
 10
-50.278457500000059
 20
767.22851600000001
 11
-50.118148500000075
 21
767
  0
LINE
  8
_0-0_0
  6
CONTINUOUS
 62
    7
 10
-50.396209500000055
 20
767.02453600000001
 11
-50.118148500000075
 21
767
  0
LINE
  8
_0-0_0
  6
CONTINUOUS
 62
    7
 10
-50.18266349999999
 20
767.44366500000001
 11
-49.999359500000082
 21
767.23315400000001
  0
LINE
  8
_0-0_0
  6
CONTINUOUS
 62
    7
 10
-50.278457500000059
 20
767.22851600000001
 11
-49.999359500000082
 21
767.23315400000001
  0
LINE
  8
_0-0_0
  6
CONTINUOUS
 62
    7
 10
-50.109878500000036
 20
767.66763300000002
 11
-49.905578500000047
 21
767.47744799999998
  0
LINE
  8
_0-0_0
  6
CONTINUOUS
 62
    7
 10
-50.18266349999999
 20
767.44366500000001
 11
-49.905578500000047
 21
767.47744799999998
  0
LINE
  8
_0-0_0
  6
CONTINUOUS
 62
    7
 10
-50.060913500000083
 20
767.89801
 11
-49.837844500000074
 21
767.73019399999998
  0
LINE
  8
_0-0_0
  6
CONTINUOUS
 62
    7
 10
-50.109878500000036
 20
767.66763300000002
 11
-49.837844500000074
 21
767.73019399999998
  0
LINE
  8
_0-0_0
  6
CONTINUOUS
 62
    7
 10
-50.036300500000038
 20
768.13223300000004
 11
-49.796920500000056
 21
767.98864700000001
  0
LINE
  8
_0-0_0
  6
CONTINUOUS
 62
    7
 10
-50.060913500000083
 20
767.89801
 11
-49.796920500000056
 21
767.98864700000001
  0
LINE
  8
_0-0_0
  6
CONTINUOUS
 62
    7
 10
-50.036300500000038
 20
768.36773700000003
 11
-49.783218499999975
 21
768.25
  0
LINE
  8
_0-0_0
  6
CONTINUOUS
 62
    7
 10
-50.036300500000038
 20
768.13223300000004
 11
-49.783218499999975
 21
768.25
  0
LINE
  8
_0-0_0
  6
CONTINUOUS
 62
    7
 10
-50.060913500000083
 20
768.60195900000008
 11
-49.796920500000056
 21
768.51129200000003
  0
LINE
  8
_0-0_0
  6
CONTINUOUS
 62
    7
 10
-50.036300500000038
 20
768.36773700000003
 11
-49.796920500000056
 21
768.51129200000003
  0
LINE
  8
_0-0_0
  6
CONTINUOUS
 62
    7
 10
-50.109878500000036
 20
768.83233599999994
 11
-49.837844500000074
 21
768.76977499999998
  0
LINE
  8
_0-0_0
  6
CONTINUOUS
 62
    7
 10
-50.060913500000083
 20
768.60195900000008
 11
-49.837844500000074
 21
768.76977499999998
  0
LINE
  8
_0-0_0
  6
CONTINUOUS
 62
    7
 10
-50.18266349999999
 20
769.05630500000007
 11
-49.905578500000047
 21
769.02252199999998
  0
LINE
  8
_0-0_0
  6
CONTINUOUS
 62
    7
 10
-50.109878500000036
 20
768.83233599999994
 11
-49.905578500000047
 21
769.02252199999998
  0
LINE
  8
_0-0_0
  6
CONTINUOUS
 62
    7
 10
-50.278457500000059
 20
769.27145399999995
 11
-49.999359500000082
 21
769.26681499999995
  0
LINE
  8
_0-0_0
  6
CONTINUOUS
 62
    7
 10
-50.18266349999999
 20
769.05630500000007
 11
-49.999359500000082
 21
769.26681499999995
  0
CIRCLE
  8
_0-0_0
  6
CONTINUOUS
 62
    7
 10
-52.283218499999975
 20
768.25
 40
2
  0
CIRCLE
  8
_0-0_0
  6
CONTINUOUS
 62
    7
 10
-58.283218499999975
 20
759.94998199999998
 40
5
  0
LINE
  8
_0-0_0
  6
CONTINUOUS
 62
    7
 10
-51.701110500000027
 20
767.25
 11
-52.865326500000037
 21
767.25
  0
LINE
  8
_0-0_0
  6
CONTINUOUS
 62
    7
 10
-52.865326500000037
 20
767.25
 11
-53.433212500000081
 21
768.25
  0
LINE
  8
_0-0_0
  6
CONTINUOUS
 62
    7
 10
-53.433212500000081
 20
768.25
 11
-52.865326500000037
 21
769.25
  0
LINE
  8
_0-0_0
  6
CONTINUOUS
 62
    7
 10
-52.865326500000037
 20
769.25
 11
-51.701110500000027
 21
769.25
  0
LINE
  8
_0-0_0
  6
CONTINUOUS
 62
    7
 10
-51.701110500000027
 20
769.25
 11
-51.133224500000097
 21
768.25
  0
LINE
  8
_0-0_0
  6
CONTINUOUS
 62
    7
 10
-51.133224500000097
 20
768.25
 11
-51.701110500000027
 21
767.25
  0
CIRCLE
  8
_0-0_0
  6
CONTINUOUS
 62
    7
 10
-58.283218499999975
 20
759.94998199999998
 40
4.5381200000000002
  0
CIRCLE
  8
_0-0_0
  6
CONTINUOUS
 62
    7
 10
-58.283218499999975
 20
759.94998199999998
 40
4
  0
LINE
  8
_0-0_0
  6
CONTINUOUS
 62
    7
 10
-66.17022750000001
 20
750.42453
 11
-66.44828849999999
 21
750.39999399999999
  0
LINE
  8
_0-0_0
  6
CONTINUOUS
 62
    7
 10
-66.287979500000006
 20
750.62851000000001
 11
-66.44828849999999
 21
750.39999399999999
  0
LINE
  8
_0-0_0
  6
CONTINUOUS
 62
    7
 10
-66.031799500000034
 20
750.23400900000001
 11
-66.305755500000032
 21
750.18051100000002
  0
LINE
  8
_0-0_0
  6
CONTINUOUS
 62
    7
 10
-66.17022750000001
 20
750.42453
 11
-66.305755500000032
 21
750.18051100000002
  0
LINE
  8
_0-0_0
  6
CONTINUOUS
 62
    7
 10
-65.874206500000014
 20
750.05898999999999
 11
-66.141082500000039
 21
749.97717299999999
  0
LINE
  8
_0-0_0
  6
CONTINUOUS
 62
    7
 10
-66.031799500000034
 20
750.23400900000001
 11
-66.141082500000039
 21
749.97717299999999
  0
LINE
  8
_0-0_0
  6
CONTINUOUS
 62
    7
 10
-65.699188499999991
 20
749.90139799999997
 11
-65.956039500000088
 21
749.79211400000008
  0
LINE
  8
_0-0_0
  6
CONTINUOUS
 62
    7
 10
-65.874206500000014
 20
750.05898999999999
 11
-65.956039500000088
 21
749.79211400000008
  0
LINE
  8
_0-0_0
  6
CONTINUOUS
 62
    7
 10
-65.508651500000042
 20
749.76297
 11
-65.752685500000098
 21
749.62744099999998
  0
LINE
  8
_0-0_0
  6
CONTINUOUS
 62
    7
 10
-65.699188499999991
 20
749.90139799999997
 11
-65.752685500000098
 21
749.62744099999998
  0
LINE
  8
_0-0_0
  6
CONTINUOUS
 62
    7
 10
-65.304702500000076
 20
749.64520300000004
 11
-65.533218499999975
 21
749.48492399999998
  0
LINE
  8
_0-0_0
  6
CONTINUOUS
 62
    7
 10
-65.508651500000042
 20
749.76297
 11
-65.533218499999975
 21
749.48492399999998
  0
LINE
  8
_0-0_0
  6
CONTINUOUS
 62
    7
 10
-65.089538500000003
 20
749.54943800000001
 11
-65.300064500000076
 21
749.36611900000003
  0
LINE
  8
_0-0_0
  6
CONTINUOUS
 62
    7
 10
-65.304702500000076
 20
749.64520300000004
 11
-65.300064500000076
 21
749.36611900000003
  0
LINE
  8
_0-0_0
  6
CONTINUOUS
 62
    7
 10
-64.86555450000003
 20
749.47665400000005
 11
-65.055755500000032
 21
749.27233899999999
  0
LINE
  8
_0-0_0
  6
CONTINUOUS
 62
    7
 10
-65.089538500000003
 20
749.54943800000001
 11
-65.055755500000032
 21
749.27233899999999
  0
LINE
  8
_0-0_0
  6
CONTINUOUS
 62
    7
 10
-64.635192500000016
 20
749.42770399999995
 11
-64.802993500000071
 21
749.20461999999998
  0
LINE
  8
_0-0_0
  6
CONTINUOUS
 62
    7
 10
-64.86555450000003
 20
749.47665400000005
 11
-64.802993500000071
 21
749.20461999999998
  0
LINE
  8
_0-0_0
  6
CONTINUOUS
 62
    7
 10
-64.400970500000085
 20
749.40307600000006
 11
-64.544540500000039
 21
749.16369600000007
  0
LINE
  8
_0-0_0
  6
CONTINUOUS
 62
    7
 10
-64.635192500000016
 20
749.42770399999995
 11
-64.544540500000039
 21
749.16369600000007
  0
LINE
  8
_0-0_0
  6
CONTINUOUS
 62
    7
 10
-64.165466500000093
 20
749.40307600000006
 11
-64.283218499999975
 21
749.14999399999999
  0
LINE
  8
_0-0_0
  6
CONTINUOUS
 62
    7
 10
-64.400970500000085
 20
749.40307600000006
 11
-64.283218499999975
 21
749.14999399999999
  0
LINE
  8
_0-0_0
  6
CONTINUOUS
 62
    7
 10
-63.931244500000048
 20
749.42770399999995
 11
-64.021896500000025
 21
749.16369600000007
  0
LINE
  8
_0-0_0
  6
CONTINUOUS
 62
    7
 10
-64.165466500000093
 20
749.40307600000006
 11
-64.021896500000025
 21
749.16369600000007
  0
LINE
  8
_0-0_0
  6
CONTINUOUS
 62
    7
 10
-63.700882500000034
 20
749.47665400000005
 11
-63.763443499999994
 21
749.20461999999998
  0
LINE
  8
_0-0_0
  6
CONTINUOUS
 62
    7
 10
-63.931244500000048
 20
749.42770399999995
 11
-63.763443499999994
 21
749.20461999999998
  0
LINE
  8
_0-0_0
  6
CONTINUOUS
 62
    7
 10
-63.476883499999985
 20
749.54943800000001
 11
-63.510681500000032
 21
749.27233899999999
  0
LINE
  8
_0-0_0
  6
CONTINUOUS
 62
    7
 10
-63.700882500000034
 20
749.47665400000005
 11
-63.510681500000032
 21
749.27233899999999
  0
LINE
  8
_0-0_0
  6
CONTINUOUS
 62
    7
 10
-63.261734500000102
 20
749.64520300000004
 11
-63.266372499999989
 21
749.36611900000003
  0
LINE
  8
_0-0_0
  6
CONTINUOUS
 62
    7
 10
-63.476883499999985
 20
749.54943800000001
 11
-63.266372499999989
 21
749.36611900000003
  0
LINE
  8
_0-0_0
  6
CONTINUOUS
 62
    7
 10
-63.142196500000068
 20
749.56137100000001
 11
-63.033218499999975
 21
749.48492399999998
  0
LINE
  8
_0-0_0
  6
CONTINUOUS
 62
    7
 10
-63.261734500000102
 20
749.64520300000004
 11
-63.142196500000068
 21
749.56137100000001
  0
LINE
  8
_0-0_0
  6
CONTINUOUS
 62
    7
 10
-63.057785500000023
 20
749.76297
 11
-63.033218499999975
 21
749.48492399999998
  0
LINE
  8
_0-0_0
  6
CONTINUOUS
 62
    7
 10
-62.867248500000073
 20
749.90139799999997
 11
-62.81375150000008
 21
749.62744099999998
  0
LINE
  8
_0-0_0
  6
CONTINUOUS
 62
    7
 10
-63.057785500000023
 20
749.76297
 11
-62.81375150000008
 21
749.62744099999998
  0
LINE
  8
_0-0_0
  6
CONTINUOUS
 62
    7
 10
-62.692230500000051
 20
750.05898999999999
 11
-62.61039750000009
 21
749.79211400000008
  0
LINE
  8
_0-0_0
  6
CONTINUOUS
 62
    7
 10
-62.867248500000073
 20
749.90139799999997
 11
-62.61039750000009
 21
749.79211400000008
  0
LINE
  8
_0-0_0
  6
CONTINUOUS
 62
    7
 10
-62.534637500000031
 20
750.23400900000001
 11
-62.425354500000026
 21
749.97717299999999
  0
LINE
  8
_0-0_0
  6
CONTINUOUS
 62
    7
 10
-62.692230500000051
 20
750.05898999999999
 11
-62.425354500000026
 21
749.97717299999999
  0
LINE
  8
_0-0_0
  6
CONTINUOUS
 62
    7
 10
-62.396209500000055
 20
750.42453
 11
-62.260681500000032
 21
750.18051100000002
  0
LINE
  8
_0-0_0
  6
CONTINUOUS
 62
    7
 10
-62.534637500000031
 20
750.23400900000001
 11
-62.260681500000032
 21
750.18051100000002
  0
LINE
  8
_0-0_0
  6
CONTINUOUS
 62
    7
 10
-62.278457500000059
 20
750.62851000000001
 11
-62.118148500000075
 21
750.39999399999999
  0
LINE
  8
_0-0_0
  6
CONTINUOUS
 62
    7
 10
-62.396209500000055
 20
750.42453
 11
-62.118148500000075
 21
750.39999399999999
  0
LINE
  8
_0-0_0
  6
CONTINUOUS
 62
    7
 10
-62.18266349999999
 20
750.843658
 11
-61.999359500000082
 21
750.63314800000001
  0
LINE
  8
_0-0_0
  6
CONTINUOUS
 62
    7
 10
-62.278457500000059
 20
750.62851000000001
 11
-61.999359500000082
 21
750.63314800000001
  0
LINE
  8
_0-0_0
  6
CONTINUOUS
 62
    7
 10
-62.109878500000036
 20
751.06762700000002
 11
-61.905578500000047
 21
750.87744099999998
  0
LINE
  8
_0-0_0
  6
CONTINUOUS
 62
    7
 10
-62.18266349999999
 20
750.843658
 11
-61.905578500000047
 21
750.87744099999998
  0
LINE
  8
_0-0_0
  6
CONTINUOUS
 62
    7
 10
-62.060913500000083
 20
751.29800399999999
 11
-61.837844500000074
 21
751.13018799999998
  0
LINE
  8
_0-0_0
  6
CONTINUOUS
 62
    7
 10
-62.109878500000036
 20
751.06762700000002
 11
-61.837844500000074
 21
751.13018799999998
  0
LINE
  8
_0-0_0
  6
CONTINUOUS
 62
    7
 10
-62.036300500000038
 20
751.53222699999992
 11
-61.796920500000056
 21
751.38867200000004
  0
LINE
  8
_0-0_0
  6
CONTINUOUS
 62
    7
 10
-62.060913500000083
 20
751.29800399999999
 11
-61.796920500000056
 21
751.38867200000004
  0
LINE
  8
_0-0_0
  6
CONTINUOUS
 62
    7
 10
-62.036300500000038
 20
751.76773100000003
 11
-61.783218499999975
 21
751.64999399999999
  0
LINE
  8
_0-0_0
  6
CONTINUOUS
 62
    7
 10
-62.036300500000038
 20
751.53222699999992
 11
-61.783218499999975
 21
751.64999399999999
  0
LINE
  8
_0-0_0
  6
CONTINUOUS
 62
    7
 10
-62.060913500000083
 20
752.00195299999996
 11
-61.796920500000056
 21
751.91131599999994
  0
LINE
  8
_0-0_0
  6
CONTINUOUS
 62
    7
 10
-62.036300500000038
 20
751.76773100000003
 11
-61.796920500000056
 21
751.91131599999994
  0
LINE
  8
_0-0_0
  6
CONTINUOUS
 62
    7
 10
-62.109878500000036
 20
752.23233000000005
 11
-61.837844500000074
 21
752.16976899999997
  0
LINE
  8
_0-0_0
  6
CONTINUOUS
 62
    7
 10
-62.060913500000083
 20
752.00195299999996
 11
-61.837844500000074
 21
752.16976899999997
  0
LINE
  8
_0-0_0
  6
CONTINUOUS
 62
    7
 10
-62.18266349999999
 20
752.45629899999994
 11
-61.905578500000047
 21
752.42251599999997
  0
LINE
  8
_0-0_0
  6
CONTINUOUS
 62
    7
 10
-62.109878500000036
 20
752.23233000000005
 11
-61.905578500000047
 21
752.42251599999997
  0
LINE
  8
_0-0_0
  6
CONTINUOUS
 62
    7
 10
-62.278457500000059
 20
752.67144800000005
 11
-61.999359500000082
 21
752.66680900000006
  0
LINE
  8
_0-0_0
  6
CONTINUOUS
 62
    7
 10
-62.18266349999999
 20
752.45629899999994
 11
-61.999359500000082
 21
752.66680900000006
  0
LINE
  8
_0-0_0
  6
CONTINUOUS
 62
    7
 10
-62.396209500000055
 20
752.87542699999995
 11
-62.118148500000075
 21
752.89999399999999
  0
LINE
  8
_0-0_0
  6
CONTINUOUS
 62
    7
 10
-62.278457500000059
 20
752.67144800000005
 11
-62.118148500000075
 21
752.89999399999999
  0
LINE
  8
_0-0_0
  6
CONTINUOUS
 62
    7
 10
-65.699188499999991
 20
753.39855999999997
 11
-65.752685500000098
 21
753.67251599999997
  0
LINE
  8
_0-0_0
  6
CONTINUOUS
 62
    7
 10
-65.699188499999991
 20
753.39855999999997
 11
-65.956039500000088
 21
753.50784299999998
  0
LINE
  8
_0-0_0
  6
CONTINUOUS
 62
    7
 10
-65.874206500000014
 20
753.24096699999996
 11
-65.956039500000088
 21
753.50784299999998
  0
LINE
  8
_0-0_0
  6
CONTINUOUS
 62
    7
 10
-65.874206500000014
 20
753.24096699999996
 11
-66.141082500000039
 21
753.32281499999999
  0
LINE
  8
_0-0_0
  6
CONTINUOUS
 62
    7
 10
-66.031799500000034
 20
753.06594799999993
 11
-66.141082500000039
 21
753.32281499999999
  0
LINE
  8
_0-0_0
  6
CONTINUOUS
 62
    7
 10
-66.031799500000034
 20
753.06594799999993
 11
-66.305755500000032
 21
753.11944599999993
  0
LINE
  8
_0-0_0
  6
CONTINUOUS
 62
    7
 10
-66.17022750000001
 20
752.87542699999995
 11
-66.305755500000032
 21
753.11944599999993
  0
LINE
  8
_0-0_0
  6
CONTINUOUS
 62
    7
 10
-66.17022750000001
 20
752.87542699999995
 11
-66.44828849999999
 21
752.89999399999999
  0
LINE
  8
_0-0_0
  6
CONTINUOUS
 62
    7
 10
-66.287979500000006
 20
752.67144800000005
 11
-66.44828849999999
 21
752.89999399999999
  0
LINE
  8
_0-0_0
  6
CONTINUOUS
 62
    7
 10
-66.287979500000006
 20
752.67144800000005
 11
-66.567077500000096
 21
752.66680900000006
  0
LINE
  8
_0-0_0
  6
CONTINUOUS
 62
    7
 10
-66.383773500000075
 20
752.45629899999994
 11
-66.567077500000096
 21
752.66680900000006
  0
LINE
  8
_0-0_0
  6
CONTINUOUS
 62
    7
 10
-66.383773500000075
 20
752.45629899999994
 11
-66.660858500000018
 21
752.42251599999997
  0
LINE
  8
_0-0_0
  6
CONTINUOUS
 62
    7
 10
-66.456558500000028
 20
752.23233000000005
 11
-66.660858500000018
 21
752.42251599999997
  0
LINE
  8
_0-0_0
  6
CONTINUOUS
 62
    7
 10
-66.456558500000028
 20
752.23233000000005
 11
-66.728592500000104
 21
752.16976899999997
  0
LINE
  8
_0-0_0
  6
CONTINUOUS
 62
    7
 10
-66.505523499999981
 20
752.00195299999996
 11
-66.728592500000104
 21
752.16976899999997
  0
LINE
  8
_0-0_0
  6
CONTINUOUS
 62
    7
 10
-66.505523499999981
 20
752.00195299999996
 11
-66.769516500000009
 21
751.91131599999994
  0
LINE
  8
_0-0_0
  6
CONTINUOUS
 62
    7
 10
-66.530136500000026
 20
751.76773100000003
 11
-66.769516500000009
 21
751.91131599999994
  0
LINE
  8
_0-0_0
  6
CONTINUOUS
 62
    7
 10
-66.530136500000026
 20
751.76773100000003
 11
-66.783218499999975
 21
751.64999399999999
  0
LINE
  8
_0-0_0
  6
CONTINUOUS
 62
    7
 10
-66.530136500000026
 20
751.53222699999992
 11
-66.783218499999975
 21
751.64999399999999
  0
LINE
  8
_0-0_0
  6
CONTINUOUS
 62
    7
 10
-66.530136500000026
 20
751.53222699999992
 11
-66.769516500000009
 21
751.38867200000004
  0
LINE
  8
_0-0_0
  6
CONTINUOUS
 62
    7
 10
-66.505523499999981
 20
751.29800399999999
 11
-66.769516500000009
 21
751.38867200000004
  0
LINE
  8
_0-0_0
  6
CONTINUOUS
 62
    7
 10
-66.505523499999981
 20
751.29800399999999
 11
-66.728592500000104
 21
751.13018799999998
  0
LINE
  8
_0-0_0
  6
CONTINUOUS
 62
    7
 10
-66.456558500000028
 20
751.06762700000002
 11
-66.728592500000104
 21
751.13018799999998
  0
LINE
  8
_0-0_0
  6
CONTINUOUS
 62
    7
 10
-66.456558500000028
 20
751.06762700000002
 11
-66.660858500000018
 21
750.87744099999998
  0
LINE
  8
_0-0_0
  6
CONTINUOUS
 62
    7
 10
-66.383773500000075
 20
750.843658
 11
-66.660858500000018
 21
750.87744099999998
  0
LINE
  8
_0-0_0
  6
CONTINUOUS
 62
    7
 10
-66.383773500000075
 20
750.843658
 11
-66.567077500000096
 21
750.63314800000001
  0
LINE
  8
_0-0_0
  6
CONTINUOUS
 62
    7
 10
-66.287979500000006
 20
750.62851000000001
 11
-66.567077500000096
 21
750.63314800000001
  0
CIRCLE
  8
_0-0_0
  6
CONTINUOUS
 62
    7
 10
-64.283218499999975
 20
751.64999399999999
 40
2
  0
LINE
  8
_0-0_0
  6
CONTINUOUS
 62
    7
 10
-65.424240499999996
 20
753.73858599999994
 11
-65.533218499999975
 21
753.81506300000001
  0
LINE
  8
_0-0_0
  6
CONTINUOUS
 62
    7
 10
-65.508651500000042
 20
753.53698699999995
 11
-65.533218499999975
 21
753.81506300000001
  0
LINE
  8
_0-0_0
  6
CONTINUOUS
 62
    7
 10
-65.508651500000042
 20
753.53698699999995
 11
-65.752685500000098
 21
753.67251599999997
  0
LINE
  8
_0-0_0
  6
CONTINUOUS
 62
    7
 10
-62.396209500000055
 20
752.87542699999995
 11
-62.260681500000032
 21
753.11944599999993
  0
LINE
  8
_0-0_0
  6
CONTINUOUS
 62
    7
 10
-62.534637500000031
 20
753.06594799999993
 11
-62.260681500000032
 21
753.11944599999993
  0
LINE
  8
_0-0_0
  6
CONTINUOUS
 62
    7
 10
-62.534637500000031
 20
753.06594799999993
 11
-62.425354500000026
 21
753.32281499999999
  0
LINE
  8
_0-0_0
  6
CONTINUOUS
 62
    7
 10
-62.692230500000051
 20
753.24096699999996
 11
-62.425354500000026
 21
753.32281499999999
  0
LINE
  8
_0-0_0
  6
CONTINUOUS
 62
    7
 10
-62.692230500000051
 20
753.24096699999996
 11
-62.61039750000009
 21
753.50784299999998
  0
LINE
  8
_0-0_0
  6
CONTINUOUS
 62
    7
 10
-62.867248500000073
 20
753.39855999999997
 11
-62.61039750000009
 21
753.50784299999998
  0
LINE
  8
_0-0_0
  6
CONTINUOUS
 62
    7
 10
-62.867248500000073
 20
753.39855999999997
 11
-62.81375150000008
 21
753.67251599999997
  0
LINE
  8
_0-0_0
  6
CONTINUOUS
 62
    7
 10
-63.057785500000023
 20
753.53698699999995
 11
-62.81375150000008
 21
753.67251599999997
  0
LINE
  8
_0-0_0
  6
CONTINUOUS
 62
    7
 10
-63.057785500000023
 20
753.53698699999995
 11
-63.033218499999975
 21
753.81506300000001
  0
LINE
  8
_0-0_0
  6
CONTINUOUS
 62
    7
 10
-63.261734500000102
 20
753.65475500000002
 11
-63.033218499999975
 21
753.81506300000001
  0
LINE
  8
_0-0_0
  6
CONTINUOUS
 62
    7
 10
-63.261734500000102
 20
753.65475500000002
 11
-63.266372499999989
 21
753.93383799999992
  0
LINE
  8
_0-0_0
  6
CONTINUOUS
 62
    7
 10
-63.476883499999985
 20
753.75054899999998
 11
-63.266372499999989
 21
753.93383799999992
  0
LINE
  8
_0-0_0
  6
CONTINUOUS
 62
    7
 10
-63.476883499999985
 20
753.75054899999998
 11
-63.510681500000032
 21
754.02761800000007
  0
LINE
  8
_0-0_0
  6
CONTINUOUS
 62
    7
 10
-63.700882500000034
 20
753.82330300000001
 11
-63.510681500000032
 21
754.02761800000007
  0
LINE
  8
_0-0_0
  6
CONTINUOUS
 62
    7
 10
-63.700882500000034
 20
753.82330300000001
 11
-63.763443499999994
 21
754.09533699999997
  0
LINE
  8
_0-0_0
  6
CONTINUOUS
 62
    7
 10
-63.931244500000048
 20
753.87228400000004
 11
-63.763443499999994
 21
754.09533699999997
  0
LINE
  8
_0-0_0
  6
CONTINUOUS
 62
    7
 10
-63.931244500000048
 20
753.87228400000004
 11
-64.021896500000025
 21
754.13629200000003
  0
LINE
  8
_0-0_0
  6
CONTINUOUS
 62
    7
 10
-64.165466500000093
 20
753.89691199999993
 11
-64.021896500000025
 21
754.13629200000003
  0
LINE
  8
_0-0_0
  6
CONTINUOUS
 62
    7
 10
-64.165466500000093
 20
753.89691199999993
 11
-64.283218499999975
 21
754.14999399999999
  0
LINE
  8
_0-0_0
  6
CONTINUOUS
 62
    7
 10
-64.400970500000085
 20
753.89691199999993
 11
-64.283218499999975
 21
754.14999399999999
  0
LINE
  8
_0-0_0
  6
CONTINUOUS
 62
    7
 10
-64.400970500000085
 20
753.89691199999993
 11
-64.544540500000039
 21
754.13629200000003
  0
LINE
  8
_0-0_0
  6
CONTINUOUS
 62
    7
 10
-64.635192500000016
 20
753.87228400000004
 11
-64.544540500000039
 21
754.13629200000003
  0
LINE
  8
_0-0_0
  6
CONTINUOUS
 62
    7
 10
-64.635192500000016
 20
753.87228400000004
 11
-64.802993500000071
 21
754.09533699999997
  0
LINE
  8
_0-0_0
  6
CONTINUOUS
 62
    7
 10
-64.86555450000003
 20
753.82330300000001
 11
-64.802993500000071
 21
754.09533699999997
  0
LINE
  8
_0-0_0
  6
CONTINUOUS
 62
    7
 10
-64.86555450000003
 20
753.82330300000001
 11
-65.055755500000032
 21
754.02761800000007
  0
LINE
  8
_0-0_0
  6
CONTINUOUS
 62
    7
 10
-65.089538500000003
 20
753.75054899999998
 11
-65.055755500000032
 21
754.02761800000007
  0
LINE
  8
_0-0_0
  6
CONTINUOUS
 62
    7
 10
-65.089538500000003
 20
753.75054899999998
 11
-65.300064500000076
 21
753.93383799999992
  0
LINE
  8
_0-0_0
  6
CONTINUOUS
 62
    7
 10
-65.304702500000076
 20
753.65475500000002
 11
-65.300064500000076
 21
753.93383799999992
  0
LINE
  8
_0-0_0
  6
CONTINUOUS
 62
    7
 10
-65.304702500000076
 20
753.65475500000002
 11
-65.424240499999996
 21
753.73858599999994
  0
LINE
  8
_0-0_0
  6
CONTINUOUS
 62
    7
 10
-63.701110500000027
 20
750.64999399999999
 11
-64.865326500000037
 21
750.64999399999999
  0
LINE
  8
_0-0_0
  6
CONTINUOUS
 62
    7
 10
-64.865326500000037
 20
750.64999399999999
 11
-65.433212500000081
 21
751.64999399999999
  0
LINE
  8
_0-0_0
  6
CONTINUOUS
 62
    7
 10
-65.433212500000081
 20
751.64999399999999
 11
-64.865326500000037
 21
752.64999399999999
  0
LINE
  8
_0-0_0
  6
CONTINUOUS
 62
    7
 10
-64.865326500000037
 20
752.64999399999999
 11
-63.701110500000027
 21
752.64999399999999
  0
LINE
  8
_0-0_0
  6
CONTINUOUS
 62
    7
 10
-63.701110500000027
 20
752.64999399999999
 11
-63.133224500000097
 21
751.64999399999999
  0
LINE
  8
_0-0_0
  6
CONTINUOUS
 62
    7
 10
-63.133224500000097
 20
751.64999399999999
 11
-63.701110500000027
 21
750.64999399999999
  0
LINE
  8
_0-0_0
  6
CONTINUOUS
 62
    7
 10
-49.583221500000036
 20
769.05029300000001
 11
-49.583221500000036
 21
769.05627400000003
  0
LINE
  8
_0-0_0
  6
CONTINUOUS
 62
    7
 10
-49.583221500000036
 20
770.25
 11
-49.583587500000021
 21
770.23788500000001
  0
LINE
  8
_0-0_0
  6
CONTINUOUS
 62
    7
 10
-49.583587500000021
 20
749.66210899999999
 11
-49.583221500000036
 21
749.64999399999999
  0
ARC
  8
_0-0_0
  6
CONTINUOUS
 62
    7
 10
-64.783218499999975
 20
768.75
 40
2
 50
90.000003000000007
 51
93.840255999999997
  0
ARC
  8
_0-0_0
  6
CONTINUOUS
 62
    7
 10
-51.783218499999975
 20
751.14999399999999
 40
2
 50
269.99999700000001
 51
273.84026499999999
  0
ENDSEC
  0
EOF
