  0
SECTION
  2
HEADER
  9
$ACADVER
  1
AC1009
  9
$INSBASE
 10
0
 20
0
 30
0
  9
$EXTMIN
 10
0
 20
0
  9
$EXTMAX
 10
1682
 20
1188
  9
$LIMMIN
 10
0
 20
0
  9
$LIMMAX
 10
1682
 20
1188
  9
$LTSCALE
 40
2
  0
ENDSEC
  0
SECTION
  2
TABLES
  0
TABLE
  2
LTYPE
 70
     9
  0
LTYPE
  2
CONTINUOUS
 70
    64
  3
実線
 72
    65
 73
     0
 40
0.0
  0
LTYPE
  2
DASHED1
 70
    64
  3
--  --  --  --  --  --  --  --  
 72
    65
 73
     2
 40
2.5
 49
1.25
 49
-1.25
  0
LTYPE
  2
DASHED2
 70
    64
  3
----    ----    ----    ----    
 72
    65
 73
     2
 40
5.0
 49
2.5
 49
-2.5
  0
LTYPE
  2
DASHED3
 70
    64
  3
------  ------  ------  ------  
 72
    65
 73
     2
 40
5.0
 49
3.75
 49
-1.25
  0
LTYPE
  2
CENTER1
 70
    64
  3
----- - ----- - ----- - ----- - 
 72
    65
 73
     4
 40
10.0
 49
6.25
 49
-1.25
 49
1.25
 49
-1.25
  0
LTYPE
  2
CENTER2
 70
    64
  3
----------  --  ----------  --  
 72
    65
 73
     4
 40
20.0
 49
12.5
 49
-2.5
 49
2.5
 49
-2.5
  0
LTYPE
  2
PHANTOM1
 70
    64
  3
--- - - --- - - --- - - --- - - 
 72
    65
 73
     6
 40
10.0
 49
3.25
 49
-1.25
 49
1.25
 49
-1.25
 49
1.25
 49
-1.25
  0
LTYPE
  2
PHANTOM2
 70
    64
  3
--------  -  -  --------  -  -  
 72
    65
 73
     6
 40
20.0
 49
10.0
 49
-2.5
 49
1.25
 49
-2.5
 49
1.25
 49
-2.5
  0
LTYPE
  2
DOT
 70
    64
  3
-   -   -   -   -   -   -   -   
 72
    65
 73
     2
 40
2.5
 49
0.625
 49
-1.875
  0
LTYPE
  2
DUMMY
 70
    64
  3
ダミー
 72
    65
 73
     0
 40
0.0
  0
LTYPE
  2
RAND1
 70
    64
  3
ランダム線1
 72
    65
 73
     4
 40
10.0
 49
1.0
 49
-2.0
 49
3.0
 49
-4.0
  0
LTYPE
  2
RAND2
 70
    64
  3
ランダム線2
 72
    65
 73
     4
 40
14.0
 49
2.0
 49
-3.0
 49
4.0
 49
-5.0
  0
LTYPE
  2
RAND3
 70
    64
  3
ランダム線3
 72
    65
 73
     4
 40
18.0
 49
3.0
 49
-4.0
 49
5.0
 49
-6.0
  0
LTYPE
  2
RAND4
 70
    64
  3
ランダム線4
 72
    65
 73
     4
 40
22.0
 49
4.0
 49
-5.0
 49
6.0
 49
-7.0
  0
LTYPE
  2
RAND5
 70
    64
  3
ランダム線5
 72
    65
 73
     4
 40
26.0
 49
5.0
 49
-6.0
 49
7.0
 49
-8.0
  0
LTYPE
  2
LONG1
 70
    64
  3
----------  --  ----------  --  
 72
    65
 73
     4
 40
40.0
 49
32.5
 49
-2.5
 49
2.5
 49
-2.5
  0
LTYPE
  2
LONG2
 70
    64
  3
--------  -  -  --------  -  -  
 72
    65
 73
     6
 40
40.0
 49
30.0
 49
-2.5
 49
1.25
 49
-2.5
 49
1.25
 49
-2.5
  0
LTYPE
  2
LONG3
 70
    64
  3
+++++++++++++++..+++++++++++++++
 72
    65
 73
     2
 40
40.0
 49
37.5
 49
-2.5
  0
LTYPE
  2
LONG4
 70
    64
  3
+++++++++++++++..+++++++++++++++
 72
    65
 73
     2
 40
80.0
 49
75.0
 49
-5.0
  0
LTYPE
  2
LONG5
 70
    64
  3
----------  --  ----------  --  
 72
    65
 73
     4
 40
60.0
 49
37.5
 49
-7.5
 49
7.5
 49
-7.5
  0
LTYPE
  2
dashed
 70
   64
  3
-------   -------------   ------
 72
   65
 73
    2
 40
7.5
 49
6
 49
-1.5
  0
LTYPE
  2
dashed_spaced
 70
   64
  3
----        --------        ----
 72
   65
 73
    2
 40
12
 49
6
 49
-6
  0
LTYPE
  2
long_dashed_dotted
 70
   64
  3
------------- --- --------------
 72
   65
 73
    4
 40
15.25
 49
12
 49
-1.5
 49
0.25
 49
-1.5
  0
LTYPE
  2
long_dashed_double-dotted
 70
   64
  3
----------- --- --- ------------
 72
   65
 73
    6
 40
17
 49
12
 49
-1.5
 49
0.25
 49
-1.5
 49
0.25
 49
-1.5
  0
LTYPE
  2
long_dashed_triplicate-dotted
 70
   64
  3
--------- --- --- --- ----------
 72
   65
 73
    8
 40
18.75
 49
12
 49
-1.5
 49
0.25
 49
-1.5
 49
0.25
 49
-1.5
 49
0.25
 49
-1.5
  0
LTYPE
  2
dotted
 70
   64
  3
   -       -       -       -    
 72
   65
 73
    2
 40
1.75
 49
0.25
 49
-1.5
  0
LTYPE
  2
chain
 70
   64
  3
-------------- -- --------------
 72
   65
 73
    4
 40
18.5
 49
12
 49
-1.5
 49
3.5
 49
-1.5
  0
LTYPE
  2
chain_double_dash
 70
   64
  3
------------ -- -- -------------
 72
   65
 73
    6
 40
23.5
 49
12
 49
-1.5
 49
3.5
 49
-1.5
 49
3.5
 49
-1.5
  0
LTYPE
  2
dashed_dotted
 70
   64
  3
-----------     -     ----------
 72
   65
 73
    4
 40
9.25
 49
6
 49
-1.5
 49
0.25
 49
-1.5
  0
LTYPE
  2
double-dashed_dotted
 70
   64
  3
------   -----------   -   -----
 72
   65
 73
    6
 40
16.75
 49
6
 49
-1.5
 49
6
 49
-1.5
 49
0.25
 49
-1.5
  0
LTYPE
  2
dashed_double-dotted
 70
   64
  3
---------    -    -    ---------
 72
   65
 73
    6
 40
11
 49
6
 49
-1.5
 49
0.25
 49
-1.5
 49
0.25
 49
-1.5
  0
LTYPE
  2
double-dashed_double-dotted
 70
   64
  3
-----   ---------   -   -   ----
 72
   65
 73
    8
 40
18.5
 49
6
 49
-1.5
 49
6
 49
-1.5
 49
0.25
 49
-1.5
 49
0.25
 49
-1.5
  0
LTYPE
  2
dashed_triplicate-dotted
 70
   64
  3
-------    -    -    -    ------
 72
   65
 73
    8
 40
12.75
 49
6
 49
-1.5
 49
0.25
 49
-1.5
 49
0.25
 49
-1.5
 49
0.25
 49
-1.5
  0
LTYPE
  2
double-dashed_triplicate-dotted
 70
   64
  3
-----  ---------  -  -  -  -----
 72
   65
 73
   10
 40
20.25
 49
6
 49
-1.5
 49
6
 49
-1.5
 49
0.25
 49
-1.5
 49
0.25
 49
-1.5
 49
0.25
 49
-1.5
  0
LTYPE
  2
undefined
 70
   64
  3
--------------------------------
 72
   65
 73
    0
 40
0
  0
ENDTAB
  0
TABLE
  2
STYLE
  5
3
100
AcDbSymbolTable
 70
     1
  0
STYLE
  5
10
100
AcDbSymbolTableRecord
100
AcDbTextStyleTableRecord
  2
STANDARD
 70
     0
 40
0.0
 41
1.0
 50
0.0
 71
     0
 42
0.2
  3
txt
  4
bigfont.shx
  0
STYLE
  5
26
100
AcDbSymbolTableRecord
100
AcDbTextStyleTableRecord
  2
TATEGAKI
 70
    68
 40
0.0
 41
1.0
 50
0.0
 71
     0
 42
1.0
  3
txt
  4
bigfont.shx
  0
ENDTAB
  0
TABLE
  2
LAYER
 70
    2
  0
LAYER
  2
_0-0_0
 70
   64
 62
    7
  6
CONTINUOUS
  0
LAYER
  2
ADD_LINE
 70
   64
 62
    7
  6
CONTINUOUS
  0
ENDTAB
  0
ENDSEC
  0
SECTION
  2
BLOCKS
  0
ENDSEC
  0
SECTION
  2
ENTITIES
  0
ARC
  8
_0-0_0
  6
CONTINUOUS
 62
    7
 10
271.72778349999999
 20
765.34997599999997
 40
0.2
 50
269.99999700000001
 51
20.376440000000013
  0
LINE
  8
_0-0_0
  6
CONTINUOUS
 62
    7
 10
271.91526749999991
 20
765.41961700000002
 11
270.61526449999997
 21
768.91961700000002
  0
ARC
  8
_0-0_0
  6
CONTINUOUS
 62
    7
 10
270.42778049999993
 20
768.84997599999997
 40
0.2
 50
20.376439999999999
 51
159.62355600000001
  0
LINE
  8
_0-0_0
  6
CONTINUOUS
 62
    7
 10
268.94029249999994
 20
765.41961700000002
 11
270.2402955
 21
768.91961700000002
  0
ARC
  8
_0-0_0
  6
CONTINUOUS
 62
    7
 10
269.12777649999998
 20
765.34997599999997
 40
0.2
 50
159.62355600000001
 51
269.99999700000001
  0
LINE
  8
_0-0_0
  6
CONTINUOUS
 62
    7
 10
269.12777649999998
 20
765.14999399999999
 11
271.72778349999999
 21
765.14999399999999
  0
LINE
  8
_0-0_0
  6
CONTINUOUS
 62
    7
 10
106.49496449999992
 20
813.75271599999996
 11
106.49496449999992
 21
813.75170900000001
  0
LINE
  8
_0-0_0
  6
CONTINUOUS
 62
    7
 10
1489.4277345
 20
802.14999399999999
 11
1489.4277345
 21
789.14999399999999
  0
LINE
  8
_0-0_0
  6
CONTINUOUS
 62
    7
 10
216.42777649999994
 20
802.14999399999999
 11
216.42777649999994
 21
789.14999399999999
  0
LINE
  8
_0-0_0
  6
CONTINUOUS
 62
    7
 10
216.42777649999994
 20
802.14999399999999
 11
1489.4277345
 21
802.14999399999999
  0
LINE
  8
_0-0_0
  6
CONTINUOUS
 62
    7
 10
216.42777649999994
 20
802.14999399999999
 11
216.42777649999994
 21
820.75
  0
LINE
  8
_0-0_0
  6
CONTINUOUS
 62
    7
 10
216.42777649999994
 20
823.25
 11
216.42777649999994
 21
820.75
  0
LINE
  8
_0-0_0
  6
CONTINUOUS
 62
    7
 10
216.42777649999994
 20
823.75
 11
216.42777649999994
 21
823.25
  0
LINE
  8
_0-0_0
  6
CONTINUOUS
 62
    7
 10
216.42777649999994
 20
775.75
 11
216.42777649999994
 21
775.25
  0
LINE
  8
_0-0_0
  6
CONTINUOUS
 62
    7
 10
216.42777649999994
 20
780.75
 11
216.42777649999994
 21
775.75
  0
LINE
  8
_0-0_0
  6
CONTINUOUS
 62
    7
 10
216.42777649999994
 20
781.25
 11
216.42777649999994
 21
780.75
  0
LINE
  8
_0-0_0
  6
CONTINUOUS
 62
    7
 10
216.42777649999994
 20
781.75
 11
216.42777649999994
 21
781.25
  0
LINE
  8
_0-0_0
  6
CONTINUOUS
 62
    7
 10
216.42777649999994
 20
784.94998199999998
 11
216.42777649999994
 21
781.75
  0
LINE
  8
_0-0_0
  6
CONTINUOUS
 62
    7
 10
216.42777649999994
 20
784.94998199999998
 11
216.42777649999994
 21
789.14999399999999
  0
LINE
  8
_0-0_0
  6
CONTINUOUS
 62
    7
 10
216.42777649999994
 20
789.14999399999999
 11
1489.4277345
 21
789.14999399999999
  0
LINE
  8
_0-0_0
  6
CONTINUOUS
 62
    7
 10
1489.4277345
 20
784.94998199999998
 11
1489.4277345
 21
789.14999399999999
  0
LINE
  8
_0-0_0
  6
CONTINUOUS
 62
    7
 10
1489.4277345
 20
781.75
 11
1489.4277345
 21
784.94998199999998
  0
LINE
  8
_0-0_0
  6
CONTINUOUS
 62
    7
 10
1489.4277345
 20
781.75
 11
1489.4277345
 21
781.25
  0
LINE
  8
_0-0_0
  6
CONTINUOUS
 62
    7
 10
1489.4277345
 20
781.25
 11
1489.4277345
 21
780.75
  0
LINE
  8
_0-0_0
  6
CONTINUOUS
 62
    7
 10
1489.4277345
 20
780.75
 11
1489.4277345
 21
775.75
  0
LINE
  8
_0-0_0
  6
CONTINUOUS
 62
    7
 10
1489.4277345
 20
775.75
 11
1489.4277345
 21
775.25
  0
LINE
  8
_0-0_0
  6
CONTINUOUS
 62
    7
 10
1489.4277345
 20
823.75
 11
1489.4277345
 21
823.25
  0
LINE
  8
_0-0_0
  6
CONTINUOUS
 62
    7
 10
1489.4277345
 20
820.75
 11
1489.4277345
 21
823.25
  0
LINE
  8
_0-0_0
  6
CONTINUOUS
 62
    7
 10
1489.4277345
 20
802.14999399999999
 11
1489.4277345
 21
820.75
  0
CIRCLE
  8
_0-0_0
  6
CONTINUOUS
 62
    7
 10
1452.9277345
 20
811.25
 40
6
  0
CIRCLE
  8
_0-0_0
  6
CONTINUOUS
 62
    7
 10
1352.9277345
 20
811.25
 40
6
  0
CIRCLE
  8
_0-0_0
  6
CONTINUOUS
 62
    7
 10
1252.9277345
 20
811.25
 40
6
  0
CIRCLE
  8
_0-0_0
  6
CONTINUOUS
 62
    7
 10
1152.9277955
 20
811.25
 40
6
  0
CIRCLE
  8
_0-0_0
  6
CONTINUOUS
 62
    7
 10
1052.9277955
 20
811.25
 40
6
  0
CIRCLE
  8
_0-0_0
  6
CONTINUOUS
 62
    7
 10
952.9277955
 20
811.25
 40
6
  0
CIRCLE
  8
_0-0_0
  6
CONTINUOUS
 62
    7
 10
852.9277955
 20
811.25
 40
6
  0
CIRCLE
  8
_0-0_0
  6
CONTINUOUS
 62
    7
 10
752.9277955
 20
811.25
 40
6
  0
CIRCLE
  8
_0-0_0
  6
CONTINUOUS
 62
    7
 10
652.9277955
 20
811.25
 40
6
  0
CIRCLE
  8
_0-0_0
  6
CONTINUOUS
 62
    7
 10
552.9277955
 20
811.25
 40
6
  0
CIRCLE
  8
_0-0_0
  6
CONTINUOUS
 62
    7
 10
452.92779549999995
 20
811.25
 40
6
  0
CIRCLE
  8
_0-0_0
  6
CONTINUOUS
 62
    7
 10
352.92778049999993
 20
811.25
 40
6
  0
CIRCLE
  8
_0-0_0
  6
CONTINUOUS
 62
    7
 10
252.92777649999994
 20
811.25
 40
6
  0
LINE
  8
_0-0_0
  6
CONTINUOUS
 62
    7
 10
216.42777649999994
 20
820.75
 11
1489.4277345
 21
820.75
  0
LINE
  8
_0-0_0
  6
CONTINUOUS
 62
    7
 10
216.42777649999994
 20
823.75
 11
1489.4277345
 21
823.75
  0
LINE
  8
_0-0_0
  6
CONTINUOUS
 62
    7
 10
216.42777649999994
 20
823.25
 11
213.92777649999994
 21
823.25
  0
LINE
  8
_0-0_0
  6
CONTINUOUS
 62
    7
 10
213.92777649999994
 20
823.25
 11
213.92777649999994
 21
822.75
  0
LINE
  8
_0-0_0
  6
CONTINUOUS
 62
    7
 10
213.92777649999994
 20
822.75
 11
213.92777649999994
 21
782.25
  0
LINE
  8
_0-0_0
  6
CONTINUOUS
 62
    7
 10
216.42777649999994
 20
781.75
 11
213.92777649999994
 21
781.75
  0
LINE
  8
_0-0_0
  6
CONTINUOUS
 62
    7
 10
213.92777649999994
 20
782.25
 11
213.92777649999994
 21
781.75
  0
LINE
  8
_0-0_0
  6
CONTINUOUS
 62
    7
 10
213.92777649999994
 20
781.75
 11
213.92777649999994
 21
780.75
  0
LINE
  8
_0-0_0
  6
CONTINUOUS
 62
    7
 10
213.92777649999994
 20
780.75
 11
213.92777649999994
 21
776.25
  0
LINE
  8
_0-0_0
  6
CONTINUOUS
 62
    7
 10
216.42777649999994
 20
775.75
 11
213.92777649999994
 21
775.75
  0
LINE
  8
_0-0_0
  6
CONTINUOUS
 62
    7
 10
213.92777649999994
 20
776.25
 11
213.92777649999994
 21
775.75
  0
LINE
  8
_0-0_0
  6
CONTINUOUS
 62
    7
 10
216.42777649999994
 20
775.25
 11
1489.4277345
 21
775.25
  0
LINE
  8
_0-0_0
  6
CONTINUOUS
 62
    7
 10
216.42777649999994
 20
781.25
 11
1489.4277345
 21
781.25
  0
LINE
  8
_0-0_0
  6
CONTINUOUS
 62
    7
 10
216.42777649999994
 20
784.94998199999998
 11
1489.4277345
 21
784.94998199999998
  0
LINE
  8
_0-0_0
  6
CONTINUOUS
 62
    7
 10
1489.4277345
 20
823.25
 11
1491.9277345
 21
823.25
  0
LINE
  8
_0-0_0
  6
CONTINUOUS
 62
    7
 10
1491.9277345
 20
823.25
 11
1491.9277345
 21
822.75
  0
LINE
  8
_0-0_0
  6
CONTINUOUS
 62
    7
 10
1491.9277345
 20
822.75
 11
1491.9277345
 21
782.25
  0
LINE
  8
_0-0_0
  6
CONTINUOUS
 62
    7
 10
1489.4277345
 20
781.75
 11
1491.9277345
 21
781.75
  0
LINE
  8
_0-0_0
  6
CONTINUOUS
 62
    7
 10
1491.9277345
 20
782.25
 11
1491.9277345
 21
781.75
  0
LINE
  8
_0-0_0
  6
CONTINUOUS
 62
    7
 10
1491.9277345
 20
781.75
 11
1491.9277345
 21
780.75
  0
LINE
  8
_0-0_0
  6
CONTINUOUS
 62
    7
 10
1491.9277345
 20
780.75
 11
1491.9277345
 21
776.25
  0
LINE
  8
_0-0_0
  6
CONTINUOUS
 62
    7
 10
1489.4277345
 20
775.75
 11
1491.9277345
 21
775.75
  0
LINE
  8
_0-0_0
  6
CONTINUOUS
 62
    7
 10
1491.9277345
 20
776.25
 11
1491.9277345
 21
775.75
  0
ARC
  8
_0-0_0
  6
CONTINUOUS
 62
    7
 10
273.92778049999993
 20
776.25
 40
0.5
 50
269.99999700000001
 51
0
  0
LINE
  8
_0-0_0
  6
CONTINUOUS
 62
    7
 10
273.92778049999993
 20
775.75
 11
266.92778049999993
 21
775.75
  0
ARC
  8
_0-0_0
  6
CONTINUOUS
 62
    7
 10
266.92778049999993
 20
776.25
 40
0.5
 50
179.99999099999999
 51
269.99999700000001
  0
LINE
  8
_0-0_0
  6
CONTINUOUS
 62
    7
 10
266.42778049999993
 20
780.25
 11
266.42778049999993
 21
776.25
  0
ARC
  8
_0-0_0
  6
CONTINUOUS
 62
    7
 10
266.92778049999993
 20
780.25
 40
0.5
 50
90.000003000000007
 51
179.99999099999999
  0
ARC
  8
_0-0_0
  6
CONTINUOUS
 62
    7
 10
273.92778049999993
 20
780.25
 40
0.5
 50
0
 51
90.000003000000007
  0
LINE
  8
_0-0_0
  6
CONTINUOUS
 62
    7
 10
266.92778049999993
 20
780.75
 11
273.92778049999993
 21
780.75
  0
LINE
  8
_0-0_0
  6
CONTINUOUS
 62
    7
 10
1489.4277345
 20
823.75
 11
1489.4277345
 21
823.44998199999998
  0
LINE
  8
_0-0_0
  6
CONTINUOUS
 62
    7
 10
1489.4277345
 20
823.44998199999998
 11
1489.4277345
 21
823.25
  0
CIRCLE
  8
_0-0_0
  6
CONTINUOUS
 62
    7
 10
1452.9277345
 20
811.25
 40
5.5
  0
CIRCLE
  8
_0-0_0
  6
CONTINUOUS
 62
    7
 10
1352.9277345
 20
811.25
 40
5.5
  0
CIRCLE
  8
_0-0_0
  6
CONTINUOUS
 62
    7
 10
1252.9277345
 20
811.25
 40
5.5
  0
CIRCLE
  8
_0-0_0
  6
CONTINUOUS
 62
    7
 10
1152.9277955
 20
811.25
 40
5.5
  0
CIRCLE
  8
_0-0_0
  6
CONTINUOUS
 62
    7
 10
1052.9277955
 20
811.25
 40
5.5
  0
CIRCLE
  8
_0-0_0
  6
CONTINUOUS
 62
    7
 10
952.9277955
 20
811.25
 40
5.5
  0
CIRCLE
  8
_0-0_0
  6
CONTINUOUS
 62
    7
 10
852.9277955
 20
811.25
 40
5.5
  0
CIRCLE
  8
_0-0_0
  6
CONTINUOUS
 62
    7
 10
752.9277955
 20
811.25
 40
5.5
  0
CIRCLE
  8
_0-0_0
  6
CONTINUOUS
 62
    7
 10
652.9277955
 20
811.25
 40
5.5
  0
CIRCLE
  8
_0-0_0
  6
CONTINUOUS
 62
    7
 10
552.9277955
 20
811.25
 40
5.5
  0
CIRCLE
  8
_0-0_0
  6
CONTINUOUS
 62
    7
 10
452.92779549999995
 20
811.25
 40
5.5
  0
CIRCLE
  8
_0-0_0
  6
CONTINUOUS
 62
    7
 10
352.92778049999993
 20
811.25
 40
5.5
  0
CIRCLE
  8
_0-0_0
  6
CONTINUOUS
 62
    7
 10
252.92777649999994
 20
811.25
 40
5.5
  0
LINE
  8
_0-0_0
  6
CONTINUOUS
 62
    7
 10
274.42778049999993
 20
776.25
 11
274.42778049999993
 21
780.25
  0
CIRCLE
  8
_0-0_0
  6
CONTINUOUS
 62
    7
 10
1452.9277345
 20
811.25
 40
3.5
  0
CIRCLE
  8
_0-0_0
  6
CONTINUOUS
 62
    7
 10
1352.9277345
 20
811.25
 40
3.5
  0
CIRCLE
  8
_0-0_0
  6
CONTINUOUS
 62
    7
 10
1252.9277345
 20
811.25
 40
3.5
  0
CIRCLE
  8
_0-0_0
  6
CONTINUOUS
 62
    7
 10
1152.9277955
 20
811.25
 40
3.5
  0
CIRCLE
  8
_0-0_0
  6
CONTINUOUS
 62
    7
 10
1052.9277955
 20
811.25
 40
3.5
  0
CIRCLE
  8
_0-0_0
  6
CONTINUOUS
 62
    7
 10
952.9277955
 20
811.25
 40
3.5
  0
CIRCLE
  8
_0-0_0
  6
CONTINUOUS
 62
    7
 10
852.9277955
 20
811.25
 40
3.5
  0
CIRCLE
  8
_0-0_0
  6
CONTINUOUS
 62
    7
 10
752.9277955
 20
811.25
 40
3.5
  0
CIRCLE
  8
_0-0_0
  6
CONTINUOUS
 62
    7
 10
652.9277955
 20
811.25
 40
3.5
  0
CIRCLE
  8
_0-0_0
  6
CONTINUOUS
 62
    7
 10
552.9277955
 20
811.25
 40
3.5
  0
CIRCLE
  8
_0-0_0
  6
CONTINUOUS
 62
    7
 10
452.92779549999995
 20
811.25
 40
3.5
  0
CIRCLE
  8
_0-0_0
  6
CONTINUOUS
 62
    7
 10
352.92778049999993
 20
811.25
 40
3.5
  0
CIRCLE
  8
_0-0_0
  6
CONTINUOUS
 62
    7
 10
252.92777649999994
 20
811.25
 40
3.5
  0
ARC
  8
_0-0_0
  6
CONTINUOUS
 62
    7
 10
271.72778349999999
 20
779.94998199999998
 40
0.2
 50
339.62356199999999
 51
90.000002999999978
  0
LINE
  8
_0-0_0
  6
CONTINUOUS
 62
    7
 10
271.91526749999991
 20
779.88034100000004
 11
270.61526449999997
 21
776.38034100000004
  0
ARC
  8
_0-0_0
  6
CONTINUOUS
 62
    7
 10
270.42778049999993
 20
776.44998199999998
 40
0.2
 50
200.37643
 51
339.62356199999999
  0
LINE
  8
_0-0_0
  6
CONTINUOUS
 62
    7
 10
268.94029249999994
 20
779.88034100000004
 11
270.2402955
 21
776.38034100000004
  0
ARC
  8
_0-0_0
  6
CONTINUOUS
 62
    7
 10
269.12777649999998
 20
779.94998199999998
 40
0.2
 50
90.000003000000007
 51
200.37643
  0
LINE
  8
_0-0_0
  6
CONTINUOUS
 62
    7
 10
269.12777649999998
 20
780.14999399999999
 11
271.72778349999999
 21
780.14999399999999
  0
ARC
  8
_0-0_0
  6
CONTINUOUS
 62
    7
 10
1409.1276854999999
 20
779.94998199999998
 40
0.2
 50
90.000003000000007
 51
200.37643
  0
LINE
  8
_0-0_0
  6
CONTINUOUS
 62
    7
 10
1409.1276854999999
 20
780.14999399999999
 11
1411.7277835
 21
780.14999399999999
  0
ARC
  8
_0-0_0
  6
CONTINUOUS
 62
    7
 10
1406.9277345
 20
780.25
 40
0.5
 50
90.000003000000007
 51
179.99999099999999
  0
LINE
  8
_0-0_0
  6
CONTINUOUS
 62
    7
 10
1406.4277345
 20
780.25
 11
1406.4277345
 21
776.25
  0
ARC
  8
_0-0_0
  6
CONTINUOUS
 62
    7
 10
1406.9277345
 20
776.25
 40
0.5
 50
179.99999099999999
 51
269.99999700000001
  0
LINE
  8
_0-0_0
  6
CONTINUOUS
 62
    7
 10
1413.9277345
 20
775.75
 11
1406.9277345
 21
775.75
  0
ARC
  8
_0-0_0
  6
CONTINUOUS
 62
    7
 10
1413.9277345
 20
776.25
 40
0.5
 50
269.99999700000001
 51
0
  0
LINE
  8
_0-0_0
  6
CONTINUOUS
 62
    7
 10
1414.4277345
 20
776.25
 11
1414.4277345
 21
780.25
  0
ARC
  8
_0-0_0
  6
CONTINUOUS
 62
    7
 10
1413.9277345
 20
780.25
 40
0.5
 50
0
 51
90.000003000000007
  0
LINE
  8
_0-0_0
  6
CONTINUOUS
 62
    7
 10
1406.9277345
 20
780.75
 11
1413.9277345
 21
780.75
  0
LINE
  8
_0-0_0
  6
CONTINUOUS
 62
    7
 10
1408.9403075
 20
779.88034100000004
 11
1410.2402345
 21
776.38034100000004
  0
ARC
  8
_0-0_0
  6
CONTINUOUS
 62
    7
 10
1410.4277345
 20
776.44998199999998
 40
0.2
 50
200.37643
 51
339.62356199999999
  0
LINE
  8
_0-0_0
  6
CONTINUOUS
 62
    7
 10
1411.9151615000001
 20
779.88034100000004
 11
1410.6152345
 21
776.38034100000004
  0
ARC
  8
_0-0_0
  6
CONTINUOUS
 62
    7
 10
1411.7277835
 20
779.94998199999998
 40
0.2
 50
339.62356199999999
 51
90.000002999999978
  0
LINE
  8
_0-0_0
  6
CONTINUOUS
 62
    7
 10
222.92777649999994
 20
773.25
 11
227.92777649999994
 21
773.25
  0
LINE
  8
_0-0_0
  6
CONTINUOUS
 62
    7
 10
227.92777649999994
 20
773.25
 11
229.7277795
 21
773.25
  0
LINE
  8
_0-0_0
  6
CONTINUOUS
 62
    7
 10
229.7277795
 20
773.25
 11
230.42777649999994
 21
773.25
  0
ARC
  8
_0-0_0
  6
CONTINUOUS
 62
    7
 10
229.7277795
 20
772.75
 40
0.5
 50
0
 51
90.000003000000007
  0
ARC
  8
_0-0_0
  6
CONTINUOUS
 62
    7
 10
222.92777649999994
 20
772.75
 40
0.5
 50
90.000003000000007
 51
179.99999099999999
  0
ARC
  8
_0-0_0
  6
CONTINUOUS
 62
    7
 10
326.42778049999993
 20
772.75
 40
0.5
 50
0
 51
90.000003000000007
  0
LINE
  8
_0-0_0
  6
CONTINUOUS
 62
    7
 10
230.42777649999994
 20
773.25
 11
230.42777649999994
 21
771.75
  0
LINE
  8
_0-0_0
  6
CONTINUOUS
 62
    7
 10
230.42777649999994
 20
773.75
 11
230.42777649999994
 21
773.25
  0
LINE
  8
_0-0_0
  6
CONTINUOUS
 62
    7
 10
230.42777649999994
 20
774.25
 11
230.42777649999994
 21
773.75
  0
LINE
  8
_0-0_0
  6
CONTINUOUS
 62
    7
 10
230.42777649999994
 20
775.25
 11
230.42777649999994
 21
774.25
  0
LINE
  8
_0-0_0
  6
CONTINUOUS
 62
    7
 10
234.42777649999994
 20
773.25
 11
235.12777349999999
 21
773.25
  0
LINE
  8
_0-0_0
  6
CONTINUOUS
 62
    7
 10
230.2277795
 20
772.75
 11
230.2277795
 21
771.75
  0
LINE
  8
_0-0_0
  6
CONTINUOUS
 62
    7
 10
233.42777649999994
 20
746.25
 11
233.42777649999994
 21
747.84997599999997
  0
LINE
  8
_0-0_0
  6
CONTINUOUS
 62
    7
 10
233.42777649999994
 20
746.25
 11
227.92777649999994
 21
746.25
  0
LINE
  8
_0-0_0
  6
CONTINUOUS
 62
    7
 10
249.42777649999994
 20
752.94998199999998
 11
291.42778049999993
 21
752.94998199999998
  0
LINE
  8
_0-0_0
  6
CONTINUOUS
 62
    7
 10
249.42777649999994
 20
772.54998799999998
 11
291.42778049999993
 21
772.54998799999998
  0
LINE
  8
_0-0_0
  6
CONTINUOUS
 62
    7
 10
312.92778049999993
 20
746.25
 11
303.42778049999993
 21
746.25
  0
LINE
  8
_0-0_0
  6
CONTINUOUS
 62
    7
 10
303.42778049999993
 20
746.25
 11
303.42778049999993
 21
747.84997599999997
  0
ARC
  8
_0-0_0
  6
CONTINUOUS
 62
    7
 10
303.12777649999998
 20
747.84997599999997
 40
0.2999999999999999
 50
0
 51
90.000003000000007
  0
LINE
  8
_0-0_0
  6
CONTINUOUS
 62
    7
 10
302.42778049999993
 20
748.14999399999999
 11
303.12777649999998
 21
748.14999399999999
  0
LINE
  8
_0-0_0
  6
CONTINUOUS
 62
    7
 10
301.92778049999993
 20
748.54998799999998
 11
302.42778049999993
 21
748.54998799999998
  0
LINE
  8
_0-0_0
  6
CONTINUOUS
 62
    7
 10
288.42778049999993
 20
748.54998799999998
 11
301.92778049999993
 21
748.54998799999998
  0
ARC
  8
_0-0_0
  6
CONTINUOUS
 62
    7
 10
285.92778049999993
 20
748.54998799999998
 40
2.5
 50
0
 51
90.000003000000007
  0
LINE
  8
_0-0_0
  6
CONTINUOUS
 62
    7
 10
254.92778049999993
 20
751.04998799999998
 11
285.92778049999993
 21
751.04998799999998
  0
ARC
  8
_0-0_0
  6
CONTINUOUS
 62
    7
 10
254.92778049999993
 20
748.54998799999998
 40
2.5
 50
90.000003000000007
 51
179.99999099999999
  0
LINE
  8
_0-0_0
  6
CONTINUOUS
 62
    7
 10
234.92777649999994
 20
748.54998799999998
 11
252.42777649999994
 21
748.54998799999998
  0
LINE
  8
_0-0_0
  6
CONTINUOUS
 62
    7
 10
234.42777649999994
 20
748.54998799999998
 11
234.92777649999994
 21
748.54998799999998
  0
LINE
  8
_0-0_0
  6
CONTINUOUS
 62
    7
 10
233.7277795
 20
748.14999399999999
 11
234.42777649999994
 21
748.14999399999999
  0
ARC
  8
_0-0_0
  6
CONTINUOUS
 62
    7
 10
233.7277795
 20
747.84997599999997
 40
0.2999999999999999
 50
90.000003000000007
 51
179.99999099999999
  0
LINE
  8
_0-0_0
  6
CONTINUOUS
 62
    7
 10
222.42777649999994
 20
770.97485400000005
 11
222.42777649999994
 21
772.75
  0
LINE
  8
_0-0_0
  6
CONTINUOUS
 62
    7
 10
227.42777649999994
 20
773.75
 11
227.42777649999994
 21
773.25
  0
LINE
  8
_0-0_0
  6
CONTINUOUS
 62
    7
 10
227.42777649999994
 20
769.80355800000007
 11
227.42777649999994
 21
769.90853900000002
  0
LINE
  8
_0-0_0
  6
CONTINUOUS
 62
    7
 10
227.42777649999994
 20
773.75
 11
227.42777649999994
 21
775.24996899999996
  0
LINE
  8
_0-0_0
  6
CONTINUOUS
 62
    7
 10
326.92778049999993
 20
775.24996899999996
 11
326.92778049999993
 21
773.75
  0
LINE
  8
_0-0_0
  6
CONTINUOUS
 62
    7
 10
326.92778049999993
 20
773.75
 11
326.92778049999993
 21
772.75
  0
LINE
  8
_0-0_0
  6
CONTINUOUS
 62
    7
 10
326.92778049999993
 20
771.94998199999998
 11
326.92778049999993
 21
772.75
  0
LINE
  8
_0-0_0
  6
CONTINUOUS
 62
    7
 10
326.42778049999993
 20
773.25
 11
326.92778049999993
 21
773.25
  0
LINE
  8
_0-0_0
  6
CONTINUOUS
 62
    7
 10
313.92778049999993
 20
773.25
 11
326.42778049999993
 21
773.25
  0
LINE
  8
_0-0_0
  6
CONTINUOUS
 62
    7
 10
326.92778049999993
 20
775.25
 11
326.92778049999993
 21
774.25
  0
LINE
  8
_0-0_0
  6
CONTINUOUS
 62
    7
 10
326.92778049999993
 20
773.75
 11
326.92778049999993
 21
773.25
  0
LINE
  8
_0-0_0
  6
CONTINUOUS
 62
    7
 10
326.92778049999993
 20
774.25
 11
326.92778049999993
 21
773.75
  0
ARC
  8
_0-0_0
  6
CONTINUOUS
 62
    7
 10
232.42777649999994
 20
771.75
 40
2
 50
179.99999099999999
 51
0
  0
LINE
  8
_0-0_0
  6
CONTINUOUS
 62
    7
 10
313.42778049999993
 20
773.25
 11
313.92778049999993
 21
773.25
  0
LINE
  8
_0-0_0
  6
CONTINUOUS
 62
    7
 10
313.42778049999993
 20
772.75
 11
313.42778049999993
 21
773.25
  0
LINE
  8
_0-0_0
  6
CONTINUOUS
 62
    7
 10
313.42778049999993
 20
771.75
 11
313.42778049999993
 21
771.94998199999998
  0
ARC
  8
_0-0_0
  6
CONTINUOUS
 62
    7
 10
311.42778049999993
 20
771.75
 40
2
 50
179.99999099999999
 51
0
  0
LINE
  8
_0-0_0
  6
CONTINUOUS
 62
    7
 10
309.42778049999993
 20
773.25
 11
309.42778049999993
 21
771.75
  0
LINE
  8
_0-0_0
  6
CONTINUOUS
 62
    7
 10
308.72778349999999
 20
773.25
 11
309.42778049999993
 21
773.25
  0
LINE
  8
_0-0_0
  6
CONTINUOUS
 62
    7
 10
234.42777649999994
 20
771.75
 11
234.42777649999994
 21
773.25
  0
LINE
  8
_0-0_0
  6
CONTINUOUS
 62
    7
 10
230.42777649999994
 20
774.25
 11
326.92778049999993
 21
774.25
  0
ARC
  8
_0-0_0
  6
CONTINUOUS
 62
    7
 10
235.12777349999999
 20
772.75
 40
0.5
 50
90.000003000000007
 51
179.99999099999999
  0
ARC
  8
_0-0_0
  6
CONTINUOUS
 62
    7
 10
232.42777649999994
 20
771.75
 40
2.2000000000000002
 50
179.99999099999999
 51
0
  0
LINE
  8
_0-0_0
  6
CONTINUOUS
 62
    7
 10
234.42777649999994
 20
748.14999399999999
 11
234.92777649999994
 21
748.14999399999999
  0
LINE
  8
_0-0_0
  6
CONTINUOUS
 62
    7
 10
234.92777649999994
 20
748.54998799999998
 11
234.92777649999994
 21
748.14999399999999
  0
LINE
  8
_0-0_0
  6
CONTINUOUS
 62
    7
 10
252.42777649999994
 20
748.54998799999998
 11
288.42778049999993
 21
748.54998799999998
  0
LINE
  8
_0-0_0
  6
CONTINUOUS
 62
    7
 10
301.92778049999993
 20
748.14999399999999
 11
302.42778049999993
 21
748.14999399999999
  0
LINE
  8
_0-0_0
  6
CONTINUOUS
 62
    7
 10
301.92778049999993
 20
748.54998799999998
 11
301.92778049999993
 21
748.14999399999999
  0
LINE
  8
_0-0_0
  6
CONTINUOUS
 62
    7
 10
312.92778049999993
 20
745.75
 11
303.92778049999993
 21
745.75
  0
ARC
  8
_0-0_0
  6
CONTINUOUS
 62
    7
 10
303.92778049999993
 20
746.25
 40
0.5
 50
179.99999099999999
 51
269.99999700000001
  0
LINE
  8
_0-0_0
  6
CONTINUOUS
 62
    7
 10
312.92778049999993
 20
746.25
 11
313.42778049999993
 21
746.25
  0
LINE
  8
_0-0_0
  6
CONTINUOUS
 62
    7
 10
313.42778049999993
 20
746.25
 11
313.42778049999993
 21
746.44998199999998
  0
LINE
  8
_0-0_0
  6
CONTINUOUS
 62
    7
 10
317.92778049999993
 20
746.64999399999999
 11
313.62777649999998
 21
746.64999399999999
  0
LINE
  8
_0-0_0
  6
CONTINUOUS
 62
    7
 10
318.42778049999993
 20
747.14999399999999
 11
318.42778049999993
 21
748.92511000000002
  0
ARC
  8
_0-0_0
  6
CONTINUOUS
 62
    7
 10
315.37982149999993
 20
748.86898799999994
 40
3.0490550000000001
 50
1.0548960000000001
 51
14.838094000000002
  0
LINE
  8
_0-0_0
  6
CONTINUOUS
 62
    7
 10
317.92778049999993
 20
749.84997599999997
 11
313.56024149999996
 21
749.84997599999997
  0
LINE
  8
_0-0_0
  6
CONTINUOUS
 62
    7
 10
313.42778049999993
 20
749.99142499999994
 11
313.42778049999993
 21
750.33367900000007
  0
ARC
  8
_0-0_0
  6
CONTINUOUS
 62
    7
 10
311.42778049999993
 20
771.75
 40
2.2000000000000002
 50
179.99999099999999
 51
303.74900400000001
  0
LINE
  8
_0-0_0
  6
CONTINUOUS
 62
    7
 10
309.22778349999999
 20
772.75
 11
309.22778349999999
 21
771.75
  0
LINE
  8
_0-0_0
  6
CONTINUOUS
 62
    7
 10
308.72778349999999
 20
773.25
 11
235.12777349999999
 21
773.25
  0
LINE
  8
_0-0_0
  6
CONTINUOUS
 62
    7
 10
234.62777349999999
 20
771.75
 11
234.62777349999999
 21
772.75
  0
LINE
  8
_0-0_0
  6
CONTINUOUS
 62
    7
 10
235.12777349999999
 20
771.54998799999998
 11
235.12777349999999
 21
771.75
  0
ARC
  8
_0-0_0
  6
CONTINUOUS
 62
    7
 10
236.12777349999999
 20
771.54998799999998
 40
1
 50
90.000003000000007
 51
179.99999099999999
  0
LINE
  8
_0-0_0
  6
CONTINUOUS
 62
    7
 10
236.12777349999999
 20
772.54998799999998
 11
249.42777649999994
 21
772.54998799999998
  0
LINE
  8
_0-0_0
  6
CONTINUOUS
 62
    7
 10
291.42778049999993
 20
772.54998799999998
 11
305.42778049999993
 21
772.54998799999998
  0
ARC
  8
_0-0_0
  6
CONTINUOUS
 62
    7
 10
305.42778049999993
 20
769.54998799999998
 40
3
 50
0
 51
90.000003000000007
  0
LINE
  8
_0-0_0
  6
CONTINUOUS
 62
    7
 10
308.42778049999993
 20
755.94998199999998
 11
308.42778049999993
 21
769.54998799999998
  0
ARC
  8
_0-0_0
  6
CONTINUOUS
 62
    7
 10
305.42778049999993
 20
755.94998199999998
 40
3
 50
269.99999700000001
 51
0
  0
LINE
  8
_0-0_0
  6
CONTINUOUS
 62
    7
 10
305.42778049999993
 20
752.94998199999998
 11
291.42778049999993
 21
752.94998199999998
  0
LINE
  8
_0-0_0
  6
CONTINUOUS
 62
    7
 10
249.42777649999994
 20
752.94998199999998
 11
235.42777649999994
 21
752.94998199999998
  0
ARC
  8
_0-0_0
  6
CONTINUOUS
 62
    7
 10
235.42777649999994
 20
755.94998199999998
 40
3
 50
179.99999099999999
 51
269.99999700000001
  0
LINE
  8
_0-0_0
  6
CONTINUOUS
 62
    7
 10
232.42777649999994
 20
768.18768299999999
 11
232.42777649999994
 21
755.94998199999998
  0
ARC
  8
_0-0_0
  6
CONTINUOUS
 62
    7
 10
233.42777649999994
 20
768.18768299999999
 40
1
 50
105.68034800000001
 51
179.99999100000002
  0
ARC
  8
_0-0_0
  6
CONTINUOUS
 62
    7
 10
225.47574950000001
 20
771.03097500000001
 40
3.0490550000000001
 50
181.05489
 51
194.838089
  0
LINE
  8
_0-0_0
  6
CONTINUOUS
 62
    7
 10
227.2953144999999
 20
770.04998799999998
 11
222.92777649999994
 21
770.04998799999998
  0
LINE
  8
_0-0_0
  6
CONTINUOUS
 62
    7
 10
227.42777649999994
 20
749.99142499999994
 11
227.42777649999994
 21
750.096405
  0
LINE
  8
_0-0_0
  6
CONTINUOUS
 62
    7
 10
227.2953144999999
 20
749.84997599999997
 11
222.92777649999994
 21
749.84997599999997
  0
ARC
  8
_0-0_0
  6
CONTINUOUS
 62
    7
 10
225.4769245
 20
748.86834700000009
 40
3.050319
 50
165.15540799999999
 51
178.932897
  0
LINE
  8
_0-0_0
  6
CONTINUOUS
 62
    7
 10
222.42777649999994
 20
747.14999399999999
 11
222.42777649999994
 21
748.92511000000002
  0
LINE
  8
_0-0_0
  6
CONTINUOUS
 62
    7
 10
227.2277795
 20
746.64999399999999
 11
222.92777649999994
 21
746.64999399999999
  0
LINE
  8
_0-0_0
  6
CONTINUOUS
 62
    7
 10
227.42777649999994
 20
746.25
 11
227.42777649999994
 21
746.44998199999998
  0
LINE
  8
_0-0_0
  6
CONTINUOUS
 62
    7
 10
227.42777649999994
 20
746.25
 11
227.92777649999994
 21
746.25
  0
LINE
  8
_0-0_0
  6
CONTINUOUS
 62
    7
 10
232.92777649999994
 20
745.75
 11
227.92777649999994
 21
745.75
  0
ARC
  8
_0-0_0
  6
CONTINUOUS
 62
    7
 10
232.92777649999994
 20
746.25
 40
0.5
 50
269.99999700000001
 51
0
  0
LINE
  8
_0-0_0
  6
CONTINUOUS
 62
    7
 10
222.74602849999997
 20
770.04998799999998
 11
222.72568849999993
 21
770.05099500000006
  0
LINE
  8
_0-0_0
  6
CONTINUOUS
 62
    7
 10
222.72568849999993
 20
770.05099500000006
 11
222.70527249999998
 21
770.05413799999997
  0
LINE
  8
_0-0_0
  6
CONTINUOUS
 62
    7
 10
222.70527249999998
 20
770.05413799999997
 11
222.67846249999991
 21
770.06173699999999
  0
LINE
  8
_0-0_0
  6
CONTINUOUS
 62
    7
 10
222.67846249999991
 20
770.06173699999999
 11
222.65281249999998
 21
770.07312000000002
  0
LINE
  8
_0-0_0
  6
CONTINUOUS
 62
    7
 10
222.65281249999998
 20
770.07312000000002
 11
222.62900949999994
 21
770.08798200000001
  0
LINE
  8
_0-0_0
  6
CONTINUOUS
 62
    7
 10
222.62900949999994
 20
770.08798200000001
 11
222.61225449999995
 21
770.10150099999998
  0
LINE
  8
_0-0_0
  6
CONTINUOUS
 62
    7
 10
222.61225449999995
 20
770.10150099999998
 11
222.59675249999998
 21
770.11672999999996
  0
LINE
  8
_0-0_0
  6
CONTINUOUS
 62
    7
 10
222.59675249999998
 20
770.11672999999996
 11
222.56985049999992
 21
770.15136699999994
  0
LINE
  8
_0-0_0
  6
CONTINUOUS
 62
    7
 10
222.56985049999992
 20
770.15136699999994
 11
222.54880849999995
 21
770.18969700000002
  0
LINE
  8
_0-0_0
  6
CONTINUOUS
 62
    7
 10
222.54880849999995
 20
770.18969700000002
 11
222.53681549999999
 21
770.21963499999993
  0
LINE
  8
_0-0_0
  6
CONTINUOUS
 62
    7
 10
222.53681549999999
 20
770.21963499999993
 11
222.52778249999994
 21
770.25
  0
LINE
  8
_0-0_0
  6
CONTINUOUS
 62
    7
 10
222.43897649999997
 20
770.75
 11
215.42777649999994
 21
770.75
  0
LINE
  8
_0-0_0
  6
CONTINUOUS
 62
    7
 10
215.42777649999994
 20
770.75
 11
210.75233049999997
 21
770.75
  0
LINE
  8
_0-0_0
  6
CONTINUOUS
 62
    7
 10
215.42777649999994
 20
770.75
 11
215.42777649999994
 21
768.75
  0
LINE
  8
_0-0_0
  6
CONTINUOUS
 62
    7
 10
227.42777649999994
 20
768.75
 11
227.42777649999994
 21
769.80355800000007
  0
ARC
  8
_0-0_0
  6
CONTINUOUS
 62
    7
 10
326.42778049999993
 20
771.94998199999998
 40
0.5
 50
269.99999700000001
 51
0
  0
ARC
  8
_0-0_0
  6
CONTINUOUS
 62
    7
 10
313.92778049999993
 20
772.75
 40
0.5
 50
90.000003000000007
 51
179.99999099999999
  0
LINE
  8
_0-0_0
  6
CONTINUOUS
 62
    7
 10
313.42778049999993
 20
771.94998199999998
 11
313.42778049999993
 21
772.75
  0
LINE
  8
_0-0_0
  6
CONTINUOUS
 62
    7
 10
233.62777349999999
 20
748.13284299999998
 11
233.62777349999999
 21
746.14999399999999
  0
LINE
  8
_0-0_0
  6
CONTINUOUS
 62
    7
 10
233.62777349999999
 20
746.14999399999999
 11
234.62777349999999
 21
746.14999399999999
  0
LINE
  8
_0-0_0
  6
CONTINUOUS
 62
    7
 10
234.92777649999994
 20
748.14999399999999
 11
301.92778049999993
 21
748.14999399999999
  0
LINE
  8
_0-0_0
  6
CONTINUOUS
 62
    7
 10
234.62777349999999
 20
746.14999399999999
 11
302.22778349999999
 21
746.14999399999999
  0
LINE
  8
_0-0_0
  6
CONTINUOUS
 62
    7
 10
302.22778349999999
 20
746.14999399999999
 11
303.22778349999999
 21
746.14999399999999
  0
LINE
  8
_0-0_0
  6
CONTINUOUS
 62
    7
 10
303.22778349999999
 20
748.13284299999998
 11
303.22778349999999
 21
746.14999399999999
  0
LINE
  8
_0-0_0
  6
CONTINUOUS
 62
    7
 10
313.42778049999993
 20
746.25
 11
312.92778049999993
 21
745.75
  0
ARC
  8
_0-0_0
  6
CONTINUOUS
 62
    7
 10
313.62777649999998
 20
746.44998199999998
 40
0.2
 50
90.000003000000007
 51
179.99999099999999
  0
ARC
  8
_0-0_0
  6
CONTINUOUS
 62
    7
 10
317.92778049999993
 20
747.14999399999999
 40
0.5
 50
269.99999700000001
 51
0
  0
LINE
  8
_0-0_0
  6
CONTINUOUS
 62
    7
 10
318.10951249999994
 20
749.84997599999997
 11
318.12986749999993
 21
749.84896900000001
  0
LINE
  8
_0-0_0
  6
CONTINUOUS
 62
    7
 10
318.12986749999993
 20
749.84896900000001
 11
318.15028349999989
 21
749.84582499999999
  0
LINE
  8
_0-0_0
  6
CONTINUOUS
 62
    7
 10
318.15028349999989
 20
749.84582499999999
 11
318.17710849999992
 21
749.83822600000008
  0
LINE
  8
_0-0_0
  6
CONTINUOUS
 62
    7
 10
318.17710849999992
 20
749.83822600000008
 11
318.2027435
 21
749.82687399999998
  0
LINE
  8
_0-0_0
  6
CONTINUOUS
 62
    7
 10
318.2027435
 20
749.82687399999998
 11
318.22654749999992
 21
749.81198100000006
  0
LINE
  8
_0-0_0
  6
CONTINUOUS
 62
    7
 10
318.22654749999992
 20
749.81198100000006
 11
318.24330149999992
 21
749.79846199999997
  0
LINE
  8
_0-0_0
  6
CONTINUOUS
 62
    7
 10
318.24330149999992
 20
749.79846199999997
 11
318.2588045
 21
749.78326399999992
  0
LINE
  8
_0-0_0
  6
CONTINUOUS
 62
    7
 10
318.2588045
 20
749.78326399999992
 11
318.28569049999999
 21
749.74859600000002
  0
LINE
  8
_0-0_0
  6
CONTINUOUS
 62
    7
 10
318.28569049999999
 20
749.74859600000002
 11
318.30674750000003
 21
749.71026600000005
  0
LINE
  8
_0-0_0
  6
CONTINUOUS
 62
    7
 10
318.30674750000003
 20
749.71026600000005
 11
318.31874049999999
 21
749.68035899999995
  0
LINE
  8
_0-0_0
  6
CONTINUOUS
 62
    7
 10
318.31874049999999
 20
749.68035899999995
 11
318.32777349999992
 21
749.64999399999999
  0
LINE
  8
_0-0_0
  6
CONTINUOUS
 62
    7
 10
318.10951249999994
 20
749.84997599999997
 11
317.92778049999993
 21
749.84997599999997
  0
LINE
  8
_0-0_0
  6
CONTINUOUS
 62
    7
 10
313.42778049999993
 20
768.29998799999998
 11
313.42778049999993
 21
770.79998799999998
  0
LINE
  8
_0-0_0
  6
CONTINUOUS
 62
    7
 10
313.42778049999993
 20
768.29998799999998
 11
313.42778049999993
 21
751.79998799999998
  0
LINE
  8
_0-0_0
  6
CONTINUOUS
 62
    7
 10
313.42778049999993
 20
750.33367900000007
 11
313.42778049999993
 21
751.79998799999998
  0
ARC
  8
_0-0_0
  6
CONTINUOUS
 62
    7
 10
312.92778049999993
 20
769.50500499999998
 40
0.5
 50
0
 51
123.74898500000002
  0
ARC
  8
_0-0_0
  6
CONTINUOUS
 62
    7
 10
313.59806849999995
 20
750.02328499999999
 40
0.1734229999999999
 50
181.12417600000003
 51
270.64883800000007
  0
LINE
  8
_0-0_0
  6
CONTINUOUS
 62
    7
 10
313.4237364999999
 20
750.04998799999998
 11
313.4238284999999
 21
750.01986699999998
  0
ARC
  8
_0-0_0
  6
CONTINUOUS
 62
    7
 10
308.72778349999999
 20
772.75
 40
0.5
 50
0
 51
90.000003000000007
  0
ARC
  8
_0-0_0
  6
CONTINUOUS
 62
    7
 10
232.42777649999994
 20
771.75
 40
2.7000000000000002
 50
285.68033600000007
 51
0.0000000000000381
  0
ARC
  8
_0-0_0
  6
CONTINUOUS
 62
    7
 10
249.42777649999994
 20
755.94998199999998
 40
3
 50
269.99999700000001
 51
0
  0
LINE
  8
_0-0_0
  6
CONTINUOUS
 62
    7
 10
252.42777649999994
 20
755.94998199999998
 11
252.42777649999994
 21
769.54998799999998
  0
ARC
  8
_0-0_0
  6
CONTINUOUS
 62
    7
 10
249.42777649999994
 20
769.54998799999998
 40
3
 50
0
 51
90.000003000000007
  0
ARC
  8
_0-0_0
  6
CONTINUOUS
 62
    7
 10
244.92777649999994
 20
765.25
 40
4.5
 50
269.99999700000001
 51
90.000002999999992
  0
LINE
  8
_0-0_0
  6
CONTINUOUS
 62
    7
 10
244.92777649999994
 20
760.75
 11
239.92777649999994
 21
760.75
  0
ARC
  8
_0-0_0
  6
CONTINUOUS
 62
    7
 10
239.92777649999994
 20
765.25
 40
4.5
 50
90.000003000000007
 51
269.99999700000006
  0
LINE
  8
_0-0_0
  6
CONTINUOUS
 62
    7
 10
239.92777649999994
 20
769.75
 11
244.92777649999994
 21
769.75
  0
ARC
  8
_0-0_0
  6
CONTINUOUS
 62
    7
 10
291.42778049999993
 20
755.94998199999998
 40
3
 50
179.99999099999999
 51
269.99999700000001
  0
LINE
  8
_0-0_0
  6
CONTINUOUS
 62
    7
 10
288.42778049999993
 20
769.54998799999998
 11
288.42778049999993
 21
755.94998199999998
  0
ARC
  8
_0-0_0
  6
CONTINUOUS
 62
    7
 10
291.42778049999993
 20
769.54998799999998
 40
3
 50
90.000003000000007
 51
179.99999099999999
  0
ARC
  8
_0-0_0
  6
CONTINUOUS
 62
    7
 10
300.92778049999993
 20
765.25
 40
4.5
 50
269.99999700000001
 51
90.000002999999992
  0
LINE
  8
_0-0_0
  6
CONTINUOUS
 62
    7
 10
300.92778049999993
 20
760.75
 11
295.92778049999993
 21
760.75
  0
ARC
  8
_0-0_0
  6
CONTINUOUS
 62
    7
 10
295.92778049999993
 20
765.25
 40
4.5
 50
90.000003000000007
 51
269.99999700000006
  0
LINE
  8
_0-0_0
  6
CONTINUOUS
 62
    7
 10
295.92778049999993
 20
769.75
 11
300.92778049999993
 21
769.75
  0
LINE
  8
_0-0_0
  6
CONTINUOUS
 62
    7
 10
222.92777649999994
 20
770.04998799999998
 11
222.74602849999997
 21
770.04998799999998
  0
LINE
  8
_0-0_0
  6
CONTINUOUS
 62
    7
 10
227.42777649999994
 20
768.75
 11
227.42777649999994
 21
751.14999399999999
  0
LINE
  8
_0-0_0
  6
CONTINUOUS
 62
    7
 10
227.42777649999994
 20
750.096405
 11
227.42777649999994
 21
751.14999399999999
  0
ARC
  8
_0-0_0
  6
CONTINUOUS
 62
    7
 10
227.25748849999991
 20
750.02328499999999
 40
0.1734209999999999
 50
269.35085600000002
 51
358.87625300000002
  0
LINE
  8
_0-0_0
  6
CONTINUOUS
 62
    7
 10
227.43181949999996
 20
750.04998799999998
 11
227.43174349999993
 21
750.01986699999998
  0
LINE
  8
_0-0_0
  6
CONTINUOUS
 62
    7
 10
227.43181949999996
 20
769.84997599999997
 11
227.43174349999993
 21
769.88012700000002
  0
ARC
  8
_0-0_0
  6
CONTINUOUS
 62
    7
 10
227.25748849999991
 20
769.87670900000001
 40
0.1734219999999999
 50
1.1236539999999999
 51
90.649110000000007
  0
LINE
  8
_0-0_0
  6
CONTINUOUS
 62
    7
 10
222.92777649999994
 20
749.84997599999997
 11
222.74602849999997
 21
749.84997599999997
  0
LINE
  8
_0-0_0
  6
CONTINUOUS
 62
    7
 10
222.74602849999997
 20
749.84997599999997
 11
222.72568849999993
 21
749.84896900000001
  0
LINE
  8
_0-0_0
  6
CONTINUOUS
 62
    7
 10
222.72568849999993
 20
749.84896900000001
 11
222.70527249999998
 21
749.84582499999999
  0
LINE
  8
_0-0_0
  6
CONTINUOUS
 62
    7
 10
222.70527249999998
 20
749.84582499999999
 11
222.67846249999991
 21
749.83822600000008
  0
LINE
  8
_0-0_0
  6
CONTINUOUS
 62
    7
 10
222.67846249999991
 20
749.83822600000008
 11
222.65281249999998
 21
749.82687399999998
  0
LINE
  8
_0-0_0
  6
CONTINUOUS
 62
    7
 10
222.65281249999998
 20
749.82687399999998
 11
222.62900949999994
 21
749.81198100000006
  0
LINE
  8
_0-0_0
  6
CONTINUOUS
 62
    7
 10
222.62900949999994
 20
749.81198100000006
 11
222.61225449999995
 21
749.79846199999997
  0
LINE
  8
_0-0_0
  6
CONTINUOUS
 62
    7
 10
222.61225449999995
 20
749.79846199999997
 11
222.59675249999998
 21
749.78326399999992
  0
LINE
  8
_0-0_0
  6
CONTINUOUS
 62
    7
 10
222.59675249999998
 20
749.78326399999992
 11
222.56985049999992
 21
749.74859600000002
  0
LINE
  8
_0-0_0
  6
CONTINUOUS
 62
    7
 10
222.56985049999992
 20
749.74859600000002
 11
222.54880849999995
 21
749.71026600000005
  0
LINE
  8
_0-0_0
  6
CONTINUOUS
 62
    7
 10
222.54880849999995
 20
749.71026600000005
 11
222.53681549999999
 21
749.68035899999995
  0
LINE
  8
_0-0_0
  6
CONTINUOUS
 62
    7
 10
222.53681549999999
 20
749.68035899999995
 11
222.52778249999994
 21
749.64999399999999
  0
ARC
  8
_0-0_0
  6
CONTINUOUS
 62
    7
 10
222.92777649999994
 20
747.14999399999999
 40
0.5
 50
179.99999099999999
 51
269.99999700000001
  0
ARC
  8
_0-0_0
  6
CONTINUOUS
 62
    7
 10
227.2277795
 20
746.44998199999998
 40
0.2
 50
0
 51
90.000003000000007
  0
LINE
  8
_0-0_0
  6
CONTINUOUS
 62
    7
 10
227.42777649999994
 20
746.25
 11
227.92777649999994
 21
745.75
  0
ARC
  8
_0-0_0
  6
CONTINUOUS
 62
    7
 10
210.75233049999997
 20
768.75
 40
2
 50
90.000003000000007
 51
108.434997
  0
LINE
  8
_0-0_0
  6
CONTINUOUS
 62
    7
 10
215.42777649999994
 20
768.25
 11
215.42777649999994
 21
768.75
  0
LINE
  8
_0-0_0
  6
CONTINUOUS
 62
    7
 10
215.42777649999994
 20
765.25
 11
215.42777649999994
 21
764.75
  0
LINE
  8
_0-0_0
  6
CONTINUOUS
 62
    7
 10
215.42777649999994
 20
765.25
 11
215.42777649999994
 21
768.25
  0
ARC
  8
_0-0_0
  6
CONTINUOUS
 62
    7
 10
221.42779150000001
 20
765.44998199999998
 40
0.500016
 50
0.001164
 51
179.99560600000004
  0
LINE
  8
_0-0_0
  6
CONTINUOUS
 62
    7
 10
220.92777649999994
 20
765.44998199999998
 11
220.92777649999994
 21
753.44998199999998
  0
ARC
  8
_0-0_0
  6
CONTINUOUS
 62
    7
 10
221.42779150000001
 20
753.45001200000002
 40
0.500016
 50
180.00117
 51
359.995611
  0
LINE
  8
_0-0_0
  6
CONTINUOUS
 62
    7
 10
221.92777649999994
 20
765.44998199999998
 11
221.92777649999994
 21
753.44998199999998
  0
ARC
  8
_0-0_0
  6
CONTINUOUS
 62
    7
 10
219.92779150000001
 20
765.44998199999998
 40
0.500016
 50
0.001164
 51
179.99560600000004
  0
LINE
  8
_0-0_0
  6
CONTINUOUS
 62
    7
 10
219.42777649999994
 20
765.44998199999998
 11
219.42777649999994
 21
753.44998199999998
  0
ARC
  8
_0-0_0
  6
CONTINUOUS
 62
    7
 10
219.92779150000001
 20
753.45001200000002
 40
0.500016
 50
180.00117
 51
359.995611
  0
LINE
  8
_0-0_0
  6
CONTINUOUS
 62
    7
 10
220.42777649999994
 20
765.44998199999998
 11
220.42777649999994
 21
753.44998199999998
  0
ARC
  8
_0-0_0
  6
CONTINUOUS
 62
    7
 10
218.42779150000001
 20
765.44998199999998
 40
0.500016
 50
0.001164
 51
179.99560600000004
  0
LINE
  8
_0-0_0
  6
CONTINUOUS
 62
    7
 10
217.92777649999994
 20
765.44998199999998
 11
217.92777649999994
 21
753.44998199999998
  0
ARC
  8
_0-0_0
  6
CONTINUOUS
 62
    7
 10
218.42779150000001
 20
753.45001200000002
 40
0.500016
 50
180.00117
 51
359.995611
  0
LINE
  8
_0-0_0
  6
CONTINUOUS
 62
    7
 10
218.92777649999994
 20
765.44998199999998
 11
218.92777649999994
 21
753.44998199999998
  0
ARC
  8
_0-0_0
  6
CONTINUOUS
 62
    7
 10
216.92779150000001
 20
765.44998199999998
 40
0.500016
 50
0.001164
 51
179.99560600000004
  0
LINE
  8
_0-0_0
  6
CONTINUOUS
 62
    7
 10
216.42777649999994
 20
765.44998199999998
 11
216.42777649999994
 21
753.44998199999998
  0
ARC
  8
_0-0_0
  6
CONTINUOUS
 62
    7
 10
216.92779150000001
 20
753.45001200000002
 40
0.500016
 50
180.00117
 51
359.995611
  0
LINE
  8
_0-0_0
  6
CONTINUOUS
 62
    7
 10
217.42777649999994
 20
765.44998199999998
 11
217.42777649999994
 21
753.44998199999998
  0
LINE
  8
_0-0_0
  6
CONTINUOUS
 62
    7
 10
313.42778049999993
 20
771.44998199999998
 11
313.92778049999993
 21
771.44998199999998
  0
LINE
  8
_0-0_0
  6
CONTINUOUS
 62
    7
 10
313.92778049999993
 20
771.44998199999998
 11
326.42778049999993
 21
771.44998199999998
  0
ARC
  8
_0-0_0
  6
CONTINUOUS
 62
    7
 10
313.92778049999993
 20
771.94998199999998
 40
0.5
 50
179.99999099999999
 51
269.99999700000001
  0
LINE
  8
_0-0_0
  6
CONTINUOUS
 62
    7
 10
313.42778049999993
 20
771.08395399999995
 11
313.42778049999993
 21
771.44998199999998
  0
LINE
  8
_0-0_0
  6
CONTINUOUS
 62
    7
 10
313.42778049999993
 20
770.83346600000004
 11
313.42778049999993
 21
770.79998799999998
  0
LINE
  8
_0-0_0
  6
CONTINUOUS
 62
    7
 10
313.42778049999993
 20
771.08395399999995
 11
313.42778049999993
 21
770.83346600000004
  0
CIRCLE
  8
_0-0_0
  6
CONTINUOUS
 62
    7
 10
232.42777649999994
 20
771.75
 40
1.4750000000000001
  0
CIRCLE
  8
_0-0_0
  6
CONTINUOUS
 62
    7
 10
311.42778049999993
 20
771.75
 40
1.4750000000000001
  0
LINE
  8
_0-0_0
  6
CONTINUOUS
 62
    7
 10
313.42778049999993
 20
746.09997599999997
 11
313.42778049999993
 21
746.25
  0
LINE
  8
_0-0_0
  6
CONTINUOUS
 62
    7
 10
318.92778049999993
 20
746.09997599999997
 11
313.42778049999993
 21
746.09997599999997
  0
LINE
  8
_0-0_0
  6
CONTINUOUS
 62
    7
 10
318.92778049999993
 20
748.64999399999999
 11
318.42778049999993
 21
748.64999399999999
  0
LINE
  8
_0-0_0
  6
CONTINUOUS
 62
    7
 10
313.92778049999993
 20
771.29998799999998
 11
313.42778049999993
 21
770.79998799999998
  0
LINE
  8
_0-0_0
  6
CONTINUOUS
 62
    7
 10
313.92778049999993
 20
771.29998799999998
 11
318.92778049999993
 21
771.29998799999998
  0
LINE
  8
_0-0_0
  6
CONTINUOUS
 62
    7
 10
222.43897649999997
 20
749.14999399999999
 11
210.75233049999997
 21
749.14999399999999
  0
LINE
  8
_0-0_0
  6
CONTINUOUS
 62
    7
 10
209.67777649999994
 20
770.49996899999996
 11
210.11986949999994
 21
770.64733899999999
  0
LINE
  8
_0-0_0
  6
CONTINUOUS
 62
    7
 10
205.95342649999998
 20
765.25
 11
205.26006649999999
 21
765.25
  0
LINE
  8
_0-0_0
  6
CONTINUOUS
 62
    7
 10
205.95342649999998
 20
765.25
 11
210.27799549999997
 21
765.25
  0
LINE
  8
_0-0_0
  6
CONTINUOUS
 62
    7
 10
210.75233049999997
 20
765.25
 11
210.27799549999997
 21
765.25
  0
LINE
  8
_0-0_0
  6
CONTINUOUS
 62
    7
 10
215.42777649999994
 20
765.25
 11
210.75233049999997
 21
765.25
  0
LINE
  8
_0-0_0
  6
CONTINUOUS
 62
    7
 10
313.42778049999993
 20
745.95355199999995
 11
313.42778049999993
 21
746.09997599999997
  0
LINE
  8
_0-0_0
  6
CONTINUOUS
 62
    7
 10
313.42778049999993
 20
745.89642300000003
 11
313.42778049999993
 21
745.95355199999995
  0
LINE
  8
_0-0_0
  6
CONTINUOUS
 62
    7
 10
313.42778049999993
 20
745.75
 11
313.42778049999993
 21
745.89642300000003
  0
ARC
  8
_0-0_0
  6
CONTINUOUS
 62
    7
 10
318.92778049999993
 20
746.59997599999997
 40
0.5
 50
269.99999700000001
 51
0
  0
LINE
  8
_0-0_0
  6
CONTINUOUS
 62
    7
 10
319.42778049999993
 20
748.15570100000002
 11
319.42778049999993
 21
746.59997599999997
  0
ARC
  8
_0-0_0
  6
CONTINUOUS
 62
    7
 10
318.94087249999995
 20
748.15234400000008
 40
0.4869939999999999
 50
0.394923
 51
23.93947
  0
ARC
  8
_0-0_0
  6
CONTINUOUS
 62
    7
 10
318.92778049999993
 20
748.14999399999999
 40
0.5
 50
23.578231000000002
 51
90.000002999999992
  0
LINE
  8
_0-0_0
  6
CONTINUOUS
 62
    7
 10
319.42778049999993
 20
768.29998799999998
 11
319.42778049999993
 21
770.79998799999998
  0
ARC
  8
_0-0_0
  6
CONTINUOUS
 62
    7
 10
318.92778049999993
 20
770.79998799999998
 40
0.5
 50
0
 51
90.000003000000007
  0
LINE
  8
_0-0_0
  6
CONTINUOUS
 62
    7
 10
318.92778049999993
 20
755
 11
316.72778349999999
 21
755
  0
LINE
  8
_0-0_0
  6
CONTINUOUS
 62
    7
 10
319.42778049999993
 20
768.29998799999998
 11
319.42778049999993
 21
755.5
  0
LINE
  8
_0-0_0
  6
CONTINUOUS
 62
    7
 10
316.42778049999993
 20
754.69998199999998
 11
316.42778049999993
 21
752.12167399999998
  0
LINE
  8
_0-0_0
  6
CONTINUOUS
 62
    7
 10
246.39931849999994
 20
761.14999399999999
 11
238.45623349999994
 21
761.14999399999999
  0
ARC
  8
_0-0_0
  6
CONTINUOUS
 62
    7
 10
238.45623349999994
 20
761.64999399999999
 40
0.5
 50
210.00000299999999
 51
269.99999700000001
  0
LINE
  8
_0-0_0
  6
CONTINUOUS
 62
    7
 10
238.02321949999998
 20
761.39999399999999
 11
235.94475949999992
 21
765
  0
ARC
  8
_0-0_0
  6
CONTINUOUS
 62
    7
 10
236.37777349999999
 20
765.25
 40
0.5
 50
149.99999700000001
 51
210.00000299999996
  0
LINE
  8
_0-0_0
  6
CONTINUOUS
 62
    7
 10
235.94475949999992
 20
765.5
 11
238.02321949999998
 21
769.09997599999997
  0
ARC
  8
_0-0_0
  6
CONTINUOUS
 62
    7
 10
238.45623349999994
 20
768.84997599999997
 40
0.5
 50
90.000003000000007
 51
149.99999700000001
  0
LINE
  8
_0-0_0
  6
CONTINUOUS
 62
    7
 10
238.45623349999994
 20
769.34997599999997
 11
246.39931849999994
 21
769.34997599999997
  0
ARC
  8
_0-0_0
  6
CONTINUOUS
 62
    7
 10
246.39931849999994
 20
768.84997599999997
 40
0.5
 50
30.000001000000001
 51
90.000003000000007
  0
LINE
  8
_0-0_0
  6
CONTINUOUS
 62
    7
 10
246.83233250000001
 20
769.09997599999997
 11
248.91079349999995
 21
765.5
  0
ARC
  8
_0-0_0
  6
CONTINUOUS
 62
    7
 10
248.4777795
 20
765.25
 40
0.5
 50
329.99998900000003
 51
30.000000999999983
  0
LINE
  8
_0-0_0
  6
CONTINUOUS
 62
    7
 10
248.91079349999995
 20
765
 11
246.83233250000001
 21
761.39999399999999
  0
ARC
  8
_0-0_0
  6
CONTINUOUS
 62
    7
 10
246.39931849999994
 20
761.64999399999999
 40
0.5
 50
269.99999700000001
 51
329.99998900000003
  0
ARC
  8
_0-0_0
  6
CONTINUOUS
 62
    7
 10
294.39851349999992
 20
761.75
 40
0.5
 50
210.00000299999999
 51
269.99999700000001
  0
LINE
  8
_0-0_0
  6
CONTINUOUS
 62
    7
 10
293.96549949999996
 20
761.5
 11
291.94477849999998
 21
765
  0
ARC
  8
_0-0_0
  6
CONTINUOUS
 62
    7
 10
292.37777649999998
 20
765.25
 40
0.5
 50
149.99999700000001
 51
210.00000299999996
  0
LINE
  8
_0-0_0
  6
CONTINUOUS
 62
    7
 10
291.94477849999998
 20
765.5
 11
293.96549949999996
 21
769
  0
ARC
  8
_0-0_0
  6
CONTINUOUS
 62
    7
 10
294.39851349999992
 20
768.75
 40
0.5
 50
90.000003000000007
 51
149.99999700000001
  0
LINE
  8
_0-0_0
  6
CONTINUOUS
 62
    7
 10
294.39851349999992
 20
769.25
 11
302.45706150000001
 21
769.25
  0
ARC
  8
_0-0_0
  6
CONTINUOUS
 62
    7
 10
302.45706150000001
 20
768.75
 40
0.5
 50
30.000001000000001
 51
90.000003000000007
  0
LINE
  8
_0-0_0
  6
CONTINUOUS
 62
    7
 10
302.89007549999997
 20
769
 11
304.91079649999995
 21
765.5
  0
ARC
  8
_0-0_0
  6
CONTINUOUS
 62
    7
 10
304.47778349999999
 20
765.25
 40
0.5
 50
329.99998900000003
 51
30.000000999999983
  0
LINE
  8
_0-0_0
  6
CONTINUOUS
 62
    7
 10
304.91079649999995
 20
765
 11
302.89007549999997
 21
761.5
  0
ARC
  8
_0-0_0
  6
CONTINUOUS
 62
    7
 10
302.45706150000001
 20
761.75
 40
0.5
 50
269.99999700000001
 51
329.99998900000003
  0
LINE
  8
_0-0_0
  6
CONTINUOUS
 62
    7
 10
302.45706150000001
 20
761.25
 11
294.39851349999992
 21
761.25
  0
LINE
  8
_0-0_0
  6
CONTINUOUS
 62
    7
 10
210.11986949999994
 20
749.25262500000008
 11
210.23936049999998
 21
749.21701000000007
  0
LINE
  8
_0-0_0
  6
CONTINUOUS
 62
    7
 10
210.23936049999998
 20
749.21701000000007
 11
210.3609275
 21
749.18911700000001
  0
LINE
  8
_0-0_0
  6
CONTINUOUS
 62
    7
 10
210.3609275
 20
749.18911700000001
 11
210.48405049999997
 21
749.16906700000004
  0
LINE
  8
_0-0_0
  6
CONTINUOUS
 62
    7
 10
210.48405049999997
 20
749.16906700000004
 11
210.6082725
 21
749.15695200000005
  0
LINE
  8
_0-0_0
  6
CONTINUOUS
 62
    7
 10
210.6082725
 20
749.15695200000005
 11
210.73310449999997
 21
749.15283199999999
  0
LINE
  8
_0-0_0
  6
CONTINUOUS
 62
    7
 10
210.73310449999997
 20
749.15283199999999
 11
210.75233049999997
 21
749.15289299999995
  0
ARC
  8
_0-0_0
  6
CONTINUOUS
 62
    7
 10
210.75233049999997
 20
751.14999399999999
 40
2
 50
251.56498899999997
 51
269.99999700000001
  0
LINE
  8
_0-0_0
  6
CONTINUOUS
 62
    7
 10
204.42777649999994
 20
766.00003100000004
 11
204.42777649999994
 21
764.87899800000002
  0
LINE
  8
_0-0_0
  6
CONTINUOUS
 62
    7
 10
232.62777349999999
 20
770.64999399999999
 11
232.2277795
 21
770.64999399999999
  0
LINE
  8
_0-0_0
  6
CONTINUOUS
 62
    7
 10
232.62777349999999
 20
770.64999399999999
 11
232.62777349999999
 21
771.29998799999998
  0
ARC
  8
_0-0_0
  6
CONTINUOUS
 62
    7
 10
232.87777349999999
 20
771.29998799999998
 40
0.25
 50
90.000003000000007
 51
179.99999099999999
  0
LINE
  8
_0-0_0
  6
CONTINUOUS
 62
    7
 10
232.87777349999999
 20
771.54998799999998
 11
233.52778249999994
 21
771.54998799999998
  0
LINE
  8
_0-0_0
  6
CONTINUOUS
 62
    7
 10
233.52778249999994
 20
771.54998799999998
 11
233.52778249999994
 21
771.94998199999998
  0
LINE
  8
_0-0_0
  6
CONTINUOUS
 62
    7
 10
232.87777349999999
 20
771.94998199999998
 11
233.52778249999994
 21
771.94998199999998
  0
ARC
  8
_0-0_0
  6
CONTINUOUS
 62
    7
 10
232.87777349999999
 20
772.19998199999998
 40
0.25
 50
179.99999099999999
 51
269.99999700000001
  0
LINE
  8
_0-0_0
  6
CONTINUOUS
 62
    7
 10
232.62777349999999
 20
772.84997599999997
 11
232.62777349999999
 21
772.19998199999998
  0
LINE
  8
_0-0_0
  6
CONTINUOUS
 62
    7
 10
232.62777349999999
 20
772.84997599999997
 11
232.2277795
 21
772.84997599999997
  0
LINE
  8
_0-0_0
  6
CONTINUOUS
 62
    7
 10
232.2277795
 20
772.84997599999997
 11
232.2277795
 21
772.19998199999998
  0
ARC
  8
_0-0_0
  6
CONTINUOUS
 62
    7
 10
231.9777795
 20
772.19998199999998
 40
0.25
 50
269.99999700000001
 51
0
  0
LINE
  8
_0-0_0
  6
CONTINUOUS
 62
    7
 10
231.9777795
 20
771.94998199999998
 11
231.32777049999993
 21
771.94998199999998
  0
LINE
  8
_0-0_0
  6
CONTINUOUS
 62
    7
 10
231.32777049999993
 20
771.54998799999998
 11
231.32777049999993
 21
771.94998199999998
  0
LINE
  8
_0-0_0
  6
CONTINUOUS
 62
    7
 10
231.9777795
 20
771.54998799999998
 11
231.32777049999993
 21
771.54998799999998
  0
ARC
  8
_0-0_0
  6
CONTINUOUS
 62
    7
 10
231.9777795
 20
771.29998799999998
 40
0.25
 50
0
 51
90.000003000000007
  0
LINE
  8
_0-0_0
  6
CONTINUOUS
 62
    7
 10
232.2277795
 20
770.64999399999999
 11
232.2277795
 21
771.29998799999998
  0
LINE
  8
_0-0_0
  6
CONTINUOUS
 62
    7
 10
311.62777649999998
 20
770.64999399999999
 11
311.22778349999999
 21
770.64999399999999
  0
LINE
  8
_0-0_0
  6
CONTINUOUS
 62
    7
 10
311.62777649999998
 20
770.64999399999999
 11
311.62777649999998
 21
771.29998799999998
  0
ARC
  8
_0-0_0
  6
CONTINUOUS
 62
    7
 10
311.87777649999998
 20
771.29998799999998
 40
0.25
 50
90.000003000000007
 51
179.99999099999999
  0
LINE
  8
_0-0_0
  6
CONTINUOUS
 62
    7
 10
311.87777649999998
 20
771.54998799999998
 11
312.52778649999993
 21
771.54998799999998
  0
LINE
  8
_0-0_0
  6
CONTINUOUS
 62
    7
 10
312.52778649999993
 20
771.54998799999998
 11
312.52778649999993
 21
771.94998199999998
  0
LINE
  8
_0-0_0
  6
CONTINUOUS
 62
    7
 10
311.87777649999998
 20
771.94998199999998
 11
312.52778649999993
 21
771.94998199999998
  0
ARC
  8
_0-0_0
  6
CONTINUOUS
 62
    7
 10
311.87777649999998
 20
772.19998199999998
 40
0.25
 50
179.99999099999999
 51
269.99999700000001
  0
LINE
  8
_0-0_0
  6
CONTINUOUS
 62
    7
 10
311.62777649999998
 20
772.84997599999997
 11
311.62777649999998
 21
772.19998199999998
  0
LINE
  8
_0-0_0
  6
CONTINUOUS
 62
    7
 10
311.62777649999998
 20
772.84997599999997
 11
311.22778349999999
 21
772.84997599999997
  0
LINE
  8
_0-0_0
  6
CONTINUOUS
 62
    7
 10
311.22778349999999
 20
772.84997599999997
 11
311.22778349999999
 21
772.19998199999998
  0
ARC
  8
_0-0_0
  6
CONTINUOUS
 62
    7
 10
310.97778349999999
 20
772.19998199999998
 40
0.25
 50
269.99999700000001
 51
0
  0
LINE
  8
_0-0_0
  6
CONTINUOUS
 62
    7
 10
310.97778349999999
 20
771.94998199999998
 11
310.32778949999999
 21
771.94998199999998
  0
LINE
  8
_0-0_0
  6
CONTINUOUS
 62
    7
 10
310.32778949999999
 20
771.54998799999998
 11
310.32778949999999
 21
771.94998199999998
  0
LINE
  8
_0-0_0
  6
CONTINUOUS
 62
    7
 10
310.97778349999999
 20
771.54998799999998
 11
310.32778949999999
 21
771.54998799999998
  0
ARC
  8
_0-0_0
  6
CONTINUOUS
 62
    7
 10
310.97778349999999
 20
771.29998799999998
 40
0.25
 50
0
 51
90.000003000000007
  0
LINE
  8
_0-0_0
  6
CONTINUOUS
 62
    7
 10
311.22778349999999
 20
770.64999399999999
 11
311.22778349999999
 21
771.29998799999998
  0
LINE
  8
_0-0_0
  6
CONTINUOUS
 62
    7
 10
318.92778049999993
 20
745.75
 11
313.42778049999993
 21
745.75
  0
LINE
  8
_0-0_0
  6
CONTINUOUS
 62
    7
 10
319.42778049999993
 20
752
 11
319.42778049999993
 21
755.5
  0
LINE
  8
_0-0_0
  6
CONTINUOUS
 62
    7
 10
319.42778049999993
 20
752
 11
319.42778049999993
 21
751.64999399999999
  0
LINE
  8
_0-0_0
  6
CONTINUOUS
 62
    7
 10
319.42778049999993
 20
748.15570100000002
 11
319.42778049999993
 21
751.64999399999999
  0
LINE
  8
_0-0_0
  6
CONTINUOUS
 62
    7
 10
319.42778049999993
 20
746.307098
 11
319.42778049999993
 21
746.59997599999997
  0
LINE
  8
_0-0_0
  6
CONTINUOUS
 62
    7
 10
319.42778049999993
 20
746.307098
 11
319.42778049999993
 21
746.25
  0
LINE
  8
_0-0_0
  6
CONTINUOUS
 62
    7
 10
316.42778049999993
 20
750.57128899999998
 11
316.42778049999993
 21
752.12167399999998
  0
LINE
  8
_0-0_0
  6
CONTINUOUS
 62
    7
 10
316.42778049999993
 20
749.85012800000004
 11
316.42778049999993
 21
750.57128899999998
  0
ARC
  8
_0-0_0
  6
CONTINUOUS
 62
    7
 10
318.92778049999993
 20
755.5
 40
0.5
 50
269.99999700000001
 51
0
  0
ARC
  8
_0-0_0
  6
CONTINUOUS
 62
    7
 10
316.72778349999999
 20
754.69998199999998
 40
0.2999999999999999
 50
90.000003000000007
 51
179.99999099999999
  0
LINE
  8
_0-0_0
  6
CONTINUOUS
 62
    7
 10
205.7953144999999
 20
750.69415299999991
 11
210.11986949999994
 21
749.25262500000008
  0
LINE
  8
_0-0_0
  6
CONTINUOUS
 62
    7
 10
204.42777649999994
 20
752.59149200000002
 11
204.42777649999994
 21
755.94229100000007
  0
LINE
  8
_0-0_0
  6
CONTINUOUS
 62
    7
 10
204.42777649999994
 20
763.957672
 11
204.42777649999994
 21
764.87899800000002
  0
ARC
  8
_0-0_0
  6
CONTINUOUS
 62
    7
 10
206.42777649999994
 20
752.59149200000002
 40
2
 50
179.99999099999999
 51
251.56498899999997
  0
LINE
  8
_0-0_0
  6
CONTINUOUS
 62
    7
 10
189.42777649999994
 20
769.47543300000007
 11
189.42777649999994
 21
769.32870500000001
  0
LINE
  8
_0-0_0
  6
CONTINUOUS
 62
    7
 10
189.42777649999994
 20
769.66595499999994
 11
189.42777649999994
 21
769.47543300000007
  0
LINE
  8
_0-0_0
  6
CONTINUOUS
 62
    7
 10
189.42777649999994
 20
769.84097300000008
 11
189.42777649999994
 21
769.66595499999994
  0
LINE
  8
_0-0_0
  6
CONTINUOUS
 62
    7
 10
189.42777649999994
 20
769.99856599999998
 11
189.42777649999994
 21
769.84097300000008
  0
LINE
  8
_0-0_0
  6
CONTINUOUS
 62
    7
 10
189.42777649999994
 20
770.13699300000007
 11
189.42777649999994
 21
769.99856599999998
  0
LINE
  8
_0-0_0
  6
CONTINUOUS
 62
    7
 10
189.42777649999994
 20
770.25476099999992
 11
189.42777649999994
 21
770.13699300000007
  0
LINE
  8
_0-0_0
  6
CONTINUOUS
 62
    7
 10
189.42777649999994
 20
770.35052500000006
 11
189.42777649999994
 21
770.25476099999992
  0
LINE
  8
_0-0_0
  6
CONTINUOUS
 62
    7
 10
189.42777649999994
 20
770.42330900000002
 11
189.42777649999994
 21
770.35052500000006
  0
LINE
  8
_0-0_0
  6
CONTINUOUS
 62
    7
 10
189.42777649999994
 20
770.47228999999993
 11
189.42777649999994
 21
770.42330900000002
  0
LINE
  8
_0-0_0
  6
CONTINUOUS
 62
    7
 10
189.42777649999994
 20
770.5
 11
189.42777649999994
 21
770.47228999999993
  0
LINE
  8
_0-0_0
  6
CONTINUOUS
 62
    7
 10
189.42777649999994
 20
770.5
 11
189.42777649999994
 21
770.49688700000002
  0
LINE
  8
_0-0_0
  6
CONTINUOUS
 62
    7
 10
189.42777649999994
 20
766.00305200000003
 11
189.42777649999994
 21
766
  0
LINE
  8
_0-0_0
  6
CONTINUOUS
 62
    7
 10
189.42777649999994
 20
766.02767900000003
 11
189.42777649999994
 21
766
  0
LINE
  8
_0-0_0
  6
CONTINUOUS
 62
    7
 10
189.42777649999994
 20
766.07665999999995
 11
189.42777649999994
 21
766.02767900000003
  0
LINE
  8
_0-0_0
  6
CONTINUOUS
 62
    7
 10
189.42777649999994
 20
766.14941399999998
 11
189.42777649999994
 21
766.07665999999995
  0
LINE
  8
_0-0_0
  6
CONTINUOUS
 62
    7
 10
189.42777649999994
 20
766.24520899999993
 11
189.42777649999994
 21
766.14941399999998
  0
LINE
  8
_0-0_0
  6
CONTINUOUS
 62
    7
 10
189.42777649999994
 20
766.27542100000005
 11
189.42777649999994
 21
766.24520899999993
  0
LINE
  8
_0-0_0
  6
CONTINUOUS
 62
    7
 10
189.42777649999994
 20
766.362976
 11
189.42777649999994
 21
766.27542100000005
  0
LINE
  8
_0-0_0
  6
CONTINUOUS
 62
    7
 10
189.42777649999994
 20
766.50140399999998
 11
189.42777649999994
 21
766.362976
  0
LINE
  8
_0-0_0
  6
CONTINUOUS
 62
    7
 10
189.42777649999994
 20
766.658997
 11
189.42777649999994
 21
766.50140399999998
  0
LINE
  8
_0-0_0
  6
CONTINUOUS
 62
    7
 10
189.42777649999994
 20
766.83401500000002
 11
189.42777649999994
 21
766.658997
  0
LINE
  8
_0-0_0
  6
CONTINUOUS
 62
    7
 10
189.42777649999994
 20
767.02453600000001
 11
189.42777649999994
 21
766.83401500000002
  0
LINE
  8
_0-0_0
  6
CONTINUOUS
 62
    7
 10
189.42777649999994
 20
767.22851600000001
 11
189.42777649999994
 21
767.02453600000001
  0
LINE
  8
_0-0_0
  6
CONTINUOUS
 62
    7
 10
189.42777649999994
 20
767.44366500000001
 11
189.42777649999994
 21
767.22851600000001
  0
LINE
  8
_0-0_0
  6
CONTINUOUS
 62
    7
 10
189.42777649999994
 20
767.66763300000002
 11
189.42777649999994
 21
767.44366500000001
  0
LINE
  8
_0-0_0
  6
CONTINUOUS
 62
    7
 10
189.42777649999994
 20
767.89801
 11
189.42777649999994
 21
767.66763300000002
  0
LINE
  8
_0-0_0
  6
CONTINUOUS
 62
    7
 10
189.42777649999994
 20
768.13223300000004
 11
189.42777649999994
 21
767.89801
  0
LINE
  8
_0-0_0
  6
CONTINUOUS
 62
    7
 10
189.42777649999994
 20
768.36773700000003
 11
189.42777649999994
 21
768.13223300000004
  0
LINE
  8
_0-0_0
  6
CONTINUOUS
 62
    7
 10
189.42777649999994
 20
768.60195900000008
 11
189.42777649999994
 21
768.36773700000003
  0
LINE
  8
_0-0_0
  6
CONTINUOUS
 62
    7
 10
189.42777649999994
 20
768.83233599999994
 11
189.42777649999994
 21
768.60195900000008
  0
LINE
  8
_0-0_0
  6
CONTINUOUS
 62
    7
 10
189.42777649999994
 20
769.05630500000007
 11
189.42777649999994
 21
768.83233599999994
  0
LINE
  8
_0-0_0
  6
CONTINUOUS
 62
    7
 10
189.42777649999994
 20
769.27145399999995
 11
189.42777649999994
 21
769.05630500000007
  0
LINE
  8
_0-0_0
  6
CONTINUOUS
 62
    7
 10
189.42777649999994
 20
769.32870500000001
 11
189.42777649999994
 21
769.27145399999995
  0
LINE
  8
_0-0_0
  6
CONTINUOUS
 62
    7
 10
204.7277795
 20
762.16198699999995
 11
204.66898749999996
 21
762.40881300000001
  0
LINE
  8
_0-0_0
  6
CONTINUOUS
 62
    7
 10
204.66898749999996
 20
762.40881300000001
 11
204.6192125
 21
762.601135
  0
LINE
  8
_0-0_0
  6
CONTINUOUS
 62
    7
 10
204.6192125
 20
762.601135
 11
204.54807649999998
 21
762.86694299999999
  0
LINE
  8
_0-0_0
  6
CONTINUOUS
 62
    7
 10
204.54807649999998
 20
762.86694299999999
 11
204.51511749999997
 21
762.993652
  0
LINE
  8
_0-0_0
  6
CONTINUOUS
 62
    7
 10
204.51511749999997
 20
762.993652
 11
204.48986449999995
 21
763.09707600000002
  0
LINE
  8
_0-0_0
  6
CONTINUOUS
 62
    7
 10
204.48986449999995
 20
763.09707600000002
 11
204.46783049999999
 21
763.19702099999995
  0
LINE
  8
_0-0_0
  6
CONTINUOUS
 62
    7
 10
204.46783049999999
 20
763.19702099999995
 11
204.44645249999996
 21
763.31472800000006
  0
LINE
  8
_0-0_0
  6
CONTINUOUS
 62
    7
 10
204.44645249999996
 20
763.31472800000006
 11
204.43787750000001
 21
763.37686200000007
  0
LINE
  8
_0-0_0
  6
CONTINUOUS
 62
    7
 10
204.43787750000001
 20
763.37686200000007
 11
204.4318045
 21
763.43746899999996
  0
LINE
  8
_0-0_0
  6
CONTINUOUS
 62
    7
 10
204.4318045
 20
763.43746899999996
 11
204.42879849999997
 21
763.48669399999994
  0
LINE
  8
_0-0_0
  6
CONTINUOUS
 62
    7
 10
204.42879849999997
 20
763.48669399999994
 11
204.42777649999994
 21
763.53491200000008
  0
LINE
  8
_0-0_0
  6
CONTINUOUS
 62
    7
 10
204.7277795
 20
757.737976
 11
204.81124449999993
 21
758.11663799999997
  0
LINE
  8
_0-0_0
  6
CONTINUOUS
 62
    7
 10
204.81124449999993
 20
758.11663799999997
 11
204.85132949999991
 21
758.30816700000003
  0
LINE
  8
_0-0_0
  6
CONTINUOUS
 62
    7
 10
204.85132949999991
 20
758.30816700000003
 11
204.90740549999998
 21
758.598206
  0
LINE
  8
_0-0_0
  6
CONTINUOUS
 62
    7
 10
204.90740549999998
 20
758.598206
 11
204.94500349999998
 21
758.81778000000008
  0
LINE
  8
_0-0_0
  6
CONTINUOUS
 62
    7
 10
204.94500349999998
 20
758.81778000000008
 11
204.97765749999996
 21
759.03903200000002
  0
LINE
  8
_0-0_0
  6
CONTINUOUS
 62
    7
 10
204.97765749999996
 20
759.03903200000002
 11
205.00481749999994
 21
759.26583900000003
  0
LINE
  8
_0-0_0
  6
CONTINUOUS
 62
    7
 10
205.00481749999994
 20
759.26583900000003
 11
205.02488349999999
 21
759.49322499999994
  0
LINE
  8
_0-0_0
  6
CONTINUOUS
 62
    7
 10
205.02488349999999
 20
759.49322499999994
 11
205.0320395
 21
759.60696400000006
  0
LINE
  8
_0-0_0
  6
CONTINUOUS
 62
    7
 10
205.0320395
 20
759.60696400000006
 11
205.03719649999994
 21
759.720642
  0
LINE
  8
_0-0_0
  6
CONTINUOUS
 62
    7
 10
205.03719649999994
 20
759.720642
 11
205.04092049999997
 21
759.87207000000001
  0
LINE
  8
_0-0_0
  6
CONTINUOUS
 62
    7
 10
205.04092049999997
 20
759.87207000000001
 11
205.04096549999997
 21
760.02331500000003
  0
LINE
  8
_0-0_0
  6
CONTINUOUS
 62
    7
 10
205.04096549999997
 20
760.02331500000003
 11
205.0373955
 21
760.17437700000005
  0
LINE
  8
_0-0_0
  6
CONTINUOUS
 62
    7
 10
205.0373955
 20
760.17437700000005
 11
205.0278894999999
 21
760.36291499999993
  0
LINE
  8
_0-0_0
  6
CONTINUOUS
 62
    7
 10
205.0278894999999
 20
760.36291499999993
 11
205.01302649999991
 21
760.55117799999994
  0
LINE
  8
_0-0_0
  6
CONTINUOUS
 62
    7
 10
205.01302649999991
 20
760.55117799999994
 11
204.99310049999997
 21
760.739105
  0
LINE
  8
_0-0_0
  6
CONTINUOUS
 62
    7
 10
204.99310049999997
 20
760.739105
 11
204.97671149999996
 21
760.86798099999999
  0
LINE
  8
_0-0_0
  6
CONTINUOUS
 62
    7
 10
204.97671149999996
 20
760.86798099999999
 11
204.95829349999997
 21
760.99664299999995
  0
LINE
  8
_0-0_0
  6
CONTINUOUS
 62
    7
 10
204.95829349999997
 20
760.99664299999995
 11
204.9341394999999
 21
761.14855999999997
  0
LINE
  8
_0-0_0
  6
CONTINUOUS
 62
    7
 10
204.9341394999999
 20
761.14855999999997
 11
204.90774149999993
 21
761.29992700000003
  0
LINE
  8
_0-0_0
  6
CONTINUOUS
 62
    7
 10
204.90774149999993
 20
761.29992700000003
 11
204.85157349999997
 21
761.59054600000002
  0
LINE
  8
_0-0_0
  6
CONTINUOUS
 62
    7
 10
204.85157349999997
 20
761.59054600000002
 11
204.81141249999996
 21
761.78250100000002
  0
LINE
  8
_0-0_0
  6
CONTINUOUS
 62
    7
 10
204.81141249999996
 20
761.78250100000002
 11
204.7277795
 21
762.16198699999995
  0
LINE
  8
_0-0_0
  6
CONTINUOUS
 62
    7
 10
204.7277795
 20
757.737976
 11
204.6689715
 21
757.49111900000003
  0
LINE
  8
_0-0_0
  6
CONTINUOUS
 62
    7
 10
204.6689715
 20
757.49111900000003
 11
204.6192125
 21
757.29879800000003
  0
LINE
  8
_0-0_0
  6
CONTINUOUS
 62
    7
 10
204.6192125
 20
757.29879800000003
 11
204.54809149999994
 21
757.033051
  0
LINE
  8
_0-0_0
  6
CONTINUOUS
 62
    7
 10
204.54809149999994
 20
757.033051
 11
204.51513249999994
 21
756.906342
  0
LINE
  8
_0-0_0
  6
CONTINUOUS
 62
    7
 10
204.51513249999994
 20
756.906342
 11
204.48986449999995
 21
756.80291699999998
  0
LINE
  8
_0-0_0
  6
CONTINUOUS
 62
    7
 10
204.48986449999995
 20
756.80291699999998
 11
204.46783049999999
 21
756.70294200000001
  0
LINE
  8
_0-0_0
  6
CONTINUOUS
 62
    7
 10
204.46783049999999
 20
756.70294200000001
 11
204.44645249999996
 21
756.58523600000001
  0
LINE
  8
_0-0_0
  6
CONTINUOUS
 62
    7
 10
204.44645249999996
 20
756.58523600000001
 11
204.43787750000001
 21
756.52310199999999
  0
LINE
  8
_0-0_0
  6
CONTINUOUS
 62
    7
 10
204.43787750000001
 20
756.52310199999999
 11
204.4318045
 21
756.46249399999999
  0
LINE
  8
_0-0_0
  6
CONTINUOUS
 62
    7
 10
204.4318045
 20
756.46249399999999
 11
204.42879849999997
 21
756.41326900000001
  0
LINE
  8
_0-0_0
  6
CONTINUOUS
 62
    7
 10
204.42879849999997
 20
756.41326900000001
 11
204.42777649999994
 21
756.36505099999999
  0
ARC
  8
_0-0_0
  6
CONTINUOUS
 62
    7
 10
318.92778049999993
 20
746.25
 40
0.5
 50
269.99999700000001
 51
0
  0
LINE
  8
_0-0_0
  6
CONTINUOUS
 62
    7
 10
318.8834374999999
 20
750.57128899999998
 11
318.8834374999999
 21
753.89999399999999
  0
LINE
  8
_0-0_0
  6
CONTINUOUS
 62
    7
 10
318.8834374999999
 20
749.39999399999999
 11
318.8834374999999
 21
750.57128899999998
  0
CIRCLE
  8
_0-0_0
  6
CONTINUOUS
 62
    7
 10
242.42777649999994
 20
765.25
 40
2.5
  0
CIRCLE
  8
_0-0_0
  6
CONTINUOUS
 62
    7
 10
298.42778049999993
 20
765.25
 40
2.5
  0
LINE
  8
_0-0_0
  6
CONTINUOUS
 62
    7
 10
204.42777649999994
 20
756.05767800000001
 11
194.71995149999998
 21
756.05767800000001
  0
LINE
  8
_0-0_0
  6
CONTINUOUS
 62
    7
 10
194.71995149999998
 20
753.44998199999998
 11
194.66546949999997
 21
753.51992799999994
  0
LINE
  8
_0-0_0
  6
CONTINUOUS
 62
    7
 10
194.66546949999997
 20
753.51992799999994
 11
194.61436849999996
 21
753.58874500000002
  0
LINE
  8
_0-0_0
  6
CONTINUOUS
 62
    7
 10
194.61436849999996
 20
753.58874500000002
 11
194.56673049999995
 21
753.65625
  0
LINE
  8
_0-0_0
  6
CONTINUOUS
 62
    7
 10
194.56673049999995
 20
753.65625
 11
194.52222849999998
 21
753.72280899999998
  0
LINE
  8
_0-0_0
  6
CONTINUOUS
 62
    7
 10
194.52222849999998
 20
753.72280899999998
 11
194.4675105
 21
753.81033300000001
  0
LINE
  8
_0-0_0
  6
CONTINUOUS
 62
    7
 10
194.4675105
 20
753.81033300000001
 11
194.41800249999994
 21
753.89645399999995
  0
LINE
  8
_0-0_0
  6
CONTINUOUS
 62
    7
 10
194.41800249999994
 20
753.89645399999995
 11
194.37353150000001
 21
753.98126200000002
  0
LINE
  8
_0-0_0
  6
CONTINUOUS
 62
    7
 10
194.37353150000001
 20
753.98126200000002
 11
194.3265644999999
 21
754.08160399999997
  0
LINE
  8
_0-0_0
  6
CONTINUOUS
 62
    7
 10
194.3265644999999
 20
754.08160399999997
 11
194.28635750000001
 21
754.18051100000002
  0
LINE
  8
_0-0_0
  6
CONTINUOUS
 62
    7
 10
194.28635750000001
 20
754.18051100000002
 11
194.25269649999996
 21
754.27825899999993
  0
LINE
  8
_0-0_0
  6
CONTINUOUS
 62
    7
 10
194.25269649999996
 20
754.27825899999993
 11
194.22540649999996
 21
754.375092
  0
LINE
  8
_0-0_0
  6
CONTINUOUS
 62
    7
 10
194.22540649999996
 20
754.375092
 11
194.2043564999999
 21
754.47113000000002
  0
LINE
  8
_0-0_0
  6
CONTINUOUS
 62
    7
 10
194.2043564999999
 20
754.47113000000002
 11
194.18842649999999
 21
754.57498199999998
  0
LINE
  8
_0-0_0
  6
CONTINUOUS
 62
    7
 10
194.18842649999999
 20
754.57498199999998
 11
194.17967549999992
 21
754.678406
  0
LINE
  8
_0-0_0
  6
CONTINUOUS
 62
    7
 10
194.17967549999992
 20
754.678406
 11
194.17803549999996
 21
754.78164700000002
  0
LINE
  8
_0-0_0
  6
CONTINUOUS
 62
    7
 10
194.17803549999996
 20
754.78164700000002
 11
194.18350549999991
 21
754.88494900000001
  0
LINE
  8
_0-0_0
  6
CONTINUOUS
 62
    7
 10
194.18350549999991
 20
754.88494900000001
 11
194.19610949999992
 21
754.98852499999998
  0
LINE
  8
_0-0_0
  6
CONTINUOUS
 62
    7
 10
194.19610949999992
 20
754.98852499999998
 11
194.21593050000001
 21
755.09268199999997
  0
LINE
  8
_0-0_0
  6
CONTINUOUS
 62
    7
 10
194.21593050000001
 20
755.09268199999997
 11
194.24307649999992
 21
755.197632
  0
LINE
  8
_0-0_0
  6
CONTINUOUS
 62
    7
 10
194.24307649999992
 20
755.197632
 11
194.27772149999998
 21
755.30367999999999
  0
LINE
  8
_0-0_0
  6
CONTINUOUS
 62
    7
 10
194.27772149999998
 20
755.30367999999999
 11
194.32007149999993
 21
755.41104100000007
  0
LINE
  8
_0-0_0
  6
CONTINUOUS
 62
    7
 10
194.32007149999993
 20
755.41104100000007
 11
194.37038749999999
 21
755.52005000000008
  0
LINE
  8
_0-0_0
  6
CONTINUOUS
 62
    7
 10
194.37038749999999
 20
755.52005000000008
 11
194.42463249999992
 21
755.623199
  0
LINE
  8
_0-0_0
  6
CONTINUOUS
 62
    7
 10
194.42463249999992
 20
755.623199
 11
194.48633949999999
 21
755.72824100000003
  0
LINE
  8
_0-0_0
  6
CONTINUOUS
 62
    7
 10
194.48633949999999
 20
755.72824100000003
 11
194.5558585
 21
755.83547999999996
  0
LINE
  8
_0-0_0
  6
CONTINUOUS
 62
    7
 10
194.5558585
 20
755.83547999999996
 11
194.6335795
 21
755.94519000000003
  0
LINE
  8
_0-0_0
  6
CONTINUOUS
 62
    7
 10
194.6335795
 20
755.94519000000003
 11
194.71995149999998
 21
756.05767800000001
  0
LINE
  8
_0-0_0
  6
CONTINUOUS
 62
    7
 10
204.42777649999994
 20
753.44998199999998
 11
194.71995149999998
 21
753.44998199999998
  0
LINE
  8
_0-0_0
  6
CONTINUOUS
 62
    7
 10
204.42777649999994
 20
755.94229100000007
 11
204.42777649999994
 21
756.05767800000001
  0
LINE
  8
_0-0_0
  6
CONTINUOUS
 62
    7
 10
194.67777649999994
 20
753.44998199999998
 11
194.71995149999998
 21
753.44998199999998
  0
LINE
  8
_0-0_0
  6
CONTINUOUS
 62
    7
 10
204.42777649999994
 20
763.84228499999995
 11
194.71995149999998
 21
763.84228499999995
  0
LINE
  8
_0-0_0
  6
CONTINUOUS
 62
    7
 10
204.42777649999994
 20
763.957672
 11
204.42777649999994
 21
763.84228499999995
  0
LINE
  8
_0-0_0
  6
CONTINUOUS
 62
    7
 10
194.71995149999998
 20
763.84228499999995
 11
194.66546949999997
 21
763.91223100000002
  0
LINE
  8
_0-0_0
  6
CONTINUOUS
 62
    7
 10
194.66546949999997
 20
763.91223100000002
 11
194.61436849999996
 21
763.98104899999998
  0
LINE
  8
_0-0_0
  6
CONTINUOUS
 62
    7
 10
194.61436849999996
 20
763.98104899999998
 11
194.56673049999995
 21
764.04855300000008
  0
LINE
  8
_0-0_0
  6
CONTINUOUS
 62
    7
 10
194.56673049999995
 20
764.04855300000008
 11
194.52222849999998
 21
764.11511199999995
  0
LINE
  8
_0-0_0
  6
CONTINUOUS
 62
    7
 10
194.52222849999998
 20
764.11511199999995
 11
194.4675105
 21
764.20263699999998
  0
LINE
  8
_0-0_0
  6
CONTINUOUS
 62
    7
 10
194.4675105
 20
764.20263699999998
 11
194.41800249999994
 21
764.28875700000003
  0
LINE
  8
_0-0_0
  6
CONTINUOUS
 62
    7
 10
194.41800249999994
 20
764.28875700000003
 11
194.37353150000001
 21
764.37359600000002
  0
LINE
  8
_0-0_0
  6
CONTINUOUS
 62
    7
 10
194.37353150000001
 20
764.37359600000002
 11
194.3265644999999
 21
764.47390700000005
  0
LINE
  8
_0-0_0
  6
CONTINUOUS
 62
    7
 10
194.3265644999999
 20
764.47390700000005
 11
194.28635750000001
 21
764.57281499999999
  0
LINE
  8
_0-0_0
  6
CONTINUOUS
 62
    7
 10
194.28635750000001
 20
764.57281499999999
 11
194.25269649999996
 21
764.67059300000005
  0
LINE
  8
_0-0_0
  6
CONTINUOUS
 62
    7
 10
194.25269649999996
 20
764.67059300000005
 11
194.22540649999996
 21
764.76739500000008
  0
LINE
  8
_0-0_0
  6
CONTINUOUS
 62
    7
 10
194.22540649999996
 20
764.76739500000008
 11
194.2043564999999
 21
764.86343399999998
  0
LINE
  8
_0-0_0
  6
CONTINUOUS
 62
    7
 10
194.2043564999999
 20
764.86343399999998
 11
194.18842649999999
 21
764.96728499999995
  0
LINE
  8
_0-0_0
  6
CONTINUOUS
 62
    7
 10
194.18842649999999
 20
764.96728499999995
 11
194.17967549999992
 21
765.07070900000008
  0
LINE
  8
_0-0_0
  6
CONTINUOUS
 62
    7
 10
194.17967549999992
 20
765.07070900000008
 11
194.17803549999996
 21
765.17394999999999
  0
LINE
  8
_0-0_0
  6
CONTINUOUS
 62
    7
 10
194.17803549999996
 20
765.17394999999999
 11
194.18350549999991
 21
765.27725199999998
  0
LINE
  8
_0-0_0
  6
CONTINUOUS
 62
    7
 10
194.18350549999991
 20
765.27725199999998
 11
194.19610949999992
 21
765.38082899999995
  0
LINE
  8
_0-0_0
  6
CONTINUOUS
 62
    7
 10
194.19610949999992
 20
765.38082899999995
 11
194.21593050000001
 21
765.48498500000005
  0
LINE
  8
_0-0_0
  6
CONTINUOUS
 62
    7
 10
194.21593050000001
 20
765.48498500000005
 11
194.24307649999992
 21
765.58993499999997
  0
LINE
  8
_0-0_0
  6
CONTINUOUS
 62
    7
 10
194.24307649999992
 20
765.58993499999997
 11
194.27772149999998
 21
765.69598399999995
  0
LINE
  8
_0-0_0
  6
CONTINUOUS
 62
    7
 10
194.27772149999998
 20
765.69598399999995
 11
194.32007149999993
 21
765.80334500000004
  0
LINE
  8
_0-0_0
  6
CONTINUOUS
 62
    7
 10
194.32007149999993
 20
765.80334500000004
 11
194.37038749999999
 21
765.91235400000005
  0
LINE
  8
_0-0_0
  6
CONTINUOUS
 62
    7
 10
194.37038749999999
 20
765.91235400000005
 11
194.41608049999991
 21
766
  0
LINE
  8
_0-0_0
  6
CONTINUOUS
 62
    7
 10
189.42777649999994
 20
769.47543300000007
 11
189.17777649999994
 21
769.5
  0
LINE
  8
_0-0_0
  6
CONTINUOUS
 62
    7
 10
189.42777649999994
 20
769.27145399999995
 11
189.17777649999994
 21
769.5
  0
LINE
  8
_0-0_0
  6
CONTINUOUS
 62
    7
 10
189.42777649999994
 20
769.66595499999994
 11
189.17777649999994
 21
769.71945200000005
  0
LINE
  8
_0-0_0
  6
CONTINUOUS
 62
    7
 10
189.42777649999994
 20
769.47543300000007
 11
189.17777649999994
 21
769.71945200000005
  0
LINE
  8
_0-0_0
  6
CONTINUOUS
 62
    7
 10
189.42777649999994
 20
769.84097300000008
 11
189.17777649999994
 21
769.922821
  0
LINE
  8
_0-0_0
  6
CONTINUOUS
 62
    7
 10
189.42777649999994
 20
769.66595499999994
 11
189.17777649999994
 21
769.922821
  0
LINE
  8
_0-0_0
  6
CONTINUOUS
 62
    7
 10
189.42777649999994
 20
769.99856599999998
 11
189.17777649999994
 21
770.10784899999999
  0
LINE
  8
_0-0_0
  6
CONTINUOUS
 62
    7
 10
189.42777649999994
 20
769.84097300000008
 11
189.17777649999994
 21
770.10784899999999
  0
LINE
  8
_0-0_0
  6
CONTINUOUS
 62
    7
 10
189.42777649999994
 20
770.13699300000007
 11
189.17777649999994
 21
770.27252199999998
  0
LINE
  8
_0-0_0
  6
CONTINUOUS
 62
    7
 10
189.42777649999994
 20
769.99856599999998
 11
189.17777649999994
 21
770.27252199999998
  0
LINE
  8
_0-0_0
  6
CONTINUOUS
 62
    7
 10
189.42777649999994
 20
770.25476099999992
 11
189.17777649999994
 21
770.41503899999998
  0
LINE
  8
_0-0_0
  6
CONTINUOUS
 62
    7
 10
189.42777649999994
 20
770.13699300000007
 11
189.17777649999994
 21
770.41503899999998
  0
LINE
  8
_0-0_0
  6
CONTINUOUS
 62
    7
 10
189.42777649999994
 20
770.35052500000006
 11
189.17777649999994
 21
770.53384400000004
  0
LINE
  8
_0-0_0
  6
CONTINUOUS
 62
    7
 10
189.42777649999994
 20
770.25476099999992
 11
189.17777649999994
 21
770.53384400000004
  0
LINE
  8
_0-0_0
  6
CONTINUOUS
 62
    7
 10
189.42777649999994
 20
770.42330900000002
 11
189.17777649999994
 21
770.62762500000008
  0
LINE
  8
_0-0_0
  6
CONTINUOUS
 62
    7
 10
189.42777649999994
 20
770.35052500000006
 11
189.17777649999994
 21
770.62762500000008
  0
LINE
  8
_0-0_0
  6
CONTINUOUS
 62
    7
 10
189.42777649999994
 20
770.47228999999993
 11
189.17777649999994
 21
770.69534299999998
  0
LINE
  8
_0-0_0
  6
CONTINUOUS
 62
    7
 10
189.42777649999994
 20
770.42330900000002
 11
189.17777649999994
 21
770.69534299999998
  0
LINE
  8
_0-0_0
  6
CONTINUOUS
 62
    7
 10
189.42777649999994
 20
770.49688700000002
 11
189.17777649999994
 21
770.73629800000003
  0
LINE
  8
_0-0_0
  6
CONTINUOUS
 62
    7
 10
189.42777649999994
 20
770.47228999999993
 11
189.17777649999994
 21
770.73629800000003
  0
LINE
  8
_0-0_0
  6
CONTINUOUS
 62
    7
 10
189.42777649999994
 20
770.49688700000002
 11
189.17777649999994
 21
770.75
  0
LINE
  8
_0-0_0
  6
CONTINUOUS
 62
    7
 10
189.42777649999994
 20
766.00305200000003
 11
189.17777649999994
 21
765.75
  0
LINE
  8
_0-0_0
  6
CONTINUOUS
 62
    7
 10
189.42777649999994
 20
766.02767900000003
 11
189.17777649999994
 21
765.76367200000004
  0
LINE
  8
_0-0_0
  6
CONTINUOUS
 62
    7
 10
189.42777649999994
 20
766.00305200000003
 11
189.17777649999994
 21
765.76367200000004
  0
LINE
  8
_0-0_0
  6
CONTINUOUS
 62
    7
 10
189.42777649999994
 20
766.07665999999995
 11
189.17777649999994
 21
765.80462599999998
  0
LINE
  8
_0-0_0
  6
CONTINUOUS
 62
    7
 10
189.42777649999994
 20
766.02767900000003
 11
189.17777649999994
 21
765.80462599999998
  0
LINE
  8
_0-0_0
  6
CONTINUOUS
 62
    7
 10
189.42777649999994
 20
766.14941399999998
 11
189.17777649999994
 21
765.872345
  0
LINE
  8
_0-0_0
  6
CONTINUOUS
 62
    7
 10
189.42777649999994
 20
766.07665999999995
 11
189.17777649999994
 21
765.872345
  0
LINE
  8
_0-0_0
  6
CONTINUOUS
 62
    7
 10
189.42777649999994
 20
766.24520899999993
 11
189.17777649999994
 21
765.96612499999992
  0
LINE
  8
_0-0_0
  6
CONTINUOUS
 62
    7
 10
189.42777649999994
 20
766.14941399999998
 11
189.17777649999994
 21
765.96612499999992
  0
LINE
  8
_0-0_0
  6
CONTINUOUS
 62
    7
 10
189.42777649999994
 20
766.24520899999993
 11
189.29781749999995
 21
766.16137700000002
  0
LINE
  8
_0-0_0
  6
CONTINUOUS
 62
    7
 10
189.42777649999994
 20
766.362976
 11
189.17777649999994
 21
766.08492999999999
  0
LINE
  8
_0-0_0
  6
CONTINUOUS
 62
    7
 10
189.29781749999995
 20
766.16137700000002
 11
189.17777649999994
 21
766.08492999999999
  0
LINE
  8
_0-0_0
  6
CONTINUOUS
 62
    7
 10
189.42777649999994
 20
766.50140399999998
 11
189.17777649999994
 21
766.22744799999998
  0
LINE
  8
_0-0_0
  6
CONTINUOUS
 62
    7
 10
189.42777649999994
 20
766.362976
 11
189.17777649999994
 21
766.22744799999998
  0
LINE
  8
_0-0_0
  6
CONTINUOUS
 62
    7
 10
189.42777649999994
 20
766.658997
 11
189.17777649999994
 21
766.39211999999998
  0
LINE
  8
_0-0_0
  6
CONTINUOUS
 62
    7
 10
189.42777649999994
 20
766.50140399999998
 11
189.17777649999994
 21
766.39211999999998
  0
LINE
  8
_0-0_0
  6
CONTINUOUS
 62
    7
 10
189.42777649999994
 20
766.83401500000002
 11
189.17777649999994
 21
766.57714800000008
  0
LINE
  8
_0-0_0
  6
CONTINUOUS
 62
    7
 10
189.42777649999994
 20
766.658997
 11
189.17777649999994
 21
766.57714800000008
  0
LINE
  8
_0-0_0
  6
CONTINUOUS
 62
    7
 10
189.42777649999994
 20
767.02453600000001
 11
189.17777649999994
 21
766.78051800000003
  0
LINE
  8
_0-0_0
  6
CONTINUOUS
 62
    7
 10
189.42777649999994
 20
766.83401500000002
 11
189.17777649999994
 21
766.78051800000003
  0
LINE
  8
_0-0_0
  6
CONTINUOUS
 62
    7
 10
189.42777649999994
 20
767.22851600000001
 11
189.17777649999994
 21
767
  0
LINE
  8
_0-0_0
  6
CONTINUOUS
 62
    7
 10
189.42777649999994
 20
767.02453600000001
 11
189.17777649999994
 21
767
  0
LINE
  8
_0-0_0
  6
CONTINUOUS
 62
    7
 10
189.42777649999994
 20
767.44366500000001
 11
189.17777649999994
 21
767.23315400000001
  0
LINE
  8
_0-0_0
  6
CONTINUOUS
 62
    7
 10
189.42777649999994
 20
767.22851600000001
 11
189.17777649999994
 21
767.23315400000001
  0
LINE
  8
_0-0_0
  6
CONTINUOUS
 62
    7
 10
189.42777649999994
 20
767.66763300000002
 11
189.17777649999994
 21
767.47744799999998
  0
LINE
  8
_0-0_0
  6
CONTINUOUS
 62
    7
 10
189.42777649999994
 20
767.44366500000001
 11
189.17777649999994
 21
767.47744799999998
  0
LINE
  8
_0-0_0
  6
CONTINUOUS
 62
    7
 10
189.42777649999994
 20
767.89801
 11
189.17777649999994
 21
767.73019399999998
  0
LINE
  8
_0-0_0
  6
CONTINUOUS
 62
    7
 10
189.42777649999994
 20
767.66763300000002
 11
189.17777649999994
 21
767.73019399999998
  0
LINE
  8
_0-0_0
  6
CONTINUOUS
 62
    7
 10
189.42777649999994
 20
768.13223300000004
 11
189.17777649999994
 21
767.98864700000001
  0
LINE
  8
_0-0_0
  6
CONTINUOUS
 62
    7
 10
189.42777649999994
 20
767.89801
 11
189.17777649999994
 21
767.98864700000001
  0
LINE
  8
_0-0_0
  6
CONTINUOUS
 62
    7
 10
189.42777649999994
 20
768.36773700000003
 11
189.17777649999994
 21
768.25
  0
LINE
  8
_0-0_0
  6
CONTINUOUS
 62
    7
 10
189.42777649999994
 20
768.13223300000004
 11
189.17777649999994
 21
768.25
  0
LINE
  8
_0-0_0
  6
CONTINUOUS
 62
    7
 10
189.42777649999994
 20
768.60195900000008
 11
189.17777649999994
 21
768.51129200000003
  0
LINE
  8
_0-0_0
  6
CONTINUOUS
 62
    7
 10
189.42777649999994
 20
768.36773700000003
 11
189.17777649999994
 21
768.51129200000003
  0
LINE
  8
_0-0_0
  6
CONTINUOUS
 62
    7
 10
189.42777649999994
 20
768.83233599999994
 11
189.17777649999994
 21
768.76977499999998
  0
LINE
  8
_0-0_0
  6
CONTINUOUS
 62
    7
 10
189.42777649999994
 20
768.60195900000008
 11
189.17777649999994
 21
768.76977499999998
  0
LINE
  8
_0-0_0
  6
CONTINUOUS
 62
    7
 10
189.42777649999994
 20
769.05630500000007
 11
189.17777649999994
 21
769.02252199999998
  0
LINE
  8
_0-0_0
  6
CONTINUOUS
 62
    7
 10
189.42777649999994
 20
768.83233599999994
 11
189.17777649999994
 21
769.02252199999998
  0
LINE
  8
_0-0_0
  6
CONTINUOUS
 62
    7
 10
189.42777649999994
 20
769.27145399999995
 11
189.17777649999994
 21
769.26681499999995
  0
LINE
  8
_0-0_0
  6
CONTINUOUS
 62
    7
 10
189.42777649999994
 20
769.05630500000007
 11
189.17777649999994
 21
769.26681499999995
  0
LINE
  8
_0-0_0
  6
CONTINUOUS
 62
    7
 10
204.42777649999994
 20
761.512024
 11
204.42777649999994
 21
762.55767800000001
  0
LINE
  8
_0-0_0
  6
CONTINUOUS
 62
    7
 10
204.42777649999994
 20
763.84228499999995
 11
204.42777649999994
 21
762.55767800000001
  0
LINE
  8
_0-0_0
  6
CONTINUOUS
 62
    7
 10
204.42777649999994
 20
761.512024
 11
204.42777649999994
 21
758.38793899999996
  0
LINE
  8
_0-0_0
  6
CONTINUOUS
 62
    7
 10
204.42777649999994
 20
757.34228499999995
 11
204.42777649999994
 21
756.05767800000001
  0
LINE
  8
_0-0_0
  6
CONTINUOUS
 62
    7
 10
204.42777649999994
 20
757.34228499999995
 11
204.42777649999994
 21
758.38793899999996
  0
LINE
  8
_0-0_0
  6
CONTINUOUS
 62
    7
 10
319.02778649999993
 20
750.69113199999993
 11
319.02778649999993
 21
753.64999399999999
  0
LINE
  8
_0-0_0
  6
CONTINUOUS
 62
    7
 10
319.02778649999993
 20
749.64999399999999
 11
319.02778649999993
 21
750.69113199999993
  0
LINE
  8
_0-0_0
  6
CONTINUOUS
 62
    7
 10
204.42777649999994
 20
757.34228499999995
 11
194.71995149999998
 21
757.34228499999995
  0
ARC
  8
_0-0_0
  6
CONTINUOUS
 62
    7
 10
199.60167349999995
 20
756.69909699999994
 40
4.9238749999999998
 50
172.49424200000001
 51
181.535968
  0
ARC
  8
_0-0_0
  6
CONTINUOUS
 62
    7
 10
199.63969049999992
 20
756.70404099999996
 40
4.9620009999999999
 50
181.58130700000004
 51
187.48478900000003
  0
LINE
  8
_0-0_0
  6
CONTINUOUS
 62
    7
 10
193.42777649999994
 20
757.21844499999997
 11
193.42777649999994
 21
754.69998199999998
  0
LINE
  8
_0-0_0
  6
CONTINUOUS
 62
    7
 10
193.42777649999994
 20
765.19998199999998
 11
193.42777649999994
 21
757.21844499999997
  0
LINE
  8
_0-0_0
  6
CONTINUOUS
 62
    7
 10
194.71995149999998
 20
762.55767800000001
 11
194.62561349999999
 21
762.31106599999998
  0
LINE
  8
_0-0_0
  6
CONTINUOUS
 62
    7
 10
194.62561349999999
 20
762.31106599999998
 11
194.5416674999999
 21
762.07110599999999
  0
LINE
  8
_0-0_0
  6
CONTINUOUS
 62
    7
 10
194.5416674999999
 20
762.07110599999999
 11
194.4675105
 21
761.83697499999994
  0
LINE
  8
_0-0_0
  6
CONTINUOUS
 62
    7
 10
194.4675105
 20
761.83697499999994
 11
194.40262949999999
 21
761.60794099999998
  0
LINE
  8
_0-0_0
  6
CONTINUOUS
 62
    7
 10
194.40262949999999
 20
761.60794099999998
 11
194.34659149999993
 21
761.38327000000004
  0
LINE
  8
_0-0_0
  6
CONTINUOUS
 62
    7
 10
194.34659149999993
 20
761.38327000000004
 11
194.29902249999998
 21
761.16229199999998
  0
LINE
  8
_0-0_0
  6
CONTINUOUS
 62
    7
 10
194.29902249999998
 20
761.16229199999998
 11
194.25961649999999
 21
760.94436599999995
  0
LINE
  8
_0-0_0
  6
CONTINUOUS
 62
    7
 10
194.25961649999999
 20
760.94436599999995
 11
194.22813049999991
 21
760.72891200000004
  0
LINE
  8
_0-0_0
  6
CONTINUOUS
 62
    7
 10
194.22813049999991
 20
760.72891200000004
 11
194.2043564999999
 21
760.51538099999993
  0
LINE
  8
_0-0_0
  6
CONTINUOUS
 62
    7
 10
194.2043564999999
 20
760.51538099999993
 11
194.18842649999999
 21
760.30767800000001
  0
LINE
  8
_0-0_0
  6
CONTINUOUS
 62
    7
 10
194.18842649999999
 20
760.30767800000001
 11
194.17967549999992
 21
760.10082999999997
  0
LINE
  8
_0-0_0
  6
CONTINUOUS
 62
    7
 10
194.17967549999992
 20
760.10082999999997
 11
194.17803549999996
 21
759.89434800000004
  0
LINE
  8
_0-0_0
  6
CONTINUOUS
 62
    7
 10
194.17803549999996
 20
759.89434800000004
 11
194.18350549999991
 21
759.68777499999999
  0
LINE
  8
_0-0_0
  6
CONTINUOUS
 62
    7
 10
194.18350549999991
 20
759.68777499999999
 11
194.19610949999992
 21
759.480591
  0
LINE
  8
_0-0_0
  6
CONTINUOUS
 62
    7
 10
194.19610949999992
 20
759.480591
 11
194.21593050000001
 21
759.27227799999991
  0
LINE
  8
_0-0_0
  6
CONTINUOUS
 62
    7
 10
194.21593050000001
 20
759.27227799999991
 11
194.24307649999992
 21
759.06237800000008
  0
LINE
  8
_0-0_0
  6
CONTINUOUS
 62
    7
 10
194.24307649999992
 20
759.06237800000008
 11
194.27772149999998
 21
758.85031099999992
  0
LINE
  8
_0-0_0
  6
CONTINUOUS
 62
    7
 10
194.27772149999998
 20
758.85031099999992
 11
194.32007149999993
 21
758.63555900000006
  0
LINE
  8
_0-0_0
  6
CONTINUOUS
 62
    7
 10
194.32007149999993
 20
758.63555900000006
 11
194.37038749999999
 21
758.41754200000003
  0
LINE
  8
_0-0_0
  6
CONTINUOUS
 62
    7
 10
194.37038749999999
 20
758.41754200000003
 11
194.42463249999992
 21
758.21124299999997
  0
LINE
  8
_0-0_0
  6
CONTINUOUS
 62
    7
 10
194.42463249999992
 20
758.21124299999997
 11
194.48633949999999
 21
758.00116000000003
  0
LINE
  8
_0-0_0
  6
CONTINUOUS
 62
    7
 10
194.48633949999999
 20
758.00116000000003
 11
194.5558585
 21
757.78668199999993
  0
LINE
  8
_0-0_0
  6
CONTINUOUS
 62
    7
 10
194.5558585
 20
757.78668199999993
 11
194.6335795
 21
757.56726099999992
  0
LINE
  8
_0-0_0
  6
CONTINUOUS
 62
    7
 10
194.6335795
 20
757.56726099999992
 11
194.71995149999998
 21
757.34228499999995
  0
ARC
  8
_0-0_0
  6
CONTINUOUS
 62
    7
 10
199.59151049999991
 20
763.19998199999998
 40
4.9136889999999998
 50
172.48898299999999
 51
187.51101699999998
  0
LINE
  8
_0-0_0
  6
CONTINUOUS
 62
    7
 10
204.42777649999994
 20
762.55767800000001
 11
194.71995149999998
 21
762.55767800000001
  0
LINE
  8
_0-0_0
  6
CONTINUOUS
 62
    7
 10
179.67777649999994
 20
769.47543300000007
 11
179.92777649999994
 21
769.5
  0
LINE
  8
_0-0_0
  6
CONTINUOUS
 62
    7
 10
179.92777649999994
 20
769.5
 11
189.17777649999994
 21
769.5
  0
LINE
  8
_0-0_0
  6
CONTINUOUS
 62
    7
 10
179.67777649999994
 20
769.27145399999995
 11
179.92777649999994
 21
769.5
  0
LINE
  8
_0-0_0
  6
CONTINUOUS
 62
    7
 10
179.67777649999994
 20
769.27145399999995
 11
189.42777649999994
 21
769.27145399999995
  0
LINE
  8
_0-0_0
  6
CONTINUOUS
 62
    7
 10
179.67777649999994
 20
769.66595499999994
 11
179.92777649999994
 21
769.71945200000005
  0
LINE
  8
_0-0_0
  6
CONTINUOUS
 62
    7
 10
179.92777649999994
 20
769.71945200000005
 11
189.17777649999994
 21
769.71945200000005
  0
LINE
  8
_0-0_0
  6
CONTINUOUS
 62
    7
 10
179.67777649999994
 20
769.47543300000007
 11
179.92777649999994
 21
769.71945200000005
  0
LINE
  8
_0-0_0
  6
CONTINUOUS
 62
    7
 10
179.67777649999994
 20
769.84097300000008
 11
179.92777649999994
 21
769.922821
  0
LINE
  8
_0-0_0
  6
CONTINUOUS
 62
    7
 10
179.92777649999994
 20
769.922821
 11
189.17777649999994
 21
769.922821
  0
LINE
  8
_0-0_0
  6
CONTINUOUS
 62
    7
 10
179.67777649999994
 20
769.66595499999994
 11
179.92777649999994
 21
769.922821
  0
LINE
  8
_0-0_0
  6
CONTINUOUS
 62
    7
 10
179.67777649999994
 20
769.99856599999998
 11
179.92777649999994
 21
770.10784899999999
  0
LINE
  8
_0-0_0
  6
CONTINUOUS
 62
    7
 10
179.92777649999994
 20
770.10784899999999
 11
189.17777649999994
 21
770.10784899999999
  0
LINE
  8
_0-0_0
  6
CONTINUOUS
 62
    7
 10
179.67777649999994
 20
769.84097300000008
 11
179.92777649999994
 21
770.10784899999999
  0
LINE
  8
_0-0_0
  6
CONTINUOUS
 62
    7
 10
179.67777649999994
 20
770.13699300000007
 11
179.92777649999994
 21
770.27252199999998
  0
LINE
  8
_0-0_0
  6
CONTINUOUS
 62
    7
 10
179.92777649999994
 20
770.27252199999998
 11
189.17777649999994
 21
770.27252199999998
  0
LINE
  8
_0-0_0
  6
CONTINUOUS
 62
    7
 10
179.67777649999994
 20
769.99856599999998
 11
179.92777649999994
 21
770.27252199999998
  0
LINE
  8
_0-0_0
  6
CONTINUOUS
 62
    7
 10
179.67777649999994
 20
770.25476099999992
 11
179.92777649999994
 21
770.41503899999998
  0
LINE
  8
_0-0_0
  6
CONTINUOUS
 62
    7
 10
179.92777649999994
 20
770.41503899999998
 11
189.17777649999994
 21
770.41503899999998
  0
LINE
  8
_0-0_0
  6
CONTINUOUS
 62
    7
 10
179.67777649999994
 20
770.13699300000007
 11
179.92777649999994
 21
770.41503899999998
  0
LINE
  8
_0-0_0
  6
CONTINUOUS
 62
    7
 10
179.67777649999994
 20
770.35052500000006
 11
179.92777649999994
 21
770.53384400000004
  0
LINE
  8
_0-0_0
  6
CONTINUOUS
 62
    7
 10
179.92777649999994
 20
770.53384400000004
 11
189.17777649999994
 21
770.53384400000004
  0
LINE
  8
_0-0_0
  6
CONTINUOUS
 62
    7
 10
179.67777649999994
 20
770.25476099999992
 11
179.92777649999994
 21
770.53384400000004
  0
LINE
  8
_0-0_0
  6
CONTINUOUS
 62
    7
 10
179.67777649999994
 20
770.42330900000002
 11
179.92777649999994
 21
770.62762500000008
  0
LINE
  8
_0-0_0
  6
CONTINUOUS
 62
    7
 10
179.92777649999994
 20
770.62762500000008
 11
189.17777649999994
 21
770.62762500000008
  0
LINE
  8
_0-0_0
  6
CONTINUOUS
 62
    7
 10
179.67777649999994
 20
770.35052500000006
 11
179.92777649999994
 21
770.62762500000008
  0
LINE
  8
_0-0_0
  6
CONTINUOUS
 62
    7
 10
179.67777649999994
 20
770.47228999999993
 11
179.92777649999994
 21
770.69534299999998
  0
LINE
  8
_0-0_0
  6
CONTINUOUS
 62
    7
 10
179.92777649999994
 20
770.69534299999998
 11
189.17777649999994
 21
770.69534299999998
  0
LINE
  8
_0-0_0
  6
CONTINUOUS
 62
    7
 10
179.67777649999994
 20
770.42330900000002
 11
179.92777649999994
 21
770.69534299999998
  0
LINE
  8
_0-0_0
  6
CONTINUOUS
 62
    7
 10
179.67777649999994
 20
770.49688700000002
 11
179.92777649999994
 21
770.73629800000003
  0
LINE
  8
_0-0_0
  6
CONTINUOUS
 62
    7
 10
179.92777649999994
 20
770.73629800000003
 11
189.17777649999994
 21
770.73629800000003
  0
LINE
  8
_0-0_0
  6
CONTINUOUS
 62
    7
 10
179.67777649999994
 20
770.47228999999993
 11
179.92777649999994
 21
770.73629800000003
  0
LINE
  8
_0-0_0
  6
CONTINUOUS
 62
    7
 10
179.92777649999994
 20
770.75
 11
189.17777649999994
 21
770.75
  0
LINE
  8
_0-0_0
  6
CONTINUOUS
 62
    7
 10
179.67777649999994
 20
770.49688700000002
 11
179.92777649999994
 21
770.75
  0
LINE
  8
_0-0_0
  6
CONTINUOUS
 62
    7
 10
179.67777649999994
 20
766.00305200000003
 11
179.92777649999994
 21
765.75
  0
LINE
  8
_0-0_0
  6
CONTINUOUS
 62
    7
 10
179.92777649999994
 20
765.75
 11
189.17777649999994
 21
765.75
  0
LINE
  8
_0-0_0
  6
CONTINUOUS
 62
    7
 10
179.67777649999994
 20
766.02767900000003
 11
179.92777649999994
 21
765.76367200000004
  0
LINE
  8
_0-0_0
  6
CONTINUOUS
 62
    7
 10
179.92777649999994
 20
765.76367200000004
 11
189.17777649999994
 21
765.76367200000004
  0
LINE
  8
_0-0_0
  6
CONTINUOUS
 62
    7
 10
179.67777649999994
 20
766.00305200000003
 11
179.92777649999994
 21
765.76367200000004
  0
LINE
  8
_0-0_0
  6
CONTINUOUS
 62
    7
 10
179.67777649999994
 20
766.07665999999995
 11
179.92777649999994
 21
765.80462599999998
  0
LINE
  8
_0-0_0
  6
CONTINUOUS
 62
    7
 10
179.92777649999994
 20
765.80462599999998
 11
189.17777649999994
 21
765.80462599999998
  0
LINE
  8
_0-0_0
  6
CONTINUOUS
 62
    7
 10
179.67777649999994
 20
766.02767900000003
 11
179.92777649999994
 21
765.80462599999998
  0
LINE
  8
_0-0_0
  6
CONTINUOUS
 62
    7
 10
179.67777649999994
 20
766.14941399999998
 11
179.92777649999994
 21
765.872345
  0
LINE
  8
_0-0_0
  6
CONTINUOUS
 62
    7
 10
179.92777649999994
 20
765.872345
 11
189.17777649999994
 21
765.872345
  0
LINE
  8
_0-0_0
  6
CONTINUOUS
 62
    7
 10
179.67777649999994
 20
766.07665999999995
 11
179.92777649999994
 21
765.872345
  0
LINE
  8
_0-0_0
  6
CONTINUOUS
 62
    7
 10
179.67777649999994
 20
766.24520899999993
 11
179.92777649999994
 21
765.96612499999992
  0
LINE
  8
_0-0_0
  6
CONTINUOUS
 62
    7
 10
179.92777649999994
 20
765.96612499999992
 11
189.17777649999994
 21
765.96612499999992
  0
LINE
  8
_0-0_0
  6
CONTINUOUS
 62
    7
 10
179.67777649999994
 20
766.14941399999998
 11
179.92777649999994
 21
765.96612499999992
  0
LINE
  8
_0-0_0
  6
CONTINUOUS
 62
    7
 10
179.92777649999994
 20
766.08492999999999
 11
189.17777649999994
 21
766.08492999999999
  0
LINE
  8
_0-0_0
  6
CONTINUOUS
 62
    7
 10
179.8077424999999
 20
766.16137700000002
 11
179.92777649999994
 21
766.08492999999999
  0
LINE
  8
_0-0_0
  6
CONTINUOUS
 62
    7
 10
179.67777649999994
 20
766.24520899999993
 11
179.8077424999999
 21
766.16137700000002
  0
LINE
  8
_0-0_0
  6
CONTINUOUS
 62
    7
 10
179.67777649999994
 20
766.362976
 11
179.92777649999994
 21
766.08492999999999
  0
LINE
  8
_0-0_0
  6
CONTINUOUS
 62
    7
 10
179.67777649999994
 20
766.50140399999998
 11
179.92777649999994
 21
766.22744799999998
  0
LINE
  8
_0-0_0
  6
CONTINUOUS
 62
    7
 10
179.92777649999994
 20
766.22744799999998
 11
189.17777649999994
 21
766.22744799999998
  0
LINE
  8
_0-0_0
  6
CONTINUOUS
 62
    7
 10
179.67777649999994
 20
766.362976
 11
179.92777649999994
 21
766.22744799999998
  0
LINE
  8
_0-0_0
  6
CONTINUOUS
 62
    7
 10
179.67777649999994
 20
766.658997
 11
179.92777649999994
 21
766.39211999999998
  0
LINE
  8
_0-0_0
  6
CONTINUOUS
 62
    7
 10
179.92777649999994
 20
766.39211999999998
 11
189.17777649999994
 21
766.39211999999998
  0
LINE
  8
_0-0_0
  6
CONTINUOUS
 62
    7
 10
179.67777649999994
 20
766.50140399999998
 11
179.92777649999994
 21
766.39211999999998
  0
LINE
  8
_0-0_0
  6
CONTINUOUS
 62
    7
 10
179.67777649999994
 20
766.83401500000002
 11
179.92777649999994
 21
766.57714800000008
  0
LINE
  8
_0-0_0
  6
CONTINUOUS
 62
    7
 10
179.92777649999994
 20
766.57714800000008
 11
189.17777649999994
 21
766.57714800000008
  0
LINE
  8
_0-0_0
  6
CONTINUOUS
 62
    7
 10
179.67777649999994
 20
766.658997
 11
179.92777649999994
 21
766.57714800000008
  0
LINE
  8
_0-0_0
  6
CONTINUOUS
 62
    7
 10
179.67777649999994
 20
767.02453600000001
 11
179.92777649999994
 21
766.78051800000003
  0
LINE
  8
_0-0_0
  6
CONTINUOUS
 62
    7
 10
179.92777649999994
 20
766.78051800000003
 11
189.17777649999994
 21
766.78051800000003
  0
LINE
  8
_0-0_0
  6
CONTINUOUS
 62
    7
 10
179.67777649999994
 20
766.83401500000002
 11
179.92777649999994
 21
766.78051800000003
  0
LINE
  8
_0-0_0
  6
CONTINUOUS
 62
    7
 10
179.67777649999994
 20
767.22851600000001
 11
179.92777649999994
 21
767
  0
LINE
  8
_0-0_0
  6
CONTINUOUS
 62
    7
 10
179.92777649999994
 20
767
 11
189.17777649999994
 21
767
  0
LINE
  8
_0-0_0
  6
CONTINUOUS
 62
    7
 10
179.67777649999994
 20
767.22851600000001
 11
189.42777649999994
 21
767.22851600000001
  0
LINE
  8
_0-0_0
  6
CONTINUOUS
 62
    7
 10
179.67777649999994
 20
767.02453600000001
 11
179.92777649999994
 21
767
  0
LINE
  8
_0-0_0
  6
CONTINUOUS
 62
    7
 10
179.67777649999994
 20
767.44366500000001
 11
179.92777649999994
 21
767.23315400000001
  0
LINE
  8
_0-0_0
  6
CONTINUOUS
 62
    7
 10
179.92777649999994
 20
767.23315400000001
 11
189.17777649999994
 21
767.23315400000001
  0
LINE
  8
_0-0_0
  6
CONTINUOUS
 62
    7
 10
179.67777649999994
 20
767.44366500000001
 11
189.42777649999994
 21
767.44366500000001
  0
LINE
  8
_0-0_0
  6
CONTINUOUS
 62
    7
 10
179.67777649999994
 20
767.22851600000001
 11
179.92777649999994
 21
767.23315400000001
  0
LINE
  8
_0-0_0
  6
CONTINUOUS
 62
    7
 10
179.67777649999994
 20
767.66763300000002
 11
179.92777649999994
 21
767.47744799999998
  0
LINE
  8
_0-0_0
  6
CONTINUOUS
 62
    7
 10
179.92777649999994
 20
767.47744799999998
 11
189.17777649999994
 21
767.47744799999998
  0
LINE
  8
_0-0_0
  6
CONTINUOUS
 62
    7
 10
179.67777649999994
 20
767.66763300000002
 11
189.42777649999994
 21
767.66763300000002
  0
LINE
  8
_0-0_0
  6
CONTINUOUS
 62
    7
 10
179.67777649999994
 20
767.44366500000001
 11
179.92777649999994
 21
767.47744799999998
  0
LINE
  8
_0-0_0
  6
CONTINUOUS
 62
    7
 10
179.67777649999994
 20
767.89801
 11
179.92777649999994
 21
767.73019399999998
  0
LINE
  8
_0-0_0
  6
CONTINUOUS
 62
    7
 10
179.92777649999994
 20
767.73019399999998
 11
189.17777649999994
 21
767.73019399999998
  0
LINE
  8
_0-0_0
  6
CONTINUOUS
 62
    7
 10
179.67777649999994
 20
767.89801
 11
189.42777649999994
 21
767.89801
  0
LINE
  8
_0-0_0
  6
CONTINUOUS
 62
    7
 10
179.67777649999994
 20
767.66763300000002
 11
179.92777649999994
 21
767.73019399999998
  0
LINE
  8
_0-0_0
  6
CONTINUOUS
 62
    7
 10
179.67777649999994
 20
768.13223300000004
 11
179.92777649999994
 21
767.98864700000001
  0
LINE
  8
_0-0_0
  6
CONTINUOUS
 62
    7
 10
179.92777649999994
 20
767.98864700000001
 11
189.17777649999994
 21
767.98864700000001
  0
LINE
  8
_0-0_0
  6
CONTINUOUS
 62
    7
 10
179.67777649999994
 20
768.13223300000004
 11
189.42777649999994
 21
768.13223300000004
  0
LINE
  8
_0-0_0
  6
CONTINUOUS
 62
    7
 10
179.67777649999994
 20
767.89801
 11
179.92777649999994
 21
767.98864700000001
  0
LINE
  8
_0-0_0
  6
CONTINUOUS
 62
    7
 10
179.67777649999994
 20
768.36773700000003
 11
179.92777649999994
 21
768.25
  0
LINE
  8
_0-0_0
  6
CONTINUOUS
 62
    7
 10
179.92777649999994
 20
768.25
 11
189.17777649999994
 21
768.25
  0
LINE
  8
_0-0_0
  6
CONTINUOUS
 62
    7
 10
179.67777649999994
 20
768.36773700000003
 11
189.42777649999994
 21
768.36773700000003
  0
LINE
  8
_0-0_0
  6
CONTINUOUS
 62
    7
 10
179.67777649999994
 20
768.13223300000004
 11
179.92777649999994
 21
768.25
  0
LINE
  8
_0-0_0
  6
CONTINUOUS
 62
    7
 10
179.67777649999994
 20
768.60195900000008
 11
179.92777649999994
 21
768.51129200000003
  0
LINE
  8
_0-0_0
  6
CONTINUOUS
 62
    7
 10
179.92777649999994
 20
768.51129200000003
 11
189.17777649999994
 21
768.51129200000003
  0
LINE
  8
_0-0_0
  6
CONTINUOUS
 62
    7
 10
179.67777649999994
 20
768.60195900000008
 11
189.42777649999994
 21
768.60195900000008
  0
LINE
  8
_0-0_0
  6
CONTINUOUS
 62
    7
 10
179.67777649999994
 20
768.36773700000003
 11
179.92777649999994
 21
768.51129200000003
  0
LINE
  8
_0-0_0
  6
CONTINUOUS
 62
    7
 10
179.67777649999994
 20
768.83233599999994
 11
179.92777649999994
 21
768.76977499999998
  0
LINE
  8
_0-0_0
  6
CONTINUOUS
 62
    7
 10
179.92777649999994
 20
768.76977499999998
 11
189.17777649999994
 21
768.76977499999998
  0
LINE
  8
_0-0_0
  6
CONTINUOUS
 62
    7
 10
179.67777649999994
 20
768.83233599999994
 11
189.42777649999994
 21
768.83233599999994
  0
LINE
  8
_0-0_0
  6
CONTINUOUS
 62
    7
 10
179.67777649999994
 20
768.60195900000008
 11
179.92777649999994
 21
768.76977499999998
  0
LINE
  8
_0-0_0
  6
CONTINUOUS
 62
    7
 10
179.67777649999994
 20
769.05630500000007
 11
179.92777649999994
 21
769.02252199999998
  0
LINE
  8
_0-0_0
  6
CONTINUOUS
 62
    7
 10
179.92777649999994
 20
769.02252199999998
 11
189.17777649999994
 21
769.02252199999998
  0
LINE
  8
_0-0_0
  6
CONTINUOUS
 62
    7
 10
179.67777649999994
 20
769.05630500000007
 11
189.42777649999994
 21
769.05630500000007
  0
LINE
  8
_0-0_0
  6
CONTINUOUS
 62
    7
 10
179.67777649999994
 20
768.83233599999994
 11
179.92777649999994
 21
769.02252199999998
  0
LINE
  8
_0-0_0
  6
CONTINUOUS
 62
    7
 10
179.67777649999994
 20
769.27145399999995
 11
179.92777649999994
 21
769.26681499999995
  0
LINE
  8
_0-0_0
  6
CONTINUOUS
 62
    7
 10
179.92777649999994
 20
769.26681499999995
 11
189.17777649999994
 21
769.26681499999995
  0
LINE
  8
_0-0_0
  6
CONTINUOUS
 62
    7
 10
179.67777649999994
 20
769.05630500000007
 11
179.92777649999994
 21
769.26681499999995
  0
LINE
  8
_0-0_0
  6
CONTINUOUS
 62
    7
 10
179.42777649999994
 20
770.25
 11
179.42777649999994
 21
766.49481200000002
  0
LINE
  8
_0-0_0
  6
CONTINUOUS
 62
    7
 10
179.42777649999994
 20
766.49481200000002
 11
179.42777649999994
 21
766.25
  0
LINE
  8
_0-0_0
  6
CONTINUOUS
 62
    7
 10
193.02777449999996
 20
764.94998199999998
 11
193.02777449999996
 21
762.44998199999998
  0
LINE
  8
_0-0_0
  6
CONTINUOUS
 62
    7
 10
193.02777449999996
 20
762.44998199999998
 11
193.02777449999996
 21
754.94998199999998
  0
LINE
  8
_0-0_0
  6
CONTINUOUS
 62
    7
 10
192.2277795
 20
764.48809800000004
 11
192.2277795
 21
762.21905500000003
  0
LINE
  8
_0-0_0
  6
CONTINUOUS
 62
    7
 10
192.2277795
 20
762.21905500000003
 11
192.2277795
 21
755.41186500000003
  0
LINE
  8
_0-0_0
  6
CONTINUOUS
 62
    7
 10
134.2277795
 20
763.94998199999998
 11
134.2277795
 21
763.94863899999996
  0
LINE
  8
_0-0_0
  6
CONTINUOUS
 62
    7
 10
134.2277795
 20
763.94863899999996
 11
134.2277795
 21
755.94998199999998
  0
LINE
  8
_0-0_0
  6
CONTINUOUS
 62
    7
 10
189.42777649999994
 20
749.40307600000006
 11
189.42777649999994
 21
749.39999399999999
  0
LINE
  8
_0-0_0
  6
CONTINUOUS
 62
    7
 10
189.42777649999994
 20
749.42770399999995
 11
189.42777649999994
 21
749.40307600000006
  0
LINE
  8
_0-0_0
  6
CONTINUOUS
 62
    7
 10
189.42777649999994
 20
749.47665400000005
 11
189.42777649999994
 21
749.42770399999995
  0
LINE
  8
_0-0_0
  6
CONTINUOUS
 62
    7
 10
189.42777649999994
 20
749.54943800000001
 11
189.42777649999994
 21
749.47665400000005
  0
LINE
  8
_0-0_0
  6
CONTINUOUS
 62
    7
 10
189.42777649999994
 20
749.64520300000004
 11
189.42777649999994
 21
749.54943800000001
  0
LINE
  8
_0-0_0
  6
CONTINUOUS
 62
    7
 10
189.42777649999994
 20
749.67541499999993
 11
189.42777649999994
 21
749.64520300000004
  0
LINE
  8
_0-0_0
  6
CONTINUOUS
 62
    7
 10
189.42777649999994
 20
749.76297
 11
189.42777649999994
 21
749.67541499999993
  0
LINE
  8
_0-0_0
  6
CONTINUOUS
 62
    7
 10
189.42777649999994
 20
749.90139799999997
 11
189.42777649999994
 21
749.76297
  0
LINE
  8
_0-0_0
  6
CONTINUOUS
 62
    7
 10
189.42777649999994
 20
750.05898999999999
 11
189.42777649999994
 21
749.90139799999997
  0
LINE
  8
_0-0_0
  6
CONTINUOUS
 62
    7
 10
189.42777649999994
 20
750.23400900000001
 11
189.42777649999994
 21
750.05898999999999
  0
LINE
  8
_0-0_0
  6
CONTINUOUS
 62
    7
 10
189.42777649999994
 20
750.42453
 11
189.42777649999994
 21
750.23400900000001
  0
LINE
  8
_0-0_0
  6
CONTINUOUS
 62
    7
 10
189.42777649999994
 20
750.62851000000001
 11
189.42777649999994
 21
750.42453
  0
LINE
  8
_0-0_0
  6
CONTINUOUS
 62
    7
 10
189.42777649999994
 20
750.843658
 11
189.42777649999994
 21
750.62851000000001
  0
LINE
  8
_0-0_0
  6
CONTINUOUS
 62
    7
 10
189.42777649999994
 20
751.06762700000002
 11
189.42777649999994
 21
750.843658
  0
LINE
  8
_0-0_0
  6
CONTINUOUS
 62
    7
 10
189.42777649999994
 20
751.29800399999999
 11
189.42777649999994
 21
751.06762700000002
  0
LINE
  8
_0-0_0
  6
CONTINUOUS
 62
    7
 10
189.42777649999994
 20
751.53222699999992
 11
189.42777649999994
 21
751.29800399999999
  0
LINE
  8
_0-0_0
  6
CONTINUOUS
 62
    7
 10
189.42777649999994
 20
751.76773100000003
 11
189.42777649999994
 21
751.53222699999992
  0
LINE
  8
_0-0_0
  6
CONTINUOUS
 62
    7
 10
189.42777649999994
 20
752.00195299999996
 11
189.42777649999994
 21
751.76773100000003
  0
LINE
  8
_0-0_0
  6
CONTINUOUS
 62
    7
 10
189.42777649999994
 20
752.23233000000005
 11
189.42777649999994
 21
752.00195299999996
  0
LINE
  8
_0-0_0
  6
CONTINUOUS
 62
    7
 10
189.42777649999994
 20
752.45629899999994
 11
189.42777649999994
 21
752.23233000000005
  0
LINE
  8
_0-0_0
  6
CONTINUOUS
 62
    7
 10
189.42777649999994
 20
752.67144800000005
 11
189.42777649999994
 21
752.45629899999994
  0
LINE
  8
_0-0_0
  6
CONTINUOUS
 62
    7
 10
189.42777649999994
 20
752.72869900000001
 11
189.42777649999994
 21
752.67144800000005
  0
LINE
  8
_0-0_0
  6
CONTINUOUS
 62
    7
 10
189.42777649999994
 20
749.40307600000006
 11
189.17777649999994
 21
749.14999399999999
  0
LINE
  8
_0-0_0
  6
CONTINUOUS
 62
    7
 10
189.42777649999994
 20
749.42770399999995
 11
189.17777649999994
 21
749.16369600000007
  0
LINE
  8
_0-0_0
  6
CONTINUOUS
 62
    7
 10
189.42777649999994
 20
749.40307600000006
 11
189.17777649999994
 21
749.16369600000007
  0
LINE
  8
_0-0_0
  6
CONTINUOUS
 62
    7
 10
189.42777649999994
 20
749.47665400000005
 11
189.17777649999994
 21
749.20461999999998
  0
LINE
  8
_0-0_0
  6
CONTINUOUS
 62
    7
 10
189.42777649999994
 20
749.42770399999995
 11
189.17777649999994
 21
749.20461999999998
  0
LINE
  8
_0-0_0
  6
CONTINUOUS
 62
    7
 10
189.42777649999994
 20
749.54943800000001
 11
189.17777649999994
 21
749.27233899999999
  0
LINE
  8
_0-0_0
  6
CONTINUOUS
 62
    7
 10
189.42777649999994
 20
749.47665400000005
 11
189.17777649999994
 21
749.27233899999999
  0
LINE
  8
_0-0_0
  6
CONTINUOUS
 62
    7
 10
189.42777649999994
 20
749.64520300000004
 11
189.17777649999994
 21
749.36611900000003
  0
LINE
  8
_0-0_0
  6
CONTINUOUS
 62
    7
 10
189.42777649999994
 20
749.54943800000001
 11
189.17777649999994
 21
749.36611900000003
  0
LINE
  8
_0-0_0
  6
CONTINUOUS
 62
    7
 10
189.42777649999994
 20
749.64520300000004
 11
189.29781749999995
 21
749.56137100000001
  0
LINE
  8
_0-0_0
  6
CONTINUOUS
 62
    7
 10
189.42777649999994
 20
749.76297
 11
189.17777649999994
 21
749.48492399999998
  0
LINE
  8
_0-0_0
  6
CONTINUOUS
 62
    7
 10
189.29781749999995
 20
749.56137100000001
 11
189.17777649999994
 21
749.48492399999998
  0
LINE
  8
_0-0_0
  6
CONTINUOUS
 62
    7
 10
189.42777649999994
 20
749.90139799999997
 11
189.17777649999994
 21
749.62744099999998
  0
LINE
  8
_0-0_0
  6
CONTINUOUS
 62
    7
 10
189.42777649999994
 20
749.76297
 11
189.17777649999994
 21
749.62744099999998
  0
LINE
  8
_0-0_0
  6
CONTINUOUS
 62
    7
 10
189.42777649999994
 20
750.05898999999999
 11
189.17777649999994
 21
749.79211400000008
  0
LINE
  8
_0-0_0
  6
CONTINUOUS
 62
    7
 10
189.42777649999994
 20
749.90139799999997
 11
189.17777649999994
 21
749.79211400000008
  0
LINE
  8
_0-0_0
  6
CONTINUOUS
 62
    7
 10
189.42777649999994
 20
750.23400900000001
 11
189.17777649999994
 21
749.97717299999999
  0
LINE
  8
_0-0_0
  6
CONTINUOUS
 62
    7
 10
189.42777649999994
 20
750.05898999999999
 11
189.17777649999994
 21
749.97717299999999
  0
LINE
  8
_0-0_0
  6
CONTINUOUS
 62
    7
 10
189.42777649999994
 20
750.42453
 11
189.17777649999994
 21
750.18051100000002
  0
LINE
  8
_0-0_0
  6
CONTINUOUS
 62
    7
 10
189.42777649999994
 20
750.23400900000001
 11
189.17777649999994
 21
750.18051100000002
  0
LINE
  8
_0-0_0
  6
CONTINUOUS
 62
    7
 10
189.42777649999994
 20
750.62851000000001
 11
189.17777649999994
 21
750.39999399999999
  0
LINE
  8
_0-0_0
  6
CONTINUOUS
 62
    7
 10
189.42777649999994
 20
750.42453
 11
189.17777649999994
 21
750.39999399999999
  0
LINE
  8
_0-0_0
  6
CONTINUOUS
 62
    7
 10
189.42777649999994
 20
750.843658
 11
189.17777649999994
 21
750.63314800000001
  0
LINE
  8
_0-0_0
  6
CONTINUOUS
 62
    7
 10
189.42777649999994
 20
750.62851000000001
 11
189.17777649999994
 21
750.63314800000001
  0
LINE
  8
_0-0_0
  6
CONTINUOUS
 62
    7
 10
189.42777649999994
 20
751.06762700000002
 11
189.17777649999994
 21
750.87744099999998
  0
LINE
  8
_0-0_0
  6
CONTINUOUS
 62
    7
 10
189.42777649999994
 20
750.843658
 11
189.17777649999994
 21
750.87744099999998
  0
LINE
  8
_0-0_0
  6
CONTINUOUS
 62
    7
 10
189.42777649999994
 20
751.29800399999999
 11
189.17777649999994
 21
751.13018799999998
  0
LINE
  8
_0-0_0
  6
CONTINUOUS
 62
    7
 10
189.42777649999994
 20
751.06762700000002
 11
189.17777649999994
 21
751.13018799999998
  0
LINE
  8
_0-0_0
  6
CONTINUOUS
 62
    7
 10
189.42777649999994
 20
751.53222699999992
 11
189.17777649999994
 21
751.38867200000004
  0
LINE
  8
_0-0_0
  6
CONTINUOUS
 62
    7
 10
189.42777649999994
 20
751.29800399999999
 11
189.17777649999994
 21
751.38867200000004
  0
LINE
  8
_0-0_0
  6
CONTINUOUS
 62
    7
 10
189.42777649999994
 20
751.76773100000003
 11
189.17777649999994
 21
751.64999399999999
  0
LINE
  8
_0-0_0
  6
CONTINUOUS
 62
    7
 10
189.42777649999994
 20
751.53222699999992
 11
189.17777649999994
 21
751.64999399999999
  0
LINE
  8
_0-0_0
  6
CONTINUOUS
 62
    7
 10
189.42777649999994
 20
752.00195299999996
 11
189.17777649999994
 21
751.91131599999994
  0
LINE
  8
_0-0_0
  6
CONTINUOUS
 62
    7
 10
189.42777649999994
 20
751.76773100000003
 11
189.17777649999994
 21
751.91131599999994
  0
LINE
  8
_0-0_0
  6
CONTINUOUS
 62
    7
 10
189.42777649999994
 20
752.23233000000005
 11
189.17777649999994
 21
752.16976899999997
  0
LINE
  8
_0-0_0
  6
CONTINUOUS
 62
    7
 10
189.42777649999994
 20
752.00195299999996
 11
189.17777649999994
 21
752.16976899999997
  0
LINE
  8
_0-0_0
  6
CONTINUOUS
 62
    7
 10
189.42777649999994
 20
752.45629899999994
 11
189.17777649999994
 21
752.42251599999997
  0
LINE
  8
_0-0_0
  6
CONTINUOUS
 62
    7
 10
189.42777649999994
 20
752.23233000000005
 11
189.17777649999994
 21
752.42251599999997
  0
LINE
  8
_0-0_0
  6
CONTINUOUS
 62
    7
 10
189.42777649999994
 20
752.67144800000005
 11
189.17777649999994
 21
752.66680900000006
  0
LINE
  8
_0-0_0
  6
CONTINUOUS
 62
    7
 10
189.42777649999994
 20
752.45629899999994
 11
189.17777649999994
 21
752.66680900000006
  0
LINE
  8
_0-0_0
  6
CONTINUOUS
 62
    7
 10
189.42777649999994
 20
752.87542699999995
 11
189.42777649999994
 21
752.72869900000001
  0
LINE
  8
_0-0_0
  6
CONTINUOUS
 62
    7
 10
189.42777649999994
 20
752.87542699999995
 11
189.17777649999994
 21
752.89999399999999
  0
LINE
  8
_0-0_0
  6
CONTINUOUS
 62
    7
 10
189.42777649999994
 20
752.67144800000005
 11
189.17777649999994
 21
752.89999399999999
  0
LINE
  8
_0-0_0
  6
CONTINUOUS
 62
    7
 10
189.42777649999994
 20
753.06594799999993
 11
189.42777649999994
 21
752.87542699999995
  0
LINE
  8
_0-0_0
  6
CONTINUOUS
 62
    7
 10
189.42777649999994
 20
753.24096699999996
 11
189.42777649999994
 21
753.06594799999993
  0
LINE
  8
_0-0_0
  6
CONTINUOUS
 62
    7
 10
189.42777649999994
 20
753.39855999999997
 11
189.42777649999994
 21
753.24096699999996
  0
LINE
  8
_0-0_0
  6
CONTINUOUS
 62
    7
 10
189.42777649999994
 20
753.53698699999995
 11
189.42777649999994
 21
753.39855999999997
  0
LINE
  8
_0-0_0
  6
CONTINUOUS
 62
    7
 10
189.42777649999994
 20
753.65475500000002
 11
189.42777649999994
 21
753.53698699999995
  0
LINE
  8
_0-0_0
  6
CONTINUOUS
 62
    7
 10
189.42777649999994
 20
753.75054899999998
 11
189.42777649999994
 21
753.65475500000002
  0
LINE
  8
_0-0_0
  6
CONTINUOUS
 62
    7
 10
189.42777649999994
 20
753.82330300000001
 11
189.42777649999994
 21
753.75054899999998
  0
LINE
  8
_0-0_0
  6
CONTINUOUS
 62
    7
 10
189.42777649999994
 20
753.87228400000004
 11
189.42777649999994
 21
753.82330300000001
  0
LINE
  8
_0-0_0
  6
CONTINUOUS
 62
    7
 10
189.42777649999994
 20
753.89999399999999
 11
189.42777649999994
 21
753.87228400000004
  0
LINE
  8
_0-0_0
  6
CONTINUOUS
 62
    7
 10
189.42777649999994
 20
753.89999399999999
 11
189.42777649999994
 21
753.89691199999993
  0
LINE
  8
_0-0_0
  6
CONTINUOUS
 62
    7
 10
179.67777649999994
 20
749.40307600000006
 11
179.92777649999994
 21
749.14999399999999
  0
LINE
  8
_0-0_0
  6
CONTINUOUS
 62
    7
 10
179.92777649999994
 20
749.14999399999999
 11
189.17777649999994
 21
749.14999399999999
  0
LINE
  8
_0-0_0
  6
CONTINUOUS
 62
    7
 10
179.67777649999994
 20
749.42770399999995
 11
179.92777649999994
 21
749.16369600000007
  0
LINE
  8
_0-0_0
  6
CONTINUOUS
 62
    7
 10
179.92777649999994
 20
749.16369600000007
 11
189.17777649999994
 21
749.16369600000007
  0
LINE
  8
_0-0_0
  6
CONTINUOUS
 62
    7
 10
179.67777649999994
 20
749.40307600000006
 11
179.92777649999994
 21
749.16369600000007
  0
LINE
  8
_0-0_0
  6
CONTINUOUS
 62
    7
 10
179.67777649999994
 20
749.47665400000005
 11
179.92777649999994
 21
749.20461999999998
  0
LINE
  8
_0-0_0
  6
CONTINUOUS
 62
    7
 10
179.92777649999994
 20
749.20461999999998
 11
189.17777649999994
 21
749.20461999999998
  0
LINE
  8
_0-0_0
  6
CONTINUOUS
 62
    7
 10
179.67777649999994
 20
749.42770399999995
 11
179.92777649999994
 21
749.20461999999998
  0
LINE
  8
_0-0_0
  6
CONTINUOUS
 62
    7
 10
179.67777649999994
 20
749.54943800000001
 11
179.92777649999994
 21
749.27233899999999
  0
LINE
  8
_0-0_0
  6
CONTINUOUS
 62
    7
 10
179.92777649999994
 20
749.27233899999999
 11
189.17777649999994
 21
749.27233899999999
  0
LINE
  8
_0-0_0
  6
CONTINUOUS
 62
    7
 10
179.67777649999994
 20
749.47665400000005
 11
179.92777649999994
 21
749.27233899999999
  0
LINE
  8
_0-0_0
  6
CONTINUOUS
 62
    7
 10
179.67777649999994
 20
749.64520300000004
 11
179.92777649999994
 21
749.36611900000003
  0
LINE
  8
_0-0_0
  6
CONTINUOUS
 62
    7
 10
179.92777649999994
 20
749.36611900000003
 11
189.17777649999994
 21
749.36611900000003
  0
LINE
  8
_0-0_0
  6
CONTINUOUS
 62
    7
 10
179.67777649999994
 20
749.54943800000001
 11
179.92777649999994
 21
749.36611900000003
  0
LINE
  8
_0-0_0
  6
CONTINUOUS
 62
    7
 10
179.92777649999994
 20
749.48492399999998
 11
189.17777649999994
 21
749.48492399999998
  0
LINE
  8
_0-0_0
  6
CONTINUOUS
 62
    7
 10
179.8077424999999
 20
749.56137100000001
 11
179.92777649999994
 21
749.48492399999998
  0
LINE
  8
_0-0_0
  6
CONTINUOUS
 62
    7
 10
179.67777649999994
 20
749.64520300000004
 11
179.8077424999999
 21
749.56137100000001
  0
LINE
  8
_0-0_0
  6
CONTINUOUS
 62
    7
 10
179.67777649999994
 20
749.76297
 11
179.92777649999994
 21
749.48492399999998
  0
LINE
  8
_0-0_0
  6
CONTINUOUS
 62
    7
 10
179.67777649999994
 20
749.90139799999997
 11
179.92777649999994
 21
749.62744099999998
  0
LINE
  8
_0-0_0
  6
CONTINUOUS
 62
    7
 10
179.92777649999994
 20
749.62744099999998
 11
189.17777649999994
 21
749.62744099999998
  0
LINE
  8
_0-0_0
  6
CONTINUOUS
 62
    7
 10
179.67777649999994
 20
749.76297
 11
179.92777649999994
 21
749.62744099999998
  0
LINE
  8
_0-0_0
  6
CONTINUOUS
 62
    7
 10
179.67777649999994
 20
750.05898999999999
 11
179.92777649999994
 21
749.79211400000008
  0
LINE
  8
_0-0_0
  6
CONTINUOUS
 62
    7
 10
179.92777649999994
 20
749.79211400000008
 11
189.17777649999994
 21
749.79211400000008
  0
LINE
  8
_0-0_0
  6
CONTINUOUS
 62
    7
 10
179.67777649999994
 20
749.90139799999997
 11
179.92777649999994
 21
749.79211400000008
  0
LINE
  8
_0-0_0
  6
CONTINUOUS
 62
    7
 10
179.67777649999994
 20
750.23400900000001
 11
179.92777649999994
 21
749.97717299999999
  0
LINE
  8
_0-0_0
  6
CONTINUOUS
 62
    7
 10
179.92777649999994
 20
749.97717299999999
 11
189.17777649999994
 21
749.97717299999999
  0
LINE
  8
_0-0_0
  6
CONTINUOUS
 62
    7
 10
179.67777649999994
 20
750.05898999999999
 11
179.92777649999994
 21
749.97717299999999
  0
LINE
  8
_0-0_0
  6
CONTINUOUS
 62
    7
 10
179.67777649999994
 20
750.42453
 11
179.92777649999994
 21
750.18051100000002
  0
LINE
  8
_0-0_0
  6
CONTINUOUS
 62
    7
 10
179.92777649999994
 20
750.18051100000002
 11
189.17777649999994
 21
750.18051100000002
  0
LINE
  8
_0-0_0
  6
CONTINUOUS
 62
    7
 10
179.67777649999994
 20
750.23400900000001
 11
179.92777649999994
 21
750.18051100000002
  0
LINE
  8
_0-0_0
  6
CONTINUOUS
 62
    7
 10
179.67777649999994
 20
750.62851000000001
 11
179.92777649999994
 21
750.39999399999999
  0
LINE
  8
_0-0_0
  6
CONTINUOUS
 62
    7
 10
179.92777649999994
 20
750.39999399999999
 11
189.17777649999994
 21
750.39999399999999
  0
LINE
  8
_0-0_0
  6
CONTINUOUS
 62
    7
 10
179.67777649999994
 20
750.62851000000001
 11
189.42777649999994
 21
750.62851000000001
  0
LINE
  8
_0-0_0
  6
CONTINUOUS
 62
    7
 10
179.67777649999994
 20
750.42453
 11
179.92777649999994
 21
750.39999399999999
  0
LINE
  8
_0-0_0
  6
CONTINUOUS
 62
    7
 10
179.67777649999994
 20
750.843658
 11
179.92777649999994
 21
750.63314800000001
  0
LINE
  8
_0-0_0
  6
CONTINUOUS
 62
    7
 10
179.92777649999994
 20
750.63314800000001
 11
189.17777649999994
 21
750.63314800000001
  0
LINE
  8
_0-0_0
  6
CONTINUOUS
 62
    7
 10
179.67777649999994
 20
750.843658
 11
189.42777649999994
 21
750.843658
  0
LINE
  8
_0-0_0
  6
CONTINUOUS
 62
    7
 10
179.67777649999994
 20
750.62851000000001
 11
179.92777649999994
 21
750.63314800000001
  0
LINE
  8
_0-0_0
  6
CONTINUOUS
 62
    7
 10
179.67777649999994
 20
751.06762700000002
 11
179.92777649999994
 21
750.87744099999998
  0
LINE
  8
_0-0_0
  6
CONTINUOUS
 62
    7
 10
179.92777649999994
 20
750.87744099999998
 11
189.17777649999994
 21
750.87744099999998
  0
LINE
  8
_0-0_0
  6
CONTINUOUS
 62
    7
 10
179.67777649999994
 20
751.06762700000002
 11
189.42777649999994
 21
751.06762700000002
  0
LINE
  8
_0-0_0
  6
CONTINUOUS
 62
    7
 10
179.67777649999994
 20
750.843658
 11
179.92777649999994
 21
750.87744099999998
  0
LINE
  8
_0-0_0
  6
CONTINUOUS
 62
    7
 10
179.67777649999994
 20
751.29800399999999
 11
179.92777649999994
 21
751.13018799999998
  0
LINE
  8
_0-0_0
  6
CONTINUOUS
 62
    7
 10
179.92777649999994
 20
751.13018799999998
 11
189.17777649999994
 21
751.13018799999998
  0
LINE
  8
_0-0_0
  6
CONTINUOUS
 62
    7
 10
179.67777649999994
 20
751.29800399999999
 11
189.42777649999994
 21
751.29800399999999
  0
LINE
  8
_0-0_0
  6
CONTINUOUS
 62
    7
 10
179.67777649999994
 20
751.06762700000002
 11
179.92777649999994
 21
751.13018799999998
  0
LINE
  8
_0-0_0
  6
CONTINUOUS
 62
    7
 10
179.67777649999994
 20
751.53222699999992
 11
179.92777649999994
 21
751.38867200000004
  0
LINE
  8
_0-0_0
  6
CONTINUOUS
 62
    7
 10
179.92777649999994
 20
751.38867200000004
 11
189.17777649999994
 21
751.38867200000004
  0
LINE
  8
_0-0_0
  6
CONTINUOUS
 62
    7
 10
179.67777649999994
 20
751.53222699999992
 11
189.42777649999994
 21
751.53222699999992
  0
LINE
  8
_0-0_0
  6
CONTINUOUS
 62
    7
 10
179.67777649999994
 20
751.29800399999999
 11
179.92777649999994
 21
751.38867200000004
  0
LINE
  8
_0-0_0
  6
CONTINUOUS
 62
    7
 10
179.67777649999994
 20
751.76773100000003
 11
179.92777649999994
 21
751.64999399999999
  0
LINE
  8
_0-0_0
  6
CONTINUOUS
 62
    7
 10
179.92777649999994
 20
751.64999399999999
 11
189.17777649999994
 21
751.64999399999999
  0
LINE
  8
_0-0_0
  6
CONTINUOUS
 62
    7
 10
179.67777649999994
 20
751.76773100000003
 11
189.42777649999994
 21
751.76773100000003
  0
LINE
  8
_0-0_0
  6
CONTINUOUS
 62
    7
 10
179.67777649999994
 20
751.53222699999992
 11
179.92777649999994
 21
751.64999399999999
  0
LINE
  8
_0-0_0
  6
CONTINUOUS
 62
    7
 10
179.67777649999994
 20
752.00195299999996
 11
179.92777649999994
 21
751.91131599999994
  0
LINE
  8
_0-0_0
  6
CONTINUOUS
 62
    7
 10
179.92777649999994
 20
751.91131599999994
 11
189.17777649999994
 21
751.91131599999994
  0
LINE
  8
_0-0_0
  6
CONTINUOUS
 62
    7
 10
179.67777649999994
 20
752.00195299999996
 11
189.42777649999994
 21
752.00195299999996
  0
LINE
  8
_0-0_0
  6
CONTINUOUS
 62
    7
 10
179.67777649999994
 20
751.76773100000003
 11
179.92777649999994
 21
751.91131599999994
  0
LINE
  8
_0-0_0
  6
CONTINUOUS
 62
    7
 10
179.67777649999994
 20
752.23233000000005
 11
179.92777649999994
 21
752.16976899999997
  0
LINE
  8
_0-0_0
  6
CONTINUOUS
 62
    7
 10
179.92777649999994
 20
752.16976899999997
 11
189.17777649999994
 21
752.16976899999997
  0
LINE
  8
_0-0_0
  6
CONTINUOUS
 62
    7
 10
179.67777649999994
 20
752.23233000000005
 11
189.42777649999994
 21
752.23233000000005
  0
LINE
  8
_0-0_0
  6
CONTINUOUS
 62
    7
 10
179.67777649999994
 20
752.00195299999996
 11
179.92777649999994
 21
752.16976899999997
  0
LINE
  8
_0-0_0
  6
CONTINUOUS
 62
    7
 10
179.67777649999994
 20
752.45629899999994
 11
179.92777649999994
 21
752.42251599999997
  0
LINE
  8
_0-0_0
  6
CONTINUOUS
 62
    7
 10
179.92777649999994
 20
752.42251599999997
 11
189.17777649999994
 21
752.42251599999997
  0
LINE
  8
_0-0_0
  6
CONTINUOUS
 62
    7
 10
179.67777649999994
 20
752.45629899999994
 11
189.42777649999994
 21
752.45629899999994
  0
LINE
  8
_0-0_0
  6
CONTINUOUS
 62
    7
 10
179.67777649999994
 20
752.23233000000005
 11
179.92777649999994
 21
752.42251599999997
  0
LINE
  8
_0-0_0
  6
CONTINUOUS
 62
    7
 10
179.67777649999994
 20
752.67144800000005
 11
179.92777649999994
 21
752.66680900000006
  0
LINE
  8
_0-0_0
  6
CONTINUOUS
 62
    7
 10
179.92777649999994
 20
752.66680900000006
 11
189.17777649999994
 21
752.66680900000006
  0
LINE
  8
_0-0_0
  6
CONTINUOUS
 62
    7
 10
179.67777649999994
 20
752.67144800000005
 11
189.42777649999994
 21
752.67144800000005
  0
LINE
  8
_0-0_0
  6
CONTINUOUS
 62
    7
 10
179.67777649999994
 20
752.45629899999994
 11
179.92777649999994
 21
752.66680900000006
  0
LINE
  8
_0-0_0
  6
CONTINUOUS
 62
    7
 10
179.67777649999994
 20
752.87542699999995
 11
179.92777649999994
 21
752.89999399999999
  0
LINE
  8
_0-0_0
  6
CONTINUOUS
 62
    7
 10
179.92777649999994
 20
752.89999399999999
 11
189.17777649999994
 21
752.89999399999999
  0
LINE
  8
_0-0_0
  6
CONTINUOUS
 62
    7
 10
179.67777649999994
 20
752.67144800000005
 11
179.92777649999994
 21
752.89999399999999
  0
LINE
  8
_0-0_0
  6
CONTINUOUS
 62
    7
 10
189.42777649999994
 20
753.06594799999993
 11
189.17777649999994
 21
753.11944599999993
  0
LINE
  8
_0-0_0
  6
CONTINUOUS
 62
    7
 10
189.42777649999994
 20
752.87542699999995
 11
189.17777649999994
 21
753.11944599999993
  0
LINE
  8
_0-0_0
  6
CONTINUOUS
 62
    7
 10
189.42777649999994
 20
753.24096699999996
 11
189.17777649999994
 21
753.32281499999999
  0
LINE
  8
_0-0_0
  6
CONTINUOUS
 62
    7
 10
189.42777649999994
 20
753.06594799999993
 11
189.17777649999994
 21
753.32281499999999
  0
LINE
  8
_0-0_0
  6
CONTINUOUS
 62
    7
 10
189.42777649999994
 20
753.39855999999997
 11
189.17777649999994
 21
753.50784299999998
  0
LINE
  8
_0-0_0
  6
CONTINUOUS
 62
    7
 10
189.42777649999994
 20
753.24096699999996
 11
189.17777649999994
 21
753.50784299999998
  0
LINE
  8
_0-0_0
  6
CONTINUOUS
 62
    7
 10
189.42777649999994
 20
753.53698699999995
 11
189.17777649999994
 21
753.67251599999997
  0
LINE
  8
_0-0_0
  6
CONTINUOUS
 62
    7
 10
189.42777649999994
 20
753.39855999999997
 11
189.17777649999994
 21
753.67251599999997
  0
LINE
  8
_0-0_0
  6
CONTINUOUS
 62
    7
 10
189.42777649999994
 20
753.65475500000002
 11
189.17777649999994
 21
753.81506300000001
  0
LINE
  8
_0-0_0
  6
CONTINUOUS
 62
    7
 10
189.42777649999994
 20
753.53698699999995
 11
189.17777649999994
 21
753.81506300000001
  0
LINE
  8
_0-0_0
  6
CONTINUOUS
 62
    7
 10
189.42777649999994
 20
753.75054899999998
 11
189.17777649999994
 21
753.93383799999992
  0
LINE
  8
_0-0_0
  6
CONTINUOUS
 62
    7
 10
189.42777649999994
 20
753.65475500000002
 11
189.17777649999994
 21
753.93383799999992
  0
LINE
  8
_0-0_0
  6
CONTINUOUS
 62
    7
 10
189.42777649999994
 20
753.82330300000001
 11
189.17777649999994
 21
754.02761800000007
  0
LINE
  8
_0-0_0
  6
CONTINUOUS
 62
    7
 10
189.42777649999994
 20
753.75054899999998
 11
189.17777649999994
 21
754.02761800000007
  0
LINE
  8
_0-0_0
  6
CONTINUOUS
 62
    7
 10
189.42777649999994
 20
753.87228400000004
 11
189.17777649999994
 21
754.09533699999997
  0
LINE
  8
_0-0_0
  6
CONTINUOUS
 62
    7
 10
189.42777649999994
 20
753.82330300000001
 11
189.17777649999994
 21
754.09533699999997
  0
LINE
  8
_0-0_0
  6
CONTINUOUS
 62
    7
 10
189.42777649999994
 20
753.89691199999993
 11
189.17777649999994
 21
754.13629200000003
  0
LINE
  8
_0-0_0
  6
CONTINUOUS
 62
    7
 10
189.42777649999994
 20
753.87228400000004
 11
189.17777649999994
 21
754.13629200000003
  0
LINE
  8
_0-0_0
  6
CONTINUOUS
 62
    7
 10
189.42777649999994
 20
753.89691199999993
 11
189.17777649999994
 21
754.14999399999999
  0
LINE
  8
_0-0_0
  6
CONTINUOUS
 62
    7
 10
179.42777649999994
 20
749.89483599999994
 11
179.42777649999994
 21
749.64999399999999
  0
LINE
  8
_0-0_0
  6
CONTINUOUS
 62
    7
 10
179.67777649999994
 20
752.87542699999995
 11
179.92777649999994
 21
753.11944599999993
  0
LINE
  8
_0-0_0
  6
CONTINUOUS
 62
    7
 10
179.67777649999994
 20
753.06594799999993
 11
179.92777649999994
 21
753.11944599999993
  0
LINE
  8
_0-0_0
  6
CONTINUOUS
 62
    7
 10
179.67777649999994
 20
753.06594799999993
 11
179.92777649999994
 21
753.32281499999999
  0
LINE
  8
_0-0_0
  6
CONTINUOUS
 62
    7
 10
179.67777649999994
 20
753.24096699999996
 11
179.92777649999994
 21
753.32281499999999
  0
LINE
  8
_0-0_0
  6
CONTINUOUS
 62
    7
 10
179.67777649999994
 20
753.24096699999996
 11
179.92777649999994
 21
753.50784299999998
  0
LINE
  8
_0-0_0
  6
CONTINUOUS
 62
    7
 10
179.67777649999994
 20
753.39855999999997
 11
179.92777649999994
 21
753.50784299999998
  0
LINE
  8
_0-0_0
  6
CONTINUOUS
 62
    7
 10
179.67777649999994
 20
753.39855999999997
 11
179.92777649999994
 21
753.67251599999997
  0
LINE
  8
_0-0_0
  6
CONTINUOUS
 62
    7
 10
179.67777649999994
 20
753.53698699999995
 11
179.92777649999994
 21
753.67251599999997
  0
LINE
  8
_0-0_0
  6
CONTINUOUS
 62
    7
 10
179.67777649999994
 20
753.53698699999995
 11
179.92777649999994
 21
753.81506300000001
  0
LINE
  8
_0-0_0
  6
CONTINUOUS
 62
    7
 10
179.67777649999994
 20
753.65475500000002
 11
179.92777649999994
 21
753.81506300000001
  0
LINE
  8
_0-0_0
  6
CONTINUOUS
 62
    7
 10
179.67777649999994
 20
753.65475500000002
 11
179.92777649999994
 21
753.93383799999992
  0
LINE
  8
_0-0_0
  6
CONTINUOUS
 62
    7
 10
179.67777649999994
 20
753.75054899999998
 11
179.92777649999994
 21
753.93383799999992
  0
LINE
  8
_0-0_0
  6
CONTINUOUS
 62
    7
 10
179.67777649999994
 20
753.75054899999998
 11
179.92777649999994
 21
754.02761800000007
  0
LINE
  8
_0-0_0
  6
CONTINUOUS
 62
    7
 10
179.67777649999994
 20
753.82330300000001
 11
179.92777649999994
 21
754.02761800000007
  0
LINE
  8
_0-0_0
  6
CONTINUOUS
 62
    7
 10
179.67777649999994
 20
753.82330300000001
 11
179.92777649999994
 21
754.09533699999997
  0
LINE
  8
_0-0_0
  6
CONTINUOUS
 62
    7
 10
179.67777649999994
 20
753.87228400000004
 11
179.92777649999994
 21
754.09533699999997
  0
LINE
  8
_0-0_0
  6
CONTINUOUS
 62
    7
 10
179.67777649999994
 20
753.87228400000004
 11
179.92777649999994
 21
754.13629200000003
  0
LINE
  8
_0-0_0
  6
CONTINUOUS
 62
    7
 10
179.67777649999994
 20
753.89691199999993
 11
179.92777649999994
 21
754.13629200000003
  0
LINE
  8
_0-0_0
  6
CONTINUOUS
 62
    7
 10
179.67777649999994
 20
753.89691199999993
 11
179.92777649999994
 21
754.14999399999999
  0
LINE
  8
_0-0_0
  6
CONTINUOUS
 62
    7
 10
179.42777649999994
 20
753.64999399999999
 11
179.42777649999994
 21
749.89483599999994
  0
LINE
  8
_0-0_0
  6
CONTINUOUS
 62
    7
 10
179.92777649999994
 20
753.11944599999993
 11
189.17777649999994
 21
753.11944599999993
  0
LINE
  8
_0-0_0
  6
CONTINUOUS
 62
    7
 10
179.92777649999994
 20
753.32281499999999
 11
189.17777649999994
 21
753.32281499999999
  0
LINE
  8
_0-0_0
  6
CONTINUOUS
 62
    7
 10
179.92777649999994
 20
753.50784299999998
 11
189.17777649999994
 21
753.50784299999998
  0
LINE
  8
_0-0_0
  6
CONTINUOUS
 62
    7
 10
179.92777649999994
 20
753.67251599999997
 11
189.17777649999994
 21
753.67251599999997
  0
LINE
  8
_0-0_0
  6
CONTINUOUS
 62
    7
 10
179.92777649999994
 20
753.81506300000001
 11
189.17777649999994
 21
753.81506300000001
  0
LINE
  8
_0-0_0
  6
CONTINUOUS
 62
    7
 10
179.92777649999994
 20
753.93383799999992
 11
189.17777649999994
 21
753.93383799999992
  0
LINE
  8
_0-0_0
  6
CONTINUOUS
 62
    7
 10
179.92777649999994
 20
754.02761800000007
 11
189.17777649999994
 21
754.02761800000007
  0
LINE
  8
_0-0_0
  6
CONTINUOUS
 62
    7
 10
179.92777649999994
 20
754.09533699999997
 11
189.17777649999994
 21
754.09533699999997
  0
LINE
  8
_0-0_0
  6
CONTINUOUS
 62
    7
 10
179.92777649999994
 20
754.13629200000003
 11
189.17777649999994
 21
754.13629200000003
  0
LINE
  8
_0-0_0
  6
CONTINUOUS
 62
    7
 10
179.92777649999994
 20
754.14999399999999
 11
189.17777649999994
 21
754.14999399999999
  0
LINE
  8
_0-0_0
  6
CONTINUOUS
 62
    7
 10
215.42777649999994
 20
770.5
 11
189.42777649999994
 21
770.5
  0
LINE
  8
_0-0_0
  6
CONTINUOUS
 62
    7
 10
215.42777649999994
 20
766
 11
189.42777649999994
 21
766
  0
LINE
  8
_0-0_0
  6
CONTINUOUS
 62
    7
 10
316.42778049999993
 20
753.89999399999999
 11
318.8834374999999
 21
753.89999399999999
  0
LINE
  8
_0-0_0
  6
CONTINUOUS
 62
    7
 10
318.38236949999998
 20
749.39999399999999
 11
318.8834374999999
 21
749.39999399999999
  0
LINE
  8
_0-0_0
  6
CONTINUOUS
 62
    7
 10
189.42777649999994
 20
770.5
 11
189.17777649999994
 21
770.75
  0
LINE
  8
_0-0_0
  6
CONTINUOUS
 62
    7
 10
189.42777649999994
 20
766
 11
189.17777649999994
 21
765.75
  0
LINE
  8
_0-0_0
  6
CONTINUOUS
 62
    7
 10
319.02778649999993
 20
753.64999399999999
 11
318.8834374999999
 21
753.89999399999999
  0
LINE
  8
_0-0_0
  6
CONTINUOUS
 62
    7
 10
319.02778649999993
 20
749.64999399999999
 11
318.8834374999999
 21
749.39999399999999
  0
LINE
  8
_0-0_0
  6
CONTINUOUS
 62
    7
 10
193.42777649999994
 20
754.69998199999998
 11
194.67777649999994
 21
753.44998199999998
  0
LINE
  8
_0-0_0
  6
CONTINUOUS
 62
    7
 10
193.42777649999994
 20
765.19998199999998
 11
194.2277714999999
 21
765.99996899999996
  0
LINE
  8
_0-0_0
  6
CONTINUOUS
 62
    7
 10
179.42777649999994
 20
770.25
 11
179.92762349999998
 21
770.74981700000001
  0
LINE
  8
_0-0_0
  6
CONTINUOUS
 62
    7
 10
179.42777649999994
 20
766.25
 11
179.92762349999998
 21
765.75015299999995
  0
LINE
  8
_0-0_0
  6
CONTINUOUS
 62
    7
 10
193.42777649999994
 20
764.94998199999998
 11
193.02777449999996
 21
764.94998199999998
  0
LINE
  8
_0-0_0
  6
CONTINUOUS
 62
    7
 10
193.42777649999994
 20
754.94998199999998
 11
193.02777449999996
 21
754.94998199999998
  0
LINE
  8
_0-0_0
  6
CONTINUOUS
 62
    7
 10
192.2277795
 20
764.48809800000004
 11
193.02777449999996
 21
764.94998199999998
  0
LINE
  8
_0-0_0
  6
CONTINUOUS
 62
    7
 10
192.2277795
 20
755.41186500000003
 11
193.02777449999996
 21
754.94998199999998
  0
LINE
  8
_0-0_0
  6
CONTINUOUS
 62
    7
 10
192.2277795
 20
763.94998199999998
 11
134.2277795
 21
763.94998199999998
  0
LINE
  8
_0-0_0
  6
CONTINUOUS
 62
    7
 10
192.2277795
 20
755.94998199999998
 11
134.2277795
 21
755.94998199999998
  0
LINE
  8
_0-0_0
  6
CONTINUOUS
 62
    7
 10
209.6777454999999
 20
749.39999399999999
 11
189.42777649999994
 21
749.39999399999999
  0
LINE
  8
_0-0_0
  6
CONTINUOUS
 62
    7
 10
194.2277714999999
 20
753.89999399999999
 11
189.42777649999994
 21
753.89999399999999
  0
LINE
  8
_0-0_0
  6
CONTINUOUS
 62
    7
 10
189.42777649999994
 20
753.89999399999999
 11
189.17777649999994
 21
754.14999399999999
  0
LINE
  8
_0-0_0
  6
CONTINUOUS
 62
    7
 10
179.42777649999994
 20
749.64999399999999
 11
179.92762349999998
 21
749.15014599999995
  0
LINE
  8
_0-0_0
  6
CONTINUOUS
 62
    7
 10
179.42777649999994
 20
753.64999399999999
 11
179.92762349999998
 21
754.14984099999992
  0
LINE
  8
_0-0_0
  6
CONTINUOUS
 62
    7
 10
105.91677849999996
 20
802.14999399999999
 11
105.91677849999996
 21
789.14999399999999
  0
LINE
  8
_0-0_0
  6
CONTINUOUS
 62
    7
 10
106.1167754999999
 20
802.14999399999999
 11
105.91677849999996
 21
802.14999399999999
  0
LINE
  8
_0-0_0
  6
CONTINUOUS
 62
    7
 10
106.1167754999999
 20
789.14999399999999
 11
105.91677849999996
 21
789.14999399999999
  0
LINE
  8
_0-0_0
  6
CONTINUOUS
 62
    7
 10
106.1167754999999
 20
802.14999399999999
 11
106.1167754999999
 21
820.75
  0
LINE
  8
_0-0_0
  6
CONTINUOUS
 62
    7
 10
106.21678149999991
 20
820.75
 11
106.1167754999999
 21
820.75
  0
LINE
  8
_0-0_0
  6
CONTINUOUS
 62
    7
 10
106.21678149999991
 20
823.25
 11
106.21678149999991
 21
820.75
  0
ARC
  8
_0-0_0
  6
CONTINUOUS
 62
    7
 10
105.71678149999991
 20
823.25
 40
0.5
 50
0
 51
90.000003000000007
  0
LINE
  8
_0-0_0
  6
CONTINUOUS
 62
    7
 10
105.71678149999991
 20
823.75
 11
102.71678149999991
 21
823.75
  0
ARC
  8
_0-0_0
  6
CONTINUOUS
 62
    7
 10
102.71678149999991
 20
823.25
 40
0.5
 50
90.000003000000007
 51
179.99999099999999
  0
ARC
  8
_0-0_0
  6
CONTINUOUS
 62
    7
 10
98.216781499999911
 20
775.75
 40
0.5
 50
179.99999099999999
 51
269.99999700000001
  0
LINE
  8
_0-0_0
  6
CONTINUOUS
 62
    7
 10
100.71678149999991
 20
775.25
 11
98.216781499999911
 21
775.25
  0
ARC
  8
_0-0_0
  6
CONTINUOUS
 62
    7
 10
100.71678149999991
 20
775.75
 40
0.5
 50
269.99999700000001
 51
0
  0
LINE
  8
_0-0_0
  6
CONTINUOUS
 62
    7
 10
101.21678149999991
 20
780.75
 11
101.21678149999991
 21
775.75
  0
ARC
  8
_0-0_0
  6
CONTINUOUS
 62
    7
 10
101.71678149999991
 20
780.75
 40
0.5
 50
90.000003000000007
 51
179.99999099999999
  0
LINE
  8
_0-0_0
  6
CONTINUOUS
 62
    7
 10
105.71678149999991
 20
781.25
 11
101.71678149999991
 21
781.25
  0
ARC
  8
_0-0_0
  6
CONTINUOUS
 62
    7
 10
105.71678149999991
 20
781.75
 40
0.5
 50
269.99999700000001
 51
0
  0
LINE
  8
_0-0_0
  6
CONTINUOUS
 62
    7
 10
106.21678149999991
 20
784.94998199999998
 11
106.21678149999991
 21
781.75
  0
LINE
  8
_0-0_0
  6
CONTINUOUS
 62
    7
 10
106.1167754999999
 20
784.94998199999998
 11
106.21678149999991
 21
784.94998199999998
  0
LINE
  8
_0-0_0
  6
CONTINUOUS
 62
    7
 10
106.1167754999999
 20
784.94998199999998
 11
106.1167754999999
 21
789.14999399999999
  0
LINE
  8
_0-0_0
  6
CONTINUOUS
 62
    7
 10
105.21678149999991
 20
823.25
 11
87.416778499999964
 21
823.25
  0
ARC
  8
_0-0_0
  6
CONTINUOUS
 62
    7
 10
105.21678149999991
 20
822.75
 40
0.5
 50
0
 51
90.000003000000007
  0
LINE
  8
_0-0_0
  6
CONTINUOUS
 62
    7
 10
105.71678149999991
 20
822.75
 11
105.71678149999991
 21
782.25
  0
ARC
  8
_0-0_0
  6
CONTINUOUS
 62
    7
 10
105.21678149999991
 20
782.25
 40
0.5
 50
269.99999700000001
 51
0
  0
LINE
  8
_0-0_0
  6
CONTINUOUS
 62
    7
 10
101.71678149999991
 20
781.75
 11
105.21678149999991
 21
781.75
  0
ARC
  8
_0-0_0
  6
CONTINUOUS
 62
    7
 10
101.71678149999991
 20
780.75
 40
1
 50
90.000003000000007
 51
179.99999099999999
  0
LINE
  8
_0-0_0
  6
CONTINUOUS
 62
    7
 10
100.71678149999991
 20
780.75
 11
100.71678149999991
 21
776.25
  0
ARC
  8
_0-0_0
  6
CONTINUOUS
 62
    7
 10
100.21678149999991
 20
776.25
 40
0.5
 50
269.99999700000001
 51
0
  0
LINE
  8
_0-0_0
  6
CONTINUOUS
 62
    7
 10
83.216781499999911
 20
775.75
 11
100.21678149999991
 21
775.75
  0
LINE
  8
_0-0_0
  6
CONTINUOUS
 62
    7
 10
101.71678149999991
 20
823.44998199999998
 11
101.71678149999991
 21
823.25
  0
ARC
  8
_0-0_0
  6
CONTINUOUS
 62
    7
 10
101.41677849999996
 20
823.44998199999998
 40
0.2999999999999999
 50
0
 51
90.000003000000007
  0
LINE
  8
_0-0_0
  6
CONTINUOUS
 62
    7
 10
101.41677849999996
 20
823.75
 11
86.716781499999911
 21
823.75
  0
ARC
  8
_0-0_0
  6
CONTINUOUS
 62
    7
 10
86.716781499999911
 20
823.44998199999998
 40
0.2999999999999999
 50
90.000003000000007
 51
179.99999099999999
  0
LINE
  8
_0-0_0
  6
CONTINUOUS
 62
    7
 10
86.416778499999964
 20
823.44998199999998
 11
86.416778499999964
 21
820.25
  0
LINE
  8
_0-0_0
  6
CONTINUOUS
 62
    7
 10
86.416778499999964
 20
820.25
 11
80.716781499999911
 21
820.25
  0
LINE
  8
_0-0_0
  6
CONTINUOUS
 62
    7
 10
80.716781499999911
 20
820.25
 11
79.916778499999964
 21
819.44998199999998
  0
ARC
  8
_0-0_0
  6
CONTINUOUS
 62
    7
 10
87.416778499999964
 20
822.75
 40
0.5
 50
90.000003000000007
 51
179.99999099999999
  0
LINE
  8
_0-0_0
  6
CONTINUOUS
 62
    7
 10
86.916778499999964
 20
822.75
 11
86.916778499999964
 21
819.94998199999998
  0
ARC
  8
_0-0_0
  6
CONTINUOUS
 62
    7
 10
86.416778499999964
 20
819.94998199999998
 40
0.5
 50
269.99999700000001
 51
0
  0
LINE
  8
_0-0_0
  6
CONTINUOUS
 62
    7
 10
86.416778499999964
 20
819.44998199999998
 11
78.216781499999911
 21
819.44998199999998
  0
ARC
  8
_0-0_0
  6
CONTINUOUS
 62
    7
 10
78.216781499999911
 20
818.94998199999998
 40
0.5
 50
90.000003000000007
 51
179.99999099999999
  0
LINE
  8
_0-0_0
  6
CONTINUOUS
 62
    7
 10
77.716781499999911
 20
782.25
 11
77.716781499999911
 21
818.94998199999998
  0
ARC
  8
_0-0_0
  6
CONTINUOUS
 62
    7
 10
78.216781499999911
 20
782.25
 40
0.5
 50
179.99999099999999
 51
269.99999700000001
  0
LINE
  8
_0-0_0
  6
CONTINUOUS
 62
    7
 10
78.216781499999911
 20
781.75
 11
81.716781499999911
 21
781.75
  0
ARC
  8
_0-0_0
  6
CONTINUOUS
 62
    7
 10
81.716781499999911
 20
780.75
 40
1
 50
0
 51
90.000003000000007
  0
LINE
  8
_0-0_0
  6
CONTINUOUS
 62
    7
 10
82.716781499999911
 20
776.25
 11
82.716781499999911
 21
780.75
  0
ARC
  8
_0-0_0
  6
CONTINUOUS
 62
    7
 10
83.216781499999911
 20
776.25
 40
0.5
 50
179.99999099999999
 51
269.99999700000001
  0
CIRCLE
  8
_0-0_0
  6
CONTINUOUS
 62
    7
 10
91.716781499999911
 20
784.75
 40
2.0670000000000002
  0
LINE
  8
_0-0_0
  6
CONTINUOUS
 62
    7
 10
79.716781499999911
 20
819.75
 11
79.716781499999911
 21
819.44998199999998
  0
LINE
  8
_0-0_0
  6
CONTINUOUS
 62
    7
 10
79.716781499999911
 20
819.75
 11
77.716781499999911
 21
819.75
  0
ARC
  8
_0-0_0
  6
CONTINUOUS
 62
    7
 10
77.716781499999911
 20
819.25
 40
0.5
 50
90.000003000000007
 51
179.99999099999999
  0
LINE
  8
_0-0_0
  6
CONTINUOUS
 62
    7
 10
77.216781499999911
 20
819.25
 11
77.216781499999911
 21
781.75
  0
ARC
  8
_0-0_0
  6
CONTINUOUS
 62
    7
 10
77.716781499999911
 20
781.75
 40
0.5
 50
179.99999099999999
 51
269.99999700000001
  0
LINE
  8
_0-0_0
  6
CONTINUOUS
 62
    7
 10
81.716781499999911
 20
781.25
 11
77.716781499999911
 21
781.25
  0
ARC
  8
_0-0_0
  6
CONTINUOUS
 62
    7
 10
81.716781499999911
 20
780.75
 40
0.5
 50
0
 51
90.000003000000007
  0
LINE
  8
_0-0_0
  6
CONTINUOUS
 62
    7
 10
82.216781499999911
 20
775.75
 11
82.216781499999911
 21
780.75
  0
ARC
  8
_0-0_0
  6
CONTINUOUS
 62
    7
 10
82.716781499999911
 20
775.75
 40
0.5
 50
179.99999099999999
 51
269.99999700000001
  0
LINE
  8
_0-0_0
  6
CONTINUOUS
 62
    7
 10
82.716781499999911
 20
775.25
 11
85.216781499999911
 21
775.25
  0
ARC
  8
_0-0_0
  6
CONTINUOUS
 62
    7
 10
85.216781499999911
 20
775.75
 40
0.5
 50
269.99999700000001
 51
0
  0
LINE
  8
_0-0_0
  6
CONTINUOUS
 62
    7
 10
101.21678149999991
 20
775.75
 11
101.31677249999996
 21
775.75
  0
LINE
  8
_0-0_0
  6
CONTINUOUS
 62
    7
 10
101.31677249999996
 20
775.75
 11
101.31677249999996
 21
776.25
  0
LINE
  8
_0-0_0
  6
CONTINUOUS
 62
    7
 10
101.31677249999996
 20
780.25
 11
101.31677249999996
 21
776.25
  0
LINE
  8
_0-0_0
  6
CONTINUOUS
 62
    7
 10
101.21678149999991
 20
780.75
 11
101.31677249999996
 21
780.75
  0
LINE
  8
_0-0_0
  6
CONTINUOUS
 62
    7
 10
101.31677249999996
 20
780.25
 11
101.31677249999996
 21
780.75
  0
LINE
  8
_0-0_0
  6
CONTINUOUS
 62
    7
 10
101.41677849999996
 20
776.25
 11
101.41677849999996
 21
776.38034100000004
  0
LINE
  8
_0-0_0
  6
CONTINUOUS
 62
    7
 10
101.41677849999996
 20
779.88034100000004
 11
101.41677849999996
 21
776.38034100000004
  0
LINE
  8
_0-0_0
  6
CONTINUOUS
 62
    7
 10
101.31677249999996
 20
780.14999399999999
 11
101.41677849999996
 21
780.14999399999999
  0
LINE
  8
_0-0_0
  6
CONTINUOUS
 62
    7
 10
101.41677849999996
 20
779.88034100000004
 11
101.41677849999996
 21
780.14999399999999
  0
LINE
  8
_0-0_0
  6
CONTINUOUS
 62
    7
 10
101.31677249999996
 20
776.25
 11
101.41677849999996
 21
776.25
  0
LINE
  8
_0-0_0
  6
CONTINUOUS
 62
    7
 10
101.31677249999996
 20
776.25
 11
101.41677849999996
 21
776.25
  0
LINE
  8
_0-0_0
  6
CONTINUOUS
 62
    7
 10
82.916778499999964
 20
773.25
 11
87.116775499999903
 21
773.25
  0
LINE
  8
_0-0_0
  6
CONTINUOUS
 62
    7
 10
98.716781499999911
 20
773.25
 11
96.316772499999956
 21
773.25
  0
LINE
  8
_0-0_0
  6
CONTINUOUS
 62
    7
 10
98.716781499999911
 20
773.25
 11
99.916778499999964
 21
773.25
  0
ARC
  8
_0-0_0
  6
CONTINUOUS
 62
    7
 10
99.916778499999964
 20
772.75
 40
0.5
 50
0
 51
90.000003000000007
  0
ARC
  8
_0-0_0
  6
CONTINUOUS
 62
    7
 10
98.716781499999911
 20
772.75
 40
0.5
 50
90.000003000000007
 51
179.99999099999999
  0
ARC
  8
_0-0_0
  6
CONTINUOUS
 62
    7
 10
96.316772499999956
 20
773.75
 40
0.5
 50
179.99999099999999
 51
269.99999700000001
  0
ARC
  8
_0-0_0
  6
CONTINUOUS
 62
    7
 10
87.116775499999903
 20
773.75
 40
0.5
 50
269.99999700000001
 51
0
  0
ARC
  8
_0-0_0
  6
CONTINUOUS
 62
    7
 10
82.916778499999964
 20
772.75
 40
0.5
 50
90.000003000000007
 51
179.99999099999999
  0
LINE
  8
_0-0_0
  6
CONTINUOUS
 62
    7
 10
83.916778499999964
 20
773.75
 11
83.916778499999964
 21
773.25
  0
ARC
  8
_0-0_0
  6
CONTINUOUS
 62
    7
 10
84.416778499999964
 20
773.75
 40
0.5
 50
90.000003000000007
 51
179.99999099999999
  0
LINE
  8
_0-0_0
  6
CONTINUOUS
 62
    7
 10
85.916778499999964
 20
774.25
 11
84.416778499999964
 21
774.25
  0
ARC
  8
_0-0_0
  6
CONTINUOUS
 62
    7
 10
85.916778499999964
 20
775.25
 40
1
 50
269.99999700000001
 51
0
  0
LINE
  8
_0-0_0
  6
CONTINUOUS
 62
    7
 10
86.916778499999964
 20
775.75
 11
86.916778499999964
 21
775.25
  0
LINE
  8
_0-0_0
  6
CONTINUOUS
 62
    7
 10
87.416778499999964
 20
775.75
 11
87.416778499999964
 21
774.75
  0
ARC
  8
_0-0_0
  6
CONTINUOUS
 62
    7
 10
85.916778499999964
 20
774.75
 40
1.5
 50
269.99999700000001
 51
0
  0
ARC
  8
_0-0_0
  6
CONTINUOUS
 62
    7
 10
97.516769500000009
 20
774.75
 40
1.5
 50
179.99999099999999
 51
269.99999700000001
  0
LINE
  8
_0-0_0
  6
CONTINUOUS
 62
    7
 10
99.516769500000009
 20
773.75
 11
99.516769500000009
 21
773.25
  0
ARC
  8
_0-0_0
  6
CONTINUOUS
 62
    7
 10
99.016769500000009
 20
773.75
 40
0.5
 50
0
 51
90.000003000000007
  0
LINE
  8
_0-0_0
  6
CONTINUOUS
 62
    7
 10
97.516769500000009
 20
774.25
 11
99.016769500000009
 21
774.25
  0
ARC
  8
_0-0_0
  6
CONTINUOUS
 62
    7
 10
97.516769500000009
 20
775.25
 40
1
 50
179.99999099999999
 51
269.99999700000001
  0
LINE
  8
_0-0_0
  6
CONTINUOUS
 62
    7
 10
96.516769500000009
 20
775.75
 11
96.516769500000009
 21
775.25
  0
LINE
  8
_0-0_0
  6
CONTINUOUS
 62
    7
 10
96.016769500000009
 20
775.75
 11
96.016769500000009
 21
774.75
  0
LINE
  8
_0-0_0
  6
CONTINUOUS
 62
    7
 10
100.41677849999996
 20
746.25
 11
100.41677849999996
 21
747.14999399999999
  0
LINE
  8
_0-0_0
  6
CONTINUOUS
 62
    7
 10
100.41677849999996
 20
747.14999399999999
 11
100.41677849999996
 21
749.64999399999999
  0
LINE
  8
_0-0_0
  6
CONTINUOUS
 62
    7
 10
100.41677849999996
 20
749.64999399999999
 11
100.41677849999996
 21
770.25
  0
LINE
  8
_0-0_0
  6
CONTINUOUS
 62
    7
 10
100.41677849999996
 20
770.25
 11
100.41677849999996
 21
772.75
  0
LINE
  8
_0-0_0
  6
CONTINUOUS
 62
    7
 10
98.216781499999911
 20
772.75
 11
98.216781499999911
 21
771.50497399999995
  0
LINE
  8
_0-0_0
  6
CONTINUOUS
 62
    7
 10
95.816772499999956
 20
773.75
 11
95.816772499999956
 21
775.54998799999998
  0
ARC
  8
_0-0_0
  6
CONTINUOUS
 62
    7
 10
95.316772499999956
 20
775.54998799999998
 40
0.5
 50
0
 51
23.579369
  0
LINE
  8
_0-0_0
  6
CONTINUOUS
 62
    7
 10
87.616775499999903
 20
773.75
 11
87.616775499999903
 21
775.54998799999998
  0
ARC
  8
_0-0_0
  6
CONTINUOUS
 62
    7
 10
88.116775499999903
 20
775.54998799999998
 40
0.5
 50
156.420635
 51
179.99999099999999
  0
LINE
  8
_0-0_0
  6
CONTINUOUS
 62
    7
 10
82.416778499999964
 20
746.25
 11
82.416778499999964
 21
756.44998199999998
  0
LINE
  8
_0-0_0
  6
CONTINUOUS
 62
    7
 10
82.416778499999964
 20
756.44998199999998
 11
82.416778499999964
 21
757.44998199999998
  0
LINE
  8
_0-0_0
  6
CONTINUOUS
 62
    7
 10
82.416778499999964
 20
757.44998199999998
 11
82.416778499999964
 21
762.44998199999998
  0
LINE
  8
_0-0_0
  6
CONTINUOUS
 62
    7
 10
82.416778499999964
 20
762.44998199999998
 11
82.416778499999964
 21
763.44998199999998
  0
LINE
  8
_0-0_0
  6
CONTINUOUS
 62
    7
 10
82.416778499999964
 20
772.75
 11
82.416778499999964
 21
763.44998199999998
  0
LINE
  8
_0-0_0
  6
CONTINUOUS
 62
    7
 10
101.21678149999991
 20
771.75
 11
100.41677849999996
 21
771.75
  0
LINE
  8
_0-0_0
  6
CONTINUOUS
 62
    7
 10
101.21678149999991
 20
772.54998799999998
 11
100.41677849999996
 21
772.54998799999998
  0
LINE
  8
_0-0_0
  6
CONTINUOUS
 62
    7
 10
101.21678149999991
 20
771.54998799999998
 11
101.21678149999991
 21
772.54998799999998
  0
LINE
  8
_0-0_0
  6
CONTINUOUS
 62
    7
 10
101.21678149999991
 20
752.94998199999998
 11
100.41677849999996
 21
752.94998199999998
  0
LINE
  8
_0-0_0
  6
CONTINUOUS
 62
    7
 10
101.21678149999991
 20
752.94998199999998
 11
101.21678149999991
 21
755.94998199999998
  0
LINE
  8
_0-0_0
  6
CONTINUOUS
 62
    7
 10
101.21678149999991
 20
768.18768299999999
 11
101.21678149999991
 21
755.94998199999998
  0
LINE
  8
_0-0_0
  6
CONTINUOUS
 62
    7
 10
101.21678149999991
 20
768.18768299999999
 11
101.21678149999991
 21
769.15045199999997
  0
LINE
  8
_0-0_0
  6
CONTINUOUS
 62
    7
 10
100.41677849999996
 20
769.15045199999997
 11
100.41677849999996
 21
771.75
  0
ARC
  8
_0-0_0
  6
CONTINUOUS
 62
    7
 10
94.801849500000003
 20
768.43203700000004
 40
5.7120379999999997
 50
18.558475999999999
 51
26.433648000000002
  0
ARC
  8
_0-0_0
  6
CONTINUOUS
 62
    7
 10
100.21678149999991
 20
770.25
 40
0.2
 50
269.99999700000001
 51
0
  0
ARC
  8
_0-0_0
  6
CONTINUOUS
 62
    7
 10
100.21678149999991
 20
749.64999399999999
 40
0.2
 50
0
 51
90.000003000000007
  0
ARC
  8
_0-0_0
  6
CONTINUOUS
 62
    7
 10
94.801971499999922
 20
751.46801800000003
 40
5.711964
 50
333.565022
 51
341.44031000000001
  0
ARC
  8
_0-0_0
  6
CONTINUOUS
 62
    7
 10
99.916778499999964
 20
747.14999399999999
 40
0.5
 50
269.99999700000001
 51
0
  0
LINE
  8
_0-0_0
  6
CONTINUOUS
 62
    7
 10
99.916778499999964
 20
746.25
 11
100.41677849999996
 21
746.25
  0
LINE
  8
_0-0_0
  6
CONTINUOUS
 62
    7
 10
100.41677849999996
 20
746.25
 11
99.916778499999964
 21
745.75
  0
ARC
  8
_0-0_0
  6
CONTINUOUS
 62
    7
 10
98.216781499999911
 20
768.75
 40
2.2999999999999998
 50
34.417387999999995
 51
79.713437000000013
  0
LINE
  8
_0-0_0
  6
CONTINUOUS
 62
    7
 10
100.1554564999999
 20
770.04998799999998
 11
100.11415049999994
 21
770.04998799999998
  0
LINE
  8
_0-0_0
  6
CONTINUOUS
 62
    7
 10
100.1554564999999
 20
770.04998799999998
 11
100.16502349999996
 21
770.05102499999998
  0
LINE
  8
_0-0_0
  6
CONTINUOUS
 62
    7
 10
100.16502349999996
 20
770.05102499999998
 11
100.17451449999999
 21
770.05419899999993
  0
LINE
  8
_0-0_0
  6
CONTINUOUS
 62
    7
 10
100.17451449999999
 20
770.05419899999993
 11
100.18376149999995
 21
770.05960099999993
  0
LINE
  8
_0-0_0
  6
CONTINUOUS
 62
    7
 10
100.18376149999995
 20
770.05960099999993
 11
100.1925655
 21
770.06710799999996
  0
LINE
  8
_0-0_0
  6
CONTINUOUS
 62
    7
 10
100.1925655
 20
770.06710799999996
 11
100.20796150000001
 21
770.08776899999998
  0
LINE
  8
_0-0_0
  6
CONTINUOUS
 62
    7
 10
100.20796150000001
 20
770.08776899999998
 11
100.21974149999994
 21
770.11502100000007
  0
LINE
  8
_0-0_0
  6
CONTINUOUS
 62
    7
 10
100.21974149999994
 20
770.11502100000007
 11
100.22691349999991
 21
770.147156
  0
LINE
  8
_0-0_0
  6
CONTINUOUS
 62
    7
 10
100.22691349999991
 20
770.147156
 11
100.22880549999991
 21
770.18221999999992
  0
LINE
  8
_0-0_0
  6
CONTINUOUS
 62
    7
 10
100.22880549999991
 20
770.18221999999992
 11
100.22496049999995
 21
770.21838400000001
  0
LINE
  8
_0-0_0
  6
CONTINUOUS
 62
    7
 10
100.22496049999995
 20
770.21838400000001
 11
100.21678149999991
 21
770.25
  0
ARC
  8
_0-0_0
  6
CONTINUOUS
 62
    7
 10
98.716781499999911
 20
771.50497399999995
 40
0.5
 50
179.99999099999999
 51
259.71343899999994
  0
LINE
  8
_0-0_0
  6
CONTINUOUS
 62
    7
 10
83.216781499999911
 20
768.75
 11
83.216781499999911
 21
755.14999399999999
  0
LINE
  8
_0-0_0
  6
CONTINUOUS
 62
    7
 10
83.216781499999911
 20
754.64999399999999
 11
83.216781499999911
 21
755.14999399999999
  0
LINE
  8
_0-0_0
  6
CONTINUOUS
 62
    7
 10
83.216781499999911
 20
751.64999399999999
 11
83.216781499999911
 21
754.64999399999999
  0
LINE
  8
_0-0_0
  6
CONTINUOUS
 62
    7
 10
83.216781499999911
 20
751.14999399999999
 11
83.216781499999911
 21
751.64999399999999
  0
ARC
  8
_0-0_0
  6
CONTINUOUS
 62
    7
 10
85.216781499999911
 20
768.75
 40
2
 50
93.840255999999997
 51
179.99999099999999
  0
LINE
  8
_0-0_0
  6
CONTINUOUS
 62
    7
 10
85.216781499999911
 20
770.75
 11
94.216781499999911
 21
770.75
  0
LINE
  8
_0-0_0
  6
CONTINUOUS
 62
    7
 10
98.216781499999911
 20
770.75
 11
97.716781499999911
 21
770.75
  0
LINE
  8
_0-0_0
  6
CONTINUOUS
 62
    7
 10
97.716781499999911
 20
770.75
 11
94.716781499999911
 21
770.75
  0
LINE
  8
_0-0_0
  6
CONTINUOUS
 62
    7
 10
94.216781499999911
 20
770.75
 11
94.716781499999911
 21
770.75
  0
ARC
  8
_0-0_0
  6
CONTINUOUS
 62
    7
 10
98.216781499999911
 20
768.75
 40
2
 50
0
 51
90.000003000000007
  0
LINE
  8
_0-0_0
  6
CONTINUOUS
 62
    7
 10
82.216781499999911
 20
771.75
 11
82.416778499999964
 21
771.75
  0
LINE
  8
_0-0_0
  6
CONTINUOUS
 62
    7
 10
82.216781499999911
 20
772.54998799999998
 11
82.416778499999964
 21
772.54998799999998
  0
LINE
  8
_0-0_0
  6
CONTINUOUS
 62
    7
 10
82.216781499999911
 20
772.54998799999998
 11
82.216781499999911
 21
771.75012199999992
  0
LINE
  8
_0-0_0
  6
CONTINUOUS
 62
    7
 10
82.216781499999911
 20
752.94998199999998
 11
82.416778499999964
 21
752.94998199999998
  0
LINE
  8
_0-0_0
  6
CONTINUOUS
 62
    7
 10
82.216781499999911
 20
755.94998199999998
 11
82.216781499999911
 21
752.94998199999998
  0
LINE
  8
_0-0_0
  6
CONTINUOUS
 62
    7
 10
82.216781499999911
 20
768.18768299999999
 11
82.216781499999911
 21
755.94998199999998
  0
LINE
  8
_0-0_0
  6
CONTINUOUS
 62
    7
 10
82.216781499999911
 20
769.15045199999997
 11
82.216781499999911
 21
768.18768299999999
  0
ARC
  8
_0-0_0
  6
CONTINUOUS
 62
    7
 10
82.916778499999964
 20
762.44998199999998
 40
0.5
 50
90.000003000000007
 51
179.99999099999999
  0
ARC
  8
_0-0_0
  6
CONTINUOUS
 62
    7
 10
82.916778499999964
 20
757.44998199999998
 40
0.5
 50
179.99999099999999
 51
269.99999700000001
  0
LINE
  8
_0-0_0
  6
CONTINUOUS
 62
    7
 10
82.416778499999964
 20
746.25
 11
82.916778499999964
 21
746.25
  0
LINE
  8
_0-0_0
  6
CONTINUOUS
 62
    7
 10
82.416778499999964
 20
746.25
 11
82.916778499999964
 21
745.75
  0
LINE
  8
_0-0_0
  6
CONTINUOUS
 62
    7
 10
100.41677849999996
 20
752.95001200000002
 11
100.41677849999996
 21
751.79998799999998
  0
ARC
  8
_0-0_0
  6
CONTINUOUS
 62
    7
 10
98.016769500000009
 20
751.79998799999998
 40
2.3999999999999999
 50
359.58604600000001
 51
0.0000099999999787
  0
LINE
  8
_0-0_0
  6
CONTINUOUS
 62
    7
 10
101.21678149999991
 20
769.15045199999997
 11
101.21678149999991
 21
771.75
  0
LINE
  8
_0-0_0
  6
CONTINUOUS
 62
    7
 10
100.21678149999991
 20
770.04998799999998
 11
100.1554564999999
 21
770.04998799999998
  0
LINE
  8
_0-0_0
  6
CONTINUOUS
 62
    7
 10
100.11415049999994
 20
770.04998799999998
 11
100.11192349999999
 21
770.04998799999998
  0
LINE
  8
_0-0_0
  6
CONTINUOUS
 62
    7
 10
99.916778499999964
 20
746.25
 11
82.916778499999964
 21
746.25
  0
LINE
  8
_0-0_0
  6
CONTINUOUS
 62
    7
 10
99.980239499999925
 20
750.04998799999998
 11
100.01716649999992
 21
749.97976700000004
  0
LINE
  8
_0-0_0
  6
CONTINUOUS
 62
    7
 10
100.01716649999992
 20
749.97976700000004
 11
100.03677349999998
 21
749.94528200000002
  0
LINE
  8
_0-0_0
  6
CONTINUOUS
 62
    7
 10
100.03677349999998
 20
749.94528200000002
 11
100.06285049999997
 21
749.90344200000004
  0
LINE
  8
_0-0_0
  6
CONTINUOUS
 62
    7
 10
100.06285049999997
 20
749.90344200000004
 11
100.07617149999999
 21
749.88439900000003
  0
LINE
  8
_0-0_0
  6
CONTINUOUS
 62
    7
 10
100.07617149999999
 20
749.88439900000003
 11
100.09452849999991
 21
749.86200000000008
  0
LINE
  8
_0-0_0
  6
CONTINUOUS
 62
    7
 10
100.09452849999991
 20
749.86200000000008
 11
100.10731449999992
 21
749.85137899999995
  0
LINE
  8
_0-0_0
  6
CONTINUOUS
 62
    7
 10
100.10731449999992
 20
749.85137899999995
 11
100.11192349999999
 21
749.84997599999997
  0
LINE
  8
_0-0_0
  6
CONTINUOUS
 62
    7
 10
100.11415049999994
 20
749.84997599999997
 11
100.11192349999999
 21
749.84997599999997
  0
LINE
  8
_0-0_0
  6
CONTINUOUS
 62
    7
 10
99.980239499999925
 20
769.84997599999997
 11
100.01716649999992
 21
769.92022700000007
  0
LINE
  8
_0-0_0
  6
CONTINUOUS
 62
    7
 10
100.01716649999992
 20
769.92022700000007
 11
100.03677349999998
 21
769.95468099999994
  0
LINE
  8
_0-0_0
  6
CONTINUOUS
 62
    7
 10
100.03677349999998
 20
769.95468099999994
 11
100.06285049999997
 21
769.99652100000003
  0
LINE
  8
_0-0_0
  6
CONTINUOUS
 62
    7
 10
100.06285049999997
 20
769.99652100000003
 11
100.07617149999999
 21
770.01556400000004
  0
LINE
  8
_0-0_0
  6
CONTINUOUS
 62
    7
 10
100.07617149999999
 20
770.01556400000004
 11
100.09452849999991
 21
770.03796399999999
  0
LINE
  8
_0-0_0
  6
CONTINUOUS
 62
    7
 10
100.09452849999991
 20
770.03796399999999
 11
100.10731449999992
 21
770.04858400000001
  0
LINE
  8
_0-0_0
  6
CONTINUOUS
 62
    7
 10
100.10731449999992
 20
770.04858400000001
 11
100.11192349999999
 21
770.04998799999998
  0
LINE
  8
_0-0_0
  6
CONTINUOUS
 62
    7
 10
100.11415049999994
 20
749.84997599999997
 11
100.1554564999999
 21
749.84997599999997
  0
LINE
  8
_0-0_0
  6
CONTINUOUS
 62
    7
 10
100.21678149999991
 20
749.84997599999997
 11
100.1554564999999
 21
749.84997599999997
  0
LINE
  8
_0-0_0
  6
CONTINUOUS
 62
    7
 10
100.1554564999999
 20
749.84997599999997
 11
100.16502349999996
 21
749.84893799999998
  0
LINE
  8
_0-0_0
  6
CONTINUOUS
 62
    7
 10
100.16502349999996
 20
749.84893799999998
 11
100.17451449999999
 21
749.84576399999992
  0
LINE
  8
_0-0_0
  6
CONTINUOUS
 62
    7
 10
100.17451449999999
 20
749.84576399999992
 11
100.18376149999995
 21
749.84036300000002
  0
LINE
  8
_0-0_0
  6
CONTINUOUS
 62
    7
 10
100.18376149999995
 20
749.84036300000002
 11
100.1925655
 21
749.832855
  0
LINE
  8
_0-0_0
  6
CONTINUOUS
 62
    7
 10
100.1925655
 20
749.832855
 11
100.20796150000001
 21
749.81222500000001
  0
LINE
  8
_0-0_0
  6
CONTINUOUS
 62
    7
 10
100.20796150000001
 20
749.81222500000001
 11
100.21974149999994
 21
749.784943
  0
LINE
  8
_0-0_0
  6
CONTINUOUS
 62
    7
 10
100.21974149999994
 20
749.784943
 11
100.22691349999991
 21
749.75280799999996
  0
LINE
  8
_0-0_0
  6
CONTINUOUS
 62
    7
 10
100.22691349999991
 20
749.75280799999996
 11
100.22880549999991
 21
749.71774299999993
  0
LINE
  8
_0-0_0
  6
CONTINUOUS
 62
    7
 10
100.22880549999991
 20
749.71774299999993
 11
100.22496049999995
 21
749.68157999999994
  0
LINE
  8
_0-0_0
  6
CONTINUOUS
 62
    7
 10
100.22496049999995
 20
749.68157999999994
 11
100.21678149999991
 21
749.64999399999999
  0
ARC
  8
_0-0_0
  6
CONTINUOUS
 62
    7
 10
98.216781499999911
 20
751.14999399999999
 40
2.2999999999999998
 50
280.28656300000006
 51
325.58260500000006
  0
LINE
  8
_0-0_0
  6
CONTINUOUS
 62
    7
 10
99.916778499999964
 20
746.64999399999999
 11
98.716781499999911
 21
746.64999399999999
  0
LINE
  8
_0-0_0
  6
CONTINUOUS
 62
    7
 10
99.916778499999964
 20
745.75
 11
82.916778499999964
 21
745.75
  0
LINE
  8
_0-0_0
  6
CONTINUOUS
 62
    7
 10
83.216766499999949
 20
762.94998199999998
 11
82.916778499999964
 21
762.94998199999998
  0
ARC
  8
_0-0_0
  6
CONTINUOUS
 62
    7
 10
83.716781499999911
 20
755.14999399999999
 40
0.5
 50
179.99999099999999
 51
269.99999700000001
  0
CIRCLE
  8
_0-0_0
  6
CONTINUOUS
 62
    7
 10
85.716781499999911
 20
751.64999399999999
 40
2.5
  0
LINE
  8
_0-0_0
  6
CONTINUOUS
 62
    7
 10
88.716781499999911
 20
749.14999399999999
 11
85.716781499999911
 21
749.14999399999999
  0
LINE
  8
_0-0_0
  6
CONTINUOUS
 62
    7
 10
89.216781499999911
 20
749.14999399999999
 11
88.716781499999911
 21
749.14999399999999
  0
ARC
  8
_0-0_0
  6
CONTINUOUS
 62
    7
 10
85.216781499999911
 20
751.14999399999999
 40
2
 50
179.99999099999999
 51
269.99999700000001
  0
LINE
  8
_0-0_0
  6
CONTINUOUS
 62
    7
 10
85.716781499999911
 20
749.14999399999999
 11
85.216781499999911
 21
749.14999399999999
  0
LINE
  8
_0-0_0
  6
CONTINUOUS
 62
    7
 10
85.216781499999911
 20
770.64733899999999
 11
85.200897499999996
 21
770.67459099999996
  0
LINE
  8
_0-0_0
  6
CONTINUOUS
 62
    7
 10
85.200897499999996
 20
770.67459099999996
 11
85.185043500000006
 21
770.69757099999993
  0
LINE
  8
_0-0_0
  6
CONTINUOUS
 62
    7
 10
85.185043500000006
 20
770.69757099999993
 11
85.171066499999938
 21
770.71432499999992
  0
LINE
  8
_0-0_0
  6
CONTINUOUS
 62
    7
 10
85.171066499999938
 20
770.71432499999992
 11
85.157165500000019
 21
770.72766100000001
  0
LINE
  8
_0-0_0
  6
CONTINUOUS
 62
    7
 10
85.157165500000019
 20
770.72766100000001
 11
85.144958499999916
 21
770.73660300000006
  0
LINE
  8
_0-0_0
  6
CONTINUOUS
 62
    7
 10
85.144958499999916
 20
770.73660300000006
 11
85.132842499999924
 21
770.74279799999999
  0
LINE
  8
_0-0_0
  6
CONTINUOUS
 62
    7
 10
85.132842499999924
 20
770.74279799999999
 11
85.121963499999993
 21
770.74609400000008
  0
LINE
  8
_0-0_0
  6
CONTINUOUS
 62
    7
 10
85.121963499999993
 20
770.74609400000008
 11
85.111205499999983
 21
770.74713100000008
  0
LINE
  8
_0-0_0
  6
CONTINUOUS
 62
    7
 10
85.111205499999983
 20
770.74713100000008
 11
85.108749499999931
 21
770.74707000000001
  0
LINE
  8
_0-0_0
  6
CONTINUOUS
 62
    7
 10
100.21678149999991
 20
768.25
 11
100.21678149999991
 21
768.75
  0
CIRCLE
  8
_0-0_0
  6
CONTINUOUS
 62
    7
 10
97.716781499999911
 20
768.25
 40
2.5
  0
LINE
  8
_0-0_0
  6
CONTINUOUS
 62
    7
 10
100.21678149999991
 20
765.25
 11
100.21678149999991
 21
764.75
  0
LINE
  8
_0-0_0
  6
CONTINUOUS
 62
    7
 10
100.21678149999991
 20
765.25
 11
100.21678149999991
 21
768.25
  0
ARC
  8
_0-0_0
  6
CONTINUOUS
 62
    7
 10
94.216781499999911
 20
770.25
 40
0.5
 50
0
 51
90.000003000000007
  0
LINE
  8
_0-0_0
  6
CONTINUOUS
 62
    7
 10
100.21678149999991
 20
751.14999399999999
 11
100.21678149999991
 21
764.75
  0
LINE
  8
_0-0_0
  6
CONTINUOUS
 62
    7
 10
82.216781499999911
 20
771.75
 11
82.216781499999911
 21
769.15045199999997
  0
LINE
  8
_0-0_0
  6
CONTINUOUS
 62
    7
 10
82.916778499999964
 20
756.94998199999998
 11
83.216766499999949
 21
756.94998199999998
  0
LINE
  8
_0-0_0
  6
CONTINUOUS
 62
    7
 10
100.41677849999996
 20
772.55004899999994
 11
100.41677849999996
 21
772.75
  0
ARC
  8
_0-0_0
  6
CONTINUOUS
 62
    7
 10
98.216781499999911
 20
751.14999399999999
 40
2
 50
273.84026500000004
 51
0.000010000000014
  0
LINE
  8
_0-0_0
  6
CONTINUOUS
 62
    7
 10
98.216781499999911
 20
749.14999399999999
 11
89.216781499999911
 21
749.14999399999999
  0
ARC
  8
_0-0_0
  6
CONTINUOUS
 62
    7
 10
98.716781499999911
 20
748.39498900000001
 40
0.5
 50
100.28656100000001
 51
179.99999099999999
  0
LINE
  8
_0-0_0
  6
CONTINUOUS
 62
    7
 10
98.216781499999911
 20
747.14999399999999
 11
98.216781499999911
 21
748.39498900000001
  0
ARC
  8
_0-0_0
  6
CONTINUOUS
 62
    7
 10
98.716781499999911
 20
747.14999399999999
 40
0.5
 50
179.99999099999999
 51
269.99999700000001
  0
LINE
  8
_0-0_0
  6
CONTINUOUS
 62
    7
 10
83.793746499999997
 20
754.64999399999999
 11
83.716781499999911
 21
754.64999399999999
  0
LINE
  8
_0-0_0
  6
CONTINUOUS
 62
    7
 10
85.716781499999911
 20
754.64999399999999
 11
85.235275499999943
 21
754.64999399999999
  0
LINE
  8
_0-0_0
  6
CONTINUOUS
 62
    7
 10
85.235275499999943
 20
754.64999399999999
 11
83.793746499999997
 21
754.64999399999999
  0
LINE
  8
_0-0_0
  6
CONTINUOUS
 62
    7
 10
88.716781499999911
 20
749.64999399999999
 11
88.716781499999911
 21
749.72695900000008
  0
LINE
  8
_0-0_0
  6
CONTINUOUS
 62
    7
 10
88.716781499999911
 20
751.16848800000002
 11
88.716781499999911
 21
749.72695900000008
  0
LINE
  8
_0-0_0
  6
CONTINUOUS
 62
    7
 10
88.716781499999911
 20
751.16848800000002
 11
88.716781499999911
 21
751.64999399999999
  0
ARC
  8
_0-0_0
  6
CONTINUOUS
 62
    7
 10
85.716781499999911
 20
751.64999399999999
 40
3
 50
0
 51
89.999995999999996
  0
ARC
  8
_0-0_0
  6
CONTINUOUS
 62
    7
 10
89.216781499999911
 20
749.64999399999999
 40
0.5
 50
179.99999099999999
 51
269.99999700000001
  0
LINE
  8
_0-0_0
  6
CONTINUOUS
 62
    7
 10
94.716781499999911
 20
770.17300399999999
 11
94.716781499999911
 21
770.25
  0
LINE
  8
_0-0_0
  6
CONTINUOUS
 62
    7
 10
94.716781499999911
 20
768.73147599999993
 11
94.716781499999911
 21
770.17300399999999
  0
LINE
  8
_0-0_0
  6
CONTINUOUS
 62
    7
 10
94.716781499999911
 20
768.25
 11
94.716781499999911
 21
768.73147599999993
  0
ARC
  8
_0-0_0
  6
CONTINUOUS
 62
    7
 10
97.716781499999911
 20
768.25
 40
3
 50
179.99999099999999
 51
269.99999700000001
  0
LINE
  8
_0-0_0
  6
CONTINUOUS
 62
    7
 10
98.198272499999916
 20
765.25
 11
97.716781499999911
 21
765.25
  0
LINE
  8
_0-0_0
  6
CONTINUOUS
 62
    7
 10
98.198272499999916
 20
765.25
 11
99.639800499999978
 21
765.25
  0
LINE
  8
_0-0_0
  6
CONTINUOUS
 62
    7
 10
99.716781499999911
 20
765.25
 11
99.639800499999978
 21
765.25
  0
ARC
  8
_0-0_0
  6
CONTINUOUS
 62
    7
 10
99.716781499999911
 20
764.75
 40
0.5
 50
0
 51
90.000003000000007
  0
LINE
  8
_0-0_0
  6
CONTINUOUS
 62
    7
 10
98.216781499999911
 20
749.25262500000008
 11
98.232650499999977
 21
749.22537199999999
  0
LINE
  8
_0-0_0
  6
CONTINUOUS
 62
    7
 10
98.232650499999977
 20
749.22537199999999
 11
98.248504499999967
 21
749.20239300000003
  0
LINE
  8
_0-0_0
  6
CONTINUOUS
 62
    7
 10
98.248504499999967
 20
749.20239300000003
 11
98.262481499999922
 21
749.18563799999993
  0
LINE
  8
_0-0_0
  6
CONTINUOUS
 62
    7
 10
98.262481499999922
 20
749.18563799999993
 11
98.276382499999954
 21
749.17230199999995
  0
LINE
  8
_0-0_0
  6
CONTINUOUS
 62
    7
 10
98.276382499999954
 20
749.17230199999995
 11
98.288604500000019
 21
749.16339100000005
  0
LINE
  8
_0-0_0
  6
CONTINUOUS
 62
    7
 10
98.288604500000019
 20
749.16339100000005
 11
98.300720499999898
 21
749.15716599999996
  0
LINE
  8
_0-0_0
  6
CONTINUOUS
 62
    7
 10
98.300720499999898
 20
749.15716599999996
 11
98.311584499999981
 21
749.15390000000002
  0
LINE
  8
_0-0_0
  6
CONTINUOUS
 62
    7
 10
98.311584499999981
 20
749.15390000000002
 11
98.322341499999993
 21
749.15283199999999
  0
LINE
  8
_0-0_0
  6
CONTINUOUS
 62
    7
 10
98.322341499999993
 20
749.15283199999999
 11
98.324798499999929
 21
749.15289299999995
  0
ARC
  8
_0-0_0
  6
CONTINUOUS
 62
    7
 10
88.486663499999963
 20
758.77673299999992
 40
3.063399
 50
199.82113599999997
 51
205.28948099999999
  0
ARC
  8
_0-0_0
  6
CONTINUOUS
 62
    7
 10
88.486343499999975
 20
761.12335200000007
 40
3.0630549999999999
 50
154.710137
 51
160.17869999999999
  0
ARC
  8
_0-0_0
  6
CONTINUOUS
 62
    7
 10
91.716781499999911
 20
759.94998199999998
 40
6.5
 50
160.10415599999999
 51
199.895612
  0
ARC
  8
_0-0_0
  6
CONTINUOUS
 62
    7
 10
94.946899499999972
 20
761.12322999999992
 40
3.0633949999999999
 50
19.82113
 51
25.289566000000001
  0
ARC
  8
_0-0_0
  6
CONTINUOUS
 62
    7
 10
94.94721949999996
 20
758.776611
 40
3.0630519999999999
 50
334.71006
 51
340.17869200000001
  0
LINE
  8
_0-0_0
  6
CONTINUOUS
 62
    7
 10
92.458450499999913
 20
753.44998199999998
 11
96.975112499999909
 21
756.05767800000001
  0
LINE
  8
_0-0_0
  6
CONTINUOUS
 62
    7
 10
90.975112499999909
 20
753.44998199999998
 11
92.458450499999913
 21
753.44998199999998
  0
LINE
  8
_0-0_0
  6
CONTINUOUS
 62
    7
 10
86.458450499999913
 20
756.05767800000001
 11
90.975112499999909
 21
753.44998199999998
  0
LINE
  8
_0-0_0
  6
CONTINUOUS
 62
    7
 10
85.716781499999911
 20
762.55767800000001
 11
85.716781499999911
 21
757.34228499999995
  0
LINE
  8
_0-0_0
  6
CONTINUOUS
 62
    7
 10
86.458450499999913
 20
756.05767800000001
 11
85.716781499999911
 21
757.34228499999995
  0
LINE
  8
_0-0_0
  6
CONTINUOUS
 62
    7
 10
90.975112499999909
 20
766.44998199999998
 11
86.458450499999913
 21
763.84228499999995
  0
LINE
  8
_0-0_0
  6
CONTINUOUS
 62
    7
 10
86.164321499999915
 20
763.332855
 11
85.716781499999911
 21
762.55767800000001
  0
LINE
  8
_0-0_0
  6
CONTINUOUS
 62
    7
 10
86.164321499999915
 20
763.332855
 11
86.458450499999913
 21
763.84228499999995
  0
LINE
  8
_0-0_0
  6
CONTINUOUS
 62
    7
 10
92.458450499999913
 20
766.44998199999998
 11
90.975112499999909
 21
766.44998199999998
  0
LINE
  8
_0-0_0
  6
CONTINUOUS
 62
    7
 10
96.975112499999909
 20
763.84228499999995
 11
92.458450499999913
 21
766.44998199999998
  0
ARC
  8
_0-0_0
  6
CONTINUOUS
 62
    7
 10
91.716781499999911
 20
759.94998199999998
 40
6.5
 50
340.10416099999998
 51
19.895609999999952
  0
LINE
  8
_0-0_0
  6
CONTINUOUS
 62
    7
 10
97.269225499999948
 20
756.56710799999996
 11
97.716781499999911
 21
757.34228499999995
  0
LINE
  8
_0-0_0
  6
CONTINUOUS
 62
    7
 10
97.269225499999948
 20
756.56710799999996
 11
96.975112499999909
 21
756.05767800000001
  0
CIRCLE
  8
_0-0_0
  6
CONTINUOUS
 62
    7
 10
91.716781499999911
 20
759.94998199999998
 40
5.25
  0
LINE
  8
_0-0_0
  6
CONTINUOUS
 62
    7
 10
97.716781499999911
 20
762.55767800000001
 11
97.716781499999911
 21
757.34228499999995
  0
LINE
  8
_0-0_0
  6
CONTINUOUS
 62
    7
 10
96.975112499999909
 20
763.84228499999995
 11
97.716781499999911
 21
762.55767800000001
  0
LINE
  8
_0-0_0
  6
CONTINUOUS
 62
    7
 10
99.603790499999945
 20
769.47543300000007
 11
99.881835499999966
 21
769.5
  0
LINE
  8
_0-0_0
  6
CONTINUOUS
 62
    7
 10
99.721542499999941
 20
769.27145399999995
 11
99.881835499999966
 21
769.5
  0
LINE
  8
_0-0_0
  6
CONTINUOUS
 62
    7
 10
99.465362499999969
 20
769.66595499999994
 11
99.739318499999968
 21
769.71945200000005
  0
LINE
  8
_0-0_0
  6
CONTINUOUS
 62
    7
 10
99.603790499999945
 20
769.47543300000007
 11
99.739318499999968
 21
769.71945200000005
  0
LINE
  8
_0-0_0
  6
CONTINUOUS
 62
    7
 10
99.307769499999949
 20
769.84097300000008
 11
99.574645499999974
 21
769.922821
  0
LINE
  8
_0-0_0
  6
CONTINUOUS
 62
    7
 10
99.465362499999969
 20
769.66595499999994
 11
99.574645499999974
 21
769.922821
  0
LINE
  8
_0-0_0
  6
CONTINUOUS
 62
    7
 10
99.132751499999927
 20
769.99856599999998
 11
99.38960249999991
 21
770.10784899999999
  0
LINE
  8
_0-0_0
  6
CONTINUOUS
 62
    7
 10
99.307769499999949
 20
769.84097300000008
 11
99.38960249999991
 21
770.10784899999999
  0
LINE
  8
_0-0_0
  6
CONTINUOUS
 62
    7
 10
98.942214499999977
 20
770.13699300000007
 11
99.186233499999958
 21
770.27252199999998
  0
LINE
  8
_0-0_0
  6
CONTINUOUS
 62
    7
 10
99.132751499999927
 20
769.99856599999998
 11
99.186233499999958
 21
770.27252199999998
  0
LINE
  8
_0-0_0
  6
CONTINUOUS
 62
    7
 10
98.738250499999936
 20
770.25476099999992
 11
98.966781499999911
 21
770.41503899999998
  0
LINE
  8
_0-0_0
  6
CONTINUOUS
 62
    7
 10
98.942214499999977
 20
770.13699300000007
 11
98.966781499999911
 21
770.41503899999998
  0
LINE
  8
_0-0_0
  6
CONTINUOUS
 62
    7
 10
98.523101499999939
 20
770.35052500000006
 11
98.733611499999938
 21
770.53384400000004
  0
LINE
  8
_0-0_0
  6
CONTINUOUS
 62
    7
 10
98.738250499999936
 20
770.25476099999992
 11
98.733611499999938
 21
770.53384400000004
  0
LINE
  8
_0-0_0
  6
CONTINUOUS
 62
    7
 10
98.299117499999966
 20
770.42330900000002
 11
98.489318499999968
 21
770.62762500000008
  0
LINE
  8
_0-0_0
  6
CONTINUOUS
 62
    7
 10
98.523101499999939
 20
770.35052500000006
 11
98.489318499999968
 21
770.62762500000008
  0
LINE
  8
_0-0_0
  6
CONTINUOUS
 62
    7
 10
98.068755499999952
 20
770.47228999999993
 11
98.236556500000006
 21
770.69534299999998
  0
LINE
  8
_0-0_0
  6
CONTINUOUS
 62
    7
 10
98.299117499999966
 20
770.42330900000002
 11
98.236556500000006
 21
770.69534299999998
  0
LINE
  8
_0-0_0
  6
CONTINUOUS
 62
    7
 10
97.834533499999907
 20
770.49688700000002
 11
97.978103499999975
 21
770.73629800000003
  0
LINE
  8
_0-0_0
  6
CONTINUOUS
 62
    7
 10
98.068755499999952
 20
770.47228999999993
 11
97.978103499999975
 21
770.73629800000003
  0
LINE
  8
_0-0_0
  6
CONTINUOUS
 62
    7
 10
97.599014499999953
 20
770.49688700000002
 11
97.716781499999911
 21
770.75
  0
LINE
  8
_0-0_0
  6
CONTINUOUS
 62
    7
 10
97.834533499999907
 20
770.49688700000002
 11
97.716781499999911
 21
770.75
  0
LINE
  8
_0-0_0
  6
CONTINUOUS
 62
    7
 10
97.36479149999991
 20
770.47228999999993
 11
97.455459499999961
 21
770.73629800000003
  0
LINE
  8
_0-0_0
  6
CONTINUOUS
 62
    7
 10
97.599014499999953
 20
770.49688700000002
 11
97.455459499999961
 21
770.73629800000003
  0
LINE
  8
_0-0_0
  6
CONTINUOUS
 62
    7
 10
97.134429499999897
 20
770.42330900000002
 11
97.19699049999997
 21
770.69534299999998
  0
LINE
  8
_0-0_0
  6
CONTINUOUS
 62
    7
 10
97.36479149999991
 20
770.47228999999993
 11
97.19699049999997
 21
770.69534299999998
  0
LINE
  8
_0-0_0
  6
CONTINUOUS
 62
    7
 10
96.910446499999921
 20
770.35052500000006
 11
96.944229500000006
 21
770.62762500000008
  0
LINE
  8
_0-0_0
  6
CONTINUOUS
 62
    7
 10
97.134429499999897
 20
770.42330900000002
 11
96.944229500000006
 21
770.62762500000008
  0
LINE
  8
_0-0_0
  6
CONTINUOUS
 62
    7
 10
96.695297499999924
 20
770.25476099999992
 11
96.699935499999924
 21
770.53384400000004
  0
LINE
  8
_0-0_0
  6
CONTINUOUS
 62
    7
 10
96.910446499999921
 20
770.35052500000006
 11
96.699935499999924
 21
770.53384400000004
  0
LINE
  8
_0-0_0
  6
CONTINUOUS
 62
    7
 10
96.575759500000004
 20
770.33859299999995
 11
96.466781499999911
 21
770.41503899999998
  0
LINE
  8
_0-0_0
  6
CONTINUOUS
 62
    7
 10
96.695297499999924
 20
770.25476099999992
 11
96.575759500000004
 21
770.33859299999995
  0
LINE
  8
_0-0_0
  6
CONTINUOUS
 62
    7
 10
96.491332499999999
 20
770.13699300000007
 11
96.466781499999911
 21
770.41503899999998
  0
LINE
  8
_0-0_0
  6
CONTINUOUS
 62
    7
 10
96.300811500000009
 20
769.99856599999998
 11
96.247314499999902
 21
770.27252199999998
  0
LINE
  8
_0-0_0
  6
CONTINUOUS
 62
    7
 10
96.491332499999999
 20
770.13699300000007
 11
96.247314499999902
 21
770.27252199999998
  0
LINE
  8
_0-0_0
  6
CONTINUOUS
 62
    7
 10
96.125793499999986
 20
769.84097300000008
 11
96.04394549999995
 21
770.10784899999999
  0
LINE
  8
_0-0_0
  6
CONTINUOUS
 62
    7
 10
96.300811500000009
 20
769.99856599999998
 11
96.04394549999995
 21
770.10784899999999
  0
LINE
  8
_0-0_0
  6
CONTINUOUS
 62
    7
 10
95.968200499999966
 20
769.66595499999994
 11
95.858917499999961
 21
769.922821
  0
LINE
  8
_0-0_0
  6
CONTINUOUS
 62
    7
 10
96.125793499999986
 20
769.84097300000008
 11
95.858917499999961
 21
769.922821
  0
LINE
  8
_0-0_0
  6
CONTINUOUS
 62
    7
 10
95.82977249999999
 20
769.47543300000007
 11
95.694229500000006
 21
769.71945200000005
  0
LINE
  8
_0-0_0
  6
CONTINUOUS
 62
    7
 10
95.968200499999966
 20
769.66595499999994
 11
95.694229500000006
 21
769.71945200000005
  0
LINE
  8
_0-0_0
  6
CONTINUOUS
 62
    7
 10
95.712005499999918
 20
769.27145399999995
 11
95.55171150000001
 21
769.5
  0
LINE
  8
_0-0_0
  6
CONTINUOUS
 62
    7
 10
95.82977249999999
 20
769.47543300000007
 11
95.55171150000001
 21
769.5
  0
LINE
  8
_0-0_0
  6
CONTINUOUS
 62
    7
 10
95.616226499999925
 20
769.05630500000007
 11
95.432906499999945
 21
769.26681499999995
  0
LINE
  8
_0-0_0
  6
CONTINUOUS
 62
    7
 10
95.712005499999918
 20
769.27145399999995
 11
95.432906499999945
 21
769.26681499999995
  0
LINE
  8
_0-0_0
  6
CONTINUOUS
 62
    7
 10
95.543441499999972
 20
768.83233599999994
 11
95.339141499999982
 21
769.02252199999998
  0
LINE
  8
_0-0_0
  6
CONTINUOUS
 62
    7
 10
95.616226499999925
 20
769.05630500000007
 11
95.339141499999982
 21
769.02252199999998
  0
LINE
  8
_0-0_0
  6
CONTINUOUS
 62
    7
 10
95.494476500000019
 20
768.60195900000008
 11
95.271407499999896
 21
768.76977499999998
  0
LINE
  8
_0-0_0
  6
CONTINUOUS
 62
    7
 10
95.543441499999972
 20
768.83233599999994
 11
95.271407499999896
 21
768.76977499999998
  0
LINE
  8
_0-0_0
  6
CONTINUOUS
 62
    7
 10
95.494476500000019
 20
768.60195900000008
 11
95.230468499999915
 21
768.51129200000003
  0
LINE
  8
_0-0_0
  6
CONTINUOUS
 62
    7
 10
95.469863499999974
 20
768.36773700000003
 11
95.230468499999915
 21
768.51129200000003
  0
LINE
  8
_0-0_0
  6
CONTINUOUS
 62
    7
 10
95.469863499999974
 20
768.13223300000004
 11
95.216781499999911
 21
768.25
  0
LINE
  8
_0-0_0
  6
CONTINUOUS
 62
    7
 10
95.469863499999974
 20
768.36773700000003
 11
95.216781499999911
 21
768.25
  0
LINE
  8
_0-0_0
  6
CONTINUOUS
 62
    7
 10
95.494476500000019
 20
767.89801
 11
95.230468499999915
 21
767.98864700000001
  0
LINE
  8
_0-0_0
  6
CONTINUOUS
 62
    7
 10
95.469863499999974
 20
768.13223300000004
 11
95.230468499999915
 21
767.98864700000001
  0
LINE
  8
_0-0_0
  6
CONTINUOUS
 62
    7
 10
95.543441499999972
 20
767.66763300000002
 11
95.271407499999896
 21
767.73019399999998
  0
LINE
  8
_0-0_0
  6
CONTINUOUS
 62
    7
 10
95.494476500000019
 20
767.89801
 11
95.271407499999896
 21
767.73019399999998
  0
LINE
  8
_0-0_0
  6
CONTINUOUS
 62
    7
 10
95.616226499999925
 20
767.44366500000001
 11
95.339141499999982
 21
767.47744799999998
  0
LINE
  8
_0-0_0
  6
CONTINUOUS
 62
    7
 10
95.543441499999972
 20
767.66763300000002
 11
95.339141499999982
 21
767.47744799999998
  0
LINE
  8
_0-0_0
  6
CONTINUOUS
 62
    7
 10
95.712005499999918
 20
767.22851600000001
 11
95.432906499999945
 21
767.23315400000001
  0
LINE
  8
_0-0_0
  6
CONTINUOUS
 62
    7
 10
95.616226499999925
 20
767.44366500000001
 11
95.432906499999945
 21
767.23315400000001
  0
LINE
  8
_0-0_0
  6
CONTINUOUS
 62
    7
 10
95.82977249999999
 20
767.02453600000001
 11
95.55171150000001
 21
767
  0
LINE
  8
_0-0_0
  6
CONTINUOUS
 62
    7
 10
95.712005499999918
 20
767.22851600000001
 11
95.55171150000001
 21
767
  0
LINE
  8
_0-0_0
  6
CONTINUOUS
 62
    7
 10
95.968200499999966
 20
766.83401500000002
 11
95.694229500000006
 21
766.78051800000003
  0
LINE
  8
_0-0_0
  6
CONTINUOUS
 62
    7
 10
95.82977249999999
 20
767.02453600000001
 11
95.694229500000006
 21
766.78051800000003
  0
LINE
  8
_0-0_0
  6
CONTINUOUS
 62
    7
 10
96.125793499999986
 20
766.658997
 11
95.858917499999961
 21
766.57714800000008
  0
LINE
  8
_0-0_0
  6
CONTINUOUS
 62
    7
 10
95.968200499999966
 20
766.83401500000002
 11
95.858917499999961
 21
766.57714800000008
  0
LINE
  8
_0-0_0
  6
CONTINUOUS
 62
    7
 10
96.300811500000009
 20
766.50140399999998
 11
96.04394549999995
 21
766.39211999999998
  0
LINE
  8
_0-0_0
  6
CONTINUOUS
 62
    7
 10
96.125793499999986
 20
766.658997
 11
96.04394549999995
 21
766.39211999999998
  0
LINE
  8
_0-0_0
  6
CONTINUOUS
 62
    7
 10
96.491332499999999
 20
766.362976
 11
96.247314499999902
 21
766.22744799999998
  0
LINE
  8
_0-0_0
  6
CONTINUOUS
 62
    7
 10
96.300811500000009
 20
766.50140399999998
 11
96.247314499999902
 21
766.22744799999998
  0
LINE
  8
_0-0_0
  6
CONTINUOUS
 62
    7
 10
96.695297499999924
 20
766.24520899999993
 11
96.466781499999911
 21
766.08492999999999
  0
LINE
  8
_0-0_0
  6
CONTINUOUS
 62
    7
 10
96.491332499999999
 20
766.362976
 11
96.466781499999911
 21
766.08492999999999
  0
LINE
  8
_0-0_0
  6
CONTINUOUS
 62
    7
 10
96.910446499999921
 20
766.14941399999998
 11
96.699935499999924
 21
765.96612499999992
  0
LINE
  8
_0-0_0
  6
CONTINUOUS
 62
    7
 10
96.695297499999924
 20
766.24520899999993
 11
96.699935499999924
 21
765.96612499999992
  0
LINE
  8
_0-0_0
  6
CONTINUOUS
 62
    7
 10
97.134429499999897
 20
766.07665999999995
 11
96.944229500000006
 21
765.872345
  0
LINE
  8
_0-0_0
  6
CONTINUOUS
 62
    7
 10
96.910446499999921
 20
766.14941399999998
 11
96.944229500000006
 21
765.872345
  0
LINE
  8
_0-0_0
  6
CONTINUOUS
 62
    7
 10
97.36479149999991
 20
766.02767900000003
 11
97.19699049999997
 21
765.80462599999998
  0
LINE
  8
_0-0_0
  6
CONTINUOUS
 62
    7
 10
97.134429499999897
 20
766.07665999999995
 11
97.19699049999997
 21
765.80462599999998
  0
LINE
  8
_0-0_0
  6
CONTINUOUS
 62
    7
 10
97.599014499999953
 20
766.00305200000003
 11
97.455459499999961
 21
765.76367200000004
  0
LINE
  8
_0-0_0
  6
CONTINUOUS
 62
    7
 10
97.36479149999991
 20
766.02767900000003
 11
97.455459499999961
 21
765.76367200000004
  0
LINE
  8
_0-0_0
  6
CONTINUOUS
 62
    7
 10
97.834533499999907
 20
766.00305200000003
 11
97.716781499999911
 21
765.75
  0
LINE
  8
_0-0_0
  6
CONTINUOUS
 62
    7
 10
97.599014499999953
 20
766.00305200000003
 11
97.716781499999911
 21
765.75
  0
LINE
  8
_0-0_0
  6
CONTINUOUS
 62
    7
 10
98.068755499999952
 20
766.02767900000003
 11
97.978103499999975
 21
765.76367200000004
  0
LINE
  8
_0-0_0
  6
CONTINUOUS
 62
    7
 10
97.834533499999907
 20
766.00305200000003
 11
97.978103499999975
 21
765.76367200000004
  0
LINE
  8
_0-0_0
  6
CONTINUOUS
 62
    7
 10
98.299117499999966
 20
766.07665999999995
 11
98.236556500000006
 21
765.80462599999998
  0
LINE
  8
_0-0_0
  6
CONTINUOUS
 62
    7
 10
98.068755499999952
 20
766.02767900000003
 11
98.236556500000006
 21
765.80462599999998
  0
LINE
  8
_0-0_0
  6
CONTINUOUS
 62
    7
 10
98.523101499999939
 20
766.14941399999998
 11
98.489318499999968
 21
765.872345
  0
LINE
  8
_0-0_0
  6
CONTINUOUS
 62
    7
 10
98.299117499999966
 20
766.07665999999995
 11
98.489318499999968
 21
765.872345
  0
LINE
  8
_0-0_0
  6
CONTINUOUS
 62
    7
 10
98.738250499999936
 20
766.24520899999993
 11
98.733611499999938
 21
765.96612499999992
  0
LINE
  8
_0-0_0
  6
CONTINUOUS
 62
    7
 10
98.523101499999939
 20
766.14941399999998
 11
98.733611499999938
 21
765.96612499999992
  0
LINE
  8
_0-0_0
  6
CONTINUOUS
 62
    7
 10
98.857787499999972
 20
766.16137700000002
 11
98.966781499999911
 21
766.08492999999999
  0
LINE
  8
_0-0_0
  6
CONTINUOUS
 62
    7
 10
98.738250499999936
 20
766.24520899999993
 11
98.857787499999972
 21
766.16137700000002
  0
LINE
  8
_0-0_0
  6
CONTINUOUS
 62
    7
 10
98.942214499999977
 20
766.362976
 11
98.966781499999911
 21
766.08492999999999
  0
LINE
  8
_0-0_0
  6
CONTINUOUS
 62
    7
 10
99.132751499999927
 20
766.50140399999998
 11
99.186233499999958
 21
766.22744799999998
  0
LINE
  8
_0-0_0
  6
CONTINUOUS
 62
    7
 10
98.942214499999977
 20
766.362976
 11
99.186233499999958
 21
766.22744799999998
  0
LINE
  8
_0-0_0
  6
CONTINUOUS
 62
    7
 10
99.307769499999949
 20
766.658997
 11
99.38960249999991
 21
766.39211999999998
  0
LINE
  8
_0-0_0
  6
CONTINUOUS
 62
    7
 10
99.132751499999927
 20
766.50140399999998
 11
99.38960249999991
 21
766.39211999999998
  0
LINE
  8
_0-0_0
  6
CONTINUOUS
 62
    7
 10
99.465362499999969
 20
766.83401500000002
 11
99.574645499999974
 21
766.57714800000008
  0
LINE
  8
_0-0_0
  6
CONTINUOUS
 62
    7
 10
99.307769499999949
 20
766.658997
 11
99.574645499999974
 21
766.57714800000008
  0
LINE
  8
_0-0_0
  6
CONTINUOUS
 62
    7
 10
99.603790499999945
 20
767.02453600000001
 11
99.739318499999968
 21
766.78051800000003
  0
LINE
  8
_0-0_0
  6
CONTINUOUS
 62
    7
 10
99.465362499999969
 20
766.83401500000002
 11
99.739318499999968
 21
766.78051800000003
  0
LINE
  8
_0-0_0
  6
CONTINUOUS
 62
    7
 10
99.721542499999941
 20
767.22851600000001
 11
99.881835499999966
 21
767
  0
LINE
  8
_0-0_0
  6
CONTINUOUS
 62
    7
 10
99.603790499999945
 20
767.02453600000001
 11
99.881835499999966
 21
767
  0
LINE
  8
_0-0_0
  6
CONTINUOUS
 62
    7
 10
99.81733650000001
 20
767.44366500000001
 11
100.00064049999992
 21
767.23315400000001
  0
LINE
  8
_0-0_0
  6
CONTINUOUS
 62
    7
 10
99.721542499999941
 20
767.22851600000001
 11
100.00064049999992
 21
767.23315400000001
  0
LINE
  8
_0-0_0
  6
CONTINUOUS
 62
    7
 10
99.890106500000002
 20
767.66763300000002
 11
100.09442149999995
 21
767.47744799999998
  0
LINE
  8
_0-0_0
  6
CONTINUOUS
 62
    7
 10
99.81733650000001
 20
767.44366500000001
 11
100.09442149999995
 21
767.47744799999998
  0
LINE
  8
_0-0_0
  6
CONTINUOUS
 62
    7
 10
99.939071499999955
 20
767.89801
 11
100.16213949999997
 21
767.73019399999998
  0
LINE
  8
_0-0_0
  6
CONTINUOUS
 62
    7
 10
99.890106500000002
 20
767.66763300000002
 11
100.16213949999997
 21
767.73019399999998
  0
LINE
  8
_0-0_0
  6
CONTINUOUS
 62
    7
 10
99.963699499999962
 20
768.13223300000004
 11
100.20307949999994
 21
767.98864700000001
  0
LINE
  8
_0-0_0
  6
CONTINUOUS
 62
    7
 10
99.939071499999955
 20
767.89801
 11
100.20307949999994
 21
767.98864700000001
  0
LINE
  8
_0-0_0
  6
CONTINUOUS
 62
    7
 10
99.963699499999962
 20
768.36773700000003
 11
100.21678149999991
 21
768.25
  0
LINE
  8
_0-0_0
  6
CONTINUOUS
 62
    7
 10
99.963699499999962
 20
768.13223300000004
 11
100.21678149999991
 21
768.25
  0
LINE
  8
_0-0_0
  6
CONTINUOUS
 62
    7
 10
99.939071499999955
 20
768.60195900000008
 11
100.20307949999994
 21
768.51129200000003
  0
LINE
  8
_0-0_0
  6
CONTINUOUS
 62
    7
 10
99.963699499999962
 20
768.36773700000003
 11
100.20307949999994
 21
768.51129200000003
  0
LINE
  8
_0-0_0
  6
CONTINUOUS
 62
    7
 10
99.890106500000002
 20
768.83233599999994
 11
100.16213949999997
 21
768.76977499999998
  0
LINE
  8
_0-0_0
  6
CONTINUOUS
 62
    7
 10
99.939071499999955
 20
768.60195900000008
 11
100.16213949999997
 21
768.76977499999998
  0
LINE
  8
_0-0_0
  6
CONTINUOUS
 62
    7
 10
99.81733650000001
 20
769.05630500000007
 11
100.09442149999995
 21
769.02252199999998
  0
LINE
  8
_0-0_0
  6
CONTINUOUS
 62
    7
 10
99.890106500000002
 20
768.83233599999994
 11
100.09442149999995
 21
769.02252199999998
  0
LINE
  8
_0-0_0
  6
CONTINUOUS
 62
    7
 10
99.721542499999941
 20
769.27145399999995
 11
100.00064049999992
 21
769.26681499999995
  0
LINE
  8
_0-0_0
  6
CONTINUOUS
 62
    7
 10
99.81733650000001
 20
769.05630500000007
 11
100.00064049999992
 21
769.26681499999995
  0
CIRCLE
  8
_0-0_0
  6
CONTINUOUS
 62
    7
 10
97.716781499999911
 20
768.25
 40
2
  0
CIRCLE
  8
_0-0_0
  6
CONTINUOUS
 62
    7
 10
91.716781499999911
 20
759.94998199999998
 40
5
  0
LINE
  8
_0-0_0
  6
CONTINUOUS
 62
    7
 10
98.298889499999973
 20
767.25
 11
97.134673499999963
 21
767.25
  0
LINE
  8
_0-0_0
  6
CONTINUOUS
 62
    7
 10
97.134673499999963
 20
767.25
 11
96.566772499999956
 21
768.25
  0
LINE
  8
_0-0_0
  6
CONTINUOUS
 62
    7
 10
96.566772499999956
 20
768.25
 11
97.134673499999963
 21
769.25
  0
LINE
  8
_0-0_0
  6
CONTINUOUS
 62
    7
 10
97.134673499999963
 20
769.25
 11
98.298889499999973
 21
769.25
  0
LINE
  8
_0-0_0
  6
CONTINUOUS
 62
    7
 10
98.298889499999973
 20
769.25
 11
98.866775499999903
 21
768.25
  0
LINE
  8
_0-0_0
  6
CONTINUOUS
 62
    7
 10
98.866775499999903
 20
768.25
 11
98.298889499999973
 21
767.25
  0
CIRCLE
  8
_0-0_0
  6
CONTINUOUS
 62
    7
 10
91.716781499999911
 20
759.94998199999998
 40
4.5381200000000002
  0
CIRCLE
  8
_0-0_0
  6
CONTINUOUS
 62
    7
 10
91.716781499999911
 20
759.94998199999998
 40
4
  0
LINE
  8
_0-0_0
  6
CONTINUOUS
 62
    7
 10
83.82977249999999
 20
750.42453
 11
83.55171150000001
 21
750.39999399999999
  0
LINE
  8
_0-0_0
  6
CONTINUOUS
 62
    7
 10
83.712005499999918
 20
750.62851000000001
 11
83.55171150000001
 21
750.39999399999999
  0
LINE
  8
_0-0_0
  6
CONTINUOUS
 62
    7
 10
83.968200499999966
 20
750.23400900000001
 11
83.694229500000006
 21
750.18051100000002
  0
LINE
  8
_0-0_0
  6
CONTINUOUS
 62
    7
 10
83.82977249999999
 20
750.42453
 11
83.694229500000006
 21
750.18051100000002
  0
LINE
  8
_0-0_0
  6
CONTINUOUS
 62
    7
 10
84.125793499999986
 20
750.05898999999999
 11
83.858917499999961
 21
749.97717299999999
  0
LINE
  8
_0-0_0
  6
CONTINUOUS
 62
    7
 10
83.968200499999966
 20
750.23400900000001
 11
83.858917499999961
 21
749.97717299999999
  0
LINE
  8
_0-0_0
  6
CONTINUOUS
 62
    7
 10
84.300811500000009
 20
749.90139799999997
 11
84.04394549999995
 21
749.79211400000008
  0
LINE
  8
_0-0_0
  6
CONTINUOUS
 62
    7
 10
84.125793499999986
 20
750.05898999999999
 11
84.04394549999995
 21
749.79211400000008
  0
LINE
  8
_0-0_0
  6
CONTINUOUS
 62
    7
 10
84.491332499999999
 20
749.76297
 11
84.247314499999902
 21
749.62744099999998
  0
LINE
  8
_0-0_0
  6
CONTINUOUS
 62
    7
 10
84.300811500000009
 20
749.90139799999997
 11
84.247314499999902
 21
749.62744099999998
  0
LINE
  8
_0-0_0
  6
CONTINUOUS
 62
    7
 10
84.695297499999924
 20
749.64520300000004
 11
84.466781499999911
 21
749.48492399999998
  0
LINE
  8
_0-0_0
  6
CONTINUOUS
 62
    7
 10
84.491332499999999
 20
749.76297
 11
84.466781499999911
 21
749.48492399999998
  0
LINE
  8
_0-0_0
  6
CONTINUOUS
 62
    7
 10
84.910446499999921
 20
749.54943800000001
 11
84.699935499999924
 21
749.36611900000003
  0
LINE
  8
_0-0_0
  6
CONTINUOUS
 62
    7
 10
84.695297499999924
 20
749.64520300000004
 11
84.699935499999924
 21
749.36611900000003
  0
LINE
  8
_0-0_0
  6
CONTINUOUS
 62
    7
 10
85.134429499999897
 20
749.47665400000005
 11
84.944229500000006
 21
749.27233899999999
  0
LINE
  8
_0-0_0
  6
CONTINUOUS
 62
    7
 10
84.910446499999921
 20
749.54943800000001
 11
84.944229500000006
 21
749.27233899999999
  0
LINE
  8
_0-0_0
  6
CONTINUOUS
 62
    7
 10
85.364807499999984
 20
749.42770399999995
 11
85.19699049999997
 21
749.20461999999998
  0
LINE
  8
_0-0_0
  6
CONTINUOUS
 62
    7
 10
85.134429499999897
 20
749.47665400000005
 11
85.19699049999997
 21
749.20461999999998
  0
LINE
  8
_0-0_0
  6
CONTINUOUS
 62
    7
 10
85.599014499999953
 20
749.40307600000006
 11
85.455459499999961
 21
749.16369600000007
  0
LINE
  8
_0-0_0
  6
CONTINUOUS
 62
    7
 10
85.364807499999984
 20
749.42770399999995
 11
85.455459499999961
 21
749.16369600000007
  0
LINE
  8
_0-0_0
  6
CONTINUOUS
 62
    7
 10
85.834533499999907
 20
749.40307600000006
 11
85.716781499999911
 21
749.14999399999999
  0
LINE
  8
_0-0_0
  6
CONTINUOUS
 62
    7
 10
85.599014499999953
 20
749.40307600000006
 11
85.716781499999911
 21
749.14999399999999
  0
LINE
  8
_0-0_0
  6
CONTINUOUS
 62
    7
 10
86.068755499999952
 20
749.42770399999995
 11
85.978103499999975
 21
749.16369600000007
  0
LINE
  8
_0-0_0
  6
CONTINUOUS
 62
    7
 10
85.834533499999907
 20
749.40307600000006
 11
85.978103499999975
 21
749.16369600000007
  0
LINE
  8
_0-0_0
  6
CONTINUOUS
 62
    7
 10
86.299117499999966
 20
749.47665400000005
 11
86.236556500000006
 21
749.20461999999998
  0
LINE
  8
_0-0_0
  6
CONTINUOUS
 62
    7
 10
86.068755499999952
 20
749.42770399999995
 11
86.236556500000006
 21
749.20461999999998
  0
LINE
  8
_0-0_0
  6
CONTINUOUS
 62
    7
 10
86.523101499999939
 20
749.54943800000001
 11
86.489318499999968
 21
749.27233899999999
  0
LINE
  8
_0-0_0
  6
CONTINUOUS
 62
    7
 10
86.299117499999966
 20
749.47665400000005
 11
86.489318499999968
 21
749.27233899999999
  0
LINE
  8
_0-0_0
  6
CONTINUOUS
 62
    7
 10
86.738250499999936
 20
749.64520300000004
 11
86.733611499999938
 21
749.36611900000003
  0
LINE
  8
_0-0_0
  6
CONTINUOUS
 62
    7
 10
86.523101499999939
 20
749.54943800000001
 11
86.733611499999938
 21
749.36611900000003
  0
LINE
  8
_0-0_0
  6
CONTINUOUS
 62
    7
 10
86.857787499999972
 20
749.56137100000001
 11
86.966781499999911
 21
749.48492399999998
  0
LINE
  8
_0-0_0
  6
CONTINUOUS
 62
    7
 10
86.738250499999936
 20
749.64520300000004
 11
86.857787499999972
 21
749.56137100000001
  0
LINE
  8
_0-0_0
  6
CONTINUOUS
 62
    7
 10
86.942214499999977
 20
749.76297
 11
86.966781499999911
 21
749.48492399999998
  0
LINE
  8
_0-0_0
  6
CONTINUOUS
 62
    7
 10
87.132751499999927
 20
749.90139799999997
 11
87.186233499999958
 21
749.62744099999998
  0
LINE
  8
_0-0_0
  6
CONTINUOUS
 62
    7
 10
86.942214499999977
 20
749.76297
 11
87.186233499999958
 21
749.62744099999998
  0
LINE
  8
_0-0_0
  6
CONTINUOUS
 62
    7
 10
87.307769499999949
 20
750.05898999999999
 11
87.38960249999991
 21
749.79211400000008
  0
LINE
  8
_0-0_0
  6
CONTINUOUS
 62
    7
 10
87.132751499999927
 20
749.90139799999997
 11
87.38960249999991
 21
749.79211400000008
  0
LINE
  8
_0-0_0
  6
CONTINUOUS
 62
    7
 10
87.465362499999969
 20
750.23400900000001
 11
87.574645499999974
 21
749.97717299999999
  0
LINE
  8
_0-0_0
  6
CONTINUOUS
 62
    7
 10
87.307769499999949
 20
750.05898999999999
 11
87.574645499999974
 21
749.97717299999999
  0
LINE
  8
_0-0_0
  6
CONTINUOUS
 62
    7
 10
87.603790499999945
 20
750.42453
 11
87.739318499999968
 21
750.18051100000002
  0
LINE
  8
_0-0_0
  6
CONTINUOUS
 62
    7
 10
87.465362499999969
 20
750.23400900000001
 11
87.739318499999968
 21
750.18051100000002
  0
LINE
  8
_0-0_0
  6
CONTINUOUS
 62
    7
 10
87.721542499999941
 20
750.62851000000001
 11
87.881835499999966
 21
750.39999399999999
  0
LINE
  8
_0-0_0
  6
CONTINUOUS
 62
    7
 10
87.603790499999945
 20
750.42453
 11
87.881835499999966
 21
750.39999399999999
  0
LINE
  8
_0-0_0
  6
CONTINUOUS
 62
    7
 10
87.81733650000001
 20
750.843658
 11
88.000640499999918
 21
750.63314800000001
  0
LINE
  8
_0-0_0
  6
CONTINUOUS
 62
    7
 10
87.721542499999941
 20
750.62851000000001
 11
88.000640499999918
 21
750.63314800000001
  0
LINE
  8
_0-0_0
  6
CONTINUOUS
 62
    7
 10
87.890106500000002
 20
751.06762700000002
 11
88.094421499999953
 21
750.87744099999998
  0
LINE
  8
_0-0_0
  6
CONTINUOUS
 62
    7
 10
87.81733650000001
 20
750.843658
 11
88.094421499999953
 21
750.87744099999998
  0
LINE
  8
_0-0_0
  6
CONTINUOUS
 62
    7
 10
87.939071499999955
 20
751.29800399999999
 11
88.162139499999967
 21
751.13018799999998
  0
LINE
  8
_0-0_0
  6
CONTINUOUS
 62
    7
 10
87.890106500000002
 20
751.06762700000002
 11
88.162139499999967
 21
751.13018799999998
  0
LINE
  8
_0-0_0
  6
CONTINUOUS
 62
    7
 10
87.963699499999962
 20
751.53222699999992
 11
88.203079499999944
 21
751.38867200000004
  0
LINE
  8
_0-0_0
  6
CONTINUOUS
 62
    7
 10
87.939071499999955
 20
751.29800399999999
 11
88.203079499999944
 21
751.38867200000004
  0
LINE
  8
_0-0_0
  6
CONTINUOUS
 62
    7
 10
87.963699499999962
 20
751.76773100000003
 11
88.216781499999911
 21
751.64999399999999
  0
LINE
  8
_0-0_0
  6
CONTINUOUS
 62
    7
 10
87.963699499999962
 20
751.53222699999992
 11
88.216781499999911
 21
751.64999399999999
  0
LINE
  8
_0-0_0
  6
CONTINUOUS
 62
    7
 10
87.939071499999955
 20
752.00195299999996
 11
88.203079499999944
 21
751.91131599999994
  0
LINE
  8
_0-0_0
  6
CONTINUOUS
 62
    7
 10
87.963699499999962
 20
751.76773100000003
 11
88.203079499999944
 21
751.91131599999994
  0
LINE
  8
_0-0_0
  6
CONTINUOUS
 62
    7
 10
87.890106500000002
 20
752.23233000000005
 11
88.162139499999967
 21
752.16976899999997
  0
LINE
  8
_0-0_0
  6
CONTINUOUS
 62
    7
 10
87.939071499999955
 20
752.00195299999996
 11
88.162139499999967
 21
752.16976899999997
  0
LINE
  8
_0-0_0
  6
CONTINUOUS
 62
    7
 10
87.81733650000001
 20
752.45629899999994
 11
88.094421499999953
 21
752.42251599999997
  0
LINE
  8
_0-0_0
  6
CONTINUOUS
 62
    7
 10
87.890106500000002
 20
752.23233000000005
 11
88.094421499999953
 21
752.42251599999997
  0
LINE
  8
_0-0_0
  6
CONTINUOUS
 62
    7
 10
87.721542499999941
 20
752.67144800000005
 11
88.000640499999918
 21
752.66680900000006
  0
LINE
  8
_0-0_0
  6
CONTINUOUS
 62
    7
 10
87.81733650000001
 20
752.45629899999994
 11
88.000640499999918
 21
752.66680900000006
  0
LINE
  8
_0-0_0
  6
CONTINUOUS
 62
    7
 10
87.603790499999945
 20
752.87542699999995
 11
87.881835499999966
 21
752.89999399999999
  0
LINE
  8
_0-0_0
  6
CONTINUOUS
 62
    7
 10
87.721542499999941
 20
752.67144800000005
 11
87.881835499999966
 21
752.89999399999999
  0
LINE
  8
_0-0_0
  6
CONTINUOUS
 62
    7
 10
84.300811500000009
 20
753.39855999999997
 11
84.247314499999902
 21
753.67251599999997
  0
LINE
  8
_0-0_0
  6
CONTINUOUS
 62
    7
 10
84.300811500000009
 20
753.39855999999997
 11
84.04394549999995
 21
753.50784299999998
  0
LINE
  8
_0-0_0
  6
CONTINUOUS
 62
    7
 10
84.125793499999986
 20
753.24096699999996
 11
84.04394549999995
 21
753.50784299999998
  0
LINE
  8
_0-0_0
  6
CONTINUOUS
 62
    7
 10
84.125793499999986
 20
753.24096699999996
 11
83.858917499999961
 21
753.32281499999999
  0
LINE
  8
_0-0_0
  6
CONTINUOUS
 62
    7
 10
83.968200499999966
 20
753.06594799999993
 11
83.858917499999961
 21
753.32281499999999
  0
LINE
  8
_0-0_0
  6
CONTINUOUS
 62
    7
 10
83.968200499999966
 20
753.06594799999993
 11
83.694229500000006
 21
753.11944599999993
  0
LINE
  8
_0-0_0
  6
CONTINUOUS
 62
    7
 10
83.82977249999999
 20
752.87542699999995
 11
83.694229500000006
 21
753.11944599999993
  0
LINE
  8
_0-0_0
  6
CONTINUOUS
 62
    7
 10
83.82977249999999
 20
752.87542699999995
 11
83.55171150000001
 21
752.89999399999999
  0
LINE
  8
_0-0_0
  6
CONTINUOUS
 62
    7
 10
83.712005499999918
 20
752.67144800000005
 11
83.55171150000001
 21
752.89999399999999
  0
LINE
  8
_0-0_0
  6
CONTINUOUS
 62
    7
 10
83.712005499999918
 20
752.67144800000005
 11
83.432906499999945
 21
752.66680900000006
  0
LINE
  8
_0-0_0
  6
CONTINUOUS
 62
    7
 10
83.616226499999925
 20
752.45629899999994
 11
83.432906499999945
 21
752.66680900000006
  0
LINE
  8
_0-0_0
  6
CONTINUOUS
 62
    7
 10
83.616226499999925
 20
752.45629899999994
 11
83.339141499999982
 21
752.42251599999997
  0
LINE
  8
_0-0_0
  6
CONTINUOUS
 62
    7
 10
83.543441499999972
 20
752.23233000000005
 11
83.339141499999982
 21
752.42251599999997
  0
LINE
  8
_0-0_0
  6
CONTINUOUS
 62
    7
 10
83.543441499999972
 20
752.23233000000005
 11
83.271407499999896
 21
752.16976899999997
  0
LINE
  8
_0-0_0
  6
CONTINUOUS
 62
    7
 10
83.494476500000019
 20
752.00195299999996
 11
83.271407499999896
 21
752.16976899999997
  0
LINE
  8
_0-0_0
  6
CONTINUOUS
 62
    7
 10
83.494476500000019
 20
752.00195299999996
 11
83.230468499999915
 21
751.91131599999994
  0
LINE
  8
_0-0_0
  6
CONTINUOUS
 62
    7
 10
83.469863499999974
 20
751.76773100000003
 11
83.230468499999915
 21
751.91131599999994
  0
LINE
  8
_0-0_0
  6
CONTINUOUS
 62
    7
 10
83.469863499999974
 20
751.76773100000003
 11
83.216781499999911
 21
751.64999399999999
  0
LINE
  8
_0-0_0
  6
CONTINUOUS
 62
    7
 10
83.469863499999974
 20
751.53222699999992
 11
83.216781499999911
 21
751.64999399999999
  0
LINE
  8
_0-0_0
  6
CONTINUOUS
 62
    7
 10
83.469863499999974
 20
751.53222699999992
 11
83.230468499999915
 21
751.38867200000004
  0
LINE
  8
_0-0_0
  6
CONTINUOUS
 62
    7
 10
83.494476500000019
 20
751.29800399999999
 11
83.230468499999915
 21
751.38867200000004
  0
LINE
  8
_0-0_0
  6
CONTINUOUS
 62
    7
 10
83.494476500000019
 20
751.29800399999999
 11
83.271407499999896
 21
751.13018799999998
  0
LINE
  8
_0-0_0
  6
CONTINUOUS
 62
    7
 10
83.543441499999972
 20
751.06762700000002
 11
83.271407499999896
 21
751.13018799999998
  0
LINE
  8
_0-0_0
  6
CONTINUOUS
 62
    7
 10
83.543441499999972
 20
751.06762700000002
 11
83.339141499999982
 21
750.87744099999998
  0
LINE
  8
_0-0_0
  6
CONTINUOUS
 62
    7
 10
83.616226499999925
 20
750.843658
 11
83.339141499999982
 21
750.87744099999998
  0
LINE
  8
_0-0_0
  6
CONTINUOUS
 62
    7
 10
83.616226499999925
 20
750.843658
 11
83.432906499999945
 21
750.63314800000001
  0
LINE
  8
_0-0_0
  6
CONTINUOUS
 62
    7
 10
83.712005499999918
 20
750.62851000000001
 11
83.432906499999945
 21
750.63314800000001
  0
CIRCLE
  8
_0-0_0
  6
CONTINUOUS
 62
    7
 10
85.716781499999911
 20
751.64999399999999
 40
2
  0
LINE
  8
_0-0_0
  6
CONTINUOUS
 62
    7
 10
84.575759500000004
 20
753.73858599999994
 11
84.466781499999911
 21
753.81506300000001
  0
LINE
  8
_0-0_0
  6
CONTINUOUS
 62
    7
 10
84.491332499999999
 20
753.53698699999995
 11
84.466781499999911
 21
753.81506300000001
  0
LINE
  8
_0-0_0
  6
CONTINUOUS
 62
    7
 10
84.491332499999999
 20
753.53698699999995
 11
84.247314499999902
 21
753.67251599999997
  0
LINE
  8
_0-0_0
  6
CONTINUOUS
 62
    7
 10
87.603790499999945
 20
752.87542699999995
 11
87.739318499999968
 21
753.11944599999993
  0
LINE
  8
_0-0_0
  6
CONTINUOUS
 62
    7
 10
87.465362499999969
 20
753.06594799999993
 11
87.739318499999968
 21
753.11944599999993
  0
LINE
  8
_0-0_0
  6
CONTINUOUS
 62
    7
 10
87.465362499999969
 20
753.06594799999993
 11
87.574645499999974
 21
753.32281499999999
  0
LINE
  8
_0-0_0
  6
CONTINUOUS
 62
    7
 10
87.307769499999949
 20
753.24096699999996
 11
87.574645499999974
 21
753.32281499999999
  0
LINE
  8
_0-0_0
  6
CONTINUOUS
 62
    7
 10
87.307769499999949
 20
753.24096699999996
 11
87.38960249999991
 21
753.50784299999998
  0
LINE
  8
_0-0_0
  6
CONTINUOUS
 62
    7
 10
87.132751499999927
 20
753.39855999999997
 11
87.38960249999991
 21
753.50784299999998
  0
LINE
  8
_0-0_0
  6
CONTINUOUS
 62
    7
 10
87.132751499999927
 20
753.39855999999997
 11
87.186233499999958
 21
753.67251599999997
  0
LINE
  8
_0-0_0
  6
CONTINUOUS
 62
    7
 10
86.942214499999977
 20
753.53698699999995
 11
87.186233499999958
 21
753.67251599999997
  0
LINE
  8
_0-0_0
  6
CONTINUOUS
 62
    7
 10
86.942214499999977
 20
753.53698699999995
 11
86.966781499999911
 21
753.81506300000001
  0
LINE
  8
_0-0_0
  6
CONTINUOUS
 62
    7
 10
86.738250499999936
 20
753.65475500000002
 11
86.966781499999911
 21
753.81506300000001
  0
LINE
  8
_0-0_0
  6
CONTINUOUS
 62
    7
 10
86.738250499999936
 20
753.65475500000002
 11
86.733611499999938
 21
753.93383799999992
  0
LINE
  8
_0-0_0
  6
CONTINUOUS
 62
    7
 10
86.523101499999939
 20
753.75054899999998
 11
86.733611499999938
 21
753.93383799999992
  0
LINE
  8
_0-0_0
  6
CONTINUOUS
 62
    7
 10
86.523101499999939
 20
753.75054899999998
 11
86.489318499999968
 21
754.02761800000007
  0
LINE
  8
_0-0_0
  6
CONTINUOUS
 62
    7
 10
86.299117499999966
 20
753.82330300000001
 11
86.489318499999968
 21
754.02761800000007
  0
LINE
  8
_0-0_0
  6
CONTINUOUS
 62
    7
 10
86.299117499999966
 20
753.82330300000001
 11
86.236556500000006
 21
754.09533699999997
  0
LINE
  8
_0-0_0
  6
CONTINUOUS
 62
    7
 10
86.068755499999952
 20
753.87228400000004
 11
86.236556500000006
 21
754.09533699999997
  0
LINE
  8
_0-0_0
  6
CONTINUOUS
 62
    7
 10
86.068755499999952
 20
753.87228400000004
 11
85.978103499999975
 21
754.13629200000003
  0
LINE
  8
_0-0_0
  6
CONTINUOUS
 62
    7
 10
85.834533499999907
 20
753.89691199999993
 11
85.978103499999975
 21
754.13629200000003
  0
LINE
  8
_0-0_0
  6
CONTINUOUS
 62
    7
 10
85.834533499999907
 20
753.89691199999993
 11
85.716781499999911
 21
754.14999399999999
  0
LINE
  8
_0-0_0
  6
CONTINUOUS
 62
    7
 10
85.599014499999953
 20
753.89691199999993
 11
85.716781499999911
 21
754.14999399999999
  0
LINE
  8
_0-0_0
  6
CONTINUOUS
 62
    7
 10
85.599014499999953
 20
753.89691199999993
 11
85.455459499999961
 21
754.13629200000003
  0
LINE
  8
_0-0_0
  6
CONTINUOUS
 62
    7
 10
85.364807499999984
 20
753.87228400000004
 11
85.455459499999961
 21
754.13629200000003
  0
LINE
  8
_0-0_0
  6
CONTINUOUS
 62
    7
 10
85.364807499999984
 20
753.87228400000004
 11
85.19699049999997
 21
754.09533699999997
  0
LINE
  8
_0-0_0
  6
CONTINUOUS
 62
    7
 10
85.134429499999897
 20
753.82330300000001
 11
85.19699049999997
 21
754.09533699999997
  0
LINE
  8
_0-0_0
  6
CONTINUOUS
 62
    7
 10
85.134429499999897
 20
753.82330300000001
 11
84.944229500000006
 21
754.02761800000007
  0
LINE
  8
_0-0_0
  6
CONTINUOUS
 62
    7
 10
84.910446499999921
 20
753.75054899999998
 11
84.944229500000006
 21
754.02761800000007
  0
LINE
  8
_0-0_0
  6
CONTINUOUS
 62
    7
 10
84.910446499999921
 20
753.75054899999998
 11
84.699935499999924
 21
753.93383799999992
  0
LINE
  8
_0-0_0
  6
CONTINUOUS
 62
    7
 10
84.695297499999924
 20
753.65475500000002
 11
84.699935499999924
 21
753.93383799999992
  0
LINE
  8
_0-0_0
  6
CONTINUOUS
 62
    7
 10
84.695297499999924
 20
753.65475500000002
 11
84.575759500000004
 21
753.73858599999994
  0
LINE
  8
_0-0_0
  6
CONTINUOUS
 62
    7
 10
86.298889499999973
 20
750.64999399999999
 11
85.134673499999963
 21
750.64999399999999
  0
LINE
  8
_0-0_0
  6
CONTINUOUS
 62
    7
 10
85.134673499999963
 20
750.64999399999999
 11
84.566772499999956
 21
751.64999399999999
  0
LINE
  8
_0-0_0
  6
CONTINUOUS
 62
    7
 10
84.566772499999956
 20
751.64999399999999
 11
85.134673499999963
 21
752.64999399999999
  0
LINE
  8
_0-0_0
  6
CONTINUOUS
 62
    7
 10
85.134673499999963
 20
752.64999399999999
 11
86.298889499999973
 21
752.64999399999999
  0
LINE
  8
_0-0_0
  6
CONTINUOUS
 62
    7
 10
86.298889499999973
 20
752.64999399999999
 11
86.866775499999903
 21
751.64999399999999
  0
LINE
  8
_0-0_0
  6
CONTINUOUS
 62
    7
 10
86.866775499999903
 20
751.64999399999999
 11
86.298889499999973
 21
750.64999399999999
  0
LINE
  8
_0-0_0
  6
CONTINUOUS
 62
    7
 10
100.41677849999996
 20
769.05029300000001
 11
100.41677849999996
 21
769.05627400000003
  0
LINE
  8
_0-0_0
  6
CONTINUOUS
 62
    7
 10
100.41677849999996
 20
770.25
 11
100.41641249999998
 21
770.23788500000001
  0
LINE
  8
_0-0_0
  6
CONTINUOUS
 62
    7
 10
100.41641249999998
 20
749.66210899999999
 11
100.41677849999996
 21
749.64999399999999
  0
ARC
  8
_0-0_0
  6
CONTINUOUS
 62
    7
 10
85.216781499999911
 20
768.75
 40
2
 50
90.000003000000007
 51
93.840255999999997
  0
ARC
  8
_0-0_0
  6
CONTINUOUS
 62
    7
 10
98.216781499999911
 20
751.14999399999999
 40
2
 50
269.99999700000001
 51
273.84026499999999
  0
ENDSEC
  0
EOF
