  0
SECTION
  2
HEADER
  9
$ACADVER
  1
AC1009
  9
$INSBASE
 10
0
 20
0
 30
0
  9
$EXTMIN
 10
0
 20
0
  9
$EXTMAX
 10
841
 20
594
  9
$LIMMIN
 10
0
 20
0
  9
$LIMMAX
 10
841
 20
594
  9
$LTSCALE
 40
1
  0
ENDSEC
  0
SECTION
  2
TABLES
  0
TABLE
  2
LTYPE
 70
     9
  0
LTYPE
  2
CONTINUOUS
 70
    64
  3
実線
 72
    65
 73
     0
 40
0.0
  0
LTYPE
  2
DASHED1
 70
    64
  3
--  --  --  --  --  --  --  --  
 72
    65
 73
     2
 40
2.5
 49
1.25
 49
-1.25
  0
LTYPE
  2
DASHED2
 70
    64
  3
----    ----    ----    ----    
 72
    65
 73
     2
 40
5.0
 49
2.5
 49
-2.5
  0
LTYPE
  2
DASHED3
 70
    64
  3
------  ------  ------  ------  
 72
    65
 73
     2
 40
5.0
 49
3.75
 49
-1.25
  0
LTYPE
  2
CENTER1
 70
    64
  3
----- - ----- - ----- - ----- - 
 72
    65
 73
     4
 40
10.0
 49
6.25
 49
-1.25
 49
1.25
 49
-1.25
  0
LTYPE
  2
CENTER2
 70
    64
  3
----------  --  ----------  --  
 72
    65
 73
     4
 40
20.0
 49
12.5
 49
-2.5
 49
2.5
 49
-2.5
  0
LTYPE
  2
PHANTOM1
 70
    64
  3
--- - - --- - - --- - - --- - - 
 72
    65
 73
     6
 40
10.0
 49
3.25
 49
-1.25
 49
1.25
 49
-1.25
 49
1.25
 49
-1.25
  0
LTYPE
  2
PHANTOM2
 70
    64
  3
--------  -  -  --------  -  -  
 72
    65
 73
     6
 40
20.0
 49
10.0
 49
-2.5
 49
1.25
 49
-2.5
 49
1.25
 49
-2.5
  0
LTYPE
  2
DOT
 70
    64
  3
-   -   -   -   -   -   -   -   
 72
    65
 73
     2
 40
2.5
 49
0.625
 49
-1.875
  0
LTYPE
  2
DUMMY
 70
    64
  3
ダミー
 72
    65
 73
     0
 40
0.0
  0
LTYPE
  2
RAND1
 70
    64
  3
ランダム線1
 72
    65
 73
     4
 40
10.0
 49
1.0
 49
-2.0
 49
3.0
 49
-4.0
  0
LTYPE
  2
RAND2
 70
    64
  3
ランダム線2
 72
    65
 73
     4
 40
14.0
 49
2.0
 49
-3.0
 49
4.0
 49
-5.0
  0
LTYPE
  2
RAND3
 70
    64
  3
ランダム線3
 72
    65
 73
     4
 40
18.0
 49
3.0
 49
-4.0
 49
5.0
 49
-6.0
  0
LTYPE
  2
RAND4
 70
    64
  3
ランダム線4
 72
    65
 73
     4
 40
22.0
 49
4.0
 49
-5.0
 49
6.0
 49
-7.0
  0
LTYPE
  2
RAND5
 70
    64
  3
ランダム線5
 72
    65
 73
     4
 40
26.0
 49
5.0
 49
-6.0
 49
7.0
 49
-8.0
  0
LTYPE
  2
LONG1
 70
    64
  3
----------  --  ----------  --  
 72
    65
 73
     4
 40
40.0
 49
32.5
 49
-2.5
 49
2.5
 49
-2.5
  0
LTYPE
  2
LONG2
 70
    64
  3
--------  -  -  --------  -  -  
 72
    65
 73
     6
 40
40.0
 49
30.0
 49
-2.5
 49
1.25
 49
-2.5
 49
1.25
 49
-2.5
  0
LTYPE
  2
LONG3
 70
    64
  3
+++++++++++++++..+++++++++++++++
 72
    65
 73
     2
 40
40.0
 49
37.5
 49
-2.5
  0
LTYPE
  2
LONG4
 70
    64
  3
+++++++++++++++..+++++++++++++++
 72
    65
 73
     2
 40
80.0
 49
75.0
 49
-5.0
  0
LTYPE
  2
LONG5
 70
    64
  3
----------  --  ----------  --  
 72
    65
 73
     4
 40
60.0
 49
37.5
 49
-7.5
 49
7.5
 49
-7.5
  0
LTYPE
  2
dashed
 70
   64
  3
-------   -------------   ------
 72
   65
 73
    2
 40
7.5
 49
6
 49
-1.5
  0
LTYPE
  2
dashed_spaced
 70
   64
  3
----        --------        ----
 72
   65
 73
    2
 40
12
 49
6
 49
-6
  0
LTYPE
  2
long_dashed_dotted
 70
   64
  3
------------- --- --------------
 72
   65
 73
    4
 40
15.25
 49
12
 49
-1.5
 49
0.25
 49
-1.5
  0
LTYPE
  2
long_dashed_double-dotted
 70
   64
  3
----------- --- --- ------------
 72
   65
 73
    6
 40
17
 49
12
 49
-1.5
 49
0.25
 49
-1.5
 49
0.25
 49
-1.5
  0
LTYPE
  2
long_dashed_triplicate-dotted
 70
   64
  3
--------- --- --- --- ----------
 72
   65
 73
    8
 40
18.75
 49
12
 49
-1.5
 49
0.25
 49
-1.5
 49
0.25
 49
-1.5
 49
0.25
 49
-1.5
  0
LTYPE
  2
dotted
 70
   64
  3
   -       -       -       -    
 72
   65
 73
    2
 40
1.75
 49
0.25
 49
-1.5
  0
LTYPE
  2
chain
 70
   64
  3
-------------- -- --------------
 72
   65
 73
    4
 40
18.5
 49
12
 49
-1.5
 49
3.5
 49
-1.5
  0
LTYPE
  2
chain_double_dash
 70
   64
  3
------------ -- -- -------------
 72
   65
 73
    6
 40
23.5
 49
12
 49
-1.5
 49
3.5
 49
-1.5
 49
3.5
 49
-1.5
  0
LTYPE
  2
dashed_dotted
 70
   64
  3
-----------     -     ----------
 72
   65
 73
    4
 40
9.25
 49
6
 49
-1.5
 49
0.25
 49
-1.5
  0
LTYPE
  2
double-dashed_dotted
 70
   64
  3
------   -----------   -   -----
 72
   65
 73
    6
 40
16.75
 49
6
 49
-1.5
 49
6
 49
-1.5
 49
0.25
 49
-1.5
  0
LTYPE
  2
dashed_double-dotted
 70
   64
  3
---------    -    -    ---------
 72
   65
 73
    6
 40
11
 49
6
 49
-1.5
 49
0.25
 49
-1.5
 49
0.25
 49
-1.5
  0
LTYPE
  2
double-dashed_double-dotted
 70
   64
  3
-----   ---------   -   -   ----
 72
   65
 73
    8
 40
18.5
 49
6
 49
-1.5
 49
6
 49
-1.5
 49
0.25
 49
-1.5
 49
0.25
 49
-1.5
  0
LTYPE
  2
dashed_triplicate-dotted
 70
   64
  3
-------    -    -    -    ------
 72
   65
 73
    8
 40
12.75
 49
6
 49
-1.5
 49
0.25
 49
-1.5
 49
0.25
 49
-1.5
 49
0.25
 49
-1.5
  0
LTYPE
  2
double-dashed_triplicate-dotted
 70
   64
  3
-----  ---------  -  -  -  -----
 72
   65
 73
   10
 40
20.25
 49
6
 49
-1.5
 49
6
 49
-1.5
 49
0.25
 49
-1.5
 49
0.25
 49
-1.5
 49
0.25
 49
-1.5
  0
LTYPE
  2
undefined
 70
   64
  3
--------------------------------
 72
   65
 73
    0
 40
0
  0
ENDTAB
  0
TABLE
  2
STYLE
  5
3
100
AcDbSymbolTable
 70
     1
  0
STYLE
  5
10
100
AcDbSymbolTableRecord
100
AcDbTextStyleTableRecord
  2
STANDARD
 70
     0
 40
0.0
 41
1.0
 50
0.0
 71
     0
 42
0.2
  3
txt
  4
bigfont.shx
  0
STYLE
  5
26
100
AcDbSymbolTableRecord
100
AcDbTextStyleTableRecord
  2
TATEGAKI
 70
    68
 40
0.0
 41
1.0
 50
0.0
 71
     0
 42
1.0
  3
txt
  4
bigfont.shx
  0
ENDTAB
  0
TABLE
  2
LAYER
 70
    2
  0
LAYER
  2
_0-0_0
 70
   64
 62
    7
  6
CONTINUOUS
  0
LAYER
  2
ADD_LINE
 70
   64
 62
    7
  6
CONTINUOUS
  0
ENDTAB
  0
ENDSEC
  0
SECTION
  2
BLOCKS
  0
ENDSEC
  0
SECTION
  2
ENTITIES
  0
ARC
  8
_0-0_0
  6
CONTINUOUS
 62
    7
 10
76.22776749999997
 20
468.34997600000003
 40
0.2
 50
269.99999700000001
 51
20.376440000000013
  0
LINE
  8
_0-0_0
  6
CONTINUOUS
 62
    7
 10
76.41526749999997
 20
468.41961700000002
 11
75.115249499999948
 21
471.91961700000002
  0
ARC
  8
_0-0_0
  6
CONTINUOUS
 62
    7
 10
74.927780499999926
 20
471.84997600000003
 40
0.2
 50
20.376439999999999
 51
159.62355600000001
  0
LINE
  8
_0-0_0
  6
CONTINUOUS
 62
    7
 10
73.440292499999941
 20
468.41961700000002
 11
74.740280499999926
 21
471.91961700000002
  0
ARC
  8
_0-0_0
  6
CONTINUOUS
 62
    7
 10
73.627761499999963
 20
468.34997600000003
 40
0.2
 50
159.62355600000001
 51
269.99999700000001
  0
LINE
  8
_0-0_0
  6
CONTINUOUS
 62
    7
 10
73.627761499999963
 20
468.14999399999999
 11
76.22776749999997
 21
468.14999399999999
  0
LINE
  8
_0-0_0
  6
CONTINUOUS
 62
    7
 10
-89.005035500000076
 20
516.75271599999996
 11
-89.005035500000076
 21
516.75170900000001
  0
LINE
  8
_0-0_0
  6
CONTINUOUS
 62
    7
 10
993.92773450000004
 20
505.14999399999999
 11
993.92773450000004
 21
492.14999399999999
  0
LINE
  8
_0-0_0
  6
CONTINUOUS
 62
    7
 10
20.927780499999926
 20
505.14999399999999
 11
20.927780499999926
 21
492.14999399999999
  0
LINE
  8
_0-0_0
  6
CONTINUOUS
 62
    7
 10
20.927780499999926
 20
505.14999399999999
 11
993.92773450000004
 21
505.14999399999999
  0
LINE
  8
_0-0_0
  6
CONTINUOUS
 62
    7
 10
20.927780499999926
 20
505.14999399999999
 11
20.927780499999926
 21
523.75
  0
LINE
  8
_0-0_0
  6
CONTINUOUS
 62
    7
 10
20.927780499999926
 20
526.25
 11
20.927780499999926
 21
523.75
  0
LINE
  8
_0-0_0
  6
CONTINUOUS
 62
    7
 10
20.927780499999926
 20
526.75
 11
20.927780499999926
 21
526.25
  0
LINE
  8
_0-0_0
  6
CONTINUOUS
 62
    7
 10
20.927780499999926
 20
478.75
 11
20.927780499999926
 21
478.25
  0
LINE
  8
_0-0_0
  6
CONTINUOUS
 62
    7
 10
20.927780499999926
 20
483.75
 11
20.927780499999926
 21
478.75
  0
LINE
  8
_0-0_0
  6
CONTINUOUS
 62
    7
 10
20.927780499999926
 20
484.25
 11
20.927780499999926
 21
483.75
  0
LINE
  8
_0-0_0
  6
CONTINUOUS
 62
    7
 10
20.927780499999926
 20
484.75
 11
20.927780499999926
 21
484.25
  0
LINE
  8
_0-0_0
  6
CONTINUOUS
 62
    7
 10
20.927780499999926
 20
487.94998199999998
 11
20.927780499999926
 21
484.75
  0
LINE
  8
_0-0_0
  6
CONTINUOUS
 62
    7
 10
20.927780499999926
 20
487.94998199999998
 11
20.927780499999926
 21
492.14999399999999
  0
LINE
  8
_0-0_0
  6
CONTINUOUS
 62
    7
 10
20.927780499999926
 20
492.14999399999999
 11
993.92773450000004
 21
492.14999399999999
  0
LINE
  8
_0-0_0
  6
CONTINUOUS
 62
    7
 10
993.92773450000004
 20
487.94998199999998
 11
993.92773450000004
 21
492.14999399999999
  0
LINE
  8
_0-0_0
  6
CONTINUOUS
 62
    7
 10
993.92773450000004
 20
484.75
 11
993.92773450000004
 21
487.94998199999998
  0
LINE
  8
_0-0_0
  6
CONTINUOUS
 62
    7
 10
993.92773450000004
 20
484.75
 11
993.92773450000004
 21
484.25
  0
LINE
  8
_0-0_0
  6
CONTINUOUS
 62
    7
 10
993.92773450000004
 20
484.25
 11
993.92773450000004
 21
483.75
  0
LINE
  8
_0-0_0
  6
CONTINUOUS
 62
    7
 10
993.92773450000004
 20
483.75
 11
993.92773450000004
 21
478.75
  0
LINE
  8
_0-0_0
  6
CONTINUOUS
 62
    7
 10
993.92773450000004
 20
478.75
 11
993.92773450000004
 21
478.25
  0
LINE
  8
_0-0_0
  6
CONTINUOUS
 62
    7
 10
993.92773450000004
 20
526.75
 11
993.92773450000004
 21
526.25
  0
LINE
  8
_0-0_0
  6
CONTINUOUS
 62
    7
 10
993.92773450000004
 20
523.75
 11
993.92773450000004
 21
526.25
  0
LINE
  8
_0-0_0
  6
CONTINUOUS
 62
    7
 10
993.92773450000004
 20
505.14999399999999
 11
993.92773450000004
 21
523.75
  0
CIRCLE
  8
_0-0_0
  6
CONTINUOUS
 62
    7
 10
957.42773450000004
 20
514.25
 40
6
  0
CIRCLE
  8
_0-0_0
  6
CONTINUOUS
 62
    7
 10
857.4277955
 20
514.25
 40
6
  0
CIRCLE
  8
_0-0_0
  6
CONTINUOUS
 62
    7
 10
757.4277955
 20
514.25
 40
6
  0
CIRCLE
  8
_0-0_0
  6
CONTINUOUS
 62
    7
 10
657.4277955
 20
514.25
 40
6
  0
CIRCLE
  8
_0-0_0
  6
CONTINUOUS
 62
    7
 10
557.4277955
 20
514.25
 40
6
  0
CIRCLE
  8
_0-0_0
  6
CONTINUOUS
 62
    7
 10
457.4277955
 20
514.25
 40
6
  0
CIRCLE
  8
_0-0_0
  6
CONTINUOUS
 62
    7
 10
357.4277955
 20
514.25
 40
6
  0
CIRCLE
  8
_0-0_0
  6
CONTINUOUS
 62
    7
 10
257.42779549999995
 20
514.25
 40
6
  0
CIRCLE
  8
_0-0_0
  6
CONTINUOUS
 62
    7
 10
157.42779549999995
 20
514.25
 40
6
  0
CIRCLE
  8
_0-0_0
  6
CONTINUOUS
 62
    7
 10
57.427780499999926
 20
514.25
 40
6
  0
LINE
  8
_0-0_0
  6
CONTINUOUS
 62
    7
 10
20.927780499999926
 20
523.75
 11
993.92773450000004
 21
523.75
  0
LINE
  8
_0-0_0
  6
CONTINUOUS
 62
    7
 10
20.927780499999926
 20
526.75
 11
993.92773450000004
 21
526.75
  0
LINE
  8
_0-0_0
  6
CONTINUOUS
 62
    7
 10
20.927780499999926
 20
526.25
 11
18.427780499999926
 21
526.25
  0
LINE
  8
_0-0_0
  6
CONTINUOUS
 62
    7
 10
18.427780499999926
 20
526.25
 11
18.427780499999926
 21
525.75
  0
LINE
  8
_0-0_0
  6
CONTINUOUS
 62
    7
 10
18.427780499999926
 20
525.75
 11
18.427780499999926
 21
485.25
  0
LINE
  8
_0-0_0
  6
CONTINUOUS
 62
    7
 10
20.927780499999926
 20
484.75
 11
18.427780499999926
 21
484.75
  0
LINE
  8
_0-0_0
  6
CONTINUOUS
 62
    7
 10
18.427780499999926
 20
485.25
 11
18.427780499999926
 21
484.75
  0
LINE
  8
_0-0_0
  6
CONTINUOUS
 62
    7
 10
18.427780499999926
 20
484.75
 11
18.427780499999926
 21
483.75
  0
LINE
  8
_0-0_0
  6
CONTINUOUS
 62
    7
 10
18.427780499999926
 20
483.75
 11
18.427780499999926
 21
479.25
  0
LINE
  8
_0-0_0
  6
CONTINUOUS
 62
    7
 10
20.927780499999926
 20
478.75
 11
18.427780499999926
 21
478.75
  0
LINE
  8
_0-0_0
  6
CONTINUOUS
 62
    7
 10
18.427780499999926
 20
479.25
 11
18.427780499999926
 21
478.75
  0
LINE
  8
_0-0_0
  6
CONTINUOUS
 62
    7
 10
20.927780499999926
 20
478.25
 11
993.92773450000004
 21
478.25
  0
LINE
  8
_0-0_0
  6
CONTINUOUS
 62
    7
 10
20.927780499999926
 20
484.25
 11
993.92773450000004
 21
484.25
  0
LINE
  8
_0-0_0
  6
CONTINUOUS
 62
    7
 10
20.927780499999926
 20
487.94998199999998
 11
993.92773450000004
 21
487.94998199999998
  0
LINE
  8
_0-0_0
  6
CONTINUOUS
 62
    7
 10
993.92773450000004
 20
526.25
 11
996.42773450000004
 21
526.25
  0
LINE
  8
_0-0_0
  6
CONTINUOUS
 62
    7
 10
996.42773450000004
 20
526.25
 11
996.42773450000004
 21
525.75
  0
LINE
  8
_0-0_0
  6
CONTINUOUS
 62
    7
 10
996.42773450000004
 20
525.75
 11
996.42773450000004
 21
485.25
  0
LINE
  8
_0-0_0
  6
CONTINUOUS
 62
    7
 10
993.92773450000004
 20
484.75
 11
996.42773450000004
 21
484.75
  0
LINE
  8
_0-0_0
  6
CONTINUOUS
 62
    7
 10
996.42773450000004
 20
485.25
 11
996.42773450000004
 21
484.75
  0
LINE
  8
_0-0_0
  6
CONTINUOUS
 62
    7
 10
996.42773450000004
 20
484.75
 11
996.42773450000004
 21
483.75
  0
LINE
  8
_0-0_0
  6
CONTINUOUS
 62
    7
 10
996.42773450000004
 20
483.75
 11
996.42773450000004
 21
479.25
  0
LINE
  8
_0-0_0
  6
CONTINUOUS
 62
    7
 10
993.92773450000004
 20
478.75
 11
996.42773450000004
 21
478.75
  0
LINE
  8
_0-0_0
  6
CONTINUOUS
 62
    7
 10
996.42773450000004
 20
479.25
 11
996.42773450000004
 21
478.75
  0
ARC
  8
_0-0_0
  6
CONTINUOUS
 62
    7
 10
78.427780499999926
 20
479.25
 40
0.5
 50
269.99999700000001
 51
0
  0
LINE
  8
_0-0_0
  6
CONTINUOUS
 62
    7
 10
78.427780499999926
 20
478.75
 11
71.427780499999926
 21
478.75
  0
ARC
  8
_0-0_0
  6
CONTINUOUS
 62
    7
 10
71.427780499999926
 20
479.25
 40
0.5
 50
179.99999099999999
 51
269.99999700000001
  0
LINE
  8
_0-0_0
  6
CONTINUOUS
 62
    7
 10
70.927780499999926
 20
483.25
 11
70.927780499999926
 21
479.25
  0
ARC
  8
_0-0_0
  6
CONTINUOUS
 62
    7
 10
71.427780499999926
 20
483.25
 40
0.5
 50
90.000003000000007
 51
179.99999099999999
  0
ARC
  8
_0-0_0
  6
CONTINUOUS
 62
    7
 10
78.427780499999926
 20
483.25
 40
0.5
 50
0
 51
90.000003000000007
  0
LINE
  8
_0-0_0
  6
CONTINUOUS
 62
    7
 10
71.427780499999926
 20
483.75
 11
78.427780499999926
 21
483.75
  0
LINE
  8
_0-0_0
  6
CONTINUOUS
 62
    7
 10
993.92773450000004
 20
526.75
 11
993.92773450000004
 21
526.44998199999998
  0
LINE
  8
_0-0_0
  6
CONTINUOUS
 62
    7
 10
993.92773450000004
 20
526.44998199999998
 11
993.92773450000004
 21
526.25
  0
CIRCLE
  8
_0-0_0
  6
CONTINUOUS
 62
    7
 10
957.42773450000004
 20
514.25
 40
5.5
  0
CIRCLE
  8
_0-0_0
  6
CONTINUOUS
 62
    7
 10
857.4277955
 20
514.25
 40
5.5
  0
CIRCLE
  8
_0-0_0
  6
CONTINUOUS
 62
    7
 10
757.4277955
 20
514.25
 40
5.5
  0
CIRCLE
  8
_0-0_0
  6
CONTINUOUS
 62
    7
 10
657.4277955
 20
514.25
 40
5.5
  0
CIRCLE
  8
_0-0_0
  6
CONTINUOUS
 62
    7
 10
557.4277955
 20
514.25
 40
5.5
  0
CIRCLE
  8
_0-0_0
  6
CONTINUOUS
 62
    7
 10
457.4277955
 20
514.25
 40
5.5
  0
CIRCLE
  8
_0-0_0
  6
CONTINUOUS
 62
    7
 10
357.4277955
 20
514.25
 40
5.5
  0
CIRCLE
  8
_0-0_0
  6
CONTINUOUS
 62
    7
 10
257.42779549999995
 20
514.25
 40
5.5
  0
CIRCLE
  8
_0-0_0
  6
CONTINUOUS
 62
    7
 10
157.42779549999995
 20
514.25
 40
5.5
  0
CIRCLE
  8
_0-0_0
  6
CONTINUOUS
 62
    7
 10
57.427780499999926
 20
514.25
 40
5.5
  0
LINE
  8
_0-0_0
  6
CONTINUOUS
 62
    7
 10
78.927780499999926
 20
479.25
 11
78.927780499999926
 21
483.25
  0
CIRCLE
  8
_0-0_0
  6
CONTINUOUS
 62
    7
 10
957.42773450000004
 20
514.25
 40
3.5
  0
CIRCLE
  8
_0-0_0
  6
CONTINUOUS
 62
    7
 10
857.4277955
 20
514.25
 40
3.5
  0
CIRCLE
  8
_0-0_0
  6
CONTINUOUS
 62
    7
 10
757.4277955
 20
514.25
 40
3.5
  0
CIRCLE
  8
_0-0_0
  6
CONTINUOUS
 62
    7
 10
657.4277955
 20
514.25
 40
3.5
  0
CIRCLE
  8
_0-0_0
  6
CONTINUOUS
 62
    7
 10
557.4277955
 20
514.25
 40
3.5
  0
CIRCLE
  8
_0-0_0
  6
CONTINUOUS
 62
    7
 10
457.4277955
 20
514.25
 40
3.5
  0
CIRCLE
  8
_0-0_0
  6
CONTINUOUS
 62
    7
 10
357.4277955
 20
514.25
 40
3.5
  0
CIRCLE
  8
_0-0_0
  6
CONTINUOUS
 62
    7
 10
257.42779549999995
 20
514.25
 40
3.5
  0
CIRCLE
  8
_0-0_0
  6
CONTINUOUS
 62
    7
 10
157.42779549999995
 20
514.25
 40
3.5
  0
CIRCLE
  8
_0-0_0
  6
CONTINUOUS
 62
    7
 10
57.427780499999926
 20
514.25
 40
3.5
  0
ARC
  8
_0-0_0
  6
CONTINUOUS
 62
    7
 10
76.22776749999997
 20
482.94998199999998
 40
0.2
 50
339.62356199999999
 51
90.000002999999978
  0
LINE
  8
_0-0_0
  6
CONTINUOUS
 62
    7
 10
76.41526749999997
 20
482.88034099999999
 11
75.115249499999948
 21
479.38034099999999
  0
ARC
  8
_0-0_0
  6
CONTINUOUS
 62
    7
 10
74.927780499999926
 20
479.44998199999998
 40
0.2
 50
200.37643
 51
339.62356199999999
  0
LINE
  8
_0-0_0
  6
CONTINUOUS
 62
    7
 10
73.440292499999941
 20
482.88034099999999
 11
74.740280499999926
 21
479.38034099999999
  0
ARC
  8
_0-0_0
  6
CONTINUOUS
 62
    7
 10
73.627761499999963
 20
482.94998199999998
 40
0.2
 50
90.000003000000007
 51
200.37643
  0
LINE
  8
_0-0_0
  6
CONTINUOUS
 62
    7
 10
73.627761499999963
 20
483.14999399999999
 11
76.22776749999997
 21
483.14999399999999
  0
ARC
  8
_0-0_0
  6
CONTINUOUS
 62
    7
 10
913.62768549999987
 20
482.94998199999998
 40
0.2
 50
90.000003000000007
 51
200.37643
  0
LINE
  8
_0-0_0
  6
CONTINUOUS
 62
    7
 10
913.62768549999987
 20
483.14999399999999
 11
916.22766150000007
 21
483.14999399999999
  0
ARC
  8
_0-0_0
  6
CONTINUOUS
 62
    7
 10
911.42773450000004
 20
483.25
 40
0.5
 50
90.000003000000007
 51
179.99999099999999
  0
LINE
  8
_0-0_0
  6
CONTINUOUS
 62
    7
 10
910.92773450000004
 20
483.25
 11
910.92773450000004
 21
479.25
  0
ARC
  8
_0-0_0
  6
CONTINUOUS
 62
    7
 10
911.42773450000004
 20
479.25
 40
0.5
 50
179.99999099999999
 51
269.99999700000001
  0
LINE
  8
_0-0_0
  6
CONTINUOUS
 62
    7
 10
918.42773450000004
 20
478.75
 11
911.42773450000004
 21
478.75
  0
ARC
  8
_0-0_0
  6
CONTINUOUS
 62
    7
 10
918.42773450000004
 20
479.25
 40
0.5
 50
269.99999700000001
 51
0
  0
LINE
  8
_0-0_0
  6
CONTINUOUS
 62
    7
 10
918.92773450000004
 20
479.25
 11
918.92773450000004
 21
483.25
  0
ARC
  8
_0-0_0
  6
CONTINUOUS
 62
    7
 10
918.42773450000004
 20
483.25
 40
0.5
 50
0
 51
90.000003000000007
  0
LINE
  8
_0-0_0
  6
CONTINUOUS
 62
    7
 10
911.42773450000004
 20
483.75
 11
918.42773450000004
 21
483.75
  0
LINE
  8
_0-0_0
  6
CONTINUOUS
 62
    7
 10
913.44018549999987
 20
482.88034099999999
 11
914.74023450000004
 21
479.38034099999999
  0
ARC
  8
_0-0_0
  6
CONTINUOUS
 62
    7
 10
914.92773450000004
 20
479.44998199999998
 40
0.2
 50
200.37643
 51
339.62356199999999
  0
LINE
  8
_0-0_0
  6
CONTINUOUS
 62
    7
 10
916.41516150000007
 20
482.88034099999999
 11
915.11523450000004
 21
479.38034099999999
  0
ARC
  8
_0-0_0
  6
CONTINUOUS
 62
    7
 10
916.22766150000007
 20
482.94998199999998
 40
0.2
 50
339.62356199999999
 51
90.000002999999978
  0
LINE
  8
_0-0_0
  6
CONTINUOUS
 62
    7
 10
27.427780499999926
 20
476.25
 11
32.427780499999926
 21
476.25
  0
LINE
  8
_0-0_0
  6
CONTINUOUS
 62
    7
 10
32.427780499999926
 20
476.25
 11
34.22776749999997
 21
476.25
  0
LINE
  8
_0-0_0
  6
CONTINUOUS
 62
    7
 10
34.22776749999997
 20
476.25
 11
34.927780499999926
 21
476.25
  0
ARC
  8
_0-0_0
  6
CONTINUOUS
 62
    7
 10
34.22776749999997
 20
475.75
 40
0.5
 50
0
 51
90.000003000000007
  0
ARC
  8
_0-0_0
  6
CONTINUOUS
 62
    7
 10
27.427780499999926
 20
475.75
 40
0.5
 50
90.000003000000007
 51
179.99999099999999
  0
ARC
  8
_0-0_0
  6
CONTINUOUS
 62
    7
 10
130.92779549999995
 20
475.75
 40
0.5
 50
0
 51
90.000003000000007
  0
LINE
  8
_0-0_0
  6
CONTINUOUS
 62
    7
 10
34.927780499999926
 20
476.25
 11
34.927780499999926
 21
474.75
  0
LINE
  8
_0-0_0
  6
CONTINUOUS
 62
    7
 10
34.927780499999926
 20
476.75
 11
34.927780499999926
 21
476.25
  0
LINE
  8
_0-0_0
  6
CONTINUOUS
 62
    7
 10
34.927780499999926
 20
477.25
 11
34.927780499999926
 21
476.75
  0
LINE
  8
_0-0_0
  6
CONTINUOUS
 62
    7
 10
34.927780499999926
 20
478.25
 11
34.927780499999926
 21
477.25
  0
LINE
  8
_0-0_0
  6
CONTINUOUS
 62
    7
 10
38.927780499999926
 20
476.25
 11
39.627761499999963
 21
476.25
  0
LINE
  8
_0-0_0
  6
CONTINUOUS
 62
    7
 10
34.72776749999997
 20
475.75
 11
34.72776749999997
 21
474.75
  0
LINE
  8
_0-0_0
  6
CONTINUOUS
 62
    7
 10
37.927780499999926
 20
449.25
 11
37.927780499999926
 21
450.84997600000003
  0
LINE
  8
_0-0_0
  6
CONTINUOUS
 62
    7
 10
37.927780499999926
 20
449.25
 11
32.427780499999926
 21
449.25
  0
LINE
  8
_0-0_0
  6
CONTINUOUS
 62
    7
 10
53.927780499999926
 20
455.94998199999998
 11
95.927780499999926
 21
455.94998199999998
  0
LINE
  8
_0-0_0
  6
CONTINUOUS
 62
    7
 10
53.927780499999926
 20
475.54998799999998
 11
95.927780499999926
 21
475.54998799999998
  0
LINE
  8
_0-0_0
  6
CONTINUOUS
 62
    7
 10
117.42779549999995
 20
449.25
 11
107.92779549999995
 21
449.25
  0
LINE
  8
_0-0_0
  6
CONTINUOUS
 62
    7
 10
107.92779549999995
 20
449.25
 11
107.92779549999995
 21
450.84997600000003
  0
ARC
  8
_0-0_0
  6
CONTINUOUS
 62
    7
 10
107.62777649999998
 20
450.84997600000003
 40
0.2999999999999999
 50
0
 51
90.000003000000007
  0
LINE
  8
_0-0_0
  6
CONTINUOUS
 62
    7
 10
106.92779549999995
 20
451.14999399999999
 11
107.62777649999998
 21
451.14999399999999
  0
LINE
  8
_0-0_0
  6
CONTINUOUS
 62
    7
 10
106.42779549999995
 20
451.54998799999998
 11
106.92779549999995
 21
451.54998799999998
  0
LINE
  8
_0-0_0
  6
CONTINUOUS
 62
    7
 10
92.927780499999926
 20
451.54998799999998
 11
106.42779549999995
 21
451.54998799999998
  0
ARC
  8
_0-0_0
  6
CONTINUOUS
 62
    7
 10
90.427780499999926
 20
451.54998799999998
 40
2.5
 50
0
 51
90.000003000000007
  0
LINE
  8
_0-0_0
  6
CONTINUOUS
 62
    7
 10
59.427780499999926
 20
454.04998799999998
 11
90.427780499999926
 21
454.04998799999998
  0
ARC
  8
_0-0_0
  6
CONTINUOUS
 62
    7
 10
59.427780499999926
 20
451.54998799999998
 40
2.5
 50
90.000003000000007
 51
179.99999099999999
  0
LINE
  8
_0-0_0
  6
CONTINUOUS
 62
    7
 10
39.427780499999926
 20
451.54998799999998
 11
56.927780499999926
 21
451.54998799999998
  0
LINE
  8
_0-0_0
  6
CONTINUOUS
 62
    7
 10
38.927780499999926
 20
451.54998799999998
 11
39.427780499999926
 21
451.54998799999998
  0
LINE
  8
_0-0_0
  6
CONTINUOUS
 62
    7
 10
38.22776749999997
 20
451.14999399999999
 11
38.927780499999926
 21
451.14999399999999
  0
ARC
  8
_0-0_0
  6
CONTINUOUS
 62
    7
 10
38.22776749999997
 20
450.84997600000003
 40
0.2999999999999999
 50
90.000003000000007
 51
179.99999099999999
  0
LINE
  8
_0-0_0
  6
CONTINUOUS
 62
    7
 10
26.927780499999926
 20
473.97485399999999
 11
26.927780499999926
 21
475.75
  0
LINE
  8
_0-0_0
  6
CONTINUOUS
 62
    7
 10
31.927780499999926
 20
476.75
 11
31.927780499999926
 21
476.25
  0
LINE
  8
_0-0_0
  6
CONTINUOUS
 62
    7
 10
31.927780499999926
 20
472.80355800000001
 11
31.927780499999926
 21
472.90853900000002
  0
LINE
  8
_0-0_0
  6
CONTINUOUS
 62
    7
 10
31.927780499999926
 20
476.75
 11
31.927780499999926
 21
478.24996900000002
  0
LINE
  8
_0-0_0
  6
CONTINUOUS
 62
    7
 10
131.42779549999995
 20
478.24996900000002
 11
131.42779549999995
 21
476.75
  0
LINE
  8
_0-0_0
  6
CONTINUOUS
 62
    7
 10
131.42779549999995
 20
476.75
 11
131.42779549999995
 21
475.75
  0
LINE
  8
_0-0_0
  6
CONTINUOUS
 62
    7
 10
131.42779549999995
 20
474.94998199999998
 11
131.42779549999995
 21
475.75
  0
LINE
  8
_0-0_0
  6
CONTINUOUS
 62
    7
 10
130.92779549999995
 20
476.25
 11
131.42779549999995
 21
476.25
  0
LINE
  8
_0-0_0
  6
CONTINUOUS
 62
    7
 10
118.42779549999995
 20
476.25
 11
130.92779549999995
 21
476.25
  0
LINE
  8
_0-0_0
  6
CONTINUOUS
 62
    7
 10
131.42779549999995
 20
478.25
 11
131.42779549999995
 21
477.25
  0
LINE
  8
_0-0_0
  6
CONTINUOUS
 62
    7
 10
131.42779549999995
 20
476.75
 11
131.42779549999995
 21
476.25
  0
LINE
  8
_0-0_0
  6
CONTINUOUS
 62
    7
 10
131.42779549999995
 20
477.25
 11
131.42779549999995
 21
476.75
  0
ARC
  8
_0-0_0
  6
CONTINUOUS
 62
    7
 10
36.927780499999926
 20
474.75
 40
2
 50
179.99999099999999
 51
0
  0
LINE
  8
_0-0_0
  6
CONTINUOUS
 62
    7
 10
117.92779549999995
 20
476.25
 11
118.42779549999995
 21
476.25
  0
LINE
  8
_0-0_0
  6
CONTINUOUS
 62
    7
 10
117.92779549999995
 20
475.75
 11
117.92779549999995
 21
476.25
  0
LINE
  8
_0-0_0
  6
CONTINUOUS
 62
    7
 10
117.92779549999995
 20
474.75
 11
117.92779549999995
 21
474.94998199999998
  0
ARC
  8
_0-0_0
  6
CONTINUOUS
 62
    7
 10
115.92779549999995
 20
474.75
 40
2
 50
179.99999099999999
 51
0
  0
LINE
  8
_0-0_0
  6
CONTINUOUS
 62
    7
 10
113.92779549999995
 20
476.25
 11
113.92779549999995
 21
474.75
  0
LINE
  8
_0-0_0
  6
CONTINUOUS
 62
    7
 10
113.22778349999993
 20
476.25
 11
113.92779549999995
 21
476.25
  0
LINE
  8
_0-0_0
  6
CONTINUOUS
 62
    7
 10
38.927780499999926
 20
474.75
 11
38.927780499999926
 21
476.25
  0
LINE
  8
_0-0_0
  6
CONTINUOUS
 62
    7
 10
34.927780499999926
 20
477.25
 11
131.42779549999995
 21
477.25
  0
ARC
  8
_0-0_0
  6
CONTINUOUS
 62
    7
 10
39.627761499999963
 20
475.75
 40
0.5
 50
90.000003000000007
 51
179.99999099999999
  0
ARC
  8
_0-0_0
  6
CONTINUOUS
 62
    7
 10
36.927780499999926
 20
474.75
 40
2.2000000000000002
 50
179.99999099999999
 51
0
  0
LINE
  8
_0-0_0
  6
CONTINUOUS
 62
    7
 10
38.927780499999926
 20
451.14999399999999
 11
39.427780499999926
 21
451.14999399999999
  0
LINE
  8
_0-0_0
  6
CONTINUOUS
 62
    7
 10
39.427780499999926
 20
451.54998799999998
 11
39.427780499999926
 21
451.14999399999999
  0
LINE
  8
_0-0_0
  6
CONTINUOUS
 62
    7
 10
56.927780499999926
 20
451.54998799999998
 11
92.927780499999926
 21
451.54998799999998
  0
LINE
  8
_0-0_0
  6
CONTINUOUS
 62
    7
 10
106.42779549999995
 20
451.14999399999999
 11
106.92779549999995
 21
451.14999399999999
  0
LINE
  8
_0-0_0
  6
CONTINUOUS
 62
    7
 10
106.42779549999995
 20
451.54998799999998
 11
106.42779549999995
 21
451.14999399999999
  0
LINE
  8
_0-0_0
  6
CONTINUOUS
 62
    7
 10
117.42779549999995
 20
448.75
 11
108.42779549999995
 21
448.75
  0
ARC
  8
_0-0_0
  6
CONTINUOUS
 62
    7
 10
108.42779549999995
 20
449.25
 40
0.5
 50
179.99999099999999
 51
269.99999700000001
  0
LINE
  8
_0-0_0
  6
CONTINUOUS
 62
    7
 10
117.42779549999995
 20
449.25
 11
117.92779549999995
 21
449.25
  0
LINE
  8
_0-0_0
  6
CONTINUOUS
 62
    7
 10
117.92779549999995
 20
449.25
 11
117.92779549999995
 21
449.44998199999998
  0
LINE
  8
_0-0_0
  6
CONTINUOUS
 62
    7
 10
122.42779549999995
 20
449.64999399999999
 11
118.12777649999998
 21
449.64999399999999
  0
LINE
  8
_0-0_0
  6
CONTINUOUS
 62
    7
 10
122.92779549999995
 20
450.14999399999999
 11
122.92779549999995
 21
451.92511000000002
  0
ARC
  8
_0-0_0
  6
CONTINUOUS
 62
    7
 10
119.87982149999993
 20
451.868988
 40
3.0490550000000001
 50
1.0548960000000001
 51
14.838094000000002
  0
LINE
  8
_0-0_0
  6
CONTINUOUS
 62
    7
 10
122.42779549999995
 20
452.84997600000003
 11
118.06024149999996
 21
452.84997600000003
  0
LINE
  8
_0-0_0
  6
CONTINUOUS
 62
    7
 10
117.92779549999995
 20
452.99142499999999
 11
117.92779549999995
 21
453.33367900000002
  0
ARC
  8
_0-0_0
  6
CONTINUOUS
 62
    7
 10
115.92779549999995
 20
474.75
 40
2.2000000000000002
 50
179.99999099999999
 51
303.74900400000001
  0
LINE
  8
_0-0_0
  6
CONTINUOUS
 62
    7
 10
113.72778349999993
 20
475.75
 11
113.72778349999993
 21
474.75
  0
LINE
  8
_0-0_0
  6
CONTINUOUS
 62
    7
 10
113.22778349999993
 20
476.25
 11
39.627761499999963
 21
476.25
  0
LINE
  8
_0-0_0
  6
CONTINUOUS
 62
    7
 10
39.127761499999963
 20
474.75
 11
39.127761499999963
 21
475.75
  0
LINE
  8
_0-0_0
  6
CONTINUOUS
 62
    7
 10
39.627761499999963
 20
474.54998799999998
 11
39.627761499999963
 21
474.75
  0
ARC
  8
_0-0_0
  6
CONTINUOUS
 62
    7
 10
40.627761499999963
 20
474.54998799999998
 40
1
 50
90.000003000000007
 51
179.99999099999999
  0
LINE
  8
_0-0_0
  6
CONTINUOUS
 62
    7
 10
40.627761499999963
 20
475.54998799999998
 11
53.927780499999926
 21
475.54998799999998
  0
LINE
  8
_0-0_0
  6
CONTINUOUS
 62
    7
 10
95.927780499999926
 20
475.54998799999998
 11
109.92779549999995
 21
475.54998799999998
  0
ARC
  8
_0-0_0
  6
CONTINUOUS
 62
    7
 10
109.92779549999995
 20
472.54998799999998
 40
3
 50
0
 51
90.000003000000007
  0
LINE
  8
_0-0_0
  6
CONTINUOUS
 62
    7
 10
112.92779549999995
 20
458.94998199999998
 11
112.92779549999995
 21
472.54998799999998
  0
ARC
  8
_0-0_0
  6
CONTINUOUS
 62
    7
 10
109.92779549999995
 20
458.94998199999998
 40
3
 50
269.99999700000001
 51
0
  0
LINE
  8
_0-0_0
  6
CONTINUOUS
 62
    7
 10
109.92779549999995
 20
455.94998199999998
 11
95.927780499999926
 21
455.94998199999998
  0
LINE
  8
_0-0_0
  6
CONTINUOUS
 62
    7
 10
53.927780499999926
 20
455.94998199999998
 11
39.927780499999926
 21
455.94998199999998
  0
ARC
  8
_0-0_0
  6
CONTINUOUS
 62
    7
 10
39.927780499999926
 20
458.94998199999998
 40
3
 50
179.99999099999999
 51
269.99999700000001
  0
LINE
  8
_0-0_0
  6
CONTINUOUS
 62
    7
 10
36.927780499999926
 20
471.18768299999999
 11
36.927780499999926
 21
458.94998199999998
  0
ARC
  8
_0-0_0
  6
CONTINUOUS
 62
    7
 10
37.927780499999926
 20
471.18768299999999
 40
1
 50
105.68034800000001
 51
179.99999100000002
  0
ARC
  8
_0-0_0
  6
CONTINUOUS
 62
    7
 10
29.975753499999996
 20
474.03097500000001
 40
3.0490550000000001
 50
181.05489
 51
194.838089
  0
LINE
  8
_0-0_0
  6
CONTINUOUS
 62
    7
 10
31.795303499999932
 20
473.04998799999998
 11
27.427780499999926
 21
473.04998799999998
  0
LINE
  8
_0-0_0
  6
CONTINUOUS
 62
    7
 10
31.927780499999926
 20
452.99142499999999
 11
31.927780499999926
 21
453.096405
  0
LINE
  8
_0-0_0
  6
CONTINUOUS
 62
    7
 10
31.795303499999932
 20
452.84997600000003
 11
27.427780499999926
 21
452.84997600000003
  0
ARC
  8
_0-0_0
  6
CONTINUOUS
 62
    7
 10
29.976913499999966
 20
451.86834700000003
 40
3.050319
 50
165.15540799999999
 51
178.932897
  0
LINE
  8
_0-0_0
  6
CONTINUOUS
 62
    7
 10
26.927780499999926
 20
450.14999399999999
 11
26.927780499999926
 21
451.92511000000002
  0
LINE
  8
_0-0_0
  6
CONTINUOUS
 62
    7
 10
31.72776749999997
 20
449.64999399999999
 11
27.427780499999926
 21
449.64999399999999
  0
LINE
  8
_0-0_0
  6
CONTINUOUS
 62
    7
 10
31.927780499999926
 20
449.25
 11
31.927780499999926
 21
449.44998199999998
  0
LINE
  8
_0-0_0
  6
CONTINUOUS
 62
    7
 10
31.927780499999926
 20
449.25
 11
32.427780499999926
 21
449.25
  0
LINE
  8
_0-0_0
  6
CONTINUOUS
 62
    7
 10
37.427780499999926
 20
448.75
 11
32.427780499999926
 21
448.75
  0
ARC
  8
_0-0_0
  6
CONTINUOUS
 62
    7
 10
37.427780499999926
 20
449.25
 40
0.5
 50
269.99999700000001
 51
0
  0
LINE
  8
_0-0_0
  6
CONTINUOUS
 62
    7
 10
27.246017499999994
 20
473.04998799999998
 11
27.225692499999923
 21
473.050995
  0
LINE
  8
_0-0_0
  6
CONTINUOUS
 62
    7
 10
27.225692499999923
 20
473.050995
 11
27.205276499999968
 21
473.05413800000002
  0
LINE
  8
_0-0_0
  6
CONTINUOUS
 62
    7
 10
27.205276499999968
 20
473.05413800000002
 11
27.178451499999937
 21
473.06173699999999
  0
LINE
  8
_0-0_0
  6
CONTINUOUS
 62
    7
 10
27.178451499999937
 20
473.06173699999999
 11
27.152816499999972
 21
473.07312000000002
  0
LINE
  8
_0-0_0
  6
CONTINUOUS
 62
    7
 10
27.152816499999972
 20
473.07312000000002
 11
27.129012499999931
 21
473.08798200000001
  0
LINE
  8
_0-0_0
  6
CONTINUOUS
 62
    7
 10
27.129012499999931
 20
473.08798200000001
 11
27.112258499999939
 21
473.10150099999998
  0
LINE
  8
_0-0_0
  6
CONTINUOUS
 62
    7
 10
27.112258499999939
 20
473.10150099999998
 11
27.096755499999972
 21
473.11673000000002
  0
LINE
  8
_0-0_0
  6
CONTINUOUS
 62
    7
 10
27.096755499999972
 20
473.11673000000002
 11
27.069839499999944
 21
473.15136699999999
  0
LINE
  8
_0-0_0
  6
CONTINUOUS
 62
    7
 10
27.069839499999944
 20
473.15136699999999
 11
27.04881249999994
 21
473.18969700000002
  0
LINE
  8
_0-0_0
  6
CONTINUOUS
 62
    7
 10
27.04881249999994
 20
473.18969700000002
 11
27.036819499999979
 21
473.21963499999998
  0
LINE
  8
_0-0_0
  6
CONTINUOUS
 62
    7
 10
27.036819499999979
 20
473.21963499999998
 11
27.027786499999934
 21
473.25
  0
LINE
  8
_0-0_0
  6
CONTINUOUS
 62
    7
 10
26.938979499999959
 20
473.75
 11
19.927780499999926
 21
473.75
  0
LINE
  8
_0-0_0
  6
CONTINUOUS
 62
    7
 10
19.927780499999926
 20
473.75
 11
15.252334499999961
 21
473.75
  0
LINE
  8
_0-0_0
  6
CONTINUOUS
 62
    7
 10
19.927780499999926
 20
473.75
 11
19.927780499999926
 21
471.75
  0
LINE
  8
_0-0_0
  6
CONTINUOUS
 62
    7
 10
31.927780499999926
 20
471.75
 11
31.927780499999926
 21
472.80355800000001
  0
ARC
  8
_0-0_0
  6
CONTINUOUS
 62
    7
 10
130.92779549999995
 20
474.94998199999998
 40
0.5
 50
269.99999700000001
 51
0
  0
ARC
  8
_0-0_0
  6
CONTINUOUS
 62
    7
 10
118.42779549999995
 20
475.75
 40
0.5
 50
90.000003000000007
 51
179.99999099999999
  0
LINE
  8
_0-0_0
  6
CONTINUOUS
 62
    7
 10
117.92779549999995
 20
474.94998199999998
 11
117.92779549999995
 21
475.75
  0
LINE
  8
_0-0_0
  6
CONTINUOUS
 62
    7
 10
38.127761499999963
 20
451.13284299999998
 11
38.127761499999963
 21
449.14999399999999
  0
LINE
  8
_0-0_0
  6
CONTINUOUS
 62
    7
 10
38.127761499999963
 20
449.14999399999999
 11
39.127761499999963
 21
449.14999399999999
  0
LINE
  8
_0-0_0
  6
CONTINUOUS
 62
    7
 10
39.427780499999926
 20
451.14999399999999
 11
106.42779549999995
 21
451.14999399999999
  0
LINE
  8
_0-0_0
  6
CONTINUOUS
 62
    7
 10
39.127761499999963
 20
449.14999399999999
 11
106.72778349999993
 21
449.14999399999999
  0
LINE
  8
_0-0_0
  6
CONTINUOUS
 62
    7
 10
106.72778349999993
 20
449.14999399999999
 11
107.72778349999993
 21
449.14999399999999
  0
LINE
  8
_0-0_0
  6
CONTINUOUS
 62
    7
 10
107.72778349999993
 20
451.13284299999998
 11
107.72778349999993
 21
449.14999399999999
  0
LINE
  8
_0-0_0
  6
CONTINUOUS
 62
    7
 10
117.92779549999995
 20
449.25
 11
117.42779549999995
 21
448.75
  0
ARC
  8
_0-0_0
  6
CONTINUOUS
 62
    7
 10
118.12777649999998
 20
449.44998199999998
 40
0.2
 50
90.000003000000007
 51
179.99999099999999
  0
ARC
  8
_0-0_0
  6
CONTINUOUS
 62
    7
 10
122.42779549999995
 20
450.14999399999999
 40
0.5
 50
269.99999700000001
 51
0
  0
LINE
  8
_0-0_0
  6
CONTINUOUS
 62
    7
 10
122.60952749999996
 20
452.84997600000003
 11
122.62988249999995
 21
452.84896900000001
  0
LINE
  8
_0-0_0
  6
CONTINUOUS
 62
    7
 10
122.62988249999995
 20
452.84896900000001
 11
122.65029849999996
 21
452.84582499999999
  0
LINE
  8
_0-0_0
  6
CONTINUOUS
 62
    7
 10
122.65029849999996
 20
452.84582499999999
 11
122.67712349999994
 21
452.83822600000002
  0
LINE
  8
_0-0_0
  6
CONTINUOUS
 62
    7
 10
122.67712349999994
 20
452.83822600000002
 11
122.70275849999996
 21
452.82687399999998
  0
LINE
  8
_0-0_0
  6
CONTINUOUS
 62
    7
 10
122.70275849999996
 20
452.82687399999998
 11
122.72656249999994
 21
452.811981
  0
LINE
  8
_0-0_0
  6
CONTINUOUS
 62
    7
 10
122.72656249999994
 20
452.811981
 11
122.74331649999993
 21
452.79846199999997
  0
LINE
  8
_0-0_0
  6
CONTINUOUS
 62
    7
 10
122.74331649999993
 20
452.79846199999997
 11
122.75881949999996
 21
452.78326399999997
  0
LINE
  8
_0-0_0
  6
CONTINUOUS
 62
    7
 10
122.75881949999996
 20
452.78326399999997
 11
122.78570549999995
 21
452.74859600000002
  0
LINE
  8
_0-0_0
  6
CONTINUOUS
 62
    7
 10
122.78570549999995
 20
452.74859600000002
 11
122.80676249999993
 21
452.71026599999999
  0
LINE
  8
_0-0_0
  6
CONTINUOUS
 62
    7
 10
122.80676249999993
 20
452.71026599999999
 11
122.81875549999995
 21
452.68035900000001
  0
LINE
  8
_0-0_0
  6
CONTINUOUS
 62
    7
 10
122.81875549999995
 20
452.68035900000001
 11
122.82778949999994
 21
452.64999399999999
  0
LINE
  8
_0-0_0
  6
CONTINUOUS
 62
    7
 10
122.60952749999996
 20
452.84997600000003
 11
122.42779549999995
 21
452.84997600000003
  0
LINE
  8
_0-0_0
  6
CONTINUOUS
 62
    7
 10
117.92779549999995
 20
471.29998799999998
 11
117.92779549999995
 21
473.79998799999998
  0
LINE
  8
_0-0_0
  6
CONTINUOUS
 62
    7
 10
117.92779549999995
 20
471.29998799999998
 11
117.92779549999995
 21
454.79998799999998
  0
LINE
  8
_0-0_0
  6
CONTINUOUS
 62
    7
 10
117.92779549999995
 20
453.33367900000002
 11
117.92779549999995
 21
454.79998799999998
  0
ARC
  8
_0-0_0
  6
CONTINUOUS
 62
    7
 10
117.42779549999995
 20
472.50500499999998
 40
0.5
 50
0
 51
123.74898500000002
  0
ARC
  8
_0-0_0
  6
CONTINUOUS
 62
    7
 10
118.09808349999997
 20
453.02328499999999
 40
0.1734229999999999
 50
181.12417600000003
 51
270.64883800000007
  0
LINE
  8
_0-0_0
  6
CONTINUOUS
 62
    7
 10
117.92373649999996
 20
453.04998799999998
 11
117.92382849999996
 21
453.01986699999998
  0
ARC
  8
_0-0_0
  6
CONTINUOUS
 62
    7
 10
113.22778349999993
 20
475.75
 40
0.5
 50
0
 51
90.000003000000007
  0
ARC
  8
_0-0_0
  6
CONTINUOUS
 62
    7
 10
36.927780499999926
 20
474.75
 40
2.7000000000000002
 50
285.68033600000007
 51
0.0000000000000381
  0
ARC
  8
_0-0_0
  6
CONTINUOUS
 62
    7
 10
53.927780499999926
 20
458.94998199999998
 40
3
 50
269.99999700000001
 51
0
  0
LINE
  8
_0-0_0
  6
CONTINUOUS
 62
    7
 10
56.927780499999926
 20
458.94998199999998
 11
56.927780499999926
 21
472.54998799999998
  0
ARC
  8
_0-0_0
  6
CONTINUOUS
 62
    7
 10
53.927780499999926
 20
472.54998799999998
 40
3
 50
0
 51
90.000003000000007
  0
ARC
  8
_0-0_0
  6
CONTINUOUS
 62
    7
 10
49.427780499999926
 20
468.25
 40
4.5
 50
269.99999700000001
 51
90.000002999999992
  0
LINE
  8
_0-0_0
  6
CONTINUOUS
 62
    7
 10
49.427780499999926
 20
463.75
 11
44.427780499999926
 21
463.75
  0
ARC
  8
_0-0_0
  6
CONTINUOUS
 62
    7
 10
44.427780499999926
 20
468.25
 40
4.5
 50
90.000003000000007
 51
269.99999700000006
  0
LINE
  8
_0-0_0
  6
CONTINUOUS
 62
    7
 10
44.427780499999926
 20
472.75
 11
49.427780499999926
 21
472.75
  0
ARC
  8
_0-0_0
  6
CONTINUOUS
 62
    7
 10
95.927780499999926
 20
458.94998199999998
 40
3
 50
179.99999099999999
 51
269.99999700000001
  0
LINE
  8
_0-0_0
  6
CONTINUOUS
 62
    7
 10
92.927780499999926
 20
472.54998799999998
 11
92.927780499999926
 21
458.94998199999998
  0
ARC
  8
_0-0_0
  6
CONTINUOUS
 62
    7
 10
95.927780499999926
 20
472.54998799999998
 40
3
 50
90.000003000000007
 51
179.99999099999999
  0
ARC
  8
_0-0_0
  6
CONTINUOUS
 62
    7
 10
105.42779549999995
 20
468.25
 40
4.5
 50
269.99999700000001
 51
90.000002999999992
  0
LINE
  8
_0-0_0
  6
CONTINUOUS
 62
    7
 10
105.42779549999995
 20
463.75
 11
100.42778049999993
 21
463.75
  0
ARC
  8
_0-0_0
  6
CONTINUOUS
 62
    7
 10
100.42778049999993
 20
468.25
 40
4.5
 50
90.000003000000007
 51
269.99999700000006
  0
LINE
  8
_0-0_0
  6
CONTINUOUS
 62
    7
 10
100.42778049999993
 20
472.75
 11
105.42779549999995
 21
472.75
  0
LINE
  8
_0-0_0
  6
CONTINUOUS
 62
    7
 10
27.427780499999926
 20
473.04998799999998
 11
27.246017499999994
 21
473.04998799999998
  0
LINE
  8
_0-0_0
  6
CONTINUOUS
 62
    7
 10
31.927780499999926
 20
471.75
 11
31.927780499999926
 21
454.14999399999999
  0
LINE
  8
_0-0_0
  6
CONTINUOUS
 62
    7
 10
31.927780499999926
 20
453.096405
 11
31.927780499999926
 21
454.14999399999999
  0
ARC
  8
_0-0_0
  6
CONTINUOUS
 62
    7
 10
31.757491499999958
 20
453.02328499999999
 40
0.1734209999999999
 50
269.35085600000002
 51
358.87625300000002
  0
LINE
  8
_0-0_0
  6
CONTINUOUS
 62
    7
 10
31.931808499999988
 20
453.04998799999998
 11
31.931747499999972
 21
453.01986699999998
  0
LINE
  8
_0-0_0
  6
CONTINUOUS
 62
    7
 10
31.931808499999988
 20
472.84997600000003
 11
31.931747499999972
 21
472.88012700000002
  0
ARC
  8
_0-0_0
  6
CONTINUOUS
 62
    7
 10
31.757491499999958
 20
472.87670900000001
 40
0.1734219999999999
 50
1.1236539999999999
 51
90.649110000000007
  0
LINE
  8
_0-0_0
  6
CONTINUOUS
 62
    7
 10
27.427780499999926
 20
452.84997600000003
 11
27.246017499999994
 21
452.84997600000003
  0
LINE
  8
_0-0_0
  6
CONTINUOUS
 62
    7
 10
27.246017499999994
 20
452.84997600000003
 11
27.225692499999923
 21
452.84896900000001
  0
LINE
  8
_0-0_0
  6
CONTINUOUS
 62
    7
 10
27.225692499999923
 20
452.84896900000001
 11
27.205276499999968
 21
452.84582499999999
  0
LINE
  8
_0-0_0
  6
CONTINUOUS
 62
    7
 10
27.205276499999968
 20
452.84582499999999
 11
27.178451499999937
 21
452.83822600000002
  0
LINE
  8
_0-0_0
  6
CONTINUOUS
 62
    7
 10
27.178451499999937
 20
452.83822600000002
 11
27.152816499999972
 21
452.82687399999998
  0
LINE
  8
_0-0_0
  6
CONTINUOUS
 62
    7
 10
27.152816499999972
 20
452.82687399999998
 11
27.129012499999931
 21
452.811981
  0
LINE
  8
_0-0_0
  6
CONTINUOUS
 62
    7
 10
27.129012499999931
 20
452.811981
 11
27.112258499999939
 21
452.79846199999997
  0
LINE
  8
_0-0_0
  6
CONTINUOUS
 62
    7
 10
27.112258499999939
 20
452.79846199999997
 11
27.096755499999972
 21
452.78326399999997
  0
LINE
  8
_0-0_0
  6
CONTINUOUS
 62
    7
 10
27.096755499999972
 20
452.78326399999997
 11
27.069839499999944
 21
452.74859600000002
  0
LINE
  8
_0-0_0
  6
CONTINUOUS
 62
    7
 10
27.069839499999944
 20
452.74859600000002
 11
27.04881249999994
 21
452.71026599999999
  0
LINE
  8
_0-0_0
  6
CONTINUOUS
 62
    7
 10
27.04881249999994
 20
452.71026599999999
 11
27.036819499999979
 21
452.68035900000001
  0
LINE
  8
_0-0_0
  6
CONTINUOUS
 62
    7
 10
27.036819499999979
 20
452.68035900000001
 11
27.027786499999934
 21
452.64999399999999
  0
ARC
  8
_0-0_0
  6
CONTINUOUS
 62
    7
 10
27.427780499999926
 20
450.14999399999999
 40
0.5
 50
179.99999099999999
 51
269.99999700000001
  0
ARC
  8
_0-0_0
  6
CONTINUOUS
 62
    7
 10
31.72776749999997
 20
449.44998199999998
 40
0.2
 50
0
 51
90.000003000000007
  0
LINE
  8
_0-0_0
  6
CONTINUOUS
 62
    7
 10
31.927780499999926
 20
449.25
 11
32.427780499999926
 21
448.75
  0
ARC
  8
_0-0_0
  6
CONTINUOUS
 62
    7
 10
15.252334499999961
 20
471.75
 40
2
 50
90.000003000000007
 51
108.434997
  0
LINE
  8
_0-0_0
  6
CONTINUOUS
 62
    7
 10
19.927780499999926
 20
471.25
 11
19.927780499999926
 21
471.75
  0
LINE
  8
_0-0_0
  6
CONTINUOUS
 62
    7
 10
19.927780499999926
 20
468.25
 11
19.927780499999926
 21
467.75
  0
LINE
  8
_0-0_0
  6
CONTINUOUS
 62
    7
 10
19.927780499999926
 20
468.25
 11
19.927780499999926
 21
471.25
  0
ARC
  8
_0-0_0
  6
CONTINUOUS
 62
    7
 10
25.927780499999926
 20
468.44998199999998
 40
0.500016
 50
0.001164
 51
179.99560600000004
  0
LINE
  8
_0-0_0
  6
CONTINUOUS
 62
    7
 10
25.427780499999926
 20
468.44998199999998
 11
25.427780499999926
 21
456.44998199999998
  0
ARC
  8
_0-0_0
  6
CONTINUOUS
 62
    7
 10
25.927780499999926
 20
456.45001200000002
 40
0.500016
 50
180.00117
 51
359.995611
  0
LINE
  8
_0-0_0
  6
CONTINUOUS
 62
    7
 10
26.427780499999926
 20
468.44998199999998
 11
26.427780499999926
 21
456.44998199999998
  0
ARC
  8
_0-0_0
  6
CONTINUOUS
 62
    7
 10
24.427780499999926
 20
468.44998199999998
 40
0.500016
 50
0.001164
 51
179.99560600000004
  0
LINE
  8
_0-0_0
  6
CONTINUOUS
 62
    7
 10
23.927780499999926
 20
468.44998199999998
 11
23.927780499999926
 21
456.44998199999998
  0
ARC
  8
_0-0_0
  6
CONTINUOUS
 62
    7
 10
24.427780499999926
 20
456.45001200000002
 40
0.500016
 50
180.00117
 51
359.995611
  0
LINE
  8
_0-0_0
  6
CONTINUOUS
 62
    7
 10
24.927780499999926
 20
468.44998199999998
 11
24.927780499999926
 21
456.44998199999998
  0
ARC
  8
_0-0_0
  6
CONTINUOUS
 62
    7
 10
22.927780499999926
 20
468.44998199999998
 40
0.500016
 50
0.001164
 51
179.99560600000004
  0
LINE
  8
_0-0_0
  6
CONTINUOUS
 62
    7
 10
22.427780499999926
 20
468.44998199999998
 11
22.427780499999926
 21
456.44998199999998
  0
ARC
  8
_0-0_0
  6
CONTINUOUS
 62
    7
 10
22.927780499999926
 20
456.45001200000002
 40
0.500016
 50
180.00117
 51
359.995611
  0
LINE
  8
_0-0_0
  6
CONTINUOUS
 62
    7
 10
23.427780499999926
 20
468.44998199999998
 11
23.427780499999926
 21
456.44998199999998
  0
ARC
  8
_0-0_0
  6
CONTINUOUS
 62
    7
 10
21.427780499999926
 20
468.44998199999998
 40
0.500016
 50
0.001164
 51
179.99560600000004
  0
LINE
  8
_0-0_0
  6
CONTINUOUS
 62
    7
 10
20.927780499999926
 20
468.44998199999998
 11
20.927780499999926
 21
456.44998199999998
  0
ARC
  8
_0-0_0
  6
CONTINUOUS
 62
    7
 10
21.427780499999926
 20
456.45001200000002
 40
0.500016
 50
180.00117
 51
359.995611
  0
LINE
  8
_0-0_0
  6
CONTINUOUS
 62
    7
 10
21.927780499999926
 20
468.44998199999998
 11
21.927780499999926
 21
456.44998199999998
  0
LINE
  8
_0-0_0
  6
CONTINUOUS
 62
    7
 10
117.92779549999995
 20
474.44998199999998
 11
118.42779549999995
 21
474.44998199999998
  0
LINE
  8
_0-0_0
  6
CONTINUOUS
 62
    7
 10
118.42779549999995
 20
474.44998199999998
 11
130.92779549999995
 21
474.44998199999998
  0
ARC
  8
_0-0_0
  6
CONTINUOUS
 62
    7
 10
118.42779549999995
 20
474.94998199999998
 40
0.5
 50
179.99999099999999
 51
269.99999700000001
  0
LINE
  8
_0-0_0
  6
CONTINUOUS
 62
    7
 10
117.92779549999995
 20
474.08395400000001
 11
117.92779549999995
 21
474.44998199999998
  0
LINE
  8
_0-0_0
  6
CONTINUOUS
 62
    7
 10
117.92779549999995
 20
473.83346599999999
 11
117.92779549999995
 21
473.79998799999998
  0
LINE
  8
_0-0_0
  6
CONTINUOUS
 62
    7
 10
117.92779549999995
 20
474.08395400000001
 11
117.92779549999995
 21
473.83346599999999
  0
CIRCLE
  8
_0-0_0
  6
CONTINUOUS
 62
    7
 10
36.927780499999926
 20
474.75
 40
1.4750000000000001
  0
CIRCLE
  8
_0-0_0
  6
CONTINUOUS
 62
    7
 10
115.92779549999995
 20
474.75
 40
1.4750000000000001
  0
LINE
  8
_0-0_0
  6
CONTINUOUS
 62
    7
 10
117.92779549999995
 20
449.09997600000003
 11
117.92779549999995
 21
449.25
  0
LINE
  8
_0-0_0
  6
CONTINUOUS
 62
    7
 10
123.42779549999995
 20
449.09997600000003
 11
117.92779549999995
 21
449.09997600000003
  0
LINE
  8
_0-0_0
  6
CONTINUOUS
 62
    7
 10
123.42779549999995
 20
451.64999399999999
 11
122.92779549999995
 21
451.64999399999999
  0
LINE
  8
_0-0_0
  6
CONTINUOUS
 62
    7
 10
118.42779549999995
 20
474.29998799999998
 11
117.92779549999995
 21
473.79998799999998
  0
LINE
  8
_0-0_0
  6
CONTINUOUS
 62
    7
 10
118.42779549999995
 20
474.29998799999998
 11
123.42779549999995
 21
474.29998799999998
  0
LINE
  8
_0-0_0
  6
CONTINUOUS
 62
    7
 10
26.938979499999959
 20
452.14999399999999
 11
15.252334499999961
 21
452.14999399999999
  0
LINE
  8
_0-0_0
  6
CONTINUOUS
 62
    7
 10
14.177780499999926
 20
473.49996900000002
 11
14.619857499999966
 21
473.64733899999999
  0
LINE
  8
_0-0_0
  6
CONTINUOUS
 62
    7
 10
10.453414499999951
 20
468.25
 11
9.7600554999999645
 21
468.25
  0
LINE
  8
_0-0_0
  6
CONTINUOUS
 62
    7
 10
10.453414499999951
 20
468.25
 11
14.777999499999964
 21
468.25
  0
LINE
  8
_0-0_0
  6
CONTINUOUS
 62
    7
 10
15.252334499999961
 20
468.25
 11
14.777999499999964
 21
468.25
  0
LINE
  8
_0-0_0
  6
CONTINUOUS
 62
    7
 10
19.927780499999926
 20
468.25
 11
15.252334499999961
 21
468.25
  0
LINE
  8
_0-0_0
  6
CONTINUOUS
 62
    7
 10
117.92779549999995
 20
448.953552
 11
117.92779549999995
 21
449.09997600000003
  0
LINE
  8
_0-0_0
  6
CONTINUOUS
 62
    7
 10
117.92779549999995
 20
448.89642300000003
 11
117.92779549999995
 21
448.953552
  0
LINE
  8
_0-0_0
  6
CONTINUOUS
 62
    7
 10
117.92779549999995
 20
448.75
 11
117.92779549999995
 21
448.89642300000003
  0
ARC
  8
_0-0_0
  6
CONTINUOUS
 62
    7
 10
123.42779549999995
 20
449.59997600000003
 40
0.5
 50
269.99999700000001
 51
0
  0
LINE
  8
_0-0_0
  6
CONTINUOUS
 62
    7
 10
123.92779549999995
 20
451.15570100000002
 11
123.92779549999995
 21
449.59997600000003
  0
ARC
  8
_0-0_0
  6
CONTINUOUS
 62
    7
 10
123.44088749999997
 20
451.15234400000003
 40
0.4869939999999999
 50
0.394923
 51
23.93947
  0
ARC
  8
_0-0_0
  6
CONTINUOUS
 62
    7
 10
123.42779549999995
 20
451.14999399999999
 40
0.5
 50
23.578231000000002
 51
90.000002999999992
  0
LINE
  8
_0-0_0
  6
CONTINUOUS
 62
    7
 10
123.92779549999995
 20
471.29998799999998
 11
123.92779549999995
 21
473.79998799999998
  0
ARC
  8
_0-0_0
  6
CONTINUOUS
 62
    7
 10
123.42779549999995
 20
473.79998799999998
 40
0.5
 50
0
 51
90.000003000000007
  0
LINE
  8
_0-0_0
  6
CONTINUOUS
 62
    7
 10
123.42779549999995
 20
458
 11
121.22778349999993
 21
458
  0
LINE
  8
_0-0_0
  6
CONTINUOUS
 62
    7
 10
123.92779549999995
 20
471.29998799999998
 11
123.92779549999995
 21
458.5
  0
LINE
  8
_0-0_0
  6
CONTINUOUS
 62
    7
 10
120.92779549999995
 20
457.69998199999998
 11
120.92779549999995
 21
455.12167399999998
  0
LINE
  8
_0-0_0
  6
CONTINUOUS
 62
    7
 10
50.899307499999964
 20
464.14999399999999
 11
42.956222499999967
 21
464.14999399999999
  0
ARC
  8
_0-0_0
  6
CONTINUOUS
 62
    7
 10
42.956222499999967
 20
464.64999399999999
 40
0.5
 50
210.00000299999999
 51
269.99999700000001
  0
LINE
  8
_0-0_0
  6
CONTINUOUS
 62
    7
 10
42.523208499999953
 20
464.39999399999999
 11
40.444747499999949
 21
468
  0
ARC
  8
_0-0_0
  6
CONTINUOUS
 62
    7
 10
40.877761499999963
 20
468.25
 40
0.5
 50
149.99999700000001
 51
210.00000299999996
  0
LINE
  8
_0-0_0
  6
CONTINUOUS
 62
    7
 10
40.444747499999949
 20
468.5
 11
42.523208499999953
 21
472.09997600000003
  0
ARC
  8
_0-0_0
  6
CONTINUOUS
 62
    7
 10
42.956222499999967
 20
471.84997600000003
 40
0.5
 50
90.000003000000007
 51
149.99999700000001
  0
LINE
  8
_0-0_0
  6
CONTINUOUS
 62
    7
 10
42.956222499999967
 20
472.34997600000003
 11
50.899307499999964
 21
472.34997600000003
  0
ARC
  8
_0-0_0
  6
CONTINUOUS
 62
    7
 10
50.899307499999964
 20
471.84997600000003
 40
0.5
 50
30.000001000000001
 51
90.000003000000007
  0
LINE
  8
_0-0_0
  6
CONTINUOUS
 62
    7
 10
51.332321499999921
 20
472.09997600000003
 11
53.410781499999985
 21
468.5
  0
ARC
  8
_0-0_0
  6
CONTINUOUS
 62
    7
 10
52.97776749999997
 20
468.25
 40
0.5
 50
329.99998900000003
 51
30.000000999999983
  0
LINE
  8
_0-0_0
  6
CONTINUOUS
 62
    7
 10
53.410781499999985
 20
468
 11
51.332321499999921
 21
464.39999399999999
  0
ARC
  8
_0-0_0
  6
CONTINUOUS
 62
    7
 10
50.899307499999964
 20
464.64999399999999
 40
0.5
 50
269.99999700000001
 51
329.99998900000003
  0
ARC
  8
_0-0_0
  6
CONTINUOUS
 62
    7
 10
98.898513499999922
 20
464.75
 40
0.5
 50
210.00000299999999
 51
269.99999700000001
  0
LINE
  8
_0-0_0
  6
CONTINUOUS
 62
    7
 10
98.465499499999964
 20
464.5
 11
96.444778499999984
 21
468
  0
ARC
  8
_0-0_0
  6
CONTINUOUS
 62
    7
 10
96.877761499999963
 20
468.25
 40
0.5
 50
149.99999700000001
 51
210.00000299999996
  0
LINE
  8
_0-0_0
  6
CONTINUOUS
 62
    7
 10
96.444778499999984
 20
468.5
 11
98.465499499999964
 21
472
  0
ARC
  8
_0-0_0
  6
CONTINUOUS
 62
    7
 10
98.898513499999922
 20
471.75
 40
0.5
 50
90.000003000000007
 51
149.99999700000001
  0
LINE
  8
_0-0_0
  6
CONTINUOUS
 62
    7
 10
98.898513499999922
 20
472.25
 11
106.95706149999995
 21
472.25
  0
ARC
  8
_0-0_0
  6
CONTINUOUS
 62
    7
 10
106.95706149999995
 20
471.75
 40
0.5
 50
30.000001000000001
 51
90.000003000000007
  0
LINE
  8
_0-0_0
  6
CONTINUOUS
 62
    7
 10
107.39007549999997
 20
472
 11
109.41079649999995
 21
468.5
  0
ARC
  8
_0-0_0
  6
CONTINUOUS
 62
    7
 10
108.97778349999993
 20
468.25
 40
0.5
 50
329.99998900000003
 51
30.000000999999983
  0
LINE
  8
_0-0_0
  6
CONTINUOUS
 62
    7
 10
109.41079649999995
 20
468
 11
107.39007549999997
 21
464.5
  0
ARC
  8
_0-0_0
  6
CONTINUOUS
 62
    7
 10
106.95706149999995
 20
464.75
 40
0.5
 50
269.99999700000001
 51
329.99998900000003
  0
LINE
  8
_0-0_0
  6
CONTINUOUS
 62
    7
 10
106.95706149999995
 20
464.25
 11
98.898513499999922
 21
464.25
  0
LINE
  8
_0-0_0
  6
CONTINUOUS
 62
    7
 10
14.619857499999966
 20
452.25262500000002
 11
14.739364499999965
 21
452.21701000000002
  0
LINE
  8
_0-0_0
  6
CONTINUOUS
 62
    7
 10
14.739364499999965
 20
452.21701000000002
 11
14.860916499999917
 21
452.18911700000001
  0
LINE
  8
_0-0_0
  6
CONTINUOUS
 62
    7
 10
14.860916499999917
 20
452.18911700000001
 11
14.984054499999957
 21
452.16906699999998
  0
LINE
  8
_0-0_0
  6
CONTINUOUS
 62
    7
 10
14.984054499999957
 20
452.16906699999998
 11
15.108260499999972
 21
452.15695199999999
  0
LINE
  8
_0-0_0
  6
CONTINUOUS
 62
    7
 10
15.108260499999972
 20
452.15695199999999
 11
15.233108499999958
 21
452.15283199999999
  0
LINE
  8
_0-0_0
  6
CONTINUOUS
 62
    7
 10
15.233108499999958
 20
452.15283199999999
 11
15.252334499999961
 21
452.15289300000001
  0
ARC
  8
_0-0_0
  6
CONTINUOUS
 62
    7
 10
15.252334499999961
 20
454.14999399999999
 40
2
 50
251.56498899999997
 51
269.99999700000001
  0
LINE
  8
_0-0_0
  6
CONTINUOUS
 62
    7
 10
8.9277804999999262
 20
469.00003099999998
 11
8.9277804999999262
 21
467.87899800000002
  0
LINE
  8
_0-0_0
  6
CONTINUOUS
 62
    7
 10
37.127761499999963
 20
473.64999399999999
 11
36.72776749999997
 21
473.64999399999999
  0
LINE
  8
_0-0_0
  6
CONTINUOUS
 62
    7
 10
37.127761499999963
 20
473.64999399999999
 11
37.127761499999963
 21
474.29998799999998
  0
ARC
  8
_0-0_0
  6
CONTINUOUS
 62
    7
 10
37.377761499999963
 20
474.29998799999998
 40
0.25
 50
90.000003000000007
 51
179.99999099999999
  0
LINE
  8
_0-0_0
  6
CONTINUOUS
 62
    7
 10
37.377761499999963
 20
474.54998799999998
 11
38.027786499999934
 21
474.54998799999998
  0
LINE
  8
_0-0_0
  6
CONTINUOUS
 62
    7
 10
38.027786499999934
 20
474.54998799999998
 11
38.027786499999934
 21
474.94998199999998
  0
LINE
  8
_0-0_0
  6
CONTINUOUS
 62
    7
 10
37.377761499999963
 20
474.94998199999998
 11
38.027786499999934
 21
474.94998199999998
  0
ARC
  8
_0-0_0
  6
CONTINUOUS
 62
    7
 10
37.377761499999963
 20
475.19998199999998
 40
0.25
 50
179.99999099999999
 51
269.99999700000001
  0
LINE
  8
_0-0_0
  6
CONTINUOUS
 62
    7
 10
37.127761499999963
 20
475.84997600000003
 11
37.127761499999963
 21
475.19998199999998
  0
LINE
  8
_0-0_0
  6
CONTINUOUS
 62
    7
 10
37.127761499999963
 20
475.84997600000003
 11
36.72776749999997
 21
475.84997600000003
  0
LINE
  8
_0-0_0
  6
CONTINUOUS
 62
    7
 10
36.72776749999997
 20
475.84997600000003
 11
36.72776749999997
 21
475.19998199999998
  0
ARC
  8
_0-0_0
  6
CONTINUOUS
 62
    7
 10
36.47776749999997
 20
475.19998199999998
 40
0.25
 50
269.99999700000001
 51
0
  0
LINE
  8
_0-0_0
  6
CONTINUOUS
 62
    7
 10
36.47776749999997
 20
474.94998199999998
 11
35.827773499999921
 21
474.94998199999998
  0
LINE
  8
_0-0_0
  6
CONTINUOUS
 62
    7
 10
35.827773499999921
 20
474.54998799999998
 11
35.827773499999921
 21
474.94998199999998
  0
LINE
  8
_0-0_0
  6
CONTINUOUS
 62
    7
 10
36.47776749999997
 20
474.54998799999998
 11
35.827773499999921
 21
474.54998799999998
  0
ARC
  8
_0-0_0
  6
CONTINUOUS
 62
    7
 10
36.47776749999997
 20
474.29998799999998
 40
0.25
 50
0
 51
90.000003000000007
  0
LINE
  8
_0-0_0
  6
CONTINUOUS
 62
    7
 10
36.72776749999997
 20
473.64999399999999
 11
36.72776749999997
 21
474.29998799999998
  0
LINE
  8
_0-0_0
  6
CONTINUOUS
 62
    7
 10
116.12777649999998
 20
473.64999399999999
 11
115.72778349999993
 21
473.64999399999999
  0
LINE
  8
_0-0_0
  6
CONTINUOUS
 62
    7
 10
116.12777649999998
 20
473.64999399999999
 11
116.12777649999998
 21
474.29998799999998
  0
ARC
  8
_0-0_0
  6
CONTINUOUS
 62
    7
 10
116.37777649999998
 20
474.29998799999998
 40
0.25
 50
90.000003000000007
 51
179.99999099999999
  0
LINE
  8
_0-0_0
  6
CONTINUOUS
 62
    7
 10
116.37777649999998
 20
474.54998799999998
 11
117.02780149999995
 21
474.54998799999998
  0
LINE
  8
_0-0_0
  6
CONTINUOUS
 62
    7
 10
117.02780149999995
 20
474.54998799999998
 11
117.02780149999995
 21
474.94998199999998
  0
LINE
  8
_0-0_0
  6
CONTINUOUS
 62
    7
 10
116.37777649999998
 20
474.94998199999998
 11
117.02780149999995
 21
474.94998199999998
  0
ARC
  8
_0-0_0
  6
CONTINUOUS
 62
    7
 10
116.37777649999998
 20
475.19998199999998
 40
0.25
 50
179.99999099999999
 51
269.99999700000001
  0
LINE
  8
_0-0_0
  6
CONTINUOUS
 62
    7
 10
116.12777649999998
 20
475.84997600000003
 11
116.12777649999998
 21
475.19998199999998
  0
LINE
  8
_0-0_0
  6
CONTINUOUS
 62
    7
 10
116.12777649999998
 20
475.84997600000003
 11
115.72778349999993
 21
475.84997600000003
  0
LINE
  8
_0-0_0
  6
CONTINUOUS
 62
    7
 10
115.72778349999993
 20
475.84997600000003
 11
115.72778349999993
 21
475.19998199999998
  0
ARC
  8
_0-0_0
  6
CONTINUOUS
 62
    7
 10
115.47778349999993
 20
475.19998199999998
 40
0.25
 50
269.99999700000001
 51
0
  0
LINE
  8
_0-0_0
  6
CONTINUOUS
 62
    7
 10
115.47778349999993
 20
474.94998199999998
 11
114.82778949999994
 21
474.94998199999998
  0
LINE
  8
_0-0_0
  6
CONTINUOUS
 62
    7
 10
114.82778949999994
 20
474.54998799999998
 11
114.82778949999994
 21
474.94998199999998
  0
LINE
  8
_0-0_0
  6
CONTINUOUS
 62
    7
 10
115.47778349999993
 20
474.54998799999998
 11
114.82778949999994
 21
474.54998799999998
  0
ARC
  8
_0-0_0
  6
CONTINUOUS
 62
    7
 10
115.47778349999993
 20
474.29998799999998
 40
0.25
 50
0
 51
90.000003000000007
  0
LINE
  8
_0-0_0
  6
CONTINUOUS
 62
    7
 10
115.72778349999993
 20
473.64999399999999
 11
115.72778349999993
 21
474.29998799999998
  0
LINE
  8
_0-0_0
  6
CONTINUOUS
 62
    7
 10
123.42779549999995
 20
448.75
 11
117.92779549999995
 21
448.75
  0
LINE
  8
_0-0_0
  6
CONTINUOUS
 62
    7
 10
123.92779549999995
 20
455
 11
123.92779549999995
 21
458.5
  0
LINE
  8
_0-0_0
  6
CONTINUOUS
 62
    7
 10
123.92779549999995
 20
455
 11
123.92779549999995
 21
454.64999399999999
  0
LINE
  8
_0-0_0
  6
CONTINUOUS
 62
    7
 10
123.92779549999995
 20
451.15570100000002
 11
123.92779549999995
 21
454.64999399999999
  0
LINE
  8
_0-0_0
  6
CONTINUOUS
 62
    7
 10
123.92779549999995
 20
449.307098
 11
123.92779549999995
 21
449.59997600000003
  0
LINE
  8
_0-0_0
  6
CONTINUOUS
 62
    7
 10
123.92779549999995
 20
449.307098
 11
123.92779549999995
 21
449.25
  0
LINE
  8
_0-0_0
  6
CONTINUOUS
 62
    7
 10
120.92779549999995
 20
453.57128899999998
 11
120.92779549999995
 21
455.12167399999998
  0
LINE
  8
_0-0_0
  6
CONTINUOUS
 62
    7
 10
120.92779549999995
 20
452.85012799999998
 11
120.92779549999995
 21
453.57128899999998
  0
ARC
  8
_0-0_0
  6
CONTINUOUS
 62
    7
 10
123.42779549999995
 20
458.5
 40
0.5
 50
269.99999700000001
 51
0
  0
ARC
  8
_0-0_0
  6
CONTINUOUS
 62
    7
 10
121.22778349999993
 20
457.69998199999998
 40
0.2999999999999999
 50
90.000003000000007
 51
179.99999099999999
  0
LINE
  8
_0-0_0
  6
CONTINUOUS
 62
    7
 10
10.295303499999932
 20
453.69415299999997
 11
14.619857499999966
 21
452.25262500000002
  0
LINE
  8
_0-0_0
  6
CONTINUOUS
 62
    7
 10
8.9277804999999262
 20
455.59149200000002
 11
8.9277804999999262
 21
458.94229100000001
  0
LINE
  8
_0-0_0
  6
CONTINUOUS
 62
    7
 10
8.9277804999999262
 20
466.957672
 11
8.9277804999999262
 21
467.87899800000002
  0
ARC
  8
_0-0_0
  6
CONTINUOUS
 62
    7
 10
10.927780499999926
 20
455.59149200000002
 40
2
 50
179.99999099999999
 51
251.56498899999997
  0
LINE
  8
_0-0_0
  6
CONTINUOUS
 62
    7
 10
-6.0722195000000738
 20
472.47543300000001
 11
-6.0722195000000738
 21
472.32870500000001
  0
LINE
  8
_0-0_0
  6
CONTINUOUS
 62
    7
 10
-6.0722195000000738
 20
472.665955
 11
-6.0722195000000738
 21
472.47543300000001
  0
LINE
  8
_0-0_0
  6
CONTINUOUS
 62
    7
 10
-6.0722195000000738
 20
472.84097300000002
 11
-6.0722195000000738
 21
472.665955
  0
LINE
  8
_0-0_0
  6
CONTINUOUS
 62
    7
 10
-6.0722195000000738
 20
472.99856599999998
 11
-6.0722195000000738
 21
472.84097300000002
  0
LINE
  8
_0-0_0
  6
CONTINUOUS
 62
    7
 10
-6.0722195000000738
 20
473.13699300000002
 11
-6.0722195000000738
 21
472.99856599999998
  0
LINE
  8
_0-0_0
  6
CONTINUOUS
 62
    7
 10
-6.0722195000000738
 20
473.25476099999997
 11
-6.0722195000000738
 21
473.13699300000002
  0
LINE
  8
_0-0_0
  6
CONTINUOUS
 62
    7
 10
-6.0722195000000738
 20
473.350525
 11
-6.0722195000000738
 21
473.25476099999997
  0
LINE
  8
_0-0_0
  6
CONTINUOUS
 62
    7
 10
-6.0722195000000738
 20
473.42330900000002
 11
-6.0722195000000738
 21
473.350525
  0
LINE
  8
_0-0_0
  6
CONTINUOUS
 62
    7
 10
-6.0722195000000738
 20
473.47228999999999
 11
-6.0722195000000738
 21
473.42330900000002
  0
LINE
  8
_0-0_0
  6
CONTINUOUS
 62
    7
 10
-6.0722195000000738
 20
473.49688700000002
 11
-6.0722195000000738
 21
473.47228999999999
  0
LINE
  8
_0-0_0
  6
CONTINUOUS
 62
    7
 10
-6.0722195000000738
 20
473.5
 11
-6.0722195000000738
 21
473.49688700000002
  0
LINE
  8
_0-0_0
  6
CONTINUOUS
 62
    7
 10
-6.0722195000000738
 20
469.00305200000003
 11
-6.0722195000000738
 21
469
  0
LINE
  8
_0-0_0
  6
CONTINUOUS
 62
    7
 10
-6.0722195000000738
 20
469.02767899999998
 11
-6.0722195000000738
 21
469.00305200000003
  0
LINE
  8
_0-0_0
  6
CONTINUOUS
 62
    7
 10
-6.0722195000000738
 20
469.07666
 11
-6.0722195000000738
 21
469.02767899999998
  0
LINE
  8
_0-0_0
  6
CONTINUOUS
 62
    7
 10
-6.0722195000000738
 20
469.14941399999998
 11
-6.0722195000000738
 21
469.07666
  0
LINE
  8
_0-0_0
  6
CONTINUOUS
 62
    7
 10
-6.0722195000000738
 20
469.24520899999999
 11
-6.0722195000000738
 21
469.14941399999998
  0
LINE
  8
_0-0_0
  6
CONTINUOUS
 62
    7
 10
-6.0722195000000738
 20
469.27542099999999
 11
-6.0722195000000738
 21
469.24520899999999
  0
LINE
  8
_0-0_0
  6
CONTINUOUS
 62
    7
 10
-6.0722195000000738
 20
469.362976
 11
-6.0722195000000738
 21
469.27542099999999
  0
LINE
  8
_0-0_0
  6
CONTINUOUS
 62
    7
 10
-6.0722195000000738
 20
469.50140399999998
 11
-6.0722195000000738
 21
469.362976
  0
LINE
  8
_0-0_0
  6
CONTINUOUS
 62
    7
 10
-6.0722195000000738
 20
469.658997
 11
-6.0722195000000738
 21
469.50140399999998
  0
LINE
  8
_0-0_0
  6
CONTINUOUS
 62
    7
 10
-6.0722195000000738
 20
469.83401500000002
 11
-6.0722195000000738
 21
469.658997
  0
LINE
  8
_0-0_0
  6
CONTINUOUS
 62
    7
 10
-6.0722195000000738
 20
470.02453600000001
 11
-6.0722195000000738
 21
469.83401500000002
  0
LINE
  8
_0-0_0
  6
CONTINUOUS
 62
    7
 10
-6.0722195000000738
 20
470.22851600000001
 11
-6.0722195000000738
 21
470.02453600000001
  0
LINE
  8
_0-0_0
  6
CONTINUOUS
 62
    7
 10
-6.0722195000000738
 20
470.44366500000001
 11
-6.0722195000000738
 21
470.22851600000001
  0
LINE
  8
_0-0_0
  6
CONTINUOUS
 62
    7
 10
-6.0722195000000738
 20
470.66763300000002
 11
-6.0722195000000738
 21
470.44366500000001
  0
LINE
  8
_0-0_0
  6
CONTINUOUS
 62
    7
 10
-6.0722195000000738
 20
470.89801
 11
-6.0722195000000738
 21
470.66763300000002
  0
LINE
  8
_0-0_0
  6
CONTINUOUS
 62
    7
 10
-6.0722195000000738
 20
471.13223299999999
 11
-6.0722195000000738
 21
470.89801
  0
LINE
  8
_0-0_0
  6
CONTINUOUS
 62
    7
 10
-6.0722195000000738
 20
471.36773699999998
 11
-6.0722195000000738
 21
471.13223299999999
  0
LINE
  8
_0-0_0
  6
CONTINUOUS
 62
    7
 10
-6.0722195000000738
 20
471.60195900000002
 11
-6.0722195000000738
 21
471.36773699999998
  0
LINE
  8
_0-0_0
  6
CONTINUOUS
 62
    7
 10
-6.0722195000000738
 20
471.832336
 11
-6.0722195000000738
 21
471.60195900000002
  0
LINE
  8
_0-0_0
  6
CONTINUOUS
 62
    7
 10
-6.0722195000000738
 20
472.05630500000001
 11
-6.0722195000000738
 21
471.832336
  0
LINE
  8
_0-0_0
  6
CONTINUOUS
 62
    7
 10
-6.0722195000000738
 20
472.27145400000001
 11
-6.0722195000000738
 21
472.05630500000001
  0
LINE
  8
_0-0_0
  6
CONTINUOUS
 62
    7
 10
-6.0722195000000738
 20
472.32870500000001
 11
-6.0722195000000738
 21
472.27145400000001
  0
LINE
  8
_0-0_0
  6
CONTINUOUS
 62
    7
 10
9.2277674999999704
 20
465.16198700000001
 11
9.1689904999999499
 21
465.40881300000001
  0
LINE
  8
_0-0_0
  6
CONTINUOUS
 62
    7
 10
9.1689904999999499
 20
465.40881300000001
 11
9.1192164999999932
 21
465.601135
  0
LINE
  8
_0-0_0
  6
CONTINUOUS
 62
    7
 10
9.1192164999999932
 20
465.601135
 11
9.0480804999999691
 21
465.86694299999999
  0
LINE
  8
_0-0_0
  6
CONTINUOUS
 62
    7
 10
9.0480804999999691
 20
465.86694299999999
 11
9.0151214999999638
 21
465.993652
  0
LINE
  8
_0-0_0
  6
CONTINUOUS
 62
    7
 10
9.0151214999999638
 20
465.993652
 11
8.9898524999999836
 21
466.09707600000002
  0
LINE
  8
_0-0_0
  6
CONTINUOUS
 62
    7
 10
8.9898524999999836
 20
466.09707600000002
 11
8.9678194999999619
 21
466.19702100000001
  0
LINE
  8
_0-0_0
  6
CONTINUOUS
 62
    7
 10
8.9678194999999619
 20
466.19702100000001
 11
8.9464564999999538
 21
466.314728
  0
LINE
  8
_0-0_0
  6
CONTINUOUS
 62
    7
 10
8.9464564999999538
 20
466.314728
 11
8.9378814999999463
 21
466.37686200000002
  0
LINE
  8
_0-0_0
  6
CONTINUOUS
 62
    7
 10
8.9378814999999463
 20
466.37686200000002
 11
8.9318084999999883
 21
466.43746900000002
  0
LINE
  8
_0-0_0
  6
CONTINUOUS
 62
    7
 10
8.9318084999999883
 20
466.43746900000002
 11
8.9287874999999985
 21
466.486694
  0
LINE
  8
_0-0_0
  6
CONTINUOUS
 62
    7
 10
8.9287874999999985
 20
466.486694
 11
8.9277804999999262
 21
466.53491200000002
  0
LINE
  8
_0-0_0
  6
CONTINUOUS
 62
    7
 10
9.2277674999999704
 20
460.737976
 11
9.3112334999999575
 21
461.11663800000002
  0
LINE
  8
_0-0_0
  6
CONTINUOUS
 62
    7
 10
9.3112334999999575
 20
461.11663800000002
 11
9.3513334999999529
 21
461.30816700000003
  0
LINE
  8
_0-0_0
  6
CONTINUOUS
 62
    7
 10
9.3513334999999529
 20
461.30816700000003
 11
9.4073944999999526
 21
461.598206
  0
LINE
  8
_0-0_0
  6
CONTINUOUS
 62
    7
 10
9.4073944999999526
 20
461.598206
 11
9.4449914999999578
 21
461.81778000000003
  0
LINE
  8
_0-0_0
  6
CONTINUOUS
 62
    7
 10
9.4449914999999578
 20
461.81778000000003
 11
9.4776454999999942
 21
462.03903200000002
  0
LINE
  8
_0-0_0
  6
CONTINUOUS
 62
    7
 10
9.4776454999999942
 20
462.03903200000002
 11
9.5048064999999724
 21
462.26583900000003
  0
LINE
  8
_0-0_0
  6
CONTINUOUS
 62
    7
 10
9.5048064999999724
 20
462.26583900000003
 11
9.5248864999999796
 21
462.493225
  0
LINE
  8
_0-0_0
  6
CONTINUOUS
 62
    7
 10
9.5248864999999796
 20
462.493225
 11
9.5320284999999672
 21
462.606964
  0
LINE
  8
_0-0_0
  6
CONTINUOUS
 62
    7
 10
9.5320284999999672
 20
462.606964
 11
9.5371854999999641
 21
462.720642
  0
LINE
  8
_0-0_0
  6
CONTINUOUS
 62
    7
 10
9.5371854999999641
 20
462.720642
 11
9.5409084999999436
 21
462.87207000000001
  0
LINE
  8
_0-0_0
  6
CONTINUOUS
 62
    7
 10
9.5409084999999436
 20
462.87207000000001
 11
9.5409694999999601
 21
463.02331500000003
  0
LINE
  8
_0-0_0
  6
CONTINUOUS
 62
    7
 10
9.5409694999999601
 20
463.02331500000003
 11
9.5373994999999923
 21
463.17437699999999
  0
LINE
  8
_0-0_0
  6
CONTINUOUS
 62
    7
 10
9.5373994999999923
 20
463.17437699999999
 11
9.5278774999999314
 21
463.36291499999999
  0
LINE
  8
_0-0_0
  6
CONTINUOUS
 62
    7
 10
9.5278774999999314
 20
463.36291499999999
 11
9.5130154999999377
 21
463.55117799999999
  0
LINE
  8
_0-0_0
  6
CONTINUOUS
 62
    7
 10
9.5130154999999377
 20
463.55117799999999
 11
9.4930874999999446
 21
463.739105
  0
LINE
  8
_0-0_0
  6
CONTINUOUS
 62
    7
 10
9.4930874999999446
 20
463.739105
 11
9.4766994999999952
 21
463.86798099999999
  0
LINE
  8
_0-0_0
  6
CONTINUOUS
 62
    7
 10
9.4766994999999952
 20
463.86798099999999
 11
9.4582974999999578
 21
463.99664300000001
  0
LINE
  8
_0-0_0
  6
CONTINUOUS
 62
    7
 10
9.4582974999999578
 20
463.99664300000001
 11
9.4341274999999314
 21
464.14855999999997
  0
LINE
  8
_0-0_0
  6
CONTINUOUS
 62
    7
 10
9.4341274999999314
 20
464.14855999999997
 11
9.4077294999999594
 21
464.29992700000003
  0
LINE
  8
_0-0_0
  6
CONTINUOUS
 62
    7
 10
9.4077294999999594
 20
464.29992700000003
 11
9.3515774999999621
 21
464.59054600000002
  0
LINE
  8
_0-0_0
  6
CONTINUOUS
 62
    7
 10
9.3515774999999621
 20
464.59054600000002
 11
9.3114164999999502
 21
464.78250100000002
  0
LINE
  8
_0-0_0
  6
CONTINUOUS
 62
    7
 10
9.3114164999999502
 20
464.78250100000002
 11
9.2277674999999704
 21
465.16198700000001
  0
LINE
  8
_0-0_0
  6
CONTINUOUS
 62
    7
 10
9.2277674999999704
 20
460.737976
 11
9.1689604999999688
 21
460.49111900000003
  0
LINE
  8
_0-0_0
  6
CONTINUOUS
 62
    7
 10
9.1689604999999688
 20
460.49111900000003
 11
9.1192164999999932
 21
460.29879799999998
  0
LINE
  8
_0-0_0
  6
CONTINUOUS
 62
    7
 10
9.1192164999999932
 20
460.29879799999998
 11
9.0480804999999691
 21
460.033051
  0
LINE
  8
_0-0_0
  6
CONTINUOUS
 62
    7
 10
9.0480804999999691
 20
460.033051
 11
9.0151214999999638
 21
459.906342
  0
LINE
  8
_0-0_0
  6
CONTINUOUS
 62
    7
 10
9.0151214999999638
 20
459.906342
 11
8.9898524999999836
 21
459.80291699999998
  0
LINE
  8
_0-0_0
  6
CONTINUOUS
 62
    7
 10
8.9898524999999836
 20
459.80291699999998
 11
8.9678194999999619
 21
459.70294200000001
  0
LINE
  8
_0-0_0
  6
CONTINUOUS
 62
    7
 10
8.9678194999999619
 20
459.70294200000001
 11
8.9464564999999538
 21
459.58523600000001
  0
LINE
  8
_0-0_0
  6
CONTINUOUS
 62
    7
 10
8.9464564999999538
 20
459.58523600000001
 11
8.9378814999999463
 21
459.52310199999999
  0
LINE
  8
_0-0_0
  6
CONTINUOUS
 62
    7
 10
8.9378814999999463
 20
459.52310199999999
 11
8.9318084999999883
 21
459.46249399999999
  0
LINE
  8
_0-0_0
  6
CONTINUOUS
 62
    7
 10
8.9318084999999883
 20
459.46249399999999
 11
8.9287874999999985
 21
459.41326900000001
  0
LINE
  8
_0-0_0
  6
CONTINUOUS
 62
    7
 10
8.9287874999999985
 20
459.41326900000001
 11
8.9277804999999262
 21
459.36505099999999
  0
ARC
  8
_0-0_0
  6
CONTINUOUS
 62
    7
 10
123.42779549999995
 20
449.25
 40
0.5
 50
269.99999700000001
 51
0
  0
LINE
  8
_0-0_0
  6
CONTINUOUS
 62
    7
 10
123.38345349999997
 20
453.57128899999998
 11
123.38345349999997
 21
456.89999399999999
  0
LINE
  8
_0-0_0
  6
CONTINUOUS
 62
    7
 10
123.38345349999997
 20
452.39999399999999
 11
123.38345349999997
 21
453.57128899999998
  0
CIRCLE
  8
_0-0_0
  6
CONTINUOUS
 62
    7
 10
46.927780499999926
 20
468.25
 40
2.5
  0
CIRCLE
  8
_0-0_0
  6
CONTINUOUS
 62
    7
 10
102.92779549999995
 20
468.25
 40
2.5
  0
LINE
  8
_0-0_0
  6
CONTINUOUS
 62
    7
 10
8.9277804999999262
 20
459.05767800000001
 11
-0.7800445000000308
 21
459.05767800000001
  0
LINE
  8
_0-0_0
  6
CONTINUOUS
 62
    7
 10
-0.7800445000000308
 20
456.44998199999998
 11
-0.8345335000000204
 21
456.51992799999999
  0
LINE
  8
_0-0_0
  6
CONTINUOUS
 62
    7
 10
-0.8345335000000204
 20
456.51992799999999
 11
-0.8856355000000348
 21
456.58874500000002
  0
LINE
  8
_0-0_0
  6
CONTINUOUS
 62
    7
 10
-0.8856355000000348
 20
456.58874500000002
 11
-0.9332735000000411
 21
456.65625
  0
LINE
  8
_0-0_0
  6
CONTINUOUS
 62
    7
 10
-0.9332735000000411
 20
456.65625
 11
-0.9777685000000246
 21
456.72280899999998
  0
LINE
  8
_0-0_0
  6
CONTINUOUS
 62
    7
 10
-0.9777685000000246
 20
456.72280899999998
 11
-1.0324865000000045
 21
456.81033300000001
  0
LINE
  8
_0-0_0
  6
CONTINUOUS
 62
    7
 10
-1.0324865000000045
 20
456.81033300000001
 11
-1.0820005000000492
 21
456.89645400000001
  0
LINE
  8
_0-0_0
  6
CONTINUOUS
 62
    7
 10
-1.0820005000000492
 20
456.89645400000001
 11
-1.1264805000000706
 21
456.98126200000002
  0
LINE
  8
_0-0_0
  6
CONTINUOUS
 62
    7
 10
-1.1264805000000706
 20
456.98126200000002
 11
-1.1734465000000682
 21
457.08160400000003
  0
LINE
  8
_0-0_0
  6
CONTINUOUS
 62
    7
 10
-1.1734465000000682
 20
457.08160400000003
 11
-1.2136385000000018
 21
457.18051100000002
  0
LINE
  8
_0-0_0
  6
CONTINUOUS
 62
    7
 10
-1.2136385000000018
 20
457.18051100000002
 11
-1.2472995000000537
 21
457.27825899999999
  0
LINE
  8
_0-0_0
  6
CONTINUOUS
 62
    7
 10
-1.2472995000000537
 20
457.27825899999999
 11
-1.2745975000000271
 21
457.375092
  0
LINE
  8
_0-0_0
  6
CONTINUOUS
 62
    7
 10
-1.2745975000000271
 20
457.375092
 11
-1.2956395000000498
 21
457.47113000000002
  0
LINE
  8
_0-0_0
  6
CONTINUOUS
 62
    7
 10
-1.2956395000000498
 20
457.47113000000002
 11
-1.3115695000000187
 21
457.57498199999998
  0
LINE
  8
_0-0_0
  6
CONTINUOUS
 62
    7
 10
-1.3115695000000187
 20
457.57498199999998
 11
-1.3203275000000758
 21
457.678406
  0
LINE
  8
_0-0_0
  6
CONTINUOUS
 62
    7
 10
-1.3203275000000758
 20
457.678406
 11
-1.3219755000000077
 21
457.78164700000002
  0
LINE
  8
_0-0_0
  6
CONTINUOUS
 62
    7
 10
-1.3219755000000077
 20
457.78164700000002
 11
-1.3164975000000823
 21
457.88494900000001
  0
LINE
  8
_0-0_0
  6
CONTINUOUS
 62
    7
 10
-1.3164975000000823
 20
457.88494900000001
 11
-1.3038945000000695
 21
457.98852499999998
  0
LINE
  8
_0-0_0
  6
CONTINUOUS
 62
    7
 10
-1.3038945000000695
 20
457.98852499999998
 11
-1.2840735000000336
 21
458.09268200000002
  0
LINE
  8
_0-0_0
  6
CONTINUOUS
 62
    7
 10
-1.2840735000000336
 20
458.09268200000002
 11
-1.2569275000000744
 21
458.197632
  0
LINE
  8
_0-0_0
  6
CONTINUOUS
 62
    7
 10
-1.2569275000000744
 20
458.197632
 11
-1.2222745000000259
 21
458.30367999999999
  0
LINE
  8
_0-0_0
  6
CONTINUOUS
 62
    7
 10
-1.2222745000000259
 20
458.30367999999999
 11
-1.1799315000000661
 21
458.41104100000001
  0
LINE
  8
_0-0_0
  6
CONTINUOUS
 62
    7
 10
-1.1799315000000661
 20
458.41104100000001
 11
-1.1296235000000365
 21
458.52005000000003
  0
LINE
  8
_0-0_0
  6
CONTINUOUS
 62
    7
 10
-1.1296235000000365
 20
458.52005000000003
 11
-1.0753635000000372
 21
458.623199
  0
LINE
  8
_0-0_0
  6
CONTINUOUS
 62
    7
 10
-1.0753635000000372
 20
458.623199
 11
-1.0136565000000246
 21
458.72824100000003
  0
LINE
  8
_0-0_0
  6
CONTINUOUS
 62
    7
 10
-1.0136565000000246
 20
458.72824100000003
 11
-0.9441375000000107
 21
458.83548000000002
  0
LINE
  8
_0-0_0
  6
CONTINUOUS
 62
    7
 10
-0.9441375000000107
 20
458.83548000000002
 11
-0.8664245000000505
 21
458.94519000000003
  0
LINE
  8
_0-0_0
  6
CONTINUOUS
 62
    7
 10
-0.8664245000000505
 20
458.94519000000003
 11
-0.7800445000000308
 21
459.05767800000001
  0
LINE
  8
_0-0_0
  6
CONTINUOUS
 62
    7
 10
8.9277804999999262
 20
456.44998199999998
 11
-0.7800445000000308
 21
456.44998199999998
  0
LINE
  8
_0-0_0
  6
CONTINUOUS
 62
    7
 10
8.9277804999999262
 20
458.94229100000001
 11
8.9277804999999262
 21
459.05767800000001
  0
LINE
  8
_0-0_0
  6
CONTINUOUS
 62
    7
 10
-0.8222195000000738
 20
456.44998199999998
 11
-0.7800445000000308
 21
456.44998199999998
  0
LINE
  8
_0-0_0
  6
CONTINUOUS
 62
    7
 10
8.9277804999999262
 20
466.842285
 11
-0.7800445000000308
 21
466.842285
  0
LINE
  8
_0-0_0
  6
CONTINUOUS
 62
    7
 10
8.9277804999999262
 20
466.957672
 11
8.9277804999999262
 21
466.842285
  0
LINE
  8
_0-0_0
  6
CONTINUOUS
 62
    7
 10
-0.7800445000000308
 20
466.842285
 11
-0.8345335000000204
 21
466.91223100000002
  0
LINE
  8
_0-0_0
  6
CONTINUOUS
 62
    7
 10
-0.8345335000000204
 20
466.91223100000002
 11
-0.8856355000000348
 21
466.98104899999998
  0
LINE
  8
_0-0_0
  6
CONTINUOUS
 62
    7
 10
-0.8856355000000348
 20
466.98104899999998
 11
-0.9332735000000411
 21
467.04855300000003
  0
LINE
  8
_0-0_0
  6
CONTINUOUS
 62
    7
 10
-0.9332735000000411
 20
467.04855300000003
 11
-0.9777685000000246
 21
467.11511200000001
  0
LINE
  8
_0-0_0
  6
CONTINUOUS
 62
    7
 10
-0.9777685000000246
 20
467.11511200000001
 11
-1.0324865000000045
 21
467.20263699999998
  0
LINE
  8
_0-0_0
  6
CONTINUOUS
 62
    7
 10
-1.0324865000000045
 20
467.20263699999998
 11
-1.0820005000000492
 21
467.28875699999998
  0
LINE
  8
_0-0_0
  6
CONTINUOUS
 62
    7
 10
-1.0820005000000492
 20
467.28875699999998
 11
-1.1264805000000706
 21
467.37359600000002
  0
LINE
  8
_0-0_0
  6
CONTINUOUS
 62
    7
 10
-1.1264805000000706
 20
467.37359600000002
 11
-1.1734465000000682
 21
467.473907
  0
LINE
  8
_0-0_0
  6
CONTINUOUS
 62
    7
 10
-1.1734465000000682
 20
467.473907
 11
-1.2136385000000018
 21
467.57281499999999
  0
LINE
  8
_0-0_0
  6
CONTINUOUS
 62
    7
 10
-1.2136385000000018
 20
467.57281499999999
 11
-1.2472995000000537
 21
467.670593
  0
LINE
  8
_0-0_0
  6
CONTINUOUS
 62
    7
 10
-1.2472995000000537
 20
467.670593
 11
-1.2745975000000271
 21
467.76739500000002
  0
LINE
  8
_0-0_0
  6
CONTINUOUS
 62
    7
 10
-1.2745975000000271
 20
467.76739500000002
 11
-1.2956395000000498
 21
467.86343399999998
  0
LINE
  8
_0-0_0
  6
CONTINUOUS
 62
    7
 10
-1.2956395000000498
 20
467.86343399999998
 11
-1.3115695000000187
 21
467.967285
  0
LINE
  8
_0-0_0
  6
CONTINUOUS
 62
    7
 10
-1.3115695000000187
 20
467.967285
 11
-1.3203275000000758
 21
468.07070900000002
  0
LINE
  8
_0-0_0
  6
CONTINUOUS
 62
    7
 10
-1.3203275000000758
 20
468.07070900000002
 11
-1.3219755000000077
 21
468.17394999999999
  0
LINE
  8
_0-0_0
  6
CONTINUOUS
 62
    7
 10
-1.3219755000000077
 20
468.17394999999999
 11
-1.3164975000000823
 21
468.27725199999998
  0
LINE
  8
_0-0_0
  6
CONTINUOUS
 62
    7
 10
-1.3164975000000823
 20
468.27725199999998
 11
-1.3038945000000695
 21
468.38082900000001
  0
LINE
  8
_0-0_0
  6
CONTINUOUS
 62
    7
 10
-1.3038945000000695
 20
468.38082900000001
 11
-1.2840735000000336
 21
468.48498499999999
  0
LINE
  8
_0-0_0
  6
CONTINUOUS
 62
    7
 10
-1.2840735000000336
 20
468.48498499999999
 11
-1.2569275000000744
 21
468.58993500000003
  0
LINE
  8
_0-0_0
  6
CONTINUOUS
 62
    7
 10
-1.2569275000000744
 20
468.58993500000003
 11
-1.2222745000000259
 21
468.69598400000001
  0
LINE
  8
_0-0_0
  6
CONTINUOUS
 62
    7
 10
-1.2222745000000259
 20
468.69598400000001
 11
-1.1799315000000661
 21
468.80334499999998
  0
LINE
  8
_0-0_0
  6
CONTINUOUS
 62
    7
 10
-1.1799315000000661
 20
468.80334499999998
 11
-1.1296235000000365
 21
468.91235399999999
  0
LINE
  8
_0-0_0
  6
CONTINUOUS
 62
    7
 10
-1.1296235000000365
 20
468.91235399999999
 11
-1.0839235000000826
 21
469
  0
LINE
  8
_0-0_0
  6
CONTINUOUS
 62
    7
 10
-6.0722195000000738
 20
472.47543300000001
 11
-6.3222195000000738
 21
472.5
  0
LINE
  8
_0-0_0
  6
CONTINUOUS
 62
    7
 10
-6.0722195000000738
 20
472.27145400000001
 11
-6.3222195000000738
 21
472.5
  0
LINE
  8
_0-0_0
  6
CONTINUOUS
 62
    7
 10
-6.0722195000000738
 20
472.665955
 11
-6.3222195000000738
 21
472.71945199999999
  0
LINE
  8
_0-0_0
  6
CONTINUOUS
 62
    7
 10
-6.0722195000000738
 20
472.47543300000001
 11
-6.3222195000000738
 21
472.71945199999999
  0
LINE
  8
_0-0_0
  6
CONTINUOUS
 62
    7
 10
-6.0722195000000738
 20
472.84097300000002
 11
-6.3222195000000738
 21
472.922821
  0
LINE
  8
_0-0_0
  6
CONTINUOUS
 62
    7
 10
-6.0722195000000738
 20
472.665955
 11
-6.3222195000000738
 21
472.922821
  0
LINE
  8
_0-0_0
  6
CONTINUOUS
 62
    7
 10
-6.0722195000000738
 20
472.99856599999998
 11
-6.3222195000000738
 21
473.10784899999999
  0
LINE
  8
_0-0_0
  6
CONTINUOUS
 62
    7
 10
-6.0722195000000738
 20
472.84097300000002
 11
-6.3222195000000738
 21
473.10784899999999
  0
LINE
  8
_0-0_0
  6
CONTINUOUS
 62
    7
 10
-6.0722195000000738
 20
473.13699300000002
 11
-6.3222195000000738
 21
473.27252199999998
  0
LINE
  8
_0-0_0
  6
CONTINUOUS
 62
    7
 10
-6.0722195000000738
 20
472.99856599999998
 11
-6.3222195000000738
 21
473.27252199999998
  0
LINE
  8
_0-0_0
  6
CONTINUOUS
 62
    7
 10
-6.0722195000000738
 20
473.25476099999997
 11
-6.3222195000000738
 21
473.41503899999998
  0
LINE
  8
_0-0_0
  6
CONTINUOUS
 62
    7
 10
-6.0722195000000738
 20
473.13699300000002
 11
-6.3222195000000738
 21
473.41503899999998
  0
LINE
  8
_0-0_0
  6
CONTINUOUS
 62
    7
 10
-6.0722195000000738
 20
473.350525
 11
-6.3222195000000738
 21
473.53384399999999
  0
LINE
  8
_0-0_0
  6
CONTINUOUS
 62
    7
 10
-6.0722195000000738
 20
473.25476099999997
 11
-6.3222195000000738
 21
473.53384399999999
  0
LINE
  8
_0-0_0
  6
CONTINUOUS
 62
    7
 10
-6.0722195000000738
 20
473.42330900000002
 11
-6.3222195000000738
 21
473.62762500000002
  0
LINE
  8
_0-0_0
  6
CONTINUOUS
 62
    7
 10
-6.0722195000000738
 20
473.350525
 11
-6.3222195000000738
 21
473.62762500000002
  0
LINE
  8
_0-0_0
  6
CONTINUOUS
 62
    7
 10
-6.0722195000000738
 20
473.47228999999999
 11
-6.3222195000000738
 21
473.69534299999998
  0
LINE
  8
_0-0_0
  6
CONTINUOUS
 62
    7
 10
-6.0722195000000738
 20
473.42330900000002
 11
-6.3222195000000738
 21
473.69534299999998
  0
LINE
  8
_0-0_0
  6
CONTINUOUS
 62
    7
 10
-6.0722195000000738
 20
473.49688700000002
 11
-6.3222195000000738
 21
473.73629799999998
  0
LINE
  8
_0-0_0
  6
CONTINUOUS
 62
    7
 10
-6.0722195000000738
 20
473.47228999999999
 11
-6.3222195000000738
 21
473.73629799999998
  0
LINE
  8
_0-0_0
  6
CONTINUOUS
 62
    7
 10
-6.0722195000000738
 20
473.49688700000002
 11
-6.3222195000000738
 21
473.75
  0
LINE
  8
_0-0_0
  6
CONTINUOUS
 62
    7
 10
-6.0722195000000738
 20
469.00305200000003
 11
-6.3222195000000738
 21
468.75
  0
LINE
  8
_0-0_0
  6
CONTINUOUS
 62
    7
 10
-6.0722195000000738
 20
469.02767899999998
 11
-6.3222195000000738
 21
468.76367199999999
  0
LINE
  8
_0-0_0
  6
CONTINUOUS
 62
    7
 10
-6.0722195000000738
 20
469.00305200000003
 11
-6.3222195000000738
 21
468.76367199999999
  0
LINE
  8
_0-0_0
  6
CONTINUOUS
 62
    7
 10
-6.0722195000000738
 20
469.07666
 11
-6.3222195000000738
 21
468.80462599999998
  0
LINE
  8
_0-0_0
  6
CONTINUOUS
 62
    7
 10
-6.0722195000000738
 20
469.02767899999998
 11
-6.1032865000000811
 21
469
  0
LINE
  8
_0-0_0
  6
CONTINUOUS
 62
    7
 10
-6.0722195000000738
 20
469.14941399999998
 11
-6.3222195000000738
 21
468.872345
  0
LINE
  8
_0-0_0
  6
CONTINUOUS
 62
    7
 10
-6.0722195000000738
 20
469.07666
 11
-6.3222195000000738
 21
468.872345
  0
LINE
  8
_0-0_0
  6
CONTINUOUS
 62
    7
 10
-6.0722195000000738
 20
469.24520899999999
 11
-6.3222195000000738
 21
468.96612499999998
  0
LINE
  8
_0-0_0
  6
CONTINUOUS
 62
    7
 10
-6.0722195000000738
 20
469.14941399999998
 11
-6.3222195000000738
 21
468.96612499999998
  0
LINE
  8
_0-0_0
  6
CONTINUOUS
 62
    7
 10
-6.0722195000000738
 20
469.24520899999999
 11
-6.2021945000000187
 21
469.16137700000002
  0
LINE
  8
_0-0_0
  6
CONTINUOUS
 62
    7
 10
-6.0722195000000738
 20
469.362976
 11
-6.3222195000000738
 21
469.08492999999999
  0
LINE
  8
_0-0_0
  6
CONTINUOUS
 62
    7
 10
-6.2021945000000187
 20
469.16137700000002
 11
-6.3222195000000738
 21
469.08492999999999
  0
LINE
  8
_0-0_0
  6
CONTINUOUS
 62
    7
 10
-6.0722195000000738
 20
469.50140399999998
 11
-6.3222195000000738
 21
469.22744799999998
  0
LINE
  8
_0-0_0
  6
CONTINUOUS
 62
    7
 10
-6.0722195000000738
 20
469.362976
 11
-6.3222195000000738
 21
469.22744799999998
  0
LINE
  8
_0-0_0
  6
CONTINUOUS
 62
    7
 10
-6.0722195000000738
 20
469.658997
 11
-6.3222195000000738
 21
469.39211999999998
  0
LINE
  8
_0-0_0
  6
CONTINUOUS
 62
    7
 10
-6.0722195000000738
 20
469.50140399999998
 11
-6.3222195000000738
 21
469.39211999999998
  0
LINE
  8
_0-0_0
  6
CONTINUOUS
 62
    7
 10
-6.0722195000000738
 20
469.83401500000002
 11
-6.3222195000000738
 21
469.57714800000002
  0
LINE
  8
_0-0_0
  6
CONTINUOUS
 62
    7
 10
-6.0722195000000738
 20
469.658997
 11
-6.3222195000000738
 21
469.57714800000002
  0
LINE
  8
_0-0_0
  6
CONTINUOUS
 62
    7
 10
-6.0722195000000738
 20
470.02453600000001
 11
-6.3222195000000738
 21
469.78051799999997
  0
LINE
  8
_0-0_0
  6
CONTINUOUS
 62
    7
 10
-6.0722195000000738
 20
469.83401500000002
 11
-6.3222195000000738
 21
469.78051799999997
  0
LINE
  8
_0-0_0
  6
CONTINUOUS
 62
    7
 10
-6.0722195000000738
 20
470.22851600000001
 11
-6.3222195000000738
 21
470
  0
LINE
  8
_0-0_0
  6
CONTINUOUS
 62
    7
 10
-6.0722195000000738
 20
470.02453600000001
 11
-6.3222195000000738
 21
470
  0
LINE
  8
_0-0_0
  6
CONTINUOUS
 62
    7
 10
-6.0722195000000738
 20
470.44366500000001
 11
-6.3222195000000738
 21
470.23315400000001
  0
LINE
  8
_0-0_0
  6
CONTINUOUS
 62
    7
 10
-6.0722195000000738
 20
470.22851600000001
 11
-6.3222195000000738
 21
470.23315400000001
  0
LINE
  8
_0-0_0
  6
CONTINUOUS
 62
    7
 10
-6.0722195000000738
 20
470.66763300000002
 11
-6.3222195000000738
 21
470.47744799999998
  0
LINE
  8
_0-0_0
  6
CONTINUOUS
 62
    7
 10
-6.0722195000000738
 20
470.44366500000001
 11
-6.3222195000000738
 21
470.47744799999998
  0
LINE
  8
_0-0_0
  6
CONTINUOUS
 62
    7
 10
-6.0722195000000738
 20
470.89801
 11
-6.3222195000000738
 21
470.73019399999998
  0
LINE
  8
_0-0_0
  6
CONTINUOUS
 62
    7
 10
-6.0722195000000738
 20
470.66763300000002
 11
-6.3222195000000738
 21
470.73019399999998
  0
LINE
  8
_0-0_0
  6
CONTINUOUS
 62
    7
 10
-6.0722195000000738
 20
471.13223299999999
 11
-6.3222195000000738
 21
470.98864700000001
  0
LINE
  8
_0-0_0
  6
CONTINUOUS
 62
    7
 10
-6.0722195000000738
 20
470.89801
 11
-6.3222195000000738
 21
470.98864700000001
  0
LINE
  8
_0-0_0
  6
CONTINUOUS
 62
    7
 10
-6.0722195000000738
 20
471.36773699999998
 11
-6.3222195000000738
 21
471.25
  0
LINE
  8
_0-0_0
  6
CONTINUOUS
 62
    7
 10
-6.0722195000000738
 20
471.13223299999999
 11
-6.3222195000000738
 21
471.25
  0
LINE
  8
_0-0_0
  6
CONTINUOUS
 62
    7
 10
-6.0722195000000738
 20
471.60195900000002
 11
-6.3222195000000738
 21
471.51129200000003
  0
LINE
  8
_0-0_0
  6
CONTINUOUS
 62
    7
 10
-6.0722195000000738
 20
471.36773699999998
 11
-6.3222195000000738
 21
471.51129200000003
  0
LINE
  8
_0-0_0
  6
CONTINUOUS
 62
    7
 10
-6.0722195000000738
 20
471.832336
 11
-6.3222195000000738
 21
471.76977499999998
  0
LINE
  8
_0-0_0
  6
CONTINUOUS
 62
    7
 10
-6.0722195000000738
 20
471.60195900000002
 11
-6.3222195000000738
 21
471.76977499999998
  0
LINE
  8
_0-0_0
  6
CONTINUOUS
 62
    7
 10
-6.0722195000000738
 20
472.05630500000001
 11
-6.3222195000000738
 21
472.02252199999998
  0
LINE
  8
_0-0_0
  6
CONTINUOUS
 62
    7
 10
-6.0722195000000738
 20
471.832336
 11
-6.3222195000000738
 21
472.02252199999998
  0
LINE
  8
_0-0_0
  6
CONTINUOUS
 62
    7
 10
-6.0722195000000738
 20
472.27145400000001
 11
-6.3222195000000738
 21
472.26681500000001
  0
LINE
  8
_0-0_0
  6
CONTINUOUS
 62
    7
 10
-6.0722195000000738
 20
472.05630500000001
 11
-6.3222195000000738
 21
472.26681500000001
  0
LINE
  8
_0-0_0
  6
CONTINUOUS
 62
    7
 10
8.9277804999999262
 20
464.512024
 11
8.9277804999999262
 21
465.55767800000001
  0
LINE
  8
_0-0_0
  6
CONTINUOUS
 62
    7
 10
8.9277804999999262
 20
466.842285
 11
8.9277804999999262
 21
465.55767800000001
  0
LINE
  8
_0-0_0
  6
CONTINUOUS
 62
    7
 10
8.9277804999999262
 20
464.512024
 11
8.9277804999999262
 21
461.38793900000002
  0
LINE
  8
_0-0_0
  6
CONTINUOUS
 62
    7
 10
8.9277804999999262
 20
460.342285
 11
8.9277804999999262
 21
459.05767800000001
  0
LINE
  8
_0-0_0
  6
CONTINUOUS
 62
    7
 10
8.9277804999999262
 20
460.342285
 11
8.9277804999999262
 21
461.38793900000002
  0
LINE
  8
_0-0_0
  6
CONTINUOUS
 62
    7
 10
123.52780149999995
 20
453.69113199999998
 11
123.52780149999995
 21
456.64999399999999
  0
LINE
  8
_0-0_0
  6
CONTINUOUS
 62
    7
 10
123.52780149999995
 20
452.64999399999999
 11
123.52780149999995
 21
453.69113199999998
  0
LINE
  8
_0-0_0
  6
CONTINUOUS
 62
    7
 10
8.9277804999999262
 20
460.342285
 11
-0.7800445000000308
 21
460.342285
  0
ARC
  8
_0-0_0
  6
CONTINUOUS
 62
    7
 10
4.1016694999999572
 20
459.69909699999999
 40
4.9238749999999998
 50
172.49424200000001
 51
181.535968
  0
ARC
  8
_0-0_0
  6
CONTINUOUS
 62
    7
 10
4.1396944999999619
 20
459.70404100000002
 40
4.9620009999999999
 50
181.58130700000004
 51
187.48478900000003
  0
LINE
  8
_0-0_0
  6
CONTINUOUS
 62
    7
 10
-2.0722195000000738
 20
460.21844499999997
 11
-2.0722195000000738
 21
457.69998199999998
  0
LINE
  8
_0-0_0
  6
CONTINUOUS
 62
    7
 10
-2.0722195000000738
 20
468.19998199999998
 11
-2.0722195000000738
 21
460.21844499999997
  0
LINE
  8
_0-0_0
  6
CONTINUOUS
 62
    7
 10
-0.7800445000000308
 20
465.55767800000001
 11
-0.8743895000000065
 21
465.31106599999998
  0
LINE
  8
_0-0_0
  6
CONTINUOUS
 62
    7
 10
-0.8743895000000065
 20
465.31106599999998
 11
-0.9583285000000501
 21
465.07110599999999
  0
LINE
  8
_0-0_0
  6
CONTINUOUS
 62
    7
 10
-0.9583285000000501
 20
465.07110599999999
 11
-1.0324865000000045
 21
464.836975
  0
LINE
  8
_0-0_0
  6
CONTINUOUS
 62
    7
 10
-1.0324865000000045
 20
464.836975
 11
-1.097366500000021
 21
464.60794099999998
  0
LINE
  8
_0-0_0
  6
CONTINUOUS
 62
    7
 10
-1.097366500000021
 20
464.60794099999998
 11
-1.1534115000000611
 21
464.38326999999998
  0
LINE
  8
_0-0_0
  6
CONTINUOUS
 62
    7
 10
-1.1534115000000611
 20
464.38326999999998
 11
-1.2009735000000319
 21
464.16229199999998
  0
LINE
  8
_0-0_0
  6
CONTINUOUS
 62
    7
 10
-1.2009735000000319
 20
464.16229199999998
 11
-1.2403875000000539
 21
463.944366
  0
LINE
  8
_0-0_0
  6
CONTINUOUS
 62
    7
 10
-1.2403875000000539
 20
463.944366
 11
-1.2718655000000467
 21
463.72891199999998
  0
LINE
  8
_0-0_0
  6
CONTINUOUS
 62
    7
 10
-1.2718655000000467
 20
463.72891199999998
 11
-1.2956395000000498
 21
463.51538099999999
  0
LINE
  8
_0-0_0
  6
CONTINUOUS
 62
    7
 10
-1.2956395000000498
 20
463.51538099999999
 11
-1.3115695000000187
 21
463.30767800000001
  0
LINE
  8
_0-0_0
  6
CONTINUOUS
 62
    7
 10
-1.3115695000000187
 20
463.30767800000001
 11
-1.3203275000000758
 21
463.10082999999997
  0
LINE
  8
_0-0_0
  6
CONTINUOUS
 62
    7
 10
-1.3203275000000758
 20
463.10082999999997
 11
-1.3219755000000077
 21
462.89434799999998
  0
LINE
  8
_0-0_0
  6
CONTINUOUS
 62
    7
 10
-1.3219755000000077
 20
462.89434799999998
 11
-1.3164975000000823
 21
462.68777499999999
  0
LINE
  8
_0-0_0
  6
CONTINUOUS
 62
    7
 10
-1.3164975000000823
 20
462.68777499999999
 11
-1.3038945000000695
 21
462.480591
  0
LINE
  8
_0-0_0
  6
CONTINUOUS
 62
    7
 10
-1.3038945000000695
 20
462.480591
 11
-1.2840735000000336
 21
462.27227799999997
  0
LINE
  8
_0-0_0
  6
CONTINUOUS
 62
    7
 10
-1.2840735000000336
 20
462.27227799999997
 11
-1.2569275000000744
 21
462.06237800000002
  0
LINE
  8
_0-0_0
  6
CONTINUOUS
 62
    7
 10
-1.2569275000000744
 20
462.06237800000002
 11
-1.2222745000000259
 21
461.85031099999998
  0
LINE
  8
_0-0_0
  6
CONTINUOUS
 62
    7
 10
-1.2222745000000259
 20
461.85031099999998
 11
-1.1799315000000661
 21
461.635559
  0
LINE
  8
_0-0_0
  6
CONTINUOUS
 62
    7
 10
-1.1799315000000661
 20
461.635559
 11
-1.1296235000000365
 21
461.41754200000003
  0
LINE
  8
_0-0_0
  6
CONTINUOUS
 62
    7
 10
-1.1296235000000365
 20
461.41754200000003
 11
-1.0753635000000372
 21
461.21124300000002
  0
LINE
  8
_0-0_0
  6
CONTINUOUS
 62
    7
 10
-1.0753635000000372
 20
461.21124300000002
 11
-1.0136565000000246
 21
461.00116000000003
  0
LINE
  8
_0-0_0
  6
CONTINUOUS
 62
    7
 10
-1.0136565000000246
 20
461.00116000000003
 11
-0.9441375000000107
 21
460.78668199999998
  0
LINE
  8
_0-0_0
  6
CONTINUOUS
 62
    7
 10
-0.9441375000000107
 20
460.78668199999998
 11
-0.8664245000000505
 21
460.56726099999997
  0
LINE
  8
_0-0_0
  6
CONTINUOUS
 62
    7
 10
-0.8664245000000505
 20
460.56726099999997
 11
-0.7800445000000308
 21
460.342285
  0
ARC
  8
_0-0_0
  6
CONTINUOUS
 62
    7
 10
4.0915064999999231
 20
466.19998199999998
 40
4.9136889999999998
 50
172.48898299999999
 51
187.51101699999998
  0
LINE
  8
_0-0_0
  6
CONTINUOUS
 62
    7
 10
8.9277804999999262
 20
465.55767800000001
 11
-0.7800445000000308
 21
465.55767800000001
  0
LINE
  8
_0-0_0
  6
CONTINUOUS
 62
    7
 10
-15.822219500000074
 20
472.47543300000001
 11
-15.572219500000074
 21
472.5
  0
LINE
  8
_0-0_0
  6
CONTINUOUS
 62
    7
 10
-15.572219500000074
 20
472.5
 11
-6.3222195000000738
 21
472.5
  0
LINE
  8
_0-0_0
  6
CONTINUOUS
 62
    7
 10
-15.822219500000074
 20
472.27145400000001
 11
-15.572219500000074
 21
472.5
  0
LINE
  8
_0-0_0
  6
CONTINUOUS
 62
    7
 10
-15.822219500000074
 20
472.27145400000001
 11
-6.0722195000000738
 21
472.27145400000001
  0
LINE
  8
_0-0_0
  6
CONTINUOUS
 62
    7
 10
-15.822219500000074
 20
472.665955
 11
-15.572219500000074
 21
472.71945199999999
  0
LINE
  8
_0-0_0
  6
CONTINUOUS
 62
    7
 10
-15.572219500000074
 20
472.71945199999999
 11
-6.3222195000000738
 21
472.71945199999999
  0
LINE
  8
_0-0_0
  6
CONTINUOUS
 62
    7
 10
-15.822219500000074
 20
472.47543300000001
 11
-15.572219500000074
 21
472.71945199999999
  0
LINE
  8
_0-0_0
  6
CONTINUOUS
 62
    7
 10
-15.822219500000074
 20
472.84097300000002
 11
-15.572219500000074
 21
472.922821
  0
LINE
  8
_0-0_0
  6
CONTINUOUS
 62
    7
 10
-15.572219500000074
 20
472.922821
 11
-6.3222195000000738
 21
472.922821
  0
LINE
  8
_0-0_0
  6
CONTINUOUS
 62
    7
 10
-15.822219500000074
 20
472.665955
 11
-15.572219500000074
 21
472.922821
  0
LINE
  8
_0-0_0
  6
CONTINUOUS
 62
    7
 10
-15.822219500000074
 20
472.99856599999998
 11
-15.572219500000074
 21
473.10784899999999
  0
LINE
  8
_0-0_0
  6
CONTINUOUS
 62
    7
 10
-15.572219500000074
 20
473.10784899999999
 11
-6.3222195000000738
 21
473.10784899999999
  0
LINE
  8
_0-0_0
  6
CONTINUOUS
 62
    7
 10
-15.822219500000074
 20
472.84097300000002
 11
-15.572219500000074
 21
473.10784899999999
  0
LINE
  8
_0-0_0
  6
CONTINUOUS
 62
    7
 10
-15.822219500000074
 20
473.13699300000002
 11
-15.572219500000074
 21
473.27252199999998
  0
LINE
  8
_0-0_0
  6
CONTINUOUS
 62
    7
 10
-15.572219500000074
 20
473.27252199999998
 11
-6.3222195000000738
 21
473.27252199999998
  0
LINE
  8
_0-0_0
  6
CONTINUOUS
 62
    7
 10
-15.822219500000074
 20
472.99856599999998
 11
-15.572219500000074
 21
473.27252199999998
  0
LINE
  8
_0-0_0
  6
CONTINUOUS
 62
    7
 10
-15.822219500000074
 20
473.25476099999997
 11
-15.572219500000074
 21
473.41503899999998
  0
LINE
  8
_0-0_0
  6
CONTINUOUS
 62
    7
 10
-15.572219500000074
 20
473.41503899999998
 11
-6.3222195000000738
 21
473.41503899999998
  0
LINE
  8
_0-0_0
  6
CONTINUOUS
 62
    7
 10
-15.822219500000074
 20
473.13699300000002
 11
-15.572219500000074
 21
473.41503899999998
  0
LINE
  8
_0-0_0
  6
CONTINUOUS
 62
    7
 10
-15.822219500000074
 20
473.350525
 11
-15.572219500000074
 21
473.53384399999999
  0
LINE
  8
_0-0_0
  6
CONTINUOUS
 62
    7
 10
-15.572219500000074
 20
473.53384399999999
 11
-6.3222195000000738
 21
473.53384399999999
  0
LINE
  8
_0-0_0
  6
CONTINUOUS
 62
    7
 10
-15.822219500000074
 20
473.25476099999997
 11
-15.572219500000074
 21
473.53384399999999
  0
LINE
  8
_0-0_0
  6
CONTINUOUS
 62
    7
 10
-15.822219500000074
 20
473.42330900000002
 11
-15.572219500000074
 21
473.62762500000002
  0
LINE
  8
_0-0_0
  6
CONTINUOUS
 62
    7
 10
-15.572219500000074
 20
473.62762500000002
 11
-6.3222195000000738
 21
473.62762500000002
  0
LINE
  8
_0-0_0
  6
CONTINUOUS
 62
    7
 10
-15.822219500000074
 20
473.350525
 11
-15.572219500000074
 21
473.62762500000002
  0
LINE
  8
_0-0_0
  6
CONTINUOUS
 62
    7
 10
-15.822219500000074
 20
473.47228999999999
 11
-15.572219500000074
 21
473.69534299999998
  0
LINE
  8
_0-0_0
  6
CONTINUOUS
 62
    7
 10
-15.572219500000074
 20
473.69534299999998
 11
-6.3222195000000738
 21
473.69534299999998
  0
LINE
  8
_0-0_0
  6
CONTINUOUS
 62
    7
 10
-15.822219500000074
 20
473.42330900000002
 11
-15.572219500000074
 21
473.69534299999998
  0
LINE
  8
_0-0_0
  6
CONTINUOUS
 62
    7
 10
-15.822219500000074
 20
473.49688700000002
 11
-15.572219500000074
 21
473.73629799999998
  0
LINE
  8
_0-0_0
  6
CONTINUOUS
 62
    7
 10
-15.572219500000074
 20
473.73629799999998
 11
-6.3222195000000738
 21
473.73629799999998
  0
LINE
  8
_0-0_0
  6
CONTINUOUS
 62
    7
 10
-15.822219500000074
 20
473.47228999999999
 11
-15.572219500000074
 21
473.73629799999998
  0
LINE
  8
_0-0_0
  6
CONTINUOUS
 62
    7
 10
-15.572219500000074
 20
473.75
 11
-6.3222195000000738
 21
473.75
  0
LINE
  8
_0-0_0
  6
CONTINUOUS
 62
    7
 10
-15.822219500000074
 20
473.49688700000002
 11
-15.572219500000074
 21
473.75
  0
LINE
  8
_0-0_0
  6
CONTINUOUS
 62
    7
 10
-15.822219500000074
 20
469.00305200000003
 11
-15.572219500000074
 21
468.75
  0
LINE
  8
_0-0_0
  6
CONTINUOUS
 62
    7
 10
-15.572219500000074
 20
468.75
 11
-6.3222195000000738
 21
468.75
  0
LINE
  8
_0-0_0
  6
CONTINUOUS
 62
    7
 10
-15.822219500000074
 20
469.02767899999998
 11
-15.572219500000074
 21
468.76367199999999
  0
LINE
  8
_0-0_0
  6
CONTINUOUS
 62
    7
 10
-15.572219500000074
 20
468.76367199999999
 11
-6.3222195000000738
 21
468.76367199999999
  0
LINE
  8
_0-0_0
  6
CONTINUOUS
 62
    7
 10
-15.822219500000074
 20
469.00305200000003
 11
-15.572219500000074
 21
468.76367199999999
  0
LINE
  8
_0-0_0
  6
CONTINUOUS
 62
    7
 10
-15.822219500000074
 20
469.07666
 11
-15.572219500000074
 21
468.80462599999998
  0
LINE
  8
_0-0_0
  6
CONTINUOUS
 62
    7
 10
-15.572219500000074
 20
468.80462599999998
 11
-6.3222195000000738
 21
468.80462599999998
  0
LINE
  8
_0-0_0
  6
CONTINUOUS
 62
    7
 10
-15.822219500000074
 20
469.02767899999998
 11
-15.572219500000074
 21
468.80462599999998
  0
LINE
  8
_0-0_0
  6
CONTINUOUS
 62
    7
 10
-15.822219500000074
 20
469.14941399999998
 11
-15.572219500000074
 21
468.872345
  0
LINE
  8
_0-0_0
  6
CONTINUOUS
 62
    7
 10
-15.572219500000074
 20
468.872345
 11
-6.3222195000000738
 21
468.872345
  0
LINE
  8
_0-0_0
  6
CONTINUOUS
 62
    7
 10
-15.822219500000074
 20
469.07666
 11
-15.572219500000074
 21
468.872345
  0
LINE
  8
_0-0_0
  6
CONTINUOUS
 62
    7
 10
-15.822219500000074
 20
469.24520899999999
 11
-15.572219500000074
 21
468.96612499999998
  0
LINE
  8
_0-0_0
  6
CONTINUOUS
 62
    7
 10
-15.572219500000074
 20
468.96612499999998
 11
-6.3222195000000738
 21
468.96612499999998
  0
LINE
  8
_0-0_0
  6
CONTINUOUS
 62
    7
 10
-15.822219500000074
 20
469.14941399999998
 11
-15.572219500000074
 21
468.96612499999998
  0
LINE
  8
_0-0_0
  6
CONTINUOUS
 62
    7
 10
-15.572219500000074
 20
469.08492999999999
 11
-6.3222195000000738
 21
469.08492999999999
  0
LINE
  8
_0-0_0
  6
CONTINUOUS
 62
    7
 10
-15.692260500000032
 20
469.16137700000002
 11
-15.572219500000074
 21
469.08492999999999
  0
LINE
  8
_0-0_0
  6
CONTINUOUS
 62
    7
 10
-15.822219500000074
 20
469.24520899999999
 11
-15.692260500000032
 21
469.16137700000002
  0
LINE
  8
_0-0_0
  6
CONTINUOUS
 62
    7
 10
-15.822219500000074
 20
469.362976
 11
-15.572219500000074
 21
469.08492999999999
  0
LINE
  8
_0-0_0
  6
CONTINUOUS
 62
    7
 10
-15.822219500000074
 20
469.50140399999998
 11
-15.572219500000074
 21
469.22744799999998
  0
LINE
  8
_0-0_0
  6
CONTINUOUS
 62
    7
 10
-15.572219500000074
 20
469.22744799999998
 11
-6.3222195000000738
 21
469.22744799999998
  0
LINE
  8
_0-0_0
  6
CONTINUOUS
 62
    7
 10
-15.822219500000074
 20
469.362976
 11
-15.572219500000074
 21
469.22744799999998
  0
LINE
  8
_0-0_0
  6
CONTINUOUS
 62
    7
 10
-15.822219500000074
 20
469.658997
 11
-15.572219500000074
 21
469.39211999999998
  0
LINE
  8
_0-0_0
  6
CONTINUOUS
 62
    7
 10
-15.572219500000074
 20
469.39211999999998
 11
-6.3222195000000738
 21
469.39211999999998
  0
LINE
  8
_0-0_0
  6
CONTINUOUS
 62
    7
 10
-15.822219500000074
 20
469.50140399999998
 11
-15.572219500000074
 21
469.39211999999998
  0
LINE
  8
_0-0_0
  6
CONTINUOUS
 62
    7
 10
-15.822219500000074
 20
469.83401500000002
 11
-15.572219500000074
 21
469.57714800000002
  0
LINE
  8
_0-0_0
  6
CONTINUOUS
 62
    7
 10
-15.572219500000074
 20
469.57714800000002
 11
-6.3222195000000738
 21
469.57714800000002
  0
LINE
  8
_0-0_0
  6
CONTINUOUS
 62
    7
 10
-15.822219500000074
 20
469.658997
 11
-15.572219500000074
 21
469.57714800000002
  0
LINE
  8
_0-0_0
  6
CONTINUOUS
 62
    7
 10
-15.822219500000074
 20
470.02453600000001
 11
-15.572219500000074
 21
469.78051799999997
  0
LINE
  8
_0-0_0
  6
CONTINUOUS
 62
    7
 10
-15.572219500000074
 20
469.78051799999997
 11
-6.3222195000000738
 21
469.78051799999997
  0
LINE
  8
_0-0_0
  6
CONTINUOUS
 62
    7
 10
-15.822219500000074
 20
469.83401500000002
 11
-15.572219500000074
 21
469.78051799999997
  0
LINE
  8
_0-0_0
  6
CONTINUOUS
 62
    7
 10
-15.822219500000074
 20
470.22851600000001
 11
-15.572219500000074
 21
470
  0
LINE
  8
_0-0_0
  6
CONTINUOUS
 62
    7
 10
-15.572219500000074
 20
470
 11
-6.3222195000000738
 21
470
  0
LINE
  8
_0-0_0
  6
CONTINUOUS
 62
    7
 10
-15.822219500000074
 20
470.22851600000001
 11
-6.0722195000000738
 21
470.22851600000001
  0
LINE
  8
_0-0_0
  6
CONTINUOUS
 62
    7
 10
-15.822219500000074
 20
470.02453600000001
 11
-15.572219500000074
 21
470
  0
LINE
  8
_0-0_0
  6
CONTINUOUS
 62
    7
 10
-15.822219500000074
 20
470.44366500000001
 11
-15.572219500000074
 21
470.23315400000001
  0
LINE
  8
_0-0_0
  6
CONTINUOUS
 62
    7
 10
-15.572219500000074
 20
470.23315400000001
 11
-6.3222195000000738
 21
470.23315400000001
  0
LINE
  8
_0-0_0
  6
CONTINUOUS
 62
    7
 10
-15.822219500000074
 20
470.44366500000001
 11
-6.0722195000000738
 21
470.44366500000001
  0
LINE
  8
_0-0_0
  6
CONTINUOUS
 62
    7
 10
-15.822219500000074
 20
470.22851600000001
 11
-15.572219500000074
 21
470.23315400000001
  0
LINE
  8
_0-0_0
  6
CONTINUOUS
 62
    7
 10
-15.822219500000074
 20
470.66763300000002
 11
-15.572219500000074
 21
470.47744799999998
  0
LINE
  8
_0-0_0
  6
CONTINUOUS
 62
    7
 10
-15.572219500000074
 20
470.47744799999998
 11
-6.3222195000000738
 21
470.47744799999998
  0
LINE
  8
_0-0_0
  6
CONTINUOUS
 62
    7
 10
-15.822219500000074
 20
470.66763300000002
 11
-6.0722195000000738
 21
470.66763300000002
  0
LINE
  8
_0-0_0
  6
CONTINUOUS
 62
    7
 10
-15.822219500000074
 20
470.44366500000001
 11
-15.572219500000074
 21
470.47744799999998
  0
LINE
  8
_0-0_0
  6
CONTINUOUS
 62
    7
 10
-15.822219500000074
 20
470.89801
 11
-15.572219500000074
 21
470.73019399999998
  0
LINE
  8
_0-0_0
  6
CONTINUOUS
 62
    7
 10
-15.572219500000074
 20
470.73019399999998
 11
-6.3222195000000738
 21
470.73019399999998
  0
LINE
  8
_0-0_0
  6
CONTINUOUS
 62
    7
 10
-15.822219500000074
 20
470.89801
 11
-6.0722195000000738
 21
470.89801
  0
LINE
  8
_0-0_0
  6
CONTINUOUS
 62
    7
 10
-15.822219500000074
 20
470.66763300000002
 11
-15.572219500000074
 21
470.73019399999998
  0
LINE
  8
_0-0_0
  6
CONTINUOUS
 62
    7
 10
-15.822219500000074
 20
471.13223299999999
 11
-15.572219500000074
 21
470.98864700000001
  0
LINE
  8
_0-0_0
  6
CONTINUOUS
 62
    7
 10
-15.572219500000074
 20
470.98864700000001
 11
-6.3222195000000738
 21
470.98864700000001
  0
LINE
  8
_0-0_0
  6
CONTINUOUS
 62
    7
 10
-15.822219500000074
 20
471.13223299999999
 11
-6.0722195000000738
 21
471.13223299999999
  0
LINE
  8
_0-0_0
  6
CONTINUOUS
 62
    7
 10
-15.822219500000074
 20
470.89801
 11
-15.572219500000074
 21
470.98864700000001
  0
LINE
  8
_0-0_0
  6
CONTINUOUS
 62
    7
 10
-15.822219500000074
 20
471.36773699999998
 11
-15.572219500000074
 21
471.25
  0
LINE
  8
_0-0_0
  6
CONTINUOUS
 62
    7
 10
-15.572219500000074
 20
471.25
 11
-6.3222195000000738
 21
471.25
  0
LINE
  8
_0-0_0
  6
CONTINUOUS
 62
    7
 10
-15.822219500000074
 20
471.36773699999998
 11
-6.0722195000000738
 21
471.36773699999998
  0
LINE
  8
_0-0_0
  6
CONTINUOUS
 62
    7
 10
-15.822219500000074
 20
471.13223299999999
 11
-15.572219500000074
 21
471.25
  0
LINE
  8
_0-0_0
  6
CONTINUOUS
 62
    7
 10
-15.822219500000074
 20
471.60195900000002
 11
-15.572219500000074
 21
471.51129200000003
  0
LINE
  8
_0-0_0
  6
CONTINUOUS
 62
    7
 10
-15.572219500000074
 20
471.51129200000003
 11
-6.3222195000000738
 21
471.51129200000003
  0
LINE
  8
_0-0_0
  6
CONTINUOUS
 62
    7
 10
-15.822219500000074
 20
471.60195900000002
 11
-6.0722195000000738
 21
471.60195900000002
  0
LINE
  8
_0-0_0
  6
CONTINUOUS
 62
    7
 10
-15.822219500000074
 20
471.36773699999998
 11
-15.572219500000074
 21
471.51129200000003
  0
LINE
  8
_0-0_0
  6
CONTINUOUS
 62
    7
 10
-15.822219500000074
 20
471.832336
 11
-15.572219500000074
 21
471.76977499999998
  0
LINE
  8
_0-0_0
  6
CONTINUOUS
 62
    7
 10
-15.572219500000074
 20
471.76977499999998
 11
-6.3222195000000738
 21
471.76977499999998
  0
LINE
  8
_0-0_0
  6
CONTINUOUS
 62
    7
 10
-15.822219500000074
 20
471.832336
 11
-6.0722195000000738
 21
471.832336
  0
LINE
  8
_0-0_0
  6
CONTINUOUS
 62
    7
 10
-15.822219500000074
 20
471.60195900000002
 11
-15.572219500000074
 21
471.76977499999998
  0
LINE
  8
_0-0_0
  6
CONTINUOUS
 62
    7
 10
-15.822219500000074
 20
472.05630500000001
 11
-15.572219500000074
 21
472.02252199999998
  0
LINE
  8
_0-0_0
  6
CONTINUOUS
 62
    7
 10
-15.572219500000074
 20
472.02252199999998
 11
-6.3222195000000738
 21
472.02252199999998
  0
LINE
  8
_0-0_0
  6
CONTINUOUS
 62
    7
 10
-15.822219500000074
 20
472.05630500000001
 11
-6.0722195000000738
 21
472.05630500000001
  0
LINE
  8
_0-0_0
  6
CONTINUOUS
 62
    7
 10
-15.822219500000074
 20
471.832336
 11
-15.572219500000074
 21
472.02252199999998
  0
LINE
  8
_0-0_0
  6
CONTINUOUS
 62
    7
 10
-15.822219500000074
 20
472.27145400000001
 11
-15.572219500000074
 21
472.26681500000001
  0
LINE
  8
_0-0_0
  6
CONTINUOUS
 62
    7
 10
-15.572219500000074
 20
472.26681500000001
 11
-6.3222195000000738
 21
472.26681500000001
  0
LINE
  8
_0-0_0
  6
CONTINUOUS
 62
    7
 10
-15.822219500000074
 20
472.05630500000001
 11
-15.572219500000074
 21
472.26681500000001
  0
LINE
  8
_0-0_0
  6
CONTINUOUS
 62
    7
 10
-16.072219500000074
 20
473.25
 11
-16.072219500000074
 21
469.49481200000002
  0
LINE
  8
_0-0_0
  6
CONTINUOUS
 62
    7
 10
-16.072219500000074
 20
469.49481200000002
 11
-16.072219500000074
 21
469.25
  0
LINE
  8
_0-0_0
  6
CONTINUOUS
 62
    7
 10
-2.4722295000000258
 20
467.94998199999998
 11
-2.4722295000000258
 21
465.44998199999998
  0
LINE
  8
_0-0_0
  6
CONTINUOUS
 62
    7
 10
-2.4722295000000258
 20
465.44998199999998
 11
-2.4722295000000258
 21
457.94998199999998
  0
LINE
  8
_0-0_0
  6
CONTINUOUS
 62
    7
 10
-3.2722325000000296
 20
467.48809799999998
 11
-3.2722325000000296
 21
465.21905500000003
  0
LINE
  8
_0-0_0
  6
CONTINUOUS
 62
    7
 10
-3.2722325000000296
 20
465.21905500000003
 11
-3.2722325000000296
 21
458.41186499999998
  0
LINE
  8
_0-0_0
  6
CONTINUOUS
 62
    7
 10
-61.272216500000013
 20
466.94998199999998
 11
-61.272216500000013
 21
466.94863900000001
  0
LINE
  8
_0-0_0
  6
CONTINUOUS
 62
    7
 10
-61.272216500000013
 20
466.94863900000001
 11
-61.272216500000013
 21
458.94998199999998
  0
LINE
  8
_0-0_0
  6
CONTINUOUS
 62
    7
 10
-6.0722195000000738
 20
452.403076
 11
-6.0722195000000738
 21
452.39999399999999
  0
LINE
  8
_0-0_0
  6
CONTINUOUS
 62
    7
 10
-6.0722195000000738
 20
452.42770400000001
 11
-6.0722195000000738
 21
452.403076
  0
LINE
  8
_0-0_0
  6
CONTINUOUS
 62
    7
 10
-6.0722195000000738
 20
452.476654
 11
-6.0722195000000738
 21
452.39999399999999
  0
LINE
  8
_0-0_0
  6
CONTINUOUS
 62
    7
 10
-6.0722195000000738
 20
452.54943800000001
 11
-6.0722195000000738
 21
452.476654
  0
LINE
  8
_0-0_0
  6
CONTINUOUS
 62
    7
 10
-6.0722195000000738
 20
452.64520299999998
 11
-6.0722195000000738
 21
452.54943800000001
  0
LINE
  8
_0-0_0
  6
CONTINUOUS
 62
    7
 10
-6.0722195000000738
 20
452.67541499999999
 11
-6.0722195000000738
 21
452.64520299999998
  0
LINE
  8
_0-0_0
  6
CONTINUOUS
 62
    7
 10
-6.0722195000000738
 20
452.76297
 11
-6.0722195000000738
 21
452.67541499999999
  0
LINE
  8
_0-0_0
  6
CONTINUOUS
 62
    7
 10
-6.0722195000000738
 20
452.90139799999997
 11
-6.0722195000000738
 21
452.76297
  0
LINE
  8
_0-0_0
  6
CONTINUOUS
 62
    7
 10
-6.0722195000000738
 20
453.05898999999999
 11
-6.0722195000000738
 21
452.90139799999997
  0
LINE
  8
_0-0_0
  6
CONTINUOUS
 62
    7
 10
-6.0722195000000738
 20
453.23400900000001
 11
-6.0722195000000738
 21
453.05898999999999
  0
LINE
  8
_0-0_0
  6
CONTINUOUS
 62
    7
 10
-6.0722195000000738
 20
453.42453
 11
-6.0722195000000738
 21
453.23400900000001
  0
LINE
  8
_0-0_0
  6
CONTINUOUS
 62
    7
 10
-6.0722195000000738
 20
453.62851000000001
 11
-6.0722195000000738
 21
453.42453
  0
LINE
  8
_0-0_0
  6
CONTINUOUS
 62
    7
 10
-6.0722195000000738
 20
453.843658
 11
-6.0722195000000738
 21
453.62851000000001
  0
LINE
  8
_0-0_0
  6
CONTINUOUS
 62
    7
 10
-6.0722195000000738
 20
454.06762700000002
 11
-6.0722195000000738
 21
453.843658
  0
LINE
  8
_0-0_0
  6
CONTINUOUS
 62
    7
 10
-6.0722195000000738
 20
454.29800399999999
 11
-6.0722195000000738
 21
454.06762700000002
  0
LINE
  8
_0-0_0
  6
CONTINUOUS
 62
    7
 10
-6.0722195000000738
 20
454.53222699999998
 11
-6.0722195000000738
 21
454.29800399999999
  0
LINE
  8
_0-0_0
  6
CONTINUOUS
 62
    7
 10
-6.0722195000000738
 20
454.76773100000003
 11
-6.0722195000000738
 21
454.53222699999998
  0
LINE
  8
_0-0_0
  6
CONTINUOUS
 62
    7
 10
-6.0722195000000738
 20
455.00195300000001
 11
-6.0722195000000738
 21
454.76773100000003
  0
LINE
  8
_0-0_0
  6
CONTINUOUS
 62
    7
 10
-6.0722195000000738
 20
455.23232999999999
 11
-6.0722195000000738
 21
455.00195300000001
  0
LINE
  8
_0-0_0
  6
CONTINUOUS
 62
    7
 10
-6.0722195000000738
 20
455.456299
 11
-6.0722195000000738
 21
455.23232999999999
  0
LINE
  8
_0-0_0
  6
CONTINUOUS
 62
    7
 10
-6.0722195000000738
 20
455.671448
 11
-6.0722195000000738
 21
455.456299
  0
LINE
  8
_0-0_0
  6
CONTINUOUS
 62
    7
 10
-6.0722195000000738
 20
455.72869900000001
 11
-6.0722195000000738
 21
455.671448
  0
LINE
  8
_0-0_0
  6
CONTINUOUS
 62
    7
 10
-6.0722195000000738
 20
452.403076
 11
-6.3222195000000738
 21
452.14999399999999
  0
LINE
  8
_0-0_0
  6
CONTINUOUS
 62
    7
 10
-6.0722195000000738
 20
452.42770400000001
 11
-6.3222195000000738
 21
452.16369600000002
  0
LINE
  8
_0-0_0
  6
CONTINUOUS
 62
    7
 10
-6.0722195000000738
 20
452.403076
 11
-6.3222195000000738
 21
452.16369600000002
  0
LINE
  8
_0-0_0
  6
CONTINUOUS
 62
    7
 10
-6.0722195000000738
 20
452.476654
 11
-6.3222195000000738
 21
452.20461999999998
  0
LINE
  8
_0-0_0
  6
CONTINUOUS
 62
    7
 10
-6.0722195000000738
 20
452.42770400000001
 11
-6.3222195000000738
 21
452.20461999999998
  0
LINE
  8
_0-0_0
  6
CONTINUOUS
 62
    7
 10
-6.0722195000000738
 20
452.54943800000001
 11
-6.3222195000000738
 21
452.27233899999999
  0
LINE
  8
_0-0_0
  6
CONTINUOUS
 62
    7
 10
-6.0722195000000738
 20
452.476654
 11
-6.3222195000000738
 21
452.27233899999999
  0
LINE
  8
_0-0_0
  6
CONTINUOUS
 62
    7
 10
-6.0722195000000738
 20
452.64520299999998
 11
-6.3222195000000738
 21
452.36611900000003
  0
LINE
  8
_0-0_0
  6
CONTINUOUS
 62
    7
 10
-6.0722195000000738
 20
452.54943800000001
 11
-6.3222195000000738
 21
452.36611900000003
  0
LINE
  8
_0-0_0
  6
CONTINUOUS
 62
    7
 10
-6.0722195000000738
 20
452.64520299999998
 11
-6.2021945000000187
 21
452.56137100000001
  0
LINE
  8
_0-0_0
  6
CONTINUOUS
 62
    7
 10
-6.0722195000000738
 20
452.76297
 11
-6.3222195000000738
 21
452.48492399999998
  0
LINE
  8
_0-0_0
  6
CONTINUOUS
 62
    7
 10
-6.2021945000000187
 20
452.56137100000001
 11
-6.3222195000000738
 21
452.48492399999998
  0
LINE
  8
_0-0_0
  6
CONTINUOUS
 62
    7
 10
-6.0722195000000738
 20
452.90139799999997
 11
-6.3222195000000738
 21
452.62744099999998
  0
LINE
  8
_0-0_0
  6
CONTINUOUS
 62
    7
 10
-6.0722195000000738
 20
452.76297
 11
-6.3222195000000738
 21
452.62744099999998
  0
LINE
  8
_0-0_0
  6
CONTINUOUS
 62
    7
 10
-6.0722195000000738
 20
453.05898999999999
 11
-6.3222195000000738
 21
452.79211400000003
  0
LINE
  8
_0-0_0
  6
CONTINUOUS
 62
    7
 10
-6.0722195000000738
 20
452.90139799999997
 11
-6.3222195000000738
 21
452.79211400000003
  0
LINE
  8
_0-0_0
  6
CONTINUOUS
 62
    7
 10
-6.0722195000000738
 20
453.23400900000001
 11
-6.3222195000000738
 21
452.97717299999999
  0
LINE
  8
_0-0_0
  6
CONTINUOUS
 62
    7
 10
-6.0722195000000738
 20
453.05898999999999
 11
-6.3222195000000738
 21
452.97717299999999
  0
LINE
  8
_0-0_0
  6
CONTINUOUS
 62
    7
 10
-6.0722195000000738
 20
453.42453
 11
-6.3222195000000738
 21
453.18051100000002
  0
LINE
  8
_0-0_0
  6
CONTINUOUS
 62
    7
 10
-6.0722195000000738
 20
453.23400900000001
 11
-6.3222195000000738
 21
453.18051100000002
  0
LINE
  8
_0-0_0
  6
CONTINUOUS
 62
    7
 10
-6.0722195000000738
 20
453.62851000000001
 11
-6.3222195000000738
 21
453.39999399999999
  0
LINE
  8
_0-0_0
  6
CONTINUOUS
 62
    7
 10
-6.0722195000000738
 20
453.42453
 11
-6.3222195000000738
 21
453.39999399999999
  0
LINE
  8
_0-0_0
  6
CONTINUOUS
 62
    7
 10
-6.0722195000000738
 20
453.843658
 11
-6.3222195000000738
 21
453.63314800000001
  0
LINE
  8
_0-0_0
  6
CONTINUOUS
 62
    7
 10
-6.0722195000000738
 20
453.62851000000001
 11
-6.3222195000000738
 21
453.63314800000001
  0
LINE
  8
_0-0_0
  6
CONTINUOUS
 62
    7
 10
-6.0722195000000738
 20
454.06762700000002
 11
-6.3222195000000738
 21
453.87744099999998
  0
LINE
  8
_0-0_0
  6
CONTINUOUS
 62
    7
 10
-6.0722195000000738
 20
453.843658
 11
-6.3222195000000738
 21
453.87744099999998
  0
LINE
  8
_0-0_0
  6
CONTINUOUS
 62
    7
 10
-6.0722195000000738
 20
454.29800399999999
 11
-6.3222195000000738
 21
454.13018799999998
  0
LINE
  8
_0-0_0
  6
CONTINUOUS
 62
    7
 10
-6.0722195000000738
 20
454.06762700000002
 11
-6.3222195000000738
 21
454.13018799999998
  0
LINE
  8
_0-0_0
  6
CONTINUOUS
 62
    7
 10
-6.0722195000000738
 20
454.53222699999998
 11
-6.3222195000000738
 21
454.38867199999999
  0
LINE
  8
_0-0_0
  6
CONTINUOUS
 62
    7
 10
-6.0722195000000738
 20
454.29800399999999
 11
-6.3222195000000738
 21
454.38867199999999
  0
LINE
  8
_0-0_0
  6
CONTINUOUS
 62
    7
 10
-6.0722195000000738
 20
454.76773100000003
 11
-6.3222195000000738
 21
454.64999399999999
  0
LINE
  8
_0-0_0
  6
CONTINUOUS
 62
    7
 10
-6.0722195000000738
 20
454.53222699999998
 11
-6.3222195000000738
 21
454.64999399999999
  0
LINE
  8
_0-0_0
  6
CONTINUOUS
 62
    7
 10
-6.0722195000000738
 20
455.00195300000001
 11
-6.3222195000000738
 21
454.911316
  0
LINE
  8
_0-0_0
  6
CONTINUOUS
 62
    7
 10
-6.0722195000000738
 20
454.76773100000003
 11
-6.3222195000000738
 21
454.911316
  0
LINE
  8
_0-0_0
  6
CONTINUOUS
 62
    7
 10
-6.0722195000000738
 20
455.23232999999999
 11
-6.3222195000000738
 21
455.16976899999997
  0
LINE
  8
_0-0_0
  6
CONTINUOUS
 62
    7
 10
-6.0722195000000738
 20
455.00195300000001
 11
-6.3222195000000738
 21
455.16976899999997
  0
LINE
  8
_0-0_0
  6
CONTINUOUS
 62
    7
 10
-6.0722195000000738
 20
455.456299
 11
-6.3222195000000738
 21
455.42251599999997
  0
LINE
  8
_0-0_0
  6
CONTINUOUS
 62
    7
 10
-6.0722195000000738
 20
455.23232999999999
 11
-6.3222195000000738
 21
455.42251599999997
  0
LINE
  8
_0-0_0
  6
CONTINUOUS
 62
    7
 10
-6.0722195000000738
 20
455.671448
 11
-6.3222195000000738
 21
455.666809
  0
LINE
  8
_0-0_0
  6
CONTINUOUS
 62
    7
 10
-6.0722195000000738
 20
455.456299
 11
-6.3222195000000738
 21
455.666809
  0
LINE
  8
_0-0_0
  6
CONTINUOUS
 62
    7
 10
-6.0722195000000738
 20
455.875427
 11
-6.0722195000000738
 21
455.72869900000001
  0
LINE
  8
_0-0_0
  6
CONTINUOUS
 62
    7
 10
-6.0722195000000738
 20
455.875427
 11
-6.3222195000000738
 21
455.89999399999999
  0
LINE
  8
_0-0_0
  6
CONTINUOUS
 62
    7
 10
-6.0722195000000738
 20
455.671448
 11
-6.3222195000000738
 21
455.89999399999999
  0
LINE
  8
_0-0_0
  6
CONTINUOUS
 62
    7
 10
-6.0722195000000738
 20
456.06594799999999
 11
-6.0722195000000738
 21
455.875427
  0
LINE
  8
_0-0_0
  6
CONTINUOUS
 62
    7
 10
-6.0722195000000738
 20
456.24096700000001
 11
-6.0722195000000738
 21
456.06594799999999
  0
LINE
  8
_0-0_0
  6
CONTINUOUS
 62
    7
 10
-6.0722195000000738
 20
456.39855999999997
 11
-6.0722195000000738
 21
456.24096700000001
  0
LINE
  8
_0-0_0
  6
CONTINUOUS
 62
    7
 10
-6.0722195000000738
 20
456.53698700000001
 11
-6.0722195000000738
 21
456.39855999999997
  0
LINE
  8
_0-0_0
  6
CONTINUOUS
 62
    7
 10
-6.0722195000000738
 20
456.65475500000002
 11
-6.0722195000000738
 21
456.53698700000001
  0
LINE
  8
_0-0_0
  6
CONTINUOUS
 62
    7
 10
-6.0722195000000738
 20
456.75054899999998
 11
-6.0722195000000738
 21
456.65475500000002
  0
LINE
  8
_0-0_0
  6
CONTINUOUS
 62
    7
 10
-6.0722195000000738
 20
456.82330300000001
 11
-6.0722195000000738
 21
456.75054899999998
  0
LINE
  8
_0-0_0
  6
CONTINUOUS
 62
    7
 10
-6.0722195000000738
 20
456.87228399999998
 11
-6.0722195000000738
 21
456.82330300000001
  0
LINE
  8
_0-0_0
  6
CONTINUOUS
 62
    7
 10
-6.0722195000000738
 20
456.89691199999999
 11
-6.0722195000000738
 21
456.87228399999998
  0
LINE
  8
_0-0_0
  6
CONTINUOUS
 62
    7
 10
-6.0722195000000738
 20
456.89999399999999
 11
-6.0722195000000738
 21
456.89691199999999
  0
LINE
  8
_0-0_0
  6
CONTINUOUS
 62
    7
 10
-15.822219500000074
 20
452.403076
 11
-15.572219500000074
 21
452.14999399999999
  0
LINE
  8
_0-0_0
  6
CONTINUOUS
 62
    7
 10
-15.572219500000074
 20
452.14999399999999
 11
-6.3222195000000738
 21
452.14999399999999
  0
LINE
  8
_0-0_0
  6
CONTINUOUS
 62
    7
 10
-15.822219500000074
 20
452.42770400000001
 11
-15.572219500000074
 21
452.16369600000002
  0
LINE
  8
_0-0_0
  6
CONTINUOUS
 62
    7
 10
-15.572219500000074
 20
452.16369600000002
 11
-6.3222195000000738
 21
452.16369600000002
  0
LINE
  8
_0-0_0
  6
CONTINUOUS
 62
    7
 10
-15.822219500000074
 20
452.403076
 11
-15.572219500000074
 21
452.16369600000002
  0
LINE
  8
_0-0_0
  6
CONTINUOUS
 62
    7
 10
-15.822219500000074
 20
452.476654
 11
-15.572219500000074
 21
452.20461999999998
  0
LINE
  8
_0-0_0
  6
CONTINUOUS
 62
    7
 10
-15.572219500000074
 20
452.20461999999998
 11
-6.3222195000000738
 21
452.20461999999998
  0
LINE
  8
_0-0_0
  6
CONTINUOUS
 62
    7
 10
-15.822219500000074
 20
452.42770400000001
 11
-15.572219500000074
 21
452.20461999999998
  0
LINE
  8
_0-0_0
  6
CONTINUOUS
 62
    7
 10
-15.822219500000074
 20
452.54943800000001
 11
-15.572219500000074
 21
452.27233899999999
  0
LINE
  8
_0-0_0
  6
CONTINUOUS
 62
    7
 10
-15.572219500000074
 20
452.27233899999999
 11
-6.3222195000000738
 21
452.27233899999999
  0
LINE
  8
_0-0_0
  6
CONTINUOUS
 62
    7
 10
-15.822219500000074
 20
452.476654
 11
-15.572219500000074
 21
452.27233899999999
  0
LINE
  8
_0-0_0
  6
CONTINUOUS
 62
    7
 10
-15.822219500000074
 20
452.64520299999998
 11
-15.572219500000074
 21
452.36611900000003
  0
LINE
  8
_0-0_0
  6
CONTINUOUS
 62
    7
 10
-15.572219500000074
 20
452.36611900000003
 11
-6.3222195000000738
 21
452.36611900000003
  0
LINE
  8
_0-0_0
  6
CONTINUOUS
 62
    7
 10
-15.822219500000074
 20
452.54943800000001
 11
-15.572219500000074
 21
452.36611900000003
  0
LINE
  8
_0-0_0
  6
CONTINUOUS
 62
    7
 10
-15.572219500000074
 20
452.48492399999998
 11
-6.3222195000000738
 21
452.48492399999998
  0
LINE
  8
_0-0_0
  6
CONTINUOUS
 62
    7
 10
-15.692260500000032
 20
452.56137100000001
 11
-15.572219500000074
 21
452.48492399999998
  0
LINE
  8
_0-0_0
  6
CONTINUOUS
 62
    7
 10
-15.822219500000074
 20
452.64520299999998
 11
-15.692260500000032
 21
452.56137100000001
  0
LINE
  8
_0-0_0
  6
CONTINUOUS
 62
    7
 10
-15.822219500000074
 20
452.76297
 11
-15.572219500000074
 21
452.48492399999998
  0
LINE
  8
_0-0_0
  6
CONTINUOUS
 62
    7
 10
-15.822219500000074
 20
452.90139799999997
 11
-15.572219500000074
 21
452.62744099999998
  0
LINE
  8
_0-0_0
  6
CONTINUOUS
 62
    7
 10
-15.572219500000074
 20
452.62744099999998
 11
-6.3222195000000738
 21
452.62744099999998
  0
LINE
  8
_0-0_0
  6
CONTINUOUS
 62
    7
 10
-15.822219500000074
 20
452.76297
 11
-15.572219500000074
 21
452.62744099999998
  0
LINE
  8
_0-0_0
  6
CONTINUOUS
 62
    7
 10
-15.822219500000074
 20
453.05898999999999
 11
-15.572219500000074
 21
452.79211400000003
  0
LINE
  8
_0-0_0
  6
CONTINUOUS
 62
    7
 10
-15.572219500000074
 20
452.79211400000003
 11
-6.3222195000000738
 21
452.79211400000003
  0
LINE
  8
_0-0_0
  6
CONTINUOUS
 62
    7
 10
-15.822219500000074
 20
452.90139799999997
 11
-15.572219500000074
 21
452.79211400000003
  0
LINE
  8
_0-0_0
  6
CONTINUOUS
 62
    7
 10
-15.822219500000074
 20
453.23400900000001
 11
-15.572219500000074
 21
452.97717299999999
  0
LINE
  8
_0-0_0
  6
CONTINUOUS
 62
    7
 10
-15.572219500000074
 20
452.97717299999999
 11
-6.3222195000000738
 21
452.97717299999999
  0
LINE
  8
_0-0_0
  6
CONTINUOUS
 62
    7
 10
-15.822219500000074
 20
453.05898999999999
 11
-15.572219500000074
 21
452.97717299999999
  0
LINE
  8
_0-0_0
  6
CONTINUOUS
 62
    7
 10
-15.822219500000074
 20
453.42453
 11
-15.572219500000074
 21
453.18051100000002
  0
LINE
  8
_0-0_0
  6
CONTINUOUS
 62
    7
 10
-15.572219500000074
 20
453.18051100000002
 11
-6.3222195000000738
 21
453.18051100000002
  0
LINE
  8
_0-0_0
  6
CONTINUOUS
 62
    7
 10
-15.822219500000074
 20
453.23400900000001
 11
-15.572219500000074
 21
453.18051100000002
  0
LINE
  8
_0-0_0
  6
CONTINUOUS
 62
    7
 10
-15.822219500000074
 20
453.62851000000001
 11
-15.572219500000074
 21
453.39999399999999
  0
LINE
  8
_0-0_0
  6
CONTINUOUS
 62
    7
 10
-15.572219500000074
 20
453.39999399999999
 11
-6.3222195000000738
 21
453.39999399999999
  0
LINE
  8
_0-0_0
  6
CONTINUOUS
 62
    7
 10
-15.822219500000074
 20
453.62851000000001
 11
-6.0722195000000738
 21
453.62851000000001
  0
LINE
  8
_0-0_0
  6
CONTINUOUS
 62
    7
 10
-15.822219500000074
 20
453.42453
 11
-15.572219500000074
 21
453.39999399999999
  0
LINE
  8
_0-0_0
  6
CONTINUOUS
 62
    7
 10
-15.822219500000074
 20
453.843658
 11
-15.572219500000074
 21
453.63314800000001
  0
LINE
  8
_0-0_0
  6
CONTINUOUS
 62
    7
 10
-15.572219500000074
 20
453.63314800000001
 11
-6.3222195000000738
 21
453.63314800000001
  0
LINE
  8
_0-0_0
  6
CONTINUOUS
 62
    7
 10
-15.822219500000074
 20
453.843658
 11
-6.0722195000000738
 21
453.843658
  0
LINE
  8
_0-0_0
  6
CONTINUOUS
 62
    7
 10
-15.822219500000074
 20
453.62851000000001
 11
-15.572219500000074
 21
453.63314800000001
  0
LINE
  8
_0-0_0
  6
CONTINUOUS
 62
    7
 10
-15.822219500000074
 20
454.06762700000002
 11
-15.572219500000074
 21
453.87744099999998
  0
LINE
  8
_0-0_0
  6
CONTINUOUS
 62
    7
 10
-15.572219500000074
 20
453.87744099999998
 11
-6.3222195000000738
 21
453.87744099999998
  0
LINE
  8
_0-0_0
  6
CONTINUOUS
 62
    7
 10
-15.822219500000074
 20
454.06762700000002
 11
-6.0722195000000738
 21
454.06762700000002
  0
LINE
  8
_0-0_0
  6
CONTINUOUS
 62
    7
 10
-15.822219500000074
 20
453.843658
 11
-15.572219500000074
 21
453.87744099999998
  0
LINE
  8
_0-0_0
  6
CONTINUOUS
 62
    7
 10
-15.822219500000074
 20
454.29800399999999
 11
-15.572219500000074
 21
454.13018799999998
  0
LINE
  8
_0-0_0
  6
CONTINUOUS
 62
    7
 10
-15.572219500000074
 20
454.13018799999998
 11
-6.3222195000000738
 21
454.13018799999998
  0
LINE
  8
_0-0_0
  6
CONTINUOUS
 62
    7
 10
-15.822219500000074
 20
454.29800399999999
 11
-6.0722195000000738
 21
454.29800399999999
  0
LINE
  8
_0-0_0
  6
CONTINUOUS
 62
    7
 10
-15.822219500000074
 20
454.06762700000002
 11
-15.572219500000074
 21
454.13018799999998
  0
LINE
  8
_0-0_0
  6
CONTINUOUS
 62
    7
 10
-15.822219500000074
 20
454.53222699999998
 11
-15.572219500000074
 21
454.38867199999999
  0
LINE
  8
_0-0_0
  6
CONTINUOUS
 62
    7
 10
-15.572219500000074
 20
454.38867199999999
 11
-6.3222195000000738
 21
454.38867199999999
  0
LINE
  8
_0-0_0
  6
CONTINUOUS
 62
    7
 10
-15.822219500000074
 20
454.53222699999998
 11
-6.0722195000000738
 21
454.53222699999998
  0
LINE
  8
_0-0_0
  6
CONTINUOUS
 62
    7
 10
-15.822219500000074
 20
454.29800399999999
 11
-15.572219500000074
 21
454.38867199999999
  0
LINE
  8
_0-0_0
  6
CONTINUOUS
 62
    7
 10
-15.822219500000074
 20
454.76773100000003
 11
-15.572219500000074
 21
454.64999399999999
  0
LINE
  8
_0-0_0
  6
CONTINUOUS
 62
    7
 10
-15.572219500000074
 20
454.64999399999999
 11
-6.3222195000000738
 21
454.64999399999999
  0
LINE
  8
_0-0_0
  6
CONTINUOUS
 62
    7
 10
-15.822219500000074
 20
454.76773100000003
 11
-6.0722195000000738
 21
454.76773100000003
  0
LINE
  8
_0-0_0
  6
CONTINUOUS
 62
    7
 10
-15.822219500000074
 20
454.53222699999998
 11
-15.572219500000074
 21
454.64999399999999
  0
LINE
  8
_0-0_0
  6
CONTINUOUS
 62
    7
 10
-15.822219500000074
 20
455.00195300000001
 11
-15.572219500000074
 21
454.911316
  0
LINE
  8
_0-0_0
  6
CONTINUOUS
 62
    7
 10
-15.572219500000074
 20
454.911316
 11
-6.3222195000000738
 21
454.911316
  0
LINE
  8
_0-0_0
  6
CONTINUOUS
 62
    7
 10
-15.822219500000074
 20
455.00195300000001
 11
-6.0722195000000738
 21
455.00195300000001
  0
LINE
  8
_0-0_0
  6
CONTINUOUS
 62
    7
 10
-15.822219500000074
 20
454.76773100000003
 11
-15.572219500000074
 21
454.911316
  0
LINE
  8
_0-0_0
  6
CONTINUOUS
 62
    7
 10
-15.822219500000074
 20
455.23232999999999
 11
-15.572219500000074
 21
455.16976899999997
  0
LINE
  8
_0-0_0
  6
CONTINUOUS
 62
    7
 10
-15.572219500000074
 20
455.16976899999997
 11
-6.3222195000000738
 21
455.16976899999997
  0
LINE
  8
_0-0_0
  6
CONTINUOUS
 62
    7
 10
-15.822219500000074
 20
455.23232999999999
 11
-6.0722195000000738
 21
455.23232999999999
  0
LINE
  8
_0-0_0
  6
CONTINUOUS
 62
    7
 10
-15.822219500000074
 20
455.00195300000001
 11
-15.572219500000074
 21
455.16976899999997
  0
LINE
  8
_0-0_0
  6
CONTINUOUS
 62
    7
 10
-15.822219500000074
 20
455.456299
 11
-15.572219500000074
 21
455.42251599999997
  0
LINE
  8
_0-0_0
  6
CONTINUOUS
 62
    7
 10
-15.572219500000074
 20
455.42251599999997
 11
-6.3222195000000738
 21
455.42251599999997
  0
LINE
  8
_0-0_0
  6
CONTINUOUS
 62
    7
 10
-15.822219500000074
 20
455.456299
 11
-6.0722195000000738
 21
455.456299
  0
LINE
  8
_0-0_0
  6
CONTINUOUS
 62
    7
 10
-15.822219500000074
 20
455.23232999999999
 11
-15.572219500000074
 21
455.42251599999997
  0
LINE
  8
_0-0_0
  6
CONTINUOUS
 62
    7
 10
-15.822219500000074
 20
455.671448
 11
-15.572219500000074
 21
455.666809
  0
LINE
  8
_0-0_0
  6
CONTINUOUS
 62
    7
 10
-15.572219500000074
 20
455.666809
 11
-6.3222195000000738
 21
455.666809
  0
LINE
  8
_0-0_0
  6
CONTINUOUS
 62
    7
 10
-15.822219500000074
 20
455.671448
 11
-6.0722195000000738
 21
455.671448
  0
LINE
  8
_0-0_0
  6
CONTINUOUS
 62
    7
 10
-15.822219500000074
 20
455.456299
 11
-15.572219500000074
 21
455.666809
  0
LINE
  8
_0-0_0
  6
CONTINUOUS
 62
    7
 10
-15.822219500000074
 20
455.875427
 11
-15.572219500000074
 21
455.89999399999999
  0
LINE
  8
_0-0_0
  6
CONTINUOUS
 62
    7
 10
-15.572219500000074
 20
455.89999399999999
 11
-6.3222195000000738
 21
455.89999399999999
  0
LINE
  8
_0-0_0
  6
CONTINUOUS
 62
    7
 10
-15.822219500000074
 20
455.671448
 11
-15.572219500000074
 21
455.89999399999999
  0
LINE
  8
_0-0_0
  6
CONTINUOUS
 62
    7
 10
-6.0722195000000738
 20
456.06594799999999
 11
-6.3222195000000738
 21
456.11944599999998
  0
LINE
  8
_0-0_0
  6
CONTINUOUS
 62
    7
 10
-6.0722195000000738
 20
455.875427
 11
-6.3222195000000738
 21
456.11944599999998
  0
LINE
  8
_0-0_0
  6
CONTINUOUS
 62
    7
 10
-6.0722195000000738
 20
456.24096700000001
 11
-6.3222195000000738
 21
456.32281499999999
  0
LINE
  8
_0-0_0
  6
CONTINUOUS
 62
    7
 10
-6.0722195000000738
 20
456.06594799999999
 11
-6.3222195000000738
 21
456.32281499999999
  0
LINE
  8
_0-0_0
  6
CONTINUOUS
 62
    7
 10
-6.0722195000000738
 20
456.39855999999997
 11
-6.3222195000000738
 21
456.50784299999998
  0
LINE
  8
_0-0_0
  6
CONTINUOUS
 62
    7
 10
-6.0722195000000738
 20
456.24096700000001
 11
-6.3222195000000738
 21
456.50784299999998
  0
LINE
  8
_0-0_0
  6
CONTINUOUS
 62
    7
 10
-6.0722195000000738
 20
456.53698700000001
 11
-6.3222195000000738
 21
456.67251599999997
  0
LINE
  8
_0-0_0
  6
CONTINUOUS
 62
    7
 10
-6.0722195000000738
 20
456.39855999999997
 11
-6.3222195000000738
 21
456.67251599999997
  0
LINE
  8
_0-0_0
  6
CONTINUOUS
 62
    7
 10
-6.0722195000000738
 20
456.65475500000002
 11
-6.3222195000000738
 21
456.81506300000001
  0
LINE
  8
_0-0_0
  6
CONTINUOUS
 62
    7
 10
-6.0722195000000738
 20
456.53698700000001
 11
-6.3222195000000738
 21
456.81506300000001
  0
LINE
  8
_0-0_0
  6
CONTINUOUS
 62
    7
 10
-6.0722195000000738
 20
456.75054899999998
 11
-6.3222195000000738
 21
456.93383799999998
  0
LINE
  8
_0-0_0
  6
CONTINUOUS
 62
    7
 10
-6.0722195000000738
 20
456.65475500000002
 11
-6.3222195000000738
 21
456.93383799999998
  0
LINE
  8
_0-0_0
  6
CONTINUOUS
 62
    7
 10
-6.0722195000000738
 20
456.82330300000001
 11
-6.3222195000000738
 21
457.02761800000002
  0
LINE
  8
_0-0_0
  6
CONTINUOUS
 62
    7
 10
-6.0722195000000738
 20
456.75054899999998
 11
-6.3222195000000738
 21
457.02761800000002
  0
LINE
  8
_0-0_0
  6
CONTINUOUS
 62
    7
 10
-6.0722195000000738
 20
456.87228399999998
 11
-6.3222195000000738
 21
457.09533699999997
  0
LINE
  8
_0-0_0
  6
CONTINUOUS
 62
    7
 10
-6.0722195000000738
 20
456.82330300000001
 11
-6.3222195000000738
 21
457.09533699999997
  0
LINE
  8
_0-0_0
  6
CONTINUOUS
 62
    7
 10
-6.0722195000000738
 20
456.89691199999999
 11
-6.3222195000000738
 21
457.13629200000003
  0
LINE
  8
_0-0_0
  6
CONTINUOUS
 62
    7
 10
-6.0722195000000738
 20
456.87228399999998
 11
-6.3222195000000738
 21
457.13629200000003
  0
LINE
  8
_0-0_0
  6
CONTINUOUS
 62
    7
 10
-6.0722195000000738
 20
456.89691199999999
 11
-6.3222195000000738
 21
457.14999399999999
  0
LINE
  8
_0-0_0
  6
CONTINUOUS
 62
    7
 10
-16.072219500000074
 20
452.894836
 11
-16.072219500000074
 21
452.64999399999999
  0
LINE
  8
_0-0_0
  6
CONTINUOUS
 62
    7
 10
-15.822219500000074
 20
455.875427
 11
-15.572219500000074
 21
456.11944599999998
  0
LINE
  8
_0-0_0
  6
CONTINUOUS
 62
    7
 10
-15.822219500000074
 20
456.06594799999999
 11
-15.572219500000074
 21
456.11944599999998
  0
LINE
  8
_0-0_0
  6
CONTINUOUS
 62
    7
 10
-15.822219500000074
 20
456.06594799999999
 11
-15.572219500000074
 21
456.32281499999999
  0
LINE
  8
_0-0_0
  6
CONTINUOUS
 62
    7
 10
-15.822219500000074
 20
456.24096700000001
 11
-15.572219500000074
 21
456.32281499999999
  0
LINE
  8
_0-0_0
  6
CONTINUOUS
 62
    7
 10
-15.822219500000074
 20
456.24096700000001
 11
-15.572219500000074
 21
456.50784299999998
  0
LINE
  8
_0-0_0
  6
CONTINUOUS
 62
    7
 10
-15.822219500000074
 20
456.39855999999997
 11
-15.572219500000074
 21
456.50784299999998
  0
LINE
  8
_0-0_0
  6
CONTINUOUS
 62
    7
 10
-15.822219500000074
 20
456.39855999999997
 11
-15.572219500000074
 21
456.67251599999997
  0
LINE
  8
_0-0_0
  6
CONTINUOUS
 62
    7
 10
-15.822219500000074
 20
456.53698700000001
 11
-15.572219500000074
 21
456.67251599999997
  0
LINE
  8
_0-0_0
  6
CONTINUOUS
 62
    7
 10
-15.822219500000074
 20
456.53698700000001
 11
-15.572219500000074
 21
456.81506300000001
  0
LINE
  8
_0-0_0
  6
CONTINUOUS
 62
    7
 10
-15.822219500000074
 20
456.65475500000002
 11
-15.572219500000074
 21
456.81506300000001
  0
LINE
  8
_0-0_0
  6
CONTINUOUS
 62
    7
 10
-15.822219500000074
 20
456.65475500000002
 11
-15.572219500000074
 21
456.93383799999998
  0
LINE
  8
_0-0_0
  6
CONTINUOUS
 62
    7
 10
-15.822219500000074
 20
456.75054899999998
 11
-15.572219500000074
 21
456.93383799999998
  0
LINE
  8
_0-0_0
  6
CONTINUOUS
 62
    7
 10
-15.822219500000074
 20
456.75054899999998
 11
-15.572219500000074
 21
457.02761800000002
  0
LINE
  8
_0-0_0
  6
CONTINUOUS
 62
    7
 10
-15.822219500000074
 20
456.82330300000001
 11
-15.572219500000074
 21
457.02761800000002
  0
LINE
  8
_0-0_0
  6
CONTINUOUS
 62
    7
 10
-15.822219500000074
 20
456.82330300000001
 11
-15.572219500000074
 21
457.09533699999997
  0
LINE
  8
_0-0_0
  6
CONTINUOUS
 62
    7
 10
-15.822219500000074
 20
456.87228399999998
 11
-15.572219500000074
 21
457.09533699999997
  0
LINE
  8
_0-0_0
  6
CONTINUOUS
 62
    7
 10
-15.822219500000074
 20
456.87228399999998
 11
-15.572219500000074
 21
457.13629200000003
  0
LINE
  8
_0-0_0
  6
CONTINUOUS
 62
    7
 10
-15.822219500000074
 20
456.89691199999999
 11
-15.572219500000074
 21
457.13629200000003
  0
LINE
  8
_0-0_0
  6
CONTINUOUS
 62
    7
 10
-15.822219500000074
 20
456.89691199999999
 11
-15.572219500000074
 21
457.14999399999999
  0
LINE
  8
_0-0_0
  6
CONTINUOUS
 62
    7
 10
-16.072219500000074
 20
456.64999399999999
 11
-16.072219500000074
 21
452.894836
  0
LINE
  8
_0-0_0
  6
CONTINUOUS
 62
    7
 10
-15.572219500000074
 20
456.11944599999998
 11
-6.3222195000000738
 21
456.11944599999998
  0
LINE
  8
_0-0_0
  6
CONTINUOUS
 62
    7
 10
-15.572219500000074
 20
456.32281499999999
 11
-6.3222195000000738
 21
456.32281499999999
  0
LINE
  8
_0-0_0
  6
CONTINUOUS
 62
    7
 10
-15.572219500000074
 20
456.50784299999998
 11
-6.3222195000000738
 21
456.50784299999998
  0
LINE
  8
_0-0_0
  6
CONTINUOUS
 62
    7
 10
-15.572219500000074
 20
456.67251599999997
 11
-6.3222195000000738
 21
456.67251599999997
  0
LINE
  8
_0-0_0
  6
CONTINUOUS
 62
    7
 10
-15.572219500000074
 20
456.81506300000001
 11
-6.3222195000000738
 21
456.81506300000001
  0
LINE
  8
_0-0_0
  6
CONTINUOUS
 62
    7
 10
-15.572219500000074
 20
456.93383799999998
 11
-6.3222195000000738
 21
456.93383799999998
  0
LINE
  8
_0-0_0
  6
CONTINUOUS
 62
    7
 10
-15.572219500000074
 20
457.02761800000002
 11
-6.3222195000000738
 21
457.02761800000002
  0
LINE
  8
_0-0_0
  6
CONTINUOUS
 62
    7
 10
-15.572219500000074
 20
457.09533699999997
 11
-6.3222195000000738
 21
457.09533699999997
  0
LINE
  8
_0-0_0
  6
CONTINUOUS
 62
    7
 10
-15.572219500000074
 20
457.13629200000003
 11
-6.3222195000000738
 21
457.13629200000003
  0
LINE
  8
_0-0_0
  6
CONTINUOUS
 62
    7
 10
-15.572219500000074
 20
457.14999399999999
 11
-6.3222195000000738
 21
457.14999399999999
  0
LINE
  8
_0-0_0
  6
CONTINUOUS
 62
    7
 10
19.927780499999926
 20
473.5
 11
-6.0722195000000738
 21
473.5
  0
LINE
  8
_0-0_0
  6
CONTINUOUS
 62
    7
 10
19.927780499999926
 20
469
 11
-6.0722195000000738
 21
469
  0
LINE
  8
_0-0_0
  6
CONTINUOUS
 62
    7
 10
120.92779549999995
 20
456.89999399999999
 11
123.38345349999997
 21
456.89999399999999
  0
LINE
  8
_0-0_0
  6
CONTINUOUS
 62
    7
 10
122.88238549999994
 20
452.39999399999999
 11
123.38345349999997
 21
452.39999399999999
  0
LINE
  8
_0-0_0
  6
CONTINUOUS
 62
    7
 10
-6.0722195000000738
 20
473.5
 11
-6.3222195000000738
 21
473.75
  0
LINE
  8
_0-0_0
  6
CONTINUOUS
 62
    7
 10
-6.0722195000000738
 20
469
 11
-6.3222195000000738
 21
468.75
  0
LINE
  8
_0-0_0
  6
CONTINUOUS
 62
    7
 10
123.52780149999995
 20
456.64999399999999
 11
123.38345349999997
 21
456.89999399999999
  0
LINE
  8
_0-0_0
  6
CONTINUOUS
 62
    7
 10
123.52780149999995
 20
452.64999399999999
 11
123.38345349999997
 21
452.39999399999999
  0
LINE
  8
_0-0_0
  6
CONTINUOUS
 62
    7
 10
-2.0722195000000738
 20
457.69998199999998
 11
-0.8222195000000738
 21
456.44998199999998
  0
LINE
  8
_0-0_0
  6
CONTINUOUS
 62
    7
 10
-2.0722195000000738
 20
468.19998199999998
 11
-1.2722325000000296
 21
468.99996900000002
  0
LINE
  8
_0-0_0
  6
CONTINUOUS
 62
    7
 10
-16.072219500000074
 20
473.25
 11
-15.572372500000029
 21
473.74981700000001
  0
LINE
  8
_0-0_0
  6
CONTINUOUS
 62
    7
 10
-16.072219500000074
 20
469.25
 11
-15.572372500000029
 21
468.75015300000001
  0
LINE
  8
_0-0_0
  6
CONTINUOUS
 62
    7
 10
-2.0722195000000738
 20
467.94998199999998
 11
-2.4722295000000258
 21
467.94998199999998
  0
LINE
  8
_0-0_0
  6
CONTINUOUS
 62
    7
 10
-2.0722195000000738
 20
457.94998199999998
 11
-2.4722295000000258
 21
457.94998199999998
  0
LINE
  8
_0-0_0
  6
CONTINUOUS
 62
    7
 10
-3.2722325000000296
 20
467.48809799999998
 11
-2.4722295000000258
 21
467.94998199999998
  0
LINE
  8
_0-0_0
  6
CONTINUOUS
 62
    7
 10
-3.2722325000000296
 20
458.41186499999998
 11
-2.4722295000000258
 21
457.94998199999998
  0
LINE
  8
_0-0_0
  6
CONTINUOUS
 62
    7
 10
-3.2722325000000296
 20
466.94998199999998
 11
-61.272216500000013
 21
466.94998199999998
  0
LINE
  8
_0-0_0
  6
CONTINUOUS
 62
    7
 10
-3.2722325000000296
 20
458.94998199999998
 11
-61.272216500000013
 21
458.94998199999998
  0
LINE
  8
_0-0_0
  6
CONTINUOUS
 62
    7
 10
14.177749499999948
 20
452.39999399999999
 11
-6.0722195000000738
 21
452.39999399999999
  0
LINE
  8
_0-0_0
  6
CONTINUOUS
 62
    7
 10
-6.0722195000000738
 20
452.39999399999999
 11
-6.3222195000000738
 21
452.14999399999999
  0
LINE
  8
_0-0_0
  6
CONTINUOUS
 62
    7
 10
-1.2722325000000296
 20
456.89999399999999
 11
-6.0722195000000738
 21
456.89999399999999
  0
LINE
  8
_0-0_0
  6
CONTINUOUS
 62
    7
 10
-16.072219500000074
 20
452.64999399999999
 11
-15.572372500000029
 21
452.15014600000001
  0
LINE
  8
_0-0_0
  6
CONTINUOUS
 62
    7
 10
-16.072219500000074
 20
456.64999399999999
 11
-15.572372500000029
 21
457.14984099999998
  0
LINE
  8
_0-0_0
  6
CONTINUOUS
 62
    7
 10
-89.583221500000036
 20
505.14999399999999
 11
-89.583221500000036
 21
492.14999399999999
  0
LINE
  8
_0-0_0
  6
CONTINUOUS
 62
    7
 10
-89.38322450000004
 20
505.14999399999999
 11
-89.583221500000036
 21
505.14999399999999
  0
LINE
  8
_0-0_0
  6
CONTINUOUS
 62
    7
 10
-89.38322450000004
 20
492.14999399999999
 11
-89.583221500000036
 21
492.14999399999999
  0
LINE
  8
_0-0_0
  6
CONTINUOUS
 62
    7
 10
-89.38322450000004
 20
505.14999399999999
 11
-89.38322450000004
 21
523.75
  0
LINE
  8
_0-0_0
  6
CONTINUOUS
 62
    7
 10
-89.283218500000032
 20
523.75
 11
-89.38322450000004
 21
523.75
  0
LINE
  8
_0-0_0
  6
CONTINUOUS
 62
    7
 10
-89.283218500000032
 20
526.25
 11
-89.283218500000032
 21
523.75
  0
ARC
  8
_0-0_0
  6
CONTINUOUS
 62
    7
 10
-89.783218500000032
 20
526.25
 40
0.5
 50
0
 51
90.000003000000007
  0
LINE
  8
_0-0_0
  6
CONTINUOUS
 62
    7
 10
-89.783218500000032
 20
526.75
 11
-92.783222500000079
 21
526.75
  0
ARC
  8
_0-0_0
  6
CONTINUOUS
 62
    7
 10
-92.783222500000079
 20
526.25
 40
0.5
 50
90.000003000000007
 51
179.99999099999999
  0
ARC
  8
_0-0_0
  6
CONTINUOUS
 62
    7
 10
-97.283222500000079
 20
478.75
 40
0.5
 50
179.99999099999999
 51
269.99999700000001
  0
LINE
  8
_0-0_0
  6
CONTINUOUS
 62
    7
 10
-94.783222500000079
 20
478.25
 11
-97.283222500000079
 21
478.25
  0
ARC
  8
_0-0_0
  6
CONTINUOUS
 62
    7
 10
-94.783222500000079
 20
478.75
 40
0.5
 50
269.99999700000001
 51
0
  0
LINE
  8
_0-0_0
  6
CONTINUOUS
 62
    7
 10
-94.283222500000079
 20
483.75
 11
-94.283222500000079
 21
478.75
  0
ARC
  8
_0-0_0
  6
CONTINUOUS
 62
    7
 10
-93.783222500000079
 20
483.75
 40
0.5
 50
90.000003000000007
 51
179.99999099999999
  0
LINE
  8
_0-0_0
  6
CONTINUOUS
 62
    7
 10
-89.783218500000032
 20
484.25
 11
-93.783222500000079
 21
484.25
  0
ARC
  8
_0-0_0
  6
CONTINUOUS
 62
    7
 10
-89.783218500000032
 20
484.75
 40
0.5
 50
269.99999700000001
 51
0
  0
LINE
  8
_0-0_0
  6
CONTINUOUS
 62
    7
 10
-89.283218500000032
 20
487.94998199999998
 11
-89.283218500000032
 21
484.75
  0
LINE
  8
_0-0_0
  6
CONTINUOUS
 62
    7
 10
-89.38322450000004
 20
487.94998199999998
 11
-89.283218500000032
 21
487.94998199999998
  0
LINE
  8
_0-0_0
  6
CONTINUOUS
 62
    7
 10
-89.38322450000004
 20
487.94998199999998
 11
-89.38322450000004
 21
492.14999399999999
  0
LINE
  8
_0-0_0
  6
CONTINUOUS
 62
    7
 10
-90.283218500000032
 20
526.25
 11
-108.08322150000004
 21
526.25
  0
ARC
  8
_0-0_0
  6
CONTINUOUS
 62
    7
 10
-90.283218500000032
 20
525.75
 40
0.5
 50
0
 51
90.000003000000007
  0
LINE
  8
_0-0_0
  6
CONTINUOUS
 62
    7
 10
-89.783218500000032
 20
525.75
 11
-89.783218500000032
 21
485.25
  0
ARC
  8
_0-0_0
  6
CONTINUOUS
 62
    7
 10
-90.283218500000032
 20
485.25
 40
0.5
 50
269.99999700000001
 51
0
  0
LINE
  8
_0-0_0
  6
CONTINUOUS
 62
    7
 10
-93.783222500000079
 20
484.75
 11
-90.283218500000032
 21
484.75
  0
ARC
  8
_0-0_0
  6
CONTINUOUS
 62
    7
 10
-93.783222500000079
 20
483.75
 40
1
 50
90.000003000000007
 51
179.99999099999999
  0
LINE
  8
_0-0_0
  6
CONTINUOUS
 62
    7
 10
-94.783222500000079
 20
483.75
 11
-94.783222500000079
 21
479.25
  0
ARC
  8
_0-0_0
  6
CONTINUOUS
 62
    7
 10
-95.283222500000079
 20
479.25
 40
0.5
 50
269.99999700000001
 51
0
  0
LINE
  8
_0-0_0
  6
CONTINUOUS
 62
    7
 10
-112.28322250000008
 20
478.75
 11
-95.283222500000079
 21
478.75
  0
LINE
  8
_0-0_0
  6
CONTINUOUS
 62
    7
 10
-93.783222500000079
 20
526.44998199999998
 11
-93.783222500000079
 21
526.25
  0
ARC
  8
_0-0_0
  6
CONTINUOUS
 62
    7
 10
-94.083221500000036
 20
526.44998199999998
 40
0.2999999999999999
 50
0
 51
90.000003000000007
  0
LINE
  8
_0-0_0
  6
CONTINUOUS
 62
    7
 10
-94.083221500000036
 20
526.75
 11
-108.78322250000008
 21
526.75
  0
ARC
  8
_0-0_0
  6
CONTINUOUS
 62
    7
 10
-108.78322250000008
 20
526.44998199999998
 40
0.2999999999999999
 50
90.000003000000007
 51
179.99999099999999
  0
LINE
  8
_0-0_0
  6
CONTINUOUS
 62
    7
 10
-109.08322150000004
 20
526.44998199999998
 11
-109.08322150000004
 21
523.25
  0
LINE
  8
_0-0_0
  6
CONTINUOUS
 62
    7
 10
-109.08322150000004
 20
523.25
 11
-114.78322250000008
 21
523.25
  0
LINE
  8
_0-0_0
  6
CONTINUOUS
 62
    7
 10
-114.78322250000008
 20
523.25
 11
-115.58322150000004
 21
522.44998199999998
  0
ARC
  8
_0-0_0
  6
CONTINUOUS
 62
    7
 10
-108.08322150000004
 20
525.75
 40
0.5
 50
90.000003000000007
 51
179.99999099999999
  0
LINE
  8
_0-0_0
  6
CONTINUOUS
 62
    7
 10
-108.58322150000004
 20
525.75
 11
-108.58322150000004
 21
522.94998199999998
  0
ARC
  8
_0-0_0
  6
CONTINUOUS
 62
    7
 10
-109.08322150000004
 20
522.94998199999998
 40
0.5
 50
269.99999700000001
 51
0
  0
LINE
  8
_0-0_0
  6
CONTINUOUS
 62
    7
 10
-109.08322150000004
 20
522.44998199999998
 11
-117.28322250000008
 21
522.44998199999998
  0
ARC
  8
_0-0_0
  6
CONTINUOUS
 62
    7
 10
-117.28322250000008
 20
521.94998199999998
 40
0.5
 50
90.000003000000007
 51
179.99999099999999
  0
LINE
  8
_0-0_0
  6
CONTINUOUS
 62
    7
 10
-117.78322250000008
 20
485.25
 11
-117.78322250000008
 21
521.94998199999998
  0
ARC
  8
_0-0_0
  6
CONTINUOUS
 62
    7
 10
-117.28322250000008
 20
485.25
 40
0.5
 50
179.99999099999999
 51
269.99999700000001
  0
LINE
  8
_0-0_0
  6
CONTINUOUS
 62
    7
 10
-117.28322250000008
 20
484.75
 11
-113.78322250000008
 21
484.75
  0
ARC
  8
_0-0_0
  6
CONTINUOUS
 62
    7
 10
-113.78322250000008
 20
483.75
 40
1
 50
0
 51
90.000003000000007
  0
LINE
  8
_0-0_0
  6
CONTINUOUS
 62
    7
 10
-112.78322250000008
 20
479.25
 11
-112.78322250000008
 21
483.75
  0
ARC
  8
_0-0_0
  6
CONTINUOUS
 62
    7
 10
-112.28322250000008
 20
479.25
 40
0.5
 50
179.99999099999999
 51
269.99999700000001
  0
CIRCLE
  8
_0-0_0
  6
CONTINUOUS
 62
    7
 10
-103.78322250000008
 20
487.75
 40
2.0670000000000002
  0
LINE
  8
_0-0_0
  6
CONTINUOUS
 62
    7
 10
-115.78322250000008
 20
522.75
 11
-115.78322250000008
 21
522.44998199999998
  0
LINE
  8
_0-0_0
  6
CONTINUOUS
 62
    7
 10
-115.78322250000008
 20
522.75
 11
-117.78322250000008
 21
522.75
  0
ARC
  8
_0-0_0
  6
CONTINUOUS
 62
    7
 10
-117.78322250000008
 20
522.25
 40
0.5
 50
90.000003000000007
 51
179.99999099999999
  0
LINE
  8
_0-0_0
  6
CONTINUOUS
 62
    7
 10
-118.28322250000008
 20
522.25
 11
-118.28322250000008
 21
484.75
  0
ARC
  8
_0-0_0
  6
CONTINUOUS
 62
    7
 10
-117.78322250000008
 20
484.75
 40
0.5
 50
179.99999099999999
 51
269.99999700000001
  0
LINE
  8
_0-0_0
  6
CONTINUOUS
 62
    7
 10
-113.78322250000008
 20
484.25
 11
-117.78322250000008
 21
484.25
  0
ARC
  8
_0-0_0
  6
CONTINUOUS
 62
    7
 10
-113.78322250000008
 20
483.75
 40
0.5
 50
0
 51
90.000003000000007
  0
LINE
  8
_0-0_0
  6
CONTINUOUS
 62
    7
 10
-113.28322250000008
 20
478.75
 11
-113.28322250000008
 21
483.75
  0
ARC
  8
_0-0_0
  6
CONTINUOUS
 62
    7
 10
-112.78322250000008
 20
478.75
 40
0.5
 50
179.99999099999999
 51
269.99999700000001
  0
LINE
  8
_0-0_0
  6
CONTINUOUS
 62
    7
 10
-112.78322250000008
 20
478.25
 11
-110.28322250000008
 21
478.25
  0
ARC
  8
_0-0_0
  6
CONTINUOUS
 62
    7
 10
-110.28322250000008
 20
478.75
 40
0.5
 50
269.99999700000001
 51
0
  0
LINE
  8
_0-0_0
  6
CONTINUOUS
 62
    7
 10
-94.283222500000079
 20
478.75
 11
-94.183223500000054
 21
478.75
  0
LINE
  8
_0-0_0
  6
CONTINUOUS
 62
    7
 10
-94.183223500000054
 20
478.75
 11
-94.183223500000054
 21
479.25
  0
LINE
  8
_0-0_0
  6
CONTINUOUS
 62
    7
 10
-94.183223500000054
 20
483.25
 11
-94.183223500000054
 21
479.25
  0
LINE
  8
_0-0_0
  6
CONTINUOUS
 62
    7
 10
-94.283222500000079
 20
483.75
 11
-94.183223500000054
 21
483.75
  0
LINE
  8
_0-0_0
  6
CONTINUOUS
 62
    7
 10
-94.183223500000054
 20
483.25
 11
-94.183223500000054
 21
483.75
  0
LINE
  8
_0-0_0
  6
CONTINUOUS
 62
    7
 10
-94.083221500000036
 20
479.25
 11
-94.083221500000036
 21
479.38034099999999
  0
LINE
  8
_0-0_0
  6
CONTINUOUS
 62
    7
 10
-94.083221500000036
 20
482.88034099999999
 11
-94.083221500000036
 21
479.38034099999999
  0
LINE
  8
_0-0_0
  6
CONTINUOUS
 62
    7
 10
-94.183223500000054
 20
483.14999399999999
 11
-94.083221500000036
 21
483.14999399999999
  0
LINE
  8
_0-0_0
  6
CONTINUOUS
 62
    7
 10
-94.083221500000036
 20
482.88034099999999
 11
-94.083221500000036
 21
483.14999399999999
  0
LINE
  8
_0-0_0
  6
CONTINUOUS
 62
    7
 10
-94.183223500000054
 20
479.25
 11
-94.083221500000036
 21
479.25
  0
LINE
  8
_0-0_0
  6
CONTINUOUS
 62
    7
 10
-94.183223500000054
 20
479.25
 11
-94.083221500000036
 21
479.25
  0
LINE
  8
_0-0_0
  6
CONTINUOUS
 62
    7
 10
-112.58322150000004
 20
476.25
 11
-108.38322049999999
 21
476.25
  0
LINE
  8
_0-0_0
  6
CONTINUOUS
 62
    7
 10
-96.783222500000079
 20
476.25
 11
-99.183223500000054
 21
476.25
  0
LINE
  8
_0-0_0
  6
CONTINUOUS
 62
    7
 10
-96.783222500000079
 20
476.25
 11
-95.583221500000036
 21
476.25
  0
ARC
  8
_0-0_0
  6
CONTINUOUS
 62
    7
 10
-95.583221500000036
 20
475.75
 40
0.5
 50
0
 51
90.000003000000007
  0
ARC
  8
_0-0_0
  6
CONTINUOUS
 62
    7
 10
-96.783222500000079
 20
475.75
 40
0.5
 50
90.000003000000007
 51
179.99999099999999
  0
ARC
  8
_0-0_0
  6
CONTINUOUS
 62
    7
 10
-99.183223500000054
 20
476.75
 40
0.5
 50
179.99999099999999
 51
269.99999700000001
  0
ARC
  8
_0-0_0
  6
CONTINUOUS
 62
    7
 10
-108.38322049999999
 20
476.75
 40
0.5
 50
269.99999700000001
 51
0
  0
ARC
  8
_0-0_0
  6
CONTINUOUS
 62
    7
 10
-112.58322150000004
 20
475.75
 40
0.5
 50
90.000003000000007
 51
179.99999099999999
  0
LINE
  8
_0-0_0
  6
CONTINUOUS
 62
    7
 10
-111.58322150000004
 20
476.75
 11
-111.58322150000004
 21
476.25
  0
ARC
  8
_0-0_0
  6
CONTINUOUS
 62
    7
 10
-111.08322150000004
 20
476.75
 40
0.5
 50
90.000003000000007
 51
179.99999099999999
  0
LINE
  8
_0-0_0
  6
CONTINUOUS
 62
    7
 10
-109.58322150000004
 20
477.25
 11
-111.08322150000004
 21
477.25
  0
ARC
  8
_0-0_0
  6
CONTINUOUS
 62
    7
 10
-109.58322150000004
 20
478.25
 40
1
 50
269.99999700000001
 51
0
  0
LINE
  8
_0-0_0
  6
CONTINUOUS
 62
    7
 10
-108.58322150000004
 20
478.75
 11
-108.58322150000004
 21
478.25
  0
LINE
  8
_0-0_0
  6
CONTINUOUS
 62
    7
 10
-108.08322150000004
 20
478.75
 11
-108.08322150000004
 21
477.75
  0
ARC
  8
_0-0_0
  6
CONTINUOUS
 62
    7
 10
-109.58322150000004
 20
477.75
 40
1.5
 50
269.99999700000001
 51
0
  0
ARC
  8
_0-0_0
  6
CONTINUOUS
 62
    7
 10
-97.983223500000008
 20
477.75
 40
1.5
 50
179.99999099999999
 51
269.99999700000001
  0
LINE
  8
_0-0_0
  6
CONTINUOUS
 62
    7
 10
-95.983223500000008
 20
476.75
 11
-95.983223500000008
 21
476.25
  0
ARC
  8
_0-0_0
  6
CONTINUOUS
 62
    7
 10
-96.483223500000008
 20
476.75
 40
0.5
 50
0
 51
90.000003000000007
  0
LINE
  8
_0-0_0
  6
CONTINUOUS
 62
    7
 10
-97.983223500000008
 20
477.25
 11
-96.483223500000008
 21
477.25
  0
ARC
  8
_0-0_0
  6
CONTINUOUS
 62
    7
 10
-97.983223500000008
 20
478.25
 40
1
 50
179.99999099999999
 51
269.99999700000001
  0
LINE
  8
_0-0_0
  6
CONTINUOUS
 62
    7
 10
-98.983223500000008
 20
478.75
 11
-98.983223500000008
 21
478.25
  0
LINE
  8
_0-0_0
  6
CONTINUOUS
 62
    7
 10
-99.483223500000008
 20
478.75
 11
-99.483223500000008
 21
477.75
  0
LINE
  8
_0-0_0
  6
CONTINUOUS
 62
    7
 10
-95.083221500000036
 20
449.25
 11
-95.083221500000036
 21
450.14999399999999
  0
LINE
  8
_0-0_0
  6
CONTINUOUS
 62
    7
 10
-95.083221500000036
 20
450.14999399999999
 11
-95.083221500000036
 21
452.64999399999999
  0
LINE
  8
_0-0_0
  6
CONTINUOUS
 62
    7
 10
-95.083221500000036
 20
452.64999399999999
 11
-95.083221500000036
 21
473.25
  0
LINE
  8
_0-0_0
  6
CONTINUOUS
 62
    7
 10
-95.083221500000036
 20
473.25
 11
-95.083221500000036
 21
475.75
  0
LINE
  8
_0-0_0
  6
CONTINUOUS
 62
    7
 10
-97.283222500000079
 20
475.75
 11
-97.283222500000079
 21
474.504974
  0
LINE
  8
_0-0_0
  6
CONTINUOUS
 62
    7
 10
-99.683223500000054
 20
476.75
 11
-99.683223500000054
 21
478.54998799999998
  0
ARC
  8
_0-0_0
  6
CONTINUOUS
 62
    7
 10
-100.18322350000005
 20
478.54998799999998
 40
0.5
 50
0
 51
23.579369
  0
LINE
  8
_0-0_0
  6
CONTINUOUS
 62
    7
 10
-107.88322049999999
 20
476.75
 11
-107.88322049999999
 21
478.54998799999998
  0
ARC
  8
_0-0_0
  6
CONTINUOUS
 62
    7
 10
-107.38322049999999
 20
478.54998799999998
 40
0.5
 50
156.420635
 51
179.99999099999999
  0
LINE
  8
_0-0_0
  6
CONTINUOUS
 62
    7
 10
-113.08322150000004
 20
449.25
 11
-113.08322150000004
 21
459.44998199999998
  0
LINE
  8
_0-0_0
  6
CONTINUOUS
 62
    7
 10
-113.08322150000004
 20
459.44998199999998
 11
-113.08322150000004
 21
460.44998199999998
  0
LINE
  8
_0-0_0
  6
CONTINUOUS
 62
    7
 10
-113.08322150000004
 20
460.44998199999998
 11
-113.08322150000004
 21
465.44998199999998
  0
LINE
  8
_0-0_0
  6
CONTINUOUS
 62
    7
 10
-113.08322150000004
 20
465.44998199999998
 11
-113.08322150000004
 21
466.44998199999998
  0
LINE
  8
_0-0_0
  6
CONTINUOUS
 62
    7
 10
-113.08322150000004
 20
475.75
 11
-113.08322150000004
 21
466.44998199999998
  0
LINE
  8
_0-0_0
  6
CONTINUOUS
 62
    7
 10
-94.283222500000079
 20
474.75
 11
-95.083221500000036
 21
474.75
  0
LINE
  8
_0-0_0
  6
CONTINUOUS
 62
    7
 10
-94.283222500000079
 20
475.54998799999998
 11
-95.083221500000036
 21
475.54998799999998
  0
LINE
  8
_0-0_0
  6
CONTINUOUS
 62
    7
 10
-94.283222500000079
 20
474.54998799999998
 11
-94.283222500000079
 21
475.54998799999998
  0
LINE
  8
_0-0_0
  6
CONTINUOUS
 62
    7
 10
-94.283222500000079
 20
455.94998199999998
 11
-95.083221500000036
 21
455.94998199999998
  0
LINE
  8
_0-0_0
  6
CONTINUOUS
 62
    7
 10
-94.283222500000079
 20
455.94998199999998
 11
-94.283222500000079
 21
458.94998199999998
  0
LINE
  8
_0-0_0
  6
CONTINUOUS
 62
    7
 10
-94.283222500000079
 20
471.18768299999999
 11
-94.283222500000079
 21
458.94998199999998
  0
LINE
  8
_0-0_0
  6
CONTINUOUS
 62
    7
 10
-94.283222500000079
 20
471.18768299999999
 11
-94.283222500000079
 21
472.15045199999997
  0
LINE
  8
_0-0_0
  6
CONTINUOUS
 62
    7
 10
-95.083221500000036
 20
472.15045199999997
 11
-95.083221500000036
 21
474.75
  0
ARC
  8
_0-0_0
  6
CONTINUOUS
 62
    7
 10
-100.69814650000001
 20
471.43203699999998
 40
5.7120379999999997
 50
18.558475999999999
 51
26.433648000000002
  0
ARC
  8
_0-0_0
  6
CONTINUOUS
 62
    7
 10
-95.283222500000079
 20
473.25
 40
0.2
 50
269.99999700000001
 51
0
  0
ARC
  8
_0-0_0
  6
CONTINUOUS
 62
    7
 10
-95.283222500000079
 20
452.64999399999999
 40
0.2
 50
0
 51
90.000003000000007
  0
ARC
  8
_0-0_0
  6
CONTINUOUS
 62
    7
 10
-100.69803250000007
 20
454.46801799999997
 40
5.711964
 50
333.565022
 51
341.44031000000001
  0
ARC
  8
_0-0_0
  6
CONTINUOUS
 62
    7
 10
-95.583221500000036
 20
450.14999399999999
 40
0.5
 50
269.99999700000001
 51
0
  0
LINE
  8
_0-0_0
  6
CONTINUOUS
 62
    7
 10
-95.583221500000036
 20
449.25
 11
-95.083221500000036
 21
449.25
  0
LINE
  8
_0-0_0
  6
CONTINUOUS
 62
    7
 10
-95.083221500000036
 20
449.25
 11
-95.583221500000036
 21
448.75
  0
ARC
  8
_0-0_0
  6
CONTINUOUS
 62
    7
 10
-97.283222500000079
 20
471.75
 40
2.2999999999999998
 50
34.417387999999995
 51
79.713437000000013
  0
LINE
  8
_0-0_0
  6
CONTINUOUS
 62
    7
 10
-95.344539499999996
 20
473.04998799999998
 11
-95.385852500000055
 21
473.04998799999998
  0
LINE
  8
_0-0_0
  6
CONTINUOUS
 62
    7
 10
-95.344539499999996
 20
473.04998799999998
 11
-95.334980500000029
 21
473.05102499999998
  0
LINE
  8
_0-0_0
  6
CONTINUOUS
 62
    7
 10
-95.334980500000029
 20
473.05102499999998
 11
-95.325489500000003
 21
473.05419899999998
  0
LINE
  8
_0-0_0
  6
CONTINUOUS
 62
    7
 10
-95.325489500000003
 20
473.05419899999998
 11
-95.316234500000064
 21
473.05960099999999
  0
LINE
  8
_0-0_0
  6
CONTINUOUS
 62
    7
 10
-95.316234500000064
 20
473.05960099999999
 11
-95.307438499999989
 21
473.06710800000002
  0
LINE
  8
_0-0_0
  6
CONTINUOUS
 62
    7
 10
-95.307438499999989
 20
473.06710800000002
 11
-95.29203849999999
 21
473.08776899999998
  0
LINE
  8
_0-0_0
  6
CONTINUOUS
 62
    7
 10
-95.29203849999999
 20
473.08776899999998
 11
-95.280262500000049
 21
473.11502100000001
  0
LINE
  8
_0-0_0
  6
CONTINUOUS
 62
    7
 10
-95.280262500000049
 20
473.11502100000001
 11
-95.2730825000001
 21
473.147156
  0
LINE
  8
_0-0_0
  6
CONTINUOUS
 62
    7
 10
-95.2730825000001
 20
473.147156
 11
-95.271190500000102
 21
473.18221999999997
  0
LINE
  8
_0-0_0
  6
CONTINUOUS
 62
    7
 10
-95.271190500000102
 20
473.18221999999997
 11
-95.275035500000058
 21
473.21838400000001
  0
LINE
  8
_0-0_0
  6
CONTINUOUS
 62
    7
 10
-95.275035500000058
 20
473.21838400000001
 11
-95.283222500000079
 21
473.25
  0
ARC
  8
_0-0_0
  6
CONTINUOUS
 62
    7
 10
-96.783222500000079
 20
474.504974
 40
0.5
 50
179.99999099999999
 51
259.71343899999994
  0
LINE
  8
_0-0_0
  6
CONTINUOUS
 62
    7
 10
-112.28322250000008
 20
471.75
 11
-112.28322250000008
 21
458.14999399999999
  0
LINE
  8
_0-0_0
  6
CONTINUOUS
 62
    7
 10
-112.28322250000008
 20
457.64999399999999
 11
-112.28322250000008
 21
458.14999399999999
  0
LINE
  8
_0-0_0
  6
CONTINUOUS
 62
    7
 10
-112.28322250000008
 20
454.64999399999999
 11
-112.28322250000008
 21
457.64999399999999
  0
LINE
  8
_0-0_0
  6
CONTINUOUS
 62
    7
 10
-112.28322250000008
 20
454.14999399999999
 11
-112.28322250000008
 21
454.64999399999999
  0
ARC
  8
_0-0_0
  6
CONTINUOUS
 62
    7
 10
-110.28322250000008
 20
471.75
 40
2
 50
93.840255999999997
 51
179.99999099999999
  0
LINE
  8
_0-0_0
  6
CONTINUOUS
 62
    7
 10
-110.28322250000008
 20
473.75
 11
-101.28322250000008
 21
473.75
  0
LINE
  8
_0-0_0
  6
CONTINUOUS
 62
    7
 10
-97.283222500000079
 20
473.75
 11
-97.783222500000079
 21
473.75
  0
LINE
  8
_0-0_0
  6
CONTINUOUS
 62
    7
 10
-97.783222500000079
 20
473.75
 11
-100.78322250000008
 21
473.75
  0
LINE
  8
_0-0_0
  6
CONTINUOUS
 62
    7
 10
-101.28322250000008
 20
473.75
 11
-100.78322250000008
 21
473.75
  0
ARC
  8
_0-0_0
  6
CONTINUOUS
 62
    7
 10
-97.283222500000079
 20
471.75
 40
2
 50
0
 51
90.000003000000007
  0
LINE
  8
_0-0_0
  6
CONTINUOUS
 62
    7
 10
-113.28322250000008
 20
474.75
 11
-113.08322150000004
 21
474.75
  0
LINE
  8
_0-0_0
  6
CONTINUOUS
 62
    7
 10
-113.28322250000008
 20
475.54998799999998
 11
-113.08322150000004
 21
475.54998799999998
  0
LINE
  8
_0-0_0
  6
CONTINUOUS
 62
    7
 10
-113.28322250000008
 20
475.54998799999998
 11
-113.28322250000008
 21
474.75012199999998
  0
LINE
  8
_0-0_0
  6
CONTINUOUS
 62
    7
 10
-113.28322250000008
 20
455.94998199999998
 11
-113.08322150000004
 21
455.94998199999998
  0
LINE
  8
_0-0_0
  6
CONTINUOUS
 62
    7
 10
-113.28322250000008
 20
458.94998199999998
 11
-113.28322250000008
 21
455.94998199999998
  0
LINE
  8
_0-0_0
  6
CONTINUOUS
 62
    7
 10
-113.28322250000008
 20
471.18768299999999
 11
-113.28322250000008
 21
458.94998199999998
  0
LINE
  8
_0-0_0
  6
CONTINUOUS
 62
    7
 10
-113.28322250000008
 20
472.15045199999997
 11
-113.28322250000008
 21
471.18768299999999
  0
ARC
  8
_0-0_0
  6
CONTINUOUS
 62
    7
 10
-112.58322150000004
 20
465.44998199999998
 40
0.5
 50
90.000003000000007
 51
179.99999099999999
  0
ARC
  8
_0-0_0
  6
CONTINUOUS
 62
    7
 10
-112.58322150000004
 20
460.44998199999998
 40
0.5
 50
179.99999099999999
 51
269.99999700000001
  0
LINE
  8
_0-0_0
  6
CONTINUOUS
 62
    7
 10
-113.08322150000004
 20
449.25
 11
-112.58322150000004
 21
449.25
  0
LINE
  8
_0-0_0
  6
CONTINUOUS
 62
    7
 10
-113.08322150000004
 20
449.25
 11
-112.58322150000004
 21
448.75
  0
LINE
  8
_0-0_0
  6
CONTINUOUS
 62
    7
 10
-95.083221500000036
 20
455.95001200000002
 11
-95.083221500000036
 21
454.79998799999998
  0
ARC
  8
_0-0_0
  6
CONTINUOUS
 62
    7
 10
-97.483223500000008
 20
454.79998799999998
 40
2.3999999999999999
 50
359.58604600000001
 51
0.0000099999999787
  0
LINE
  8
_0-0_0
  6
CONTINUOUS
 62
    7
 10
-94.283222500000079
 20
472.15045199999997
 11
-94.283222500000079
 21
474.75
  0
LINE
  8
_0-0_0
  6
CONTINUOUS
 62
    7
 10
-95.283222500000079
 20
473.04998799999998
 11
-95.344539499999996
 21
473.04998799999998
  0
LINE
  8
_0-0_0
  6
CONTINUOUS
 62
    7
 10
-95.385852500000055
 20
473.04998799999998
 11
-95.388080500000001
 21
473.04998799999998
  0
LINE
  8
_0-0_0
  6
CONTINUOUS
 62
    7
 10
-95.583221500000036
 20
449.25
 11
-112.58322150000004
 21
449.25
  0
LINE
  8
_0-0_0
  6
CONTINUOUS
 62
    7
 10
-95.519756500000085
 20
453.04998799999998
 11
-95.482830500000091
 21
452.97976699999998
  0
LINE
  8
_0-0_0
  6
CONTINUOUS
 62
    7
 10
-95.482830500000091
 20
452.97976699999998
 11
-95.463226500000019
 21
452.94528200000002
  0
LINE
  8
_0-0_0
  6
CONTINUOUS
 62
    7
 10
-95.463226500000019
 20
452.94528200000002
 11
-95.437141500000052
 21
452.90344199999998
  0
LINE
  8
_0-0_0
  6
CONTINUOUS
 62
    7
 10
-95.437141500000052
 20
452.90344199999998
 11
-95.423832500000003
 21
452.88439899999997
  0
LINE
  8
_0-0_0
  6
CONTINUOUS
 62
    7
 10
-95.423832500000003
 20
452.88439899999997
 11
-95.40547550000008
 21
452.86200000000002
  0
LINE
  8
_0-0_0
  6
CONTINUOUS
 62
    7
 10
-95.40547550000008
 20
452.86200000000002
 11
-95.392681500000094
 21
452.85137900000001
  0
LINE
  8
_0-0_0
  6
CONTINUOUS
 62
    7
 10
-95.392681500000094
 20
452.85137900000001
 11
-95.388080500000001
 21
452.84997600000003
  0
LINE
  8
_0-0_0
  6
CONTINUOUS
 62
    7
 10
-95.385852500000055
 20
452.84997600000003
 11
-95.388080500000001
 21
452.84997600000003
  0
LINE
  8
_0-0_0
  6
CONTINUOUS
 62
    7
 10
-95.519756500000085
 20
472.84997600000003
 11
-95.482830500000091
 21
472.92022700000001
  0
LINE
  8
_0-0_0
  6
CONTINUOUS
 62
    7
 10
-95.482830500000091
 20
472.92022700000001
 11
-95.463222500000029
 21
472.95468099999999
  0
LINE
  8
_0-0_0
  6
CONTINUOUS
 62
    7
 10
-95.463222500000029
 20
472.95468099999999
 11
-95.437141500000052
 21
472.99652099999997
  0
LINE
  8
_0-0_0
  6
CONTINUOUS
 62
    7
 10
-95.437141500000052
 20
472.99652099999997
 11
-95.423832500000003
 21
473.01556399999998
  0
LINE
  8
_0-0_0
  6
CONTINUOUS
 62
    7
 10
-95.423832500000003
 20
473.01556399999998
 11
-95.40547550000008
 21
473.03796399999999
  0
LINE
  8
_0-0_0
  6
CONTINUOUS
 62
    7
 10
-95.40547550000008
 20
473.03796399999999
 11
-95.392681500000094
 21
473.04858400000001
  0
LINE
  8
_0-0_0
  6
CONTINUOUS
 62
    7
 10
-95.392681500000094
 20
473.04858400000001
 11
-95.388080500000001
 21
473.04998799999998
  0
LINE
  8
_0-0_0
  6
CONTINUOUS
 62
    7
 10
-95.385852500000055
 20
452.84997600000003
 11
-95.344539499999996
 21
452.84997600000003
  0
LINE
  8
_0-0_0
  6
CONTINUOUS
 62
    7
 10
-95.283222500000079
 20
452.84997600000003
 11
-95.344539499999996
 21
452.84997600000003
  0
LINE
  8
_0-0_0
  6
CONTINUOUS
 62
    7
 10
-95.344539499999996
 20
452.84997600000003
 11
-95.334980500000029
 21
452.84893799999998
  0
LINE
  8
_0-0_0
  6
CONTINUOUS
 62
    7
 10
-95.334980500000029
 20
452.84893799999998
 11
-95.325489500000003
 21
452.84576399999997
  0
LINE
  8
_0-0_0
  6
CONTINUOUS
 62
    7
 10
-95.325489500000003
 20
452.84576399999997
 11
-95.316234500000064
 21
452.84036300000002
  0
LINE
  8
_0-0_0
  6
CONTINUOUS
 62
    7
 10
-95.316234500000064
 20
452.84036300000002
 11
-95.307438499999989
 21
452.832855
  0
LINE
  8
_0-0_0
  6
CONTINUOUS
 62
    7
 10
-95.307438499999989
 20
452.832855
 11
-95.29203849999999
 21
452.81222500000001
  0
LINE
  8
_0-0_0
  6
CONTINUOUS
 62
    7
 10
-95.29203849999999
 20
452.81222500000001
 11
-95.280262500000049
 21
452.784943
  0
LINE
  8
_0-0_0
  6
CONTINUOUS
 62
    7
 10
-95.280262500000049
 20
452.784943
 11
-95.2730825000001
 21
452.75280800000002
  0
LINE
  8
_0-0_0
  6
CONTINUOUS
 62
    7
 10
-95.2730825000001
 20
452.75280800000002
 11
-95.271190500000102
 21
452.71774299999998
  0
LINE
  8
_0-0_0
  6
CONTINUOUS
 62
    7
 10
-95.271190500000102
 20
452.71774299999998
 11
-95.275035500000058
 21
452.68158
  0
LINE
  8
_0-0_0
  6
CONTINUOUS
 62
    7
 10
-95.275035500000058
 20
452.68158
 11
-95.283222500000079
 21
452.64999399999999
  0
ARC
  8
_0-0_0
  6
CONTINUOUS
 62
    7
 10
-97.283222500000079
 20
454.14999399999999
 40
2.2999999999999998
 50
280.28656300000006
 51
325.58260500000006
  0
LINE
  8
_0-0_0
  6
CONTINUOUS
 62
    7
 10
-95.583221500000036
 20
449.64999399999999
 11
-96.783222500000079
 21
449.64999399999999
  0
LINE
  8
_0-0_0
  6
CONTINUOUS
 62
    7
 10
-95.583221500000036
 20
448.75
 11
-112.58322150000004
 21
448.75
  0
LINE
  8
_0-0_0
  6
CONTINUOUS
 62
    7
 10
-112.28322950000006
 20
465.94998199999998
 11
-112.58322150000004
 21
465.94998199999998
  0
ARC
  8
_0-0_0
  6
CONTINUOUS
 62
    7
 10
-111.78322250000008
 20
458.14999399999999
 40
0.5
 50
179.99999099999999
 51
269.99999700000001
  0
CIRCLE
  8
_0-0_0
  6
CONTINUOUS
 62
    7
 10
-109.78322250000008
 20
454.64999399999999
 40
2.5
  0
LINE
  8
_0-0_0
  6
CONTINUOUS
 62
    7
 10
-106.78322250000008
 20
452.14999399999999
 11
-109.78322250000008
 21
452.14999399999999
  0
LINE
  8
_0-0_0
  6
CONTINUOUS
 62
    7
 10
-106.28322250000008
 20
452.14999399999999
 11
-106.78322250000008
 21
452.14999399999999
  0
ARC
  8
_0-0_0
  6
CONTINUOUS
 62
    7
 10
-110.28322250000008
 20
454.14999399999999
 40
2
 50
179.99999099999999
 51
269.99999700000001
  0
LINE
  8
_0-0_0
  6
CONTINUOUS
 62
    7
 10
-109.78322250000008
 20
452.14999399999999
 11
-110.28322250000008
 21
452.14999399999999
  0
LINE
  8
_0-0_0
  6
CONTINUOUS
 62
    7
 10
-110.28322250000008
 20
473.64733899999999
 11
-110.2991025
 21
473.67459100000002
  0
LINE
  8
_0-0_0
  6
CONTINUOUS
 62
    7
 10
-110.2991025
 20
473.67459100000002
 11
-110.31494950000001
 21
473.69757099999998
  0
LINE
  8
_0-0_0
  6
CONTINUOUS
 62
    7
 10
-110.31494950000001
 20
473.69757099999998
 11
-110.32893050000007
 21
473.71432499999997
  0
LINE
  8
_0-0_0
  6
CONTINUOUS
 62
    7
 10
-110.32893050000007
 20
473.71432499999997
 11
-110.3428265
 21
473.72766100000001
  0
LINE
  8
_0-0_0
  6
CONTINUOUS
 62
    7
 10
-110.3428265
 20
473.72766100000001
 11
-110.35504550000007
 21
473.736603
  0
LINE
  8
_0-0_0
  6
CONTINUOUS
 62
    7
 10
-110.35504550000007
 20
473.736603
 11
-110.36716450000006
 21
473.74279799999999
  0
LINE
  8
_0-0_0
  6
CONTINUOUS
 62
    7
 10
-110.36716450000006
 20
473.74279799999999
 11
-110.37802850000003
 21
473.74609400000003
  0
LINE
  8
_0-0_0
  6
CONTINUOUS
 62
    7
 10
-110.37802850000003
 20
473.74609400000003
 11
-110.38879050000003
 21
473.74713100000002
  0
LINE
  8
_0-0_0
  6
CONTINUOUS
 62
    7
 10
-110.38879050000003
 20
473.74713100000002
 11
-110.39125050000007
 21
473.74707000000001
  0
LINE
  8
_0-0_0
  6
CONTINUOUS
 62
    7
 10
-95.283222500000079
 20
471.25
 11
-95.283222500000079
 21
471.75
  0
CIRCLE
  8
_0-0_0
  6
CONTINUOUS
 62
    7
 10
-97.783222500000079
 20
471.25
 40
2.5
  0
LINE
  8
_0-0_0
  6
CONTINUOUS
 62
    7
 10
-95.283222500000079
 20
468.25
 11
-95.283222500000079
 21
467.75
  0
LINE
  8
_0-0_0
  6
CONTINUOUS
 62
    7
 10
-95.283222500000079
 20
468.25
 11
-95.283222500000079
 21
471.25
  0
ARC
  8
_0-0_0
  6
CONTINUOUS
 62
    7
 10
-101.28322250000008
 20
473.25
 40
0.5
 50
0
 51
90.000003000000007
  0
LINE
  8
_0-0_0
  6
CONTINUOUS
 62
    7
 10
-95.283222500000079
 20
454.14999399999999
 11
-95.283222500000079
 21
467.75
  0
LINE
  8
_0-0_0
  6
CONTINUOUS
 62
    7
 10
-113.28322250000008
 20
474.75
 11
-113.28322250000008
 21
472.15045199999997
  0
LINE
  8
_0-0_0
  6
CONTINUOUS
 62
    7
 10
-112.58322150000004
 20
459.94998199999998
 11
-112.28322950000006
 21
459.94998199999998
  0
LINE
  8
_0-0_0
  6
CONTINUOUS
 62
    7
 10
-95.083221500000036
 20
475.550049
 11
-95.083221500000036
 21
475.75
  0
ARC
  8
_0-0_0
  6
CONTINUOUS
 62
    7
 10
-97.283222500000079
 20
454.14999399999999
 40
2
 50
273.84026500000004
 51
0.000010000000014
  0
LINE
  8
_0-0_0
  6
CONTINUOUS
 62
    7
 10
-97.283222500000079
 20
452.14999399999999
 11
-106.28322250000008
 21
452.14999399999999
  0
ARC
  8
_0-0_0
  6
CONTINUOUS
 62
    7
 10
-96.783222500000079
 20
451.39498900000001
 40
0.5
 50
100.28656100000001
 51
179.99999099999999
  0
LINE
  8
_0-0_0
  6
CONTINUOUS
 62
    7
 10
-97.283222500000079
 20
450.14999399999999
 11
-97.283222500000079
 21
451.39498900000001
  0
ARC
  8
_0-0_0
  6
CONTINUOUS
 62
    7
 10
-96.783222500000079
 20
450.14999399999999
 40
0.5
 50
179.99999099999999
 51
269.99999700000001
  0
LINE
  8
_0-0_0
  6
CONTINUOUS
 62
    7
 10
-111.70624950000001
 20
457.64999399999999
 11
-111.78322250000008
 21
457.64999399999999
  0
LINE
  8
_0-0_0
  6
CONTINUOUS
 62
    7
 10
-109.78322250000008
 20
457.64999399999999
 11
-110.26472450000006
 21
457.64999399999999
  0
LINE
  8
_0-0_0
  6
CONTINUOUS
 62
    7
 10
-110.26472450000006
 20
457.64999399999999
 11
-111.70624950000001
 21
457.64999399999999
  0
LINE
  8
_0-0_0
  6
CONTINUOUS
 62
    7
 10
-106.78322250000008
 20
452.64999399999999
 11
-106.78322250000008
 21
452.72695900000002
  0
LINE
  8
_0-0_0
  6
CONTINUOUS
 62
    7
 10
-106.78322250000008
 20
454.16848800000002
 11
-106.78322250000008
 21
452.72695900000002
  0
LINE
  8
_0-0_0
  6
CONTINUOUS
 62
    7
 10
-106.78322250000008
 20
454.16848800000002
 11
-106.78322250000008
 21
454.64999399999999
  0
ARC
  8
_0-0_0
  6
CONTINUOUS
 62
    7
 10
-109.78322250000008
 20
454.64999399999999
 40
3
 50
0
 51
89.999995999999996
  0
ARC
  8
_0-0_0
  6
CONTINUOUS
 62
    7
 10
-106.28322250000008
 20
452.64999399999999
 40
0.5
 50
179.99999099999999
 51
269.99999700000001
  0
LINE
  8
_0-0_0
  6
CONTINUOUS
 62
    7
 10
-100.78322250000008
 20
473.17300399999999
 11
-100.78322250000008
 21
473.25
  0
LINE
  8
_0-0_0
  6
CONTINUOUS
 62
    7
 10
-100.78322250000008
 20
471.73147599999999
 11
-100.78322250000008
 21
473.17300399999999
  0
LINE
  8
_0-0_0
  6
CONTINUOUS
 62
    7
 10
-100.78322250000008
 20
471.25
 11
-100.78322250000008
 21
471.73147599999999
  0
ARC
  8
_0-0_0
  6
CONTINUOUS
 62
    7
 10
-97.783222500000079
 20
471.25
 40
3
 50
179.99999099999999
 51
269.99999700000001
  0
LINE
  8
_0-0_0
  6
CONTINUOUS
 62
    7
 10
-97.301723500000094
 20
468.25
 11
-97.783222500000079
 21
468.25
  0
LINE
  8
_0-0_0
  6
CONTINUOUS
 62
    7
 10
-97.301723500000094
 20
468.25
 11
-95.860195500000032
 21
468.25
  0
LINE
  8
_0-0_0
  6
CONTINUOUS
 62
    7
 10
-95.783222500000079
 20
468.25
 11
-95.860195500000032
 21
468.25
  0
ARC
  8
_0-0_0
  6
CONTINUOUS
 62
    7
 10
-95.783222500000079
 20
467.75
 40
0.5
 50
0
 51
90.000003000000007
  0
LINE
  8
_0-0_0
  6
CONTINUOUS
 62
    7
 10
-97.283222500000079
 20
452.25262500000002
 11
-97.267341500000043
 21
452.22537199999999
  0
LINE
  8
_0-0_0
  6
CONTINUOUS
 62
    7
 10
-97.267341500000043
 20
452.22537199999999
 11
-97.251495500000033
 21
452.20239299999997
  0
LINE
  8
_0-0_0
  6
CONTINUOUS
 62
    7
 10
-97.251495500000033
 20
452.20239299999997
 11
-97.237514500000088
 21
452.18563799999998
  0
LINE
  8
_0-0_0
  6
CONTINUOUS
 62
    7
 10
-97.237514500000088
 20
452.18563799999998
 11
-97.223617500000046
 21
452.172302
  0
LINE
  8
_0-0_0
  6
CONTINUOUS
 62
    7
 10
-97.223617500000046
 20
452.172302
 11
-97.211399500000084
 21
452.16339099999999
  0
LINE
  8
_0-0_0
  6
CONTINUOUS
 62
    7
 10
-97.211399500000084
 20
452.16339099999999
 11
-97.199283500000092
 21
452.15716600000002
  0
LINE
  8
_0-0_0
  6
CONTINUOUS
 62
    7
 10
-97.199283500000092
 20
452.15716600000002
 11
-97.188415500000019
 21
452.15390000000002
  0
LINE
  8
_0-0_0
  6
CONTINUOUS
 62
    7
 10
-97.188415500000019
 20
452.15390000000002
 11
-97.177654500000017
 21
452.15283199999999
  0
LINE
  8
_0-0_0
  6
CONTINUOUS
 62
    7
 10
-97.177654500000017
 20
452.15283199999999
 11
-97.175197500000081
 21
452.15289300000001
  0
ARC
  8
_0-0_0
  6
CONTINUOUS
 62
    7
 10
-107.01333650000004
 20
461.77673299999998
 40
3.063399
 50
199.82113599999997
 51
205.28948099999999
  0
ARC
  8
_0-0_0
  6
CONTINUOUS
 62
    7
 10
-107.01365650000002
 20
464.12335200000001
 40
3.0630549999999999
 50
154.710137
 51
160.17869999999999
  0
ARC
  8
_0-0_0
  6
CONTINUOUS
 62
    7
 10
-103.78322250000008
 20
462.94998199999998
 40
6.5
 50
160.10415599999999
 51
199.895612
  0
ARC
  8
_0-0_0
  6
CONTINUOUS
 62
    7
 10
-100.55310450000002
 20
464.12322999999998
 40
3.0633949999999999
 50
19.82113
 51
25.289566000000001
  0
ARC
  8
_0-0_0
  6
CONTINUOUS
 62
    7
 10
-100.55278450000003
 20
461.776611
 40
3.0630519999999999
 50
334.71006
 51
340.17869200000001
  0
LINE
  8
_0-0_0
  6
CONTINUOUS
 62
    7
 10
-103.04155350000008
 20
456.44998199999998
 11
-98.524891500000081
 21
459.05767800000001
  0
LINE
  8
_0-0_0
  6
CONTINUOUS
 62
    7
 10
-104.52489150000008
 20
456.44998199999998
 11
-103.04155350000008
 21
456.44998199999998
  0
LINE
  8
_0-0_0
  6
CONTINUOUS
 62
    7
 10
-109.04155350000008
 20
459.05767800000001
 11
-104.52489150000008
 21
456.44998199999998
  0
LINE
  8
_0-0_0
  6
CONTINUOUS
 62
    7
 10
-109.78322250000008
 20
465.55767800000001
 11
-109.78322250000008
 21
460.342285
  0
LINE
  8
_0-0_0
  6
CONTINUOUS
 62
    7
 10
-109.04155350000008
 20
459.05767800000001
 11
-109.78322250000008
 21
460.342285
  0
LINE
  8
_0-0_0
  6
CONTINUOUS
 62
    7
 10
-104.52489150000008
 20
469.44998199999998
 11
-109.04155350000008
 21
466.842285
  0
LINE
  8
_0-0_0
  6
CONTINUOUS
 62
    7
 10
-109.33567850000009
 20
466.332855
 11
-109.78322250000008
 21
465.55767800000001
  0
LINE
  8
_0-0_0
  6
CONTINUOUS
 62
    7
 10
-109.33567850000009
 20
466.332855
 11
-109.04155350000008
 21
466.842285
  0
LINE
  8
_0-0_0
  6
CONTINUOUS
 62
    7
 10
-103.04155350000008
 20
469.44998199999998
 11
-104.52489150000008
 21
469.44998199999998
  0
LINE
  8
_0-0_0
  6
CONTINUOUS
 62
    7
 10
-98.524891500000081
 20
466.842285
 11
-103.04155350000008
 21
469.44998199999998
  0
ARC
  8
_0-0_0
  6
CONTINUOUS
 62
    7
 10
-103.78322250000008
 20
462.94998199999998
 40
6.5
 50
340.10416099999998
 51
19.895609999999952
  0
LINE
  8
_0-0_0
  6
CONTINUOUS
 62
    7
 10
-98.230770500000062
 20
459.56710800000002
 11
-97.783222500000079
 21
460.342285
  0
LINE
  8
_0-0_0
  6
CONTINUOUS
 62
    7
 10
-98.230770500000062
 20
459.56710800000002
 11
-98.524891500000081
 21
459.05767800000001
  0
CIRCLE
  8
_0-0_0
  6
CONTINUOUS
 62
    7
 10
-103.78322250000008
 20
462.94998199999998
 40
5.25
  0
LINE
  8
_0-0_0
  6
CONTINUOUS
 62
    7
 10
-97.783222500000079
 20
465.55767800000001
 11
-97.783222500000079
 21
460.342285
  0
LINE
  8
_0-0_0
  6
CONTINUOUS
 62
    7
 10
-98.524891500000081
 20
466.842285
 11
-97.783222500000079
 21
465.55767800000001
  0
LINE
  8
_0-0_0
  6
CONTINUOUS
 62
    7
 10
-95.896213500000044
 20
472.47543300000001
 11
-95.618160500000045
 21
472.5
  0
LINE
  8
_0-0_0
  6
CONTINUOUS
 62
    7
 10
-95.778457500000059
 20
472.27145400000001
 11
-95.618160500000045
 21
472.5
  0
LINE
  8
_0-0_0
  6
CONTINUOUS
 62
    7
 10
-96.034641500000021
 20
472.665955
 11
-95.760677500000043
 21
472.71945199999999
  0
LINE
  8
_0-0_0
  6
CONTINUOUS
 62
    7
 10
-95.896213500000044
 20
472.47543300000001
 11
-95.760677500000043
 21
472.71945199999999
  0
LINE
  8
_0-0_0
  6
CONTINUOUS
 62
    7
 10
-96.19223450000004
 20
472.84097300000002
 11
-95.925357500000018
 21
472.922821
  0
LINE
  8
_0-0_0
  6
CONTINUOUS
 62
    7
 10
-96.034641500000021
 20
472.665955
 11
-95.925357500000018
 21
472.922821
  0
LINE
  8
_0-0_0
  6
CONTINUOUS
 62
    7
 10
-96.367252500000063
 20
472.99856599999998
 11
-96.1103935000001
 21
473.10784899999999
  0
LINE
  8
_0-0_0
  6
CONTINUOUS
 62
    7
 10
-96.19223450000004
 20
472.84097300000002
 11
-96.1103935000001
 21
473.10784899999999
  0
LINE
  8
_0-0_0
  6
CONTINUOUS
 62
    7
 10
-96.557785500000023
 20
473.13699300000002
 11
-96.313758500000063
 21
473.27252199999998
  0
LINE
  8
_0-0_0
  6
CONTINUOUS
 62
    7
 10
-96.367252500000063
 20
472.99856599999998
 11
-96.313758500000063
 21
473.27252199999998
  0
LINE
  8
_0-0_0
  6
CONTINUOUS
 62
    7
 10
-96.761745500000075
 20
473.25476099999997
 11
-96.533222500000079
 21
473.41503899999998
  0
LINE
  8
_0-0_0
  6
CONTINUOUS
 62
    7
 10
-96.557785500000023
 20
473.13699300000002
 11
-96.533222500000079
 21
473.41503899999998
  0
LINE
  8
_0-0_0
  6
CONTINUOUS
 62
    7
 10
-96.976894500000071
 20
473.350525
 11
-96.766380500000082
 21
473.53384399999999
  0
LINE
  8
_0-0_0
  6
CONTINUOUS
 62
    7
 10
-96.761745500000075
 20
473.25476099999997
 11
-96.766380500000082
 21
473.53384399999999
  0
LINE
  8
_0-0_0
  6
CONTINUOUS
 62
    7
 10
-97.200878500000044
 20
473.42330900000002
 11
-97.010677500000043
 21
473.62762500000002
  0
LINE
  8
_0-0_0
  6
CONTINUOUS
 62
    7
 10
-96.976894500000071
 20
473.350525
 11
-97.010677500000043
 21
473.62762500000002
  0
LINE
  8
_0-0_0
  6
CONTINUOUS
 62
    7
 10
-97.431244500000048
 20
473.47228999999999
 11
-97.263443499999994
 21
473.69534299999998
  0
LINE
  8
_0-0_0
  6
CONTINUOUS
 62
    7
 10
-97.200878500000044
 20
473.42330900000002
 11
-97.263443499999994
 21
473.69534299999998
  0
LINE
  8
_0-0_0
  6
CONTINUOUS
 62
    7
 10
-97.665466500000093
 20
473.49688700000002
 11
-97.521900500000015
 21
473.73629799999998
  0
LINE
  8
_0-0_0
  6
CONTINUOUS
 62
    7
 10
-97.431244500000048
 20
473.47228999999999
 11
-97.521900500000015
 21
473.73629799999998
  0
LINE
  8
_0-0_0
  6
CONTINUOUS
 62
    7
 10
-97.900978500000065
 20
473.49688700000002
 11
-97.783222500000079
 21
473.75
  0
LINE
  8
_0-0_0
  6
CONTINUOUS
 62
    7
 10
-97.665466500000093
 20
473.49688700000002
 11
-97.783222500000079
 21
473.75
  0
LINE
  8
_0-0_0
  6
CONTINUOUS
 62
    7
 10
-98.135200499999996
 20
473.47228999999999
 11
-98.044544500000029
 21
473.73629799999998
  0
LINE
  8
_0-0_0
  6
CONTINUOUS
 62
    7
 10
-97.900978500000065
 20
473.49688700000002
 11
-98.044544500000029
 21
473.73629799999998
  0
LINE
  8
_0-0_0
  6
CONTINUOUS
 62
    7
 10
-98.3655665
 20
473.42330900000002
 11
-98.30300150000005
 21
473.69534299999998
  0
LINE
  8
_0-0_0
  6
CONTINUOUS
 62
    7
 10
-98.135200499999996
 20
473.47228999999999
 11
-98.30300150000005
 21
473.69534299999998
  0
LINE
  8
_0-0_0
  6
CONTINUOUS
 62
    7
 10
-98.589550500000087
 20
473.350525
 11
-98.555767500000002
 21
473.62762500000002
  0
LINE
  8
_0-0_0
  6
CONTINUOUS
 62
    7
 10
-98.3655665
 20
473.42330900000002
 11
-98.555767500000002
 21
473.62762500000002
  0
LINE
  8
_0-0_0
  6
CONTINUOUS
 62
    7
 10
-98.804699500000083
 20
473.25476099999997
 11
-98.800064500000076
 21
473.53384399999999
  0
LINE
  8
_0-0_0
  6
CONTINUOUS
 62
    7
 10
-98.589550500000087
 20
473.350525
 11
-98.800064500000076
 21
473.53384399999999
  0
LINE
  8
_0-0_0
  6
CONTINUOUS
 62
    7
 10
-98.924236500000006
 20
473.338593
 11
-99.033222500000079
 21
473.41503899999998
  0
LINE
  8
_0-0_0
  6
CONTINUOUS
 62
    7
 10
-98.804699500000083
 20
473.25476099999997
 11
-98.924236500000006
 21
473.338593
  0
LINE
  8
_0-0_0
  6
CONTINUOUS
 62
    7
 10
-99.008659500000022
 20
473.13699300000002
 11
-99.033222500000079
 21
473.41503899999998
  0
LINE
  8
_0-0_0
  6
CONTINUOUS
 62
    7
 10
-99.199192500000095
 20
472.99856599999998
 11
-99.252685500000098
 21
473.27252199999998
  0
LINE
  8
_0-0_0
  6
CONTINUOUS
 62
    7
 10
-99.008659500000022
 20
473.13699300000002
 11
-99.252685500000098
 21
473.27252199999998
  0
LINE
  8
_0-0_0
  6
CONTINUOUS
 62
    7
 10
-99.374210500000004
 20
472.84097300000002
 11
-99.45605050000006
 21
473.10784899999999
  0
LINE
  8
_0-0_0
  6
CONTINUOUS
 62
    7
 10
-99.199192500000095
 20
472.99856599999998
 11
-99.45605050000006
 21
473.10784899999999
  0
LINE
  8
_0-0_0
  6
CONTINUOUS
 62
    7
 10
-99.531803500000024
 20
472.665955
 11
-99.641086500000029
 21
472.922821
  0
LINE
  8
_0-0_0
  6
CONTINUOUS
 62
    7
 10
-99.374210500000004
 20
472.84097300000002
 11
-99.641086500000029
 21
472.922821
  0
LINE
  8
_0-0_0
  6
CONTINUOUS
 62
    7
 10
-99.670230500000002
 20
472.47543300000001
 11
-99.805767500000002
 21
472.71945199999999
  0
LINE
  8
_0-0_0
  6
CONTINUOUS
 62
    7
 10
-99.531803500000024
 20
472.665955
 11
-99.805767500000002
 21
472.71945199999999
  0
LINE
  8
_0-0_0
  6
CONTINUOUS
 62
    7
 10
-99.787986499999988
 20
472.27145400000001
 11
-99.9482845
 21
472.5
  0
LINE
  8
_0-0_0
  6
CONTINUOUS
 62
    7
 10
-99.670230500000002
 20
472.47543300000001
 11
-99.9482845
 21
472.5
  0
LINE
  8
_0-0_0
  6
CONTINUOUS
 62
    7
 10
-99.883777500000065
 20
472.05630500000001
 11
-100.06708550000008
 21
472.26681500000001
  0
LINE
  8
_0-0_0
  6
CONTINUOUS
 62
    7
 10
-99.787986499999988
 20
472.27145400000001
 11
-100.06708550000008
 21
472.26681500000001
  0
LINE
  8
_0-0_0
  6
CONTINUOUS
 62
    7
 10
-99.956554500000038
 20
471.832336
 11
-100.16086250000001
 21
472.02252199999998
  0
LINE
  8
_0-0_0
  6
CONTINUOUS
 62
    7
 10
-99.883777500000065
 20
472.05630500000001
 11
-100.16086250000001
 21
472.02252199999998
  0
LINE
  8
_0-0_0
  6
CONTINUOUS
 62
    7
 10
-100.00551949999999
 20
471.60195900000002
 11
-100.22859249999999
 21
471.76977499999998
  0
LINE
  8
_0-0_0
  6
CONTINUOUS
 62
    7
 10
-99.956554500000038
 20
471.832336
 11
-100.22859249999999
 21
471.76977499999998
  0
LINE
  8
_0-0_0
  6
CONTINUOUS
 62
    7
 10
-100.00551949999999
 20
471.60195900000002
 11
-100.26952750000009
 21
471.51129200000003
  0
LINE
  8
_0-0_0
  6
CONTINUOUS
 62
    7
 10
-100.03014050000002
 20
471.36773699999998
 11
-100.26952750000009
 21
471.51129200000003
  0
LINE
  8
_0-0_0
  6
CONTINUOUS
 62
    7
 10
-100.03014050000002
 20
471.13223299999999
 11
-100.28322250000008
 21
471.25
  0
LINE
  8
_0-0_0
  6
CONTINUOUS
 62
    7
 10
-100.03014050000002
 20
471.36773699999998
 11
-100.28322250000008
 21
471.25
  0
LINE
  8
_0-0_0
  6
CONTINUOUS
 62
    7
 10
-100.00551949999999
 20
470.89801
 11
-100.26952750000009
 21
470.98864700000001
  0
LINE
  8
_0-0_0
  6
CONTINUOUS
 62
    7
 10
-100.03014050000002
 20
471.13223299999999
 11
-100.26952750000009
 21
470.98864700000001
  0
LINE
  8
_0-0_0
  6
CONTINUOUS
 62
    7
 10
-99.956554500000038
 20
470.66763300000002
 11
-100.22859249999999
 21
470.73019399999998
  0
LINE
  8
_0-0_0
  6
CONTINUOUS
 62
    7
 10
-100.00551949999999
 20
470.89801
 11
-100.22859249999999
 21
470.73019399999998
  0
LINE
  8
_0-0_0
  6
CONTINUOUS
 62
    7
 10
-99.883777500000065
 20
470.44366500000001
 11
-100.16086250000001
 21
470.47744799999998
  0
LINE
  8
_0-0_0
  6
CONTINUOUS
 62
    7
 10
-99.956554500000038
 20
470.66763300000002
 11
-100.16086250000001
 21
470.47744799999998
  0
LINE
  8
_0-0_0
  6
CONTINUOUS
 62
    7
 10
-99.787986499999988
 20
470.22851600000001
 11
-100.06708550000008
 21
470.23315400000001
  0
LINE
  8
_0-0_0
  6
CONTINUOUS
 62
    7
 10
-99.883777500000065
 20
470.44366500000001
 11
-100.06708550000008
 21
470.23315400000001
  0
LINE
  8
_0-0_0
  6
CONTINUOUS
 62
    7
 10
-99.670230500000002
 20
470.02453600000001
 11
-99.9482845
 21
470
  0
LINE
  8
_0-0_0
  6
CONTINUOUS
 62
    7
 10
-99.787986499999988
 20
470.22851600000001
 11
-99.9482845
 21
470
  0
LINE
  8
_0-0_0
  6
CONTINUOUS
 62
    7
 10
-99.531803500000024
 20
469.83401500000002
 11
-99.805767500000002
 21
469.78051799999997
  0
LINE
  8
_0-0_0
  6
CONTINUOUS
 62
    7
 10
-99.670230500000002
 20
470.02453600000001
 11
-99.805767500000002
 21
469.78051799999997
  0
LINE
  8
_0-0_0
  6
CONTINUOUS
 62
    7
 10
-99.374210500000004
 20
469.658997
 11
-99.641086500000029
 21
469.57714800000002
  0
LINE
  8
_0-0_0
  6
CONTINUOUS
 62
    7
 10
-99.531803500000024
 20
469.83401500000002
 11
-99.641086500000029
 21
469.57714800000002
  0
LINE
  8
_0-0_0
  6
CONTINUOUS
 62
    7
 10
-99.199192500000095
 20
469.50140399999998
 11
-99.45605050000006
 21
469.39211999999998
  0
LINE
  8
_0-0_0
  6
CONTINUOUS
 62
    7
 10
-99.374210500000004
 20
469.658997
 11
-99.45605050000006
 21
469.39211999999998
  0
LINE
  8
_0-0_0
  6
CONTINUOUS
 62
    7
 10
-99.008659500000022
 20
469.362976
 11
-99.252685500000098
 21
469.22744799999998
  0
LINE
  8
_0-0_0
  6
CONTINUOUS
 62
    7
 10
-99.199192500000095
 20
469.50140399999998
 11
-99.252685500000098
 21
469.22744799999998
  0
LINE
  8
_0-0_0
  6
CONTINUOUS
 62
    7
 10
-98.804699500000083
 20
469.24520899999999
 11
-99.033222500000079
 21
469.08492999999999
  0
LINE
  8
_0-0_0
  6
CONTINUOUS
 62
    7
 10
-99.008659500000022
 20
469.362976
 11
-99.033222500000079
 21
469.08492999999999
  0
LINE
  8
_0-0_0
  6
CONTINUOUS
 62
    7
 10
-98.589550500000087
 20
469.14941399999998
 11
-98.800064500000076
 21
468.96612499999998
  0
LINE
  8
_0-0_0
  6
CONTINUOUS
 62
    7
 10
-98.804699500000083
 20
469.24520899999999
 11
-98.800064500000076
 21
468.96612499999998
  0
LINE
  8
_0-0_0
  6
CONTINUOUS
 62
    7
 10
-98.3655665
 20
469.07666
 11
-98.555767500000002
 21
468.872345
  0
LINE
  8
_0-0_0
  6
CONTINUOUS
 62
    7
 10
-98.589550500000087
 20
469.14941399999998
 11
-98.555767500000002
 21
468.872345
  0
LINE
  8
_0-0_0
  6
CONTINUOUS
 62
    7
 10
-98.135200499999996
 20
469.02767899999998
 11
-98.30300150000005
 21
468.80462599999998
  0
LINE
  8
_0-0_0
  6
CONTINUOUS
 62
    7
 10
-98.3655665
 20
469.07666
 11
-98.30300150000005
 21
468.80462599999998
  0
LINE
  8
_0-0_0
  6
CONTINUOUS
 62
    7
 10
-97.900978500000065
 20
469.00305200000003
 11
-98.044544500000029
 21
468.76367199999999
  0
LINE
  8
_0-0_0
  6
CONTINUOUS
 62
    7
 10
-98.135200499999996
 20
469.02767899999998
 11
-98.044544500000029
 21
468.76367199999999
  0
LINE
  8
_0-0_0
  6
CONTINUOUS
 62
    7
 10
-97.665466500000093
 20
469.00305200000003
 11
-97.783222500000079
 21
468.75
  0
LINE
  8
_0-0_0
  6
CONTINUOUS
 62
    7
 10
-97.900978500000065
 20
469.00305200000003
 11
-97.783222500000079
 21
468.75
  0
LINE
  8
_0-0_0
  6
CONTINUOUS
 62
    7
 10
-97.431244500000048
 20
469.02767899999998
 11
-97.521900500000015
 21
468.76367199999999
  0
LINE
  8
_0-0_0
  6
CONTINUOUS
 62
    7
 10
-97.665466500000093
 20
469.00305200000003
 11
-97.521900500000015
 21
468.76367199999999
  0
LINE
  8
_0-0_0
  6
CONTINUOUS
 62
    7
 10
-97.200878500000044
 20
469.07666
 11
-97.263443499999994
 21
468.80462599999998
  0
LINE
  8
_0-0_0
  6
CONTINUOUS
 62
    7
 10
-97.431244500000048
 20
469.02767899999998
 11
-97.263443499999994
 21
468.80462599999998
  0
LINE
  8
_0-0_0
  6
CONTINUOUS
 62
    7
 10
-96.976894500000071
 20
469.14941399999998
 11
-97.010677500000043
 21
468.872345
  0
LINE
  8
_0-0_0
  6
CONTINUOUS
 62
    7
 10
-97.200878500000044
 20
469.07666
 11
-97.010677500000043
 21
468.872345
  0
LINE
  8
_0-0_0
  6
CONTINUOUS
 62
    7
 10
-96.761745500000075
 20
469.24520899999999
 11
-96.766380500000082
 21
468.96612499999998
  0
LINE
  8
_0-0_0
  6
CONTINUOUS
 62
    7
 10
-96.976894500000071
 20
469.14941399999998
 11
-96.766380500000082
 21
468.96612499999998
  0
LINE
  8
_0-0_0
  6
CONTINUOUS
 62
    7
 10
-96.642208500000038
 20
469.16137700000002
 11
-96.533222500000079
 21
469.08492999999999
  0
LINE
  8
_0-0_0
  6
CONTINUOUS
 62
    7
 10
-96.761745500000075
 20
469.24520899999999
 11
-96.642208500000038
 21
469.16137700000002
  0
LINE
  8
_0-0_0
  6
CONTINUOUS
 62
    7
 10
-96.557785500000023
 20
469.362976
 11
-96.533222500000079
 21
469.08492999999999
  0
LINE
  8
_0-0_0
  6
CONTINUOUS
 62
    7
 10
-96.367252500000063
 20
469.50140399999998
 11
-96.313758500000063
 21
469.22744799999998
  0
LINE
  8
_0-0_0
  6
CONTINUOUS
 62
    7
 10
-96.557785500000023
 20
469.362976
 11
-96.313758500000063
 21
469.22744799999998
  0
LINE
  8
_0-0_0
  6
CONTINUOUS
 62
    7
 10
-96.19223450000004
 20
469.658997
 11
-96.1103935000001
 21
469.39211999999998
  0
LINE
  8
_0-0_0
  6
CONTINUOUS
 62
    7
 10
-96.367252500000063
 20
469.50140399999998
 11
-96.1103935000001
 21
469.39211999999998
  0
LINE
  8
_0-0_0
  6
CONTINUOUS
 62
    7
 10
-96.034641500000021
 20
469.83401500000002
 11
-95.925357500000018
 21
469.57714800000002
  0
LINE
  8
_0-0_0
  6
CONTINUOUS
 62
    7
 10
-96.19223450000004
 20
469.658997
 11
-95.925357500000018
 21
469.57714800000002
  0
LINE
  8
_0-0_0
  6
CONTINUOUS
 62
    7
 10
-95.896213500000044
 20
470.02453600000001
 11
-95.760677500000043
 21
469.78051799999997
  0
LINE
  8
_0-0_0
  6
CONTINUOUS
 62
    7
 10
-96.034641500000021
 20
469.83401500000002
 11
-95.760677500000043
 21
469.78051799999997
  0
LINE
  8
_0-0_0
  6
CONTINUOUS
 62
    7
 10
-95.778457500000059
 20
470.22851600000001
 11
-95.618160500000045
 21
470
  0
LINE
  8
_0-0_0
  6
CONTINUOUS
 62
    7
 10
-95.896213500000044
 20
470.02453600000001
 11
-95.618160500000045
 21
470
  0
LINE
  8
_0-0_0
  6
CONTINUOUS
 62
    7
 10
-95.682666500000096
 20
470.44366500000001
 11
-95.499359500000082
 21
470.23315400000001
  0
LINE
  8
_0-0_0
  6
CONTINUOUS
 62
    7
 10
-95.778457500000059
 20
470.22851600000001
 11
-95.499359500000082
 21
470.23315400000001
  0
LINE
  8
_0-0_0
  6
CONTINUOUS
 62
    7
 10
-95.609890500000006
 20
470.66763300000002
 11
-95.405582500000037
 21
470.47744799999998
  0
LINE
  8
_0-0_0
  6
CONTINUOUS
 62
    7
 10
-95.682666500000096
 20
470.44366500000001
 11
-95.405582500000037
 21
470.47744799999998
  0
LINE
  8
_0-0_0
  6
CONTINUOUS
 62
    7
 10
-95.560924500000056
 20
470.89801
 11
-95.337852500000054
 21
470.73019399999998
  0
LINE
  8
_0-0_0
  6
CONTINUOUS
 62
    7
 10
-95.609890500000006
 20
470.66763300000002
 11
-95.337852500000054
 21
470.73019399999998
  0
LINE
  8
_0-0_0
  6
CONTINUOUS
 62
    7
 10
-95.536304500000028
 20
471.13223299999999
 11
-95.296917500000063
 21
470.98864700000001
  0
LINE
  8
_0-0_0
  6
CONTINUOUS
 62
    7
 10
-95.560924500000056
 20
470.89801
 11
-95.296917500000063
 21
470.98864700000001
  0
LINE
  8
_0-0_0
  6
CONTINUOUS
 62
    7
 10
-95.536304500000028
 20
471.36773699999998
 11
-95.283222500000079
 21
471.25
  0
LINE
  8
_0-0_0
  6
CONTINUOUS
 62
    7
 10
-95.536304500000028
 20
471.13223299999999
 11
-95.283222500000079
 21
471.25
  0
LINE
  8
_0-0_0
  6
CONTINUOUS
 62
    7
 10
-95.560924500000056
 20
471.60195900000002
 11
-95.296917500000063
 21
471.51129200000003
  0
LINE
  8
_0-0_0
  6
CONTINUOUS
 62
    7
 10
-95.536304500000028
 20
471.36773699999998
 11
-95.296917500000063
 21
471.51129200000003
  0
LINE
  8
_0-0_0
  6
CONTINUOUS
 62
    7
 10
-95.609890500000006
 20
471.832336
 11
-95.337852500000054
 21
471.76977499999998
  0
LINE
  8
_0-0_0
  6
CONTINUOUS
 62
    7
 10
-95.560924500000056
 20
471.60195900000002
 11
-95.337852500000054
 21
471.76977499999998
  0
LINE
  8
_0-0_0
  6
CONTINUOUS
 62
    7
 10
-95.682666500000096
 20
472.05630500000001
 11
-95.405582500000037
 21
472.02252199999998
  0
LINE
  8
_0-0_0
  6
CONTINUOUS
 62
    7
 10
-95.609890500000006
 20
471.832336
 11
-95.405582500000037
 21
472.02252199999998
  0
LINE
  8
_0-0_0
  6
CONTINUOUS
 62
    7
 10
-95.778457500000059
 20
472.27145400000001
 11
-95.499359500000082
 21
472.26681500000001
  0
LINE
  8
_0-0_0
  6
CONTINUOUS
 62
    7
 10
-95.682666500000096
 20
472.05630500000001
 11
-95.499359500000082
 21
472.26681500000001
  0
CIRCLE
  8
_0-0_0
  6
CONTINUOUS
 62
    7
 10
-97.783222500000079
 20
471.25
 40
2
  0
CIRCLE
  8
_0-0_0
  6
CONTINUOUS
 62
    7
 10
-103.78322250000008
 20
462.94998199999998
 40
5
  0
LINE
  8
_0-0_0
  6
CONTINUOUS
 62
    7
 10
-97.201114500000017
 20
470.25
 11
-98.36532950000003
 21
470.25
  0
LINE
  8
_0-0_0
  6
CONTINUOUS
 62
    7
 10
-98.36532950000003
 20
470.25
 11
-98.933223500000054
 21
471.25
  0
LINE
  8
_0-0_0
  6
CONTINUOUS
 62
    7
 10
-98.933223500000054
 20
471.25
 11
-98.36532950000003
 21
472.25
  0
LINE
  8
_0-0_0
  6
CONTINUOUS
 62
    7
 10
-98.36532950000003
 20
472.25
 11
-97.201114500000017
 21
472.25
  0
LINE
  8
_0-0_0
  6
CONTINUOUS
 62
    7
 10
-97.201114500000017
 20
472.25
 11
-96.633220499999993
 21
471.25
  0
LINE
  8
_0-0_0
  6
CONTINUOUS
 62
    7
 10
-96.633220499999993
 20
471.25
 11
-97.201114500000017
 21
470.25
  0
CIRCLE
  8
_0-0_0
  6
CONTINUOUS
 62
    7
 10
-103.78322250000008
 20
462.94998199999998
 40
4.5381200000000002
  0
CIRCLE
  8
_0-0_0
  6
CONTINUOUS
 62
    7
 10
-103.78322250000008
 20
462.94998199999998
 40
4
  0
LINE
  8
_0-0_0
  6
CONTINUOUS
 62
    7
 10
-111.6702305
 20
453.42453
 11
-111.9482845
 21
453.39999399999999
  0
LINE
  8
_0-0_0
  6
CONTINUOUS
 62
    7
 10
-111.78798649999999
 20
453.62851000000001
 11
-111.9482845
 21
453.39999399999999
  0
LINE
  8
_0-0_0
  6
CONTINUOUS
 62
    7
 10
-111.53180350000002
 20
453.23400900000001
 11
-111.8057675
 21
453.18051100000002
  0
LINE
  8
_0-0_0
  6
CONTINUOUS
 62
    7
 10
-111.6702305
 20
453.42453
 11
-111.8057675
 21
453.18051100000002
  0
LINE
  8
_0-0_0
  6
CONTINUOUS
 62
    7
 10
-111.3742105
 20
453.05898999999999
 11
-111.64108650000003
 21
452.97717299999999
  0
LINE
  8
_0-0_0
  6
CONTINUOUS
 62
    7
 10
-111.53180350000002
 20
453.23400900000001
 11
-111.64108650000003
 21
452.97717299999999
  0
LINE
  8
_0-0_0
  6
CONTINUOUS
 62
    7
 10
-111.19919250000009
 20
452.90139799999997
 11
-111.45605050000006
 21
452.79211400000003
  0
LINE
  8
_0-0_0
  6
CONTINUOUS
 62
    7
 10
-111.3742105
 20
453.05898999999999
 11
-111.45605050000006
 21
452.79211400000003
  0
LINE
  8
_0-0_0
  6
CONTINUOUS
 62
    7
 10
-111.00865950000002
 20
452.76297
 11
-111.2526855000001
 21
452.62744099999998
  0
LINE
  8
_0-0_0
  6
CONTINUOUS
 62
    7
 10
-111.19919250000009
 20
452.90139799999997
 11
-111.2526855000001
 21
452.62744099999998
  0
LINE
  8
_0-0_0
  6
CONTINUOUS
 62
    7
 10
-110.80469950000008
 20
452.64520299999998
 11
-111.03322250000008
 21
452.48492399999998
  0
LINE
  8
_0-0_0
  6
CONTINUOUS
 62
    7
 10
-111.00865950000002
 20
452.76297
 11
-111.03322250000008
 21
452.48492399999998
  0
LINE
  8
_0-0_0
  6
CONTINUOUS
 62
    7
 10
-110.58955050000009
 20
452.54943800000001
 11
-110.80006450000008
 21
452.36611900000003
  0
LINE
  8
_0-0_0
  6
CONTINUOUS
 62
    7
 10
-110.80469950000008
 20
452.64520299999998
 11
-110.80006450000008
 21
452.36611900000003
  0
LINE
  8
_0-0_0
  6
CONTINUOUS
 62
    7
 10
-110.3655665
 20
452.476654
 11
-110.5557675
 21
452.27233899999999
  0
LINE
  8
_0-0_0
  6
CONTINUOUS
 62
    7
 10
-110.58955050000009
 20
452.54943800000001
 11
-110.5557675
 21
452.27233899999999
  0
LINE
  8
_0-0_0
  6
CONTINUOUS
 62
    7
 10
-110.1352005
 20
452.42770400000001
 11
-110.30300150000005
 21
452.20461999999998
  0
LINE
  8
_0-0_0
  6
CONTINUOUS
 62
    7
 10
-110.3655665
 20
452.476654
 11
-110.30300150000005
 21
452.20461999999998
  0
LINE
  8
_0-0_0
  6
CONTINUOUS
 62
    7
 10
-109.90097850000006
 20
452.403076
 11
-110.04454450000003
 21
452.16369600000002
  0
LINE
  8
_0-0_0
  6
CONTINUOUS
 62
    7
 10
-110.1352005
 20
452.42770400000001
 11
-110.04454450000003
 21
452.16369600000002
  0
LINE
  8
_0-0_0
  6
CONTINUOUS
 62
    7
 10
-109.66546650000009
 20
452.403076
 11
-109.78322250000008
 21
452.14999399999999
  0
LINE
  8
_0-0_0
  6
CONTINUOUS
 62
    7
 10
-109.90097850000006
 20
452.403076
 11
-109.78322250000008
 21
452.14999399999999
  0
LINE
  8
_0-0_0
  6
CONTINUOUS
 62
    7
 10
-109.43124450000005
 20
452.42770400000001
 11
-109.52190050000002
 21
452.16369600000002
  0
LINE
  8
_0-0_0
  6
CONTINUOUS
 62
    7
 10
-109.66546650000009
 20
452.403076
 11
-109.52190050000002
 21
452.16369600000002
  0
LINE
  8
_0-0_0
  6
CONTINUOUS
 62
    7
 10
-109.20087850000004
 20
452.476654
 11
-109.26344349999999
 21
452.20461999999998
  0
LINE
  8
_0-0_0
  6
CONTINUOUS
 62
    7
 10
-109.43124450000005
 20
452.42770400000001
 11
-109.26344349999999
 21
452.20461999999998
  0
LINE
  8
_0-0_0
  6
CONTINUOUS
 62
    7
 10
-108.97689450000007
 20
452.54943800000001
 11
-109.01067750000004
 21
452.27233899999999
  0
LINE
  8
_0-0_0
  6
CONTINUOUS
 62
    7
 10
-109.20087850000004
 20
452.476654
 11
-109.01067750000004
 21
452.27233899999999
  0
LINE
  8
_0-0_0
  6
CONTINUOUS
 62
    7
 10
-108.76174550000007
 20
452.64520299999998
 11
-108.76638050000008
 21
452.36611900000003
  0
LINE
  8
_0-0_0
  6
CONTINUOUS
 62
    7
 10
-108.97689450000007
 20
452.54943800000001
 11
-108.76638050000008
 21
452.36611900000003
  0
LINE
  8
_0-0_0
  6
CONTINUOUS
 62
    7
 10
-108.64220850000004
 20
452.56137100000001
 11
-108.53322250000008
 21
452.48492399999998
  0
LINE
  8
_0-0_0
  6
CONTINUOUS
 62
    7
 10
-108.76174550000007
 20
452.64520299999998
 11
-108.64220850000004
 21
452.56137100000001
  0
LINE
  8
_0-0_0
  6
CONTINUOUS
 62
    7
 10
-108.55778550000002
 20
452.76297
 11
-108.53322250000008
 21
452.48492399999998
  0
LINE
  8
_0-0_0
  6
CONTINUOUS
 62
    7
 10
-108.36725250000006
 20
452.90139799999997
 11
-108.31375850000006
 21
452.62744099999998
  0
LINE
  8
_0-0_0
  6
CONTINUOUS
 62
    7
 10
-108.55778550000002
 20
452.76297
 11
-108.31375850000006
 21
452.62744099999998
  0
LINE
  8
_0-0_0
  6
CONTINUOUS
 62
    7
 10
-108.19223450000004
 20
453.05898999999999
 11
-108.1103935000001
 21
452.79211400000003
  0
LINE
  8
_0-0_0
  6
CONTINUOUS
 62
    7
 10
-108.36725250000006
 20
452.90139799999997
 11
-108.1103935000001
 21
452.79211400000003
  0
LINE
  8
_0-0_0
  6
CONTINUOUS
 62
    7
 10
-108.03464550000001
 20
453.23400900000001
 11
-107.92535750000002
 21
452.97717299999999
  0
LINE
  8
_0-0_0
  6
CONTINUOUS
 62
    7
 10
-108.19223450000004
 20
453.05898999999999
 11
-107.92535750000002
 21
452.97717299999999
  0
LINE
  8
_0-0_0
  6
CONTINUOUS
 62
    7
 10
-107.89621350000004
 20
453.42453
 11
-107.76067750000004
 21
453.18051100000002
  0
LINE
  8
_0-0_0
  6
CONTINUOUS
 62
    7
 10
-108.03464550000001
 20
453.23400900000001
 11
-107.76067750000004
 21
453.18051100000002
  0
LINE
  8
_0-0_0
  6
CONTINUOUS
 62
    7
 10
-107.77845750000006
 20
453.62851000000001
 11
-107.61816050000004
 21
453.39999399999999
  0
LINE
  8
_0-0_0
  6
CONTINUOUS
 62
    7
 10
-107.89621350000004
 20
453.42453
 11
-107.61816050000004
 21
453.39999399999999
  0
LINE
  8
_0-0_0
  6
CONTINUOUS
 62
    7
 10
-107.6826665000001
 20
453.843658
 11
-107.49935950000008
 21
453.63314800000001
  0
LINE
  8
_0-0_0
  6
CONTINUOUS
 62
    7
 10
-107.77845750000006
 20
453.62851000000001
 11
-107.49935950000008
 21
453.63314800000001
  0
LINE
  8
_0-0_0
  6
CONTINUOUS
 62
    7
 10
-107.60989050000001
 20
454.06762700000002
 11
-107.40558250000004
 21
453.87744099999998
  0
LINE
  8
_0-0_0
  6
CONTINUOUS
 62
    7
 10
-107.6826665000001
 20
453.843658
 11
-107.40558250000004
 21
453.87744099999998
  0
LINE
  8
_0-0_0
  6
CONTINUOUS
 62
    7
 10
-107.56092450000006
 20
454.29800399999999
 11
-107.33785250000005
 21
454.13018799999998
  0
LINE
  8
_0-0_0
  6
CONTINUOUS
 62
    7
 10
-107.60989050000001
 20
454.06762700000002
 11
-107.33785250000005
 21
454.13018799999998
  0
LINE
  8
_0-0_0
  6
CONTINUOUS
 62
    7
 10
-107.53630450000003
 20
454.53222699999998
 11
-107.29691750000006
 21
454.38867199999999
  0
LINE
  8
_0-0_0
  6
CONTINUOUS
 62
    7
 10
-107.56092450000006
 20
454.29800399999999
 11
-107.29691750000006
 21
454.38867199999999
  0
LINE
  8
_0-0_0
  6
CONTINUOUS
 62
    7
 10
-107.53630450000003
 20
454.76773100000003
 11
-107.28322250000008
 21
454.64999399999999
  0
LINE
  8
_0-0_0
  6
CONTINUOUS
 62
    7
 10
-107.53630450000003
 20
454.53222699999998
 11
-107.28322250000008
 21
454.64999399999999
  0
LINE
  8
_0-0_0
  6
CONTINUOUS
 62
    7
 10
-107.56092450000006
 20
455.00195300000001
 11
-107.29691750000006
 21
454.911316
  0
LINE
  8
_0-0_0
  6
CONTINUOUS
 62
    7
 10
-107.53630450000003
 20
454.76773100000003
 11
-107.29691750000006
 21
454.911316
  0
LINE
  8
_0-0_0
  6
CONTINUOUS
 62
    7
 10
-107.60989050000001
 20
455.23232999999999
 11
-107.33785250000005
 21
455.16976899999997
  0
LINE
  8
_0-0_0
  6
CONTINUOUS
 62
    7
 10
-107.56092450000006
 20
455.00195300000001
 11
-107.33785250000005
 21
455.16976899999997
  0
LINE
  8
_0-0_0
  6
CONTINUOUS
 62
    7
 10
-107.6826665000001
 20
455.456299
 11
-107.40558250000004
 21
455.42251599999997
  0
LINE
  8
_0-0_0
  6
CONTINUOUS
 62
    7
 10
-107.60989050000001
 20
455.23232999999999
 11
-107.40558250000004
 21
455.42251599999997
  0
LINE
  8
_0-0_0
  6
CONTINUOUS
 62
    7
 10
-107.77845750000006
 20
455.671448
 11
-107.49935950000008
 21
455.666809
  0
LINE
  8
_0-0_0
  6
CONTINUOUS
 62
    7
 10
-107.6826665000001
 20
455.456299
 11
-107.49935950000008
 21
455.666809
  0
LINE
  8
_0-0_0
  6
CONTINUOUS
 62
    7
 10
-107.89621350000004
 20
455.875427
 11
-107.61816050000004
 21
455.89999399999999
  0
LINE
  8
_0-0_0
  6
CONTINUOUS
 62
    7
 10
-107.77845750000006
 20
455.671448
 11
-107.61816050000004
 21
455.89999399999999
  0
LINE
  8
_0-0_0
  6
CONTINUOUS
 62
    7
 10
-111.19919250000009
 20
456.39855999999997
 11
-111.2526855000001
 21
456.67251599999997
  0
LINE
  8
_0-0_0
  6
CONTINUOUS
 62
    7
 10
-111.19919250000009
 20
456.39855999999997
 11
-111.45605050000006
 21
456.50784299999998
  0
LINE
  8
_0-0_0
  6
CONTINUOUS
 62
    7
 10
-111.3742105
 20
456.24096700000001
 11
-111.45605050000006
 21
456.50784299999998
  0
LINE
  8
_0-0_0
  6
CONTINUOUS
 62
    7
 10
-111.3742105
 20
456.24096700000001
 11
-111.64108650000003
 21
456.32281499999999
  0
LINE
  8
_0-0_0
  6
CONTINUOUS
 62
    7
 10
-111.53180350000002
 20
456.06594799999999
 11
-111.64108650000003
 21
456.32281499999999
  0
LINE
  8
_0-0_0
  6
CONTINUOUS
 62
    7
 10
-111.53180350000002
 20
456.06594799999999
 11
-111.8057675
 21
456.11944599999998
  0
LINE
  8
_0-0_0
  6
CONTINUOUS
 62
    7
 10
-111.6702305
 20
455.875427
 11
-111.8057675
 21
456.11944599999998
  0
LINE
  8
_0-0_0
  6
CONTINUOUS
 62
    7
 10
-111.6702305
 20
455.875427
 11
-111.9482845
 21
455.89999399999999
  0
LINE
  8
_0-0_0
  6
CONTINUOUS
 62
    7
 10
-111.78798649999999
 20
455.671448
 11
-111.9482845
 21
455.89999399999999
  0
LINE
  8
_0-0_0
  6
CONTINUOUS
 62
    7
 10
-111.78798649999999
 20
455.671448
 11
-112.06708550000008
 21
455.666809
  0
LINE
  8
_0-0_0
  6
CONTINUOUS
 62
    7
 10
-111.88377750000006
 20
455.456299
 11
-112.06708550000008
 21
455.666809
  0
LINE
  8
_0-0_0
  6
CONTINUOUS
 62
    7
 10
-111.88377750000006
 20
455.456299
 11
-112.16086250000001
 21
455.42251599999997
  0
LINE
  8
_0-0_0
  6
CONTINUOUS
 62
    7
 10
-111.95655450000004
 20
455.23232999999999
 11
-112.16086250000001
 21
455.42251599999997
  0
LINE
  8
_0-0_0
  6
CONTINUOUS
 62
    7
 10
-111.95655450000004
 20
455.23232999999999
 11
-112.22859249999999
 21
455.16976899999997
  0
LINE
  8
_0-0_0
  6
CONTINUOUS
 62
    7
 10
-112.00551949999999
 20
455.00195300000001
 11
-112.22859249999999
 21
455.16976899999997
  0
LINE
  8
_0-0_0
  6
CONTINUOUS
 62
    7
 10
-112.00551949999999
 20
455.00195300000001
 11
-112.26952750000009
 21
454.911316
  0
LINE
  8
_0-0_0
  6
CONTINUOUS
 62
    7
 10
-112.03014050000002
 20
454.76773100000003
 11
-112.26952750000009
 21
454.911316
  0
LINE
  8
_0-0_0
  6
CONTINUOUS
 62
    7
 10
-112.03014050000002
 20
454.76773100000003
 11
-112.28322250000008
 21
454.64999399999999
  0
LINE
  8
_0-0_0
  6
CONTINUOUS
 62
    7
 10
-112.03014050000002
 20
454.53222699999998
 11
-112.28322250000008
 21
454.64999399999999
  0
LINE
  8
_0-0_0
  6
CONTINUOUS
 62
    7
 10
-112.03014050000002
 20
454.53222699999998
 11
-112.26952750000009
 21
454.38867199999999
  0
LINE
  8
_0-0_0
  6
CONTINUOUS
 62
    7
 10
-112.00551949999999
 20
454.29800399999999
 11
-112.26952750000009
 21
454.38867199999999
  0
LINE
  8
_0-0_0
  6
CONTINUOUS
 62
    7
 10
-112.00551949999999
 20
454.29800399999999
 11
-112.22859249999999
 21
454.13018799999998
  0
LINE
  8
_0-0_0
  6
CONTINUOUS
 62
    7
 10
-111.95655450000004
 20
454.06762700000002
 11
-112.22859249999999
 21
454.13018799999998
  0
LINE
  8
_0-0_0
  6
CONTINUOUS
 62
    7
 10
-111.95655450000004
 20
454.06762700000002
 11
-112.16086250000001
 21
453.87744099999998
  0
LINE
  8
_0-0_0
  6
CONTINUOUS
 62
    7
 10
-111.88377750000006
 20
453.843658
 11
-112.16086250000001
 21
453.87744099999998
  0
LINE
  8
_0-0_0
  6
CONTINUOUS
 62
    7
 10
-111.88377750000006
 20
453.843658
 11
-112.06708550000008
 21
453.63314800000001
  0
LINE
  8
_0-0_0
  6
CONTINUOUS
 62
    7
 10
-111.78798649999999
 20
453.62851000000001
 11
-112.06708550000008
 21
453.63314800000001
  0
CIRCLE
  8
_0-0_0
  6
CONTINUOUS
 62
    7
 10
-109.78322250000008
 20
454.64999399999999
 40
2
  0
LINE
  8
_0-0_0
  6
CONTINUOUS
 62
    7
 10
-110.92423650000001
 20
456.738586
 11
-111.03322250000008
 21
456.81506300000001
  0
LINE
  8
_0-0_0
  6
CONTINUOUS
 62
    7
 10
-111.00865950000002
 20
456.53698700000001
 11
-111.03322250000008
 21
456.81506300000001
  0
LINE
  8
_0-0_0
  6
CONTINUOUS
 62
    7
 10
-111.00865950000002
 20
456.53698700000001
 11
-111.2526855000001
 21
456.67251599999997
  0
LINE
  8
_0-0_0
  6
CONTINUOUS
 62
    7
 10
-107.89621350000004
 20
455.875427
 11
-107.76067750000004
 21
456.11944599999998
  0
LINE
  8
_0-0_0
  6
CONTINUOUS
 62
    7
 10
-108.03464550000001
 20
456.06594799999999
 11
-107.76067750000004
 21
456.11944599999998
  0
LINE
  8
_0-0_0
  6
CONTINUOUS
 62
    7
 10
-108.03464550000001
 20
456.06594799999999
 11
-107.92535750000002
 21
456.32281499999999
  0
LINE
  8
_0-0_0
  6
CONTINUOUS
 62
    7
 10
-108.19223450000004
 20
456.24096700000001
 11
-107.92535750000002
 21
456.32281499999999
  0
LINE
  8
_0-0_0
  6
CONTINUOUS
 62
    7
 10
-108.19223450000004
 20
456.24096700000001
 11
-108.1103935000001
 21
456.50784299999998
  0
LINE
  8
_0-0_0
  6
CONTINUOUS
 62
    7
 10
-108.36725250000006
 20
456.39855999999997
 11
-108.1103935000001
 21
456.50784299999998
  0
LINE
  8
_0-0_0
  6
CONTINUOUS
 62
    7
 10
-108.36725250000006
 20
456.39855999999997
 11
-108.31375850000006
 21
456.67251599999997
  0
LINE
  8
_0-0_0
  6
CONTINUOUS
 62
    7
 10
-108.55778550000002
 20
456.53698700000001
 11
-108.31375850000006
 21
456.67251599999997
  0
LINE
  8
_0-0_0
  6
CONTINUOUS
 62
    7
 10
-108.55778550000002
 20
456.53698700000001
 11
-108.53322250000008
 21
456.81506300000001
  0
LINE
  8
_0-0_0
  6
CONTINUOUS
 62
    7
 10
-108.76174550000007
 20
456.65475500000002
 11
-108.53322250000008
 21
456.81506300000001
  0
LINE
  8
_0-0_0
  6
CONTINUOUS
 62
    7
 10
-108.76174550000007
 20
456.65475500000002
 11
-108.76638050000008
 21
456.93383799999998
  0
LINE
  8
_0-0_0
  6
CONTINUOUS
 62
    7
 10
-108.97689450000007
 20
456.75054899999998
 11
-108.76638050000008
 21
456.93383799999998
  0
LINE
  8
_0-0_0
  6
CONTINUOUS
 62
    7
 10
-108.97689450000007
 20
456.75054899999998
 11
-109.01067750000004
 21
457.02761800000002
  0
LINE
  8
_0-0_0
  6
CONTINUOUS
 62
    7
 10
-109.20087850000004
 20
456.82330300000001
 11
-109.01067750000004
 21
457.02761800000002
  0
LINE
  8
_0-0_0
  6
CONTINUOUS
 62
    7
 10
-109.20087850000004
 20
456.82330300000001
 11
-109.26344349999999
 21
457.09533699999997
  0
LINE
  8
_0-0_0
  6
CONTINUOUS
 62
    7
 10
-109.43124450000005
 20
456.87228399999998
 11
-109.26344349999999
 21
457.09533699999997
  0
LINE
  8
_0-0_0
  6
CONTINUOUS
 62
    7
 10
-109.43124450000005
 20
456.87228399999998
 11
-109.52190050000002
 21
457.13629200000003
  0
LINE
  8
_0-0_0
  6
CONTINUOUS
 62
    7
 10
-109.66546650000009
 20
456.89691199999999
 11
-109.52190050000002
 21
457.13629200000003
  0
LINE
  8
_0-0_0
  6
CONTINUOUS
 62
    7
 10
-109.66546650000009
 20
456.89691199999999
 11
-109.78322250000008
 21
457.14999399999999
  0
LINE
  8
_0-0_0
  6
CONTINUOUS
 62
    7
 10
-109.90097850000006
 20
456.89691199999999
 11
-109.78322250000008
 21
457.14999399999999
  0
LINE
  8
_0-0_0
  6
CONTINUOUS
 62
    7
 10
-109.90097850000006
 20
456.89691199999999
 11
-110.04454450000003
 21
457.13629200000003
  0
LINE
  8
_0-0_0
  6
CONTINUOUS
 62
    7
 10
-110.1352005
 20
456.87228399999998
 11
-110.04454450000003
 21
457.13629200000003
  0
LINE
  8
_0-0_0
  6
CONTINUOUS
 62
    7
 10
-110.1352005
 20
456.87228399999998
 11
-110.30300150000005
 21
457.09533699999997
  0
LINE
  8
_0-0_0
  6
CONTINUOUS
 62
    7
 10
-110.3655665
 20
456.82330300000001
 11
-110.30300150000005
 21
457.09533699999997
  0
LINE
  8
_0-0_0
  6
CONTINUOUS
 62
    7
 10
-110.3655665
 20
456.82330300000001
 11
-110.5557675
 21
457.02761800000002
  0
LINE
  8
_0-0_0
  6
CONTINUOUS
 62
    7
 10
-110.58955050000009
 20
456.75054899999998
 11
-110.5557675
 21
457.02761800000002
  0
LINE
  8
_0-0_0
  6
CONTINUOUS
 62
    7
 10
-110.58955050000009
 20
456.75054899999998
 11
-110.80006450000008
 21
456.93383799999998
  0
LINE
  8
_0-0_0
  6
CONTINUOUS
 62
    7
 10
-110.80469950000008
 20
456.65475500000002
 11
-110.80006450000008
 21
456.93383799999998
  0
LINE
  8
_0-0_0
  6
CONTINUOUS
 62
    7
 10
-110.80469950000008
 20
456.65475500000002
 11
-110.92423650000001
 21
456.738586
  0
LINE
  8
_0-0_0
  6
CONTINUOUS
 62
    7
 10
-109.20111450000002
 20
453.64999399999999
 11
-110.36532950000003
 21
453.64999399999999
  0
LINE
  8
_0-0_0
  6
CONTINUOUS
 62
    7
 10
-110.36532950000003
 20
453.64999399999999
 11
-110.93322350000005
 21
454.64999399999999
  0
LINE
  8
_0-0_0
  6
CONTINUOUS
 62
    7
 10
-110.93322350000005
 20
454.64999399999999
 11
-110.36532950000003
 21
455.64999399999999
  0
LINE
  8
_0-0_0
  6
CONTINUOUS
 62
    7
 10
-110.36532950000003
 20
455.64999399999999
 11
-109.20111450000002
 21
455.64999399999999
  0
LINE
  8
_0-0_0
  6
CONTINUOUS
 62
    7
 10
-109.20111450000002
 20
455.64999399999999
 11
-108.63322049999999
 21
454.64999399999999
  0
LINE
  8
_0-0_0
  6
CONTINUOUS
 62
    7
 10
-108.63322049999999
 20
454.64999399999999
 11
-109.20111450000002
 21
453.64999399999999
  0
LINE
  8
_0-0_0
  6
CONTINUOUS
 62
    7
 10
-95.083225500000026
 20
472.05029300000001
 11
-95.083221500000036
 21
472.05627399999997
  0
LINE
  8
_0-0_0
  6
CONTINUOUS
 62
    7
 10
-95.083221500000036
 20
473.25
 11
-95.083591500000011
 21
473.23788500000001
  0
LINE
  8
_0-0_0
  6
CONTINUOUS
 62
    7
 10
-95.083591500000011
 20
452.66210899999999
 11
-95.083221500000036
 21
452.64999399999999
  0
ARC
  8
_0-0_0
  6
CONTINUOUS
 62
    7
 10
-110.28322250000008
 20
471.75
 40
2
 50
90.000003000000007
 51
93.840255999999997
  0
ARC
  8
_0-0_0
  6
CONTINUOUS
 62
    7
 10
-97.283222500000079
 20
454.14999399999999
 40
2
 50
269.99999700000001
 51
273.84026499999999
  0
ENDSEC
  0
EOF
