  0
SECTION
  2
HEADER
  9
$ACADVER
  1
AC1009
  9
$INSBASE
 10
0
 20
0
 30
0
  9
$EXTMIN
 10
0
 20
0
  9
$EXTMAX
 10
841
 20
594
  9
$LIMMIN
 10
0
 20
0
  9
$LIMMAX
 10
841
 20
594
  9
$LTSCALE
 40
1
  0
ENDSEC
  0
SECTION
  2
TABLES
  0
TABLE
  2
LTYPE
 70
     9
  0
LTYPE
  2
CONTINUOUS
 70
    64
  3
実線
 72
    65
 73
     0
 40
0.0
  0
LTYPE
  2
DASHED1
 70
    64
  3
--  --  --  --  --  --  --  --  
 72
    65
 73
     2
 40
2.5
 49
1.25
 49
-1.25
  0
LTYPE
  2
DASHED2
 70
    64
  3
----    ----    ----    ----    
 72
    65
 73
     2
 40
5.0
 49
2.5
 49
-2.5
  0
LTYPE
  2
DASHED3
 70
    64
  3
------  ------  ------  ------  
 72
    65
 73
     2
 40
5.0
 49
3.75
 49
-1.25
  0
LTYPE
  2
CENTER1
 70
    64
  3
----- - ----- - ----- - ----- - 
 72
    65
 73
     4
 40
10.0
 49
6.25
 49
-1.25
 49
1.25
 49
-1.25
  0
LTYPE
  2
CENTER2
 70
    64
  3
----------  --  ----------  --  
 72
    65
 73
     4
 40
20.0
 49
12.5
 49
-2.5
 49
2.5
 49
-2.5
  0
LTYPE
  2
PHANTOM1
 70
    64
  3
--- - - --- - - --- - - --- - - 
 72
    65
 73
     6
 40
10.0
 49
3.25
 49
-1.25
 49
1.25
 49
-1.25
 49
1.25
 49
-1.25
  0
LTYPE
  2
PHANTOM2
 70
    64
  3
--------  -  -  --------  -  -  
 72
    65
 73
     6
 40
20.0
 49
10.0
 49
-2.5
 49
1.25
 49
-2.5
 49
1.25
 49
-2.5
  0
LTYPE
  2
DOT
 70
    64
  3
-   -   -   -   -   -   -   -   
 72
    65
 73
     2
 40
2.5
 49
0.625
 49
-1.875
  0
LTYPE
  2
DUMMY
 70
    64
  3
ダミー
 72
    65
 73
     0
 40
0.0
  0
LTYPE
  2
RAND1
 70
    64
  3
ランダム線1
 72
    65
 73
     4
 40
10.0
 49
1.0
 49
-2.0
 49
3.0
 49
-4.0
  0
LTYPE
  2
RAND2
 70
    64
  3
ランダム線2
 72
    65
 73
     4
 40
14.0
 49
2.0
 49
-3.0
 49
4.0
 49
-5.0
  0
LTYPE
  2
RAND3
 70
    64
  3
ランダム線3
 72
    65
 73
     4
 40
18.0
 49
3.0
 49
-4.0
 49
5.0
 49
-6.0
  0
LTYPE
  2
RAND4
 70
    64
  3
ランダム線4
 72
    65
 73
     4
 40
22.0
 49
4.0
 49
-5.0
 49
6.0
 49
-7.0
  0
LTYPE
  2
RAND5
 70
    64
  3
ランダム線5
 72
    65
 73
     4
 40
26.0
 49
5.0
 49
-6.0
 49
7.0
 49
-8.0
  0
LTYPE
  2
LONG1
 70
    64
  3
----------  --  ----------  --  
 72
    65
 73
     4
 40
40.0
 49
32.5
 49
-2.5
 49
2.5
 49
-2.5
  0
LTYPE
  2
LONG2
 70
    64
  3
--------  -  -  --------  -  -  
 72
    65
 73
     6
 40
40.0
 49
30.0
 49
-2.5
 49
1.25
 49
-2.5
 49
1.25
 49
-2.5
  0
LTYPE
  2
LONG3
 70
    64
  3
+++++++++++++++..+++++++++++++++
 72
    65
 73
     2
 40
40.0
 49
37.5
 49
-2.5
  0
LTYPE
  2
LONG4
 70
    64
  3
+++++++++++++++..+++++++++++++++
 72
    65
 73
     2
 40
80.0
 49
75.0
 49
-5.0
  0
LTYPE
  2
LONG5
 70
    64
  3
----------  --  ----------  --  
 72
    65
 73
     4
 40
60.0
 49
37.5
 49
-7.5
 49
7.5
 49
-7.5
  0
LTYPE
  2
dashed
 70
   64
  3
-------   -------------   ------
 72
   65
 73
    2
 40
7.5
 49
6
 49
-1.5
  0
LTYPE
  2
dashed_spaced
 70
   64
  3
----        --------        ----
 72
   65
 73
    2
 40
12
 49
6
 49
-6
  0
LTYPE
  2
long_dashed_dotted
 70
   64
  3
------------- --- --------------
 72
   65
 73
    4
 40
15.25
 49
12
 49
-1.5
 49
0.25
 49
-1.5
  0
LTYPE
  2
long_dashed_double-dotted
 70
   64
  3
----------- --- --- ------------
 72
   65
 73
    6
 40
17
 49
12
 49
-1.5
 49
0.25
 49
-1.5
 49
0.25
 49
-1.5
  0
LTYPE
  2
long_dashed_triplicate-dotted
 70
   64
  3
--------- --- --- --- ----------
 72
   65
 73
    8
 40
18.75
 49
12
 49
-1.5
 49
0.25
 49
-1.5
 49
0.25
 49
-1.5
 49
0.25
 49
-1.5
  0
LTYPE
  2
dotted
 70
   64
  3
   -       -       -       -    
 72
   65
 73
    2
 40
1.75
 49
0.25
 49
-1.5
  0
LTYPE
  2
chain
 70
   64
  3
-------------- -- --------------
 72
   65
 73
    4
 40
18.5
 49
12
 49
-1.5
 49
3.5
 49
-1.5
  0
LTYPE
  2
chain_double_dash
 70
   64
  3
------------ -- -- -------------
 72
   65
 73
    6
 40
23.5
 49
12
 49
-1.5
 49
3.5
 49
-1.5
 49
3.5
 49
-1.5
  0
LTYPE
  2
dashed_dotted
 70
   64
  3
-----------     -     ----------
 72
   65
 73
    4
 40
9.25
 49
6
 49
-1.5
 49
0.25
 49
-1.5
  0
LTYPE
  2
double-dashed_dotted
 70
   64
  3
------   -----------   -   -----
 72
   65
 73
    6
 40
16.75
 49
6
 49
-1.5
 49
6
 49
-1.5
 49
0.25
 49
-1.5
  0
LTYPE
  2
dashed_double-dotted
 70
   64
  3
---------    -    -    ---------
 72
   65
 73
    6
 40
11
 49
6
 49
-1.5
 49
0.25
 49
-1.5
 49
0.25
 49
-1.5
  0
LTYPE
  2
double-dashed_double-dotted
 70
   64
  3
-----   ---------   -   -   ----
 72
   65
 73
    8
 40
18.5
 49
6
 49
-1.5
 49
6
 49
-1.5
 49
0.25
 49
-1.5
 49
0.25
 49
-1.5
  0
LTYPE
  2
dashed_triplicate-dotted
 70
   64
  3
-------    -    -    -    ------
 72
   65
 73
    8
 40
12.75
 49
6
 49
-1.5
 49
0.25
 49
-1.5
 49
0.25
 49
-1.5
 49
0.25
 49
-1.5
  0
LTYPE
  2
double-dashed_triplicate-dotted
 70
   64
  3
-----  ---------  -  -  -  -----
 72
   65
 73
   10
 40
20.25
 49
6
 49
-1.5
 49
6
 49
-1.5
 49
0.25
 49
-1.5
 49
0.25
 49
-1.5
 49
0.25
 49
-1.5
  0
LTYPE
  2
undefined
 70
   64
  3
--------------------------------
 72
   65
 73
    0
 40
0
  0
ENDTAB
  0
TABLE
  2
STYLE
  5
3
100
AcDbSymbolTable
 70
     1
  0
STYLE
  5
10
100
AcDbSymbolTableRecord
100
AcDbTextStyleTableRecord
  2
STANDARD
 70
     0
 40
0.0
 41
1.0
 50
0.0
 71
     0
 42
0.2
  3
txt
  4
bigfont.shx
  0
STYLE
  5
26
100
AcDbSymbolTableRecord
100
AcDbTextStyleTableRecord
  2
TATEGAKI
 70
    68
 40
0.0
 41
1.0
 50
0.0
 71
     0
 42
1.0
  3
txt
  4
bigfont.shx
  0
ENDTAB
  0
TABLE
  2
LAYER
 70
    2
  0
LAYER
  2
_0-0_0
 70
   64
 62
    7
  6
CONTINUOUS
  0
LAYER
  2
ADD_LINE
 70
   64
 62
    7
  6
CONTINUOUS
  0
ENDTAB
  0
ENDSEC
  0
SECTION
  2
BLOCKS
  0
ENDSEC
  0
SECTION
  2
ENTITIES
  0
ARC
  8
_0-0_0
  6
CONTINUOUS
 62
    7
 10
364.22772199999997
 20
406.60000600000001
 40
0.2
 50
269.99999700000001
 51
20.376440000000013
  0
LINE
  8
_0-0_0
  6
CONTINUOUS
 62
    7
 10
364.41522199999997
 20
406.669647
 11
363.11520400000001
 21
410.169647
  0
ARC
  8
_0-0_0
  6
CONTINUOUS
 62
    7
 10
362.92773399999999
 20
410.10000600000001
 40
0.2
 50
20.376439999999999
 51
159.62355600000001
  0
LINE
  8
_0-0_0
  6
CONTINUOUS
 62
    7
 10
361.440246
 20
406.669647
 11
362.74023399999999
 21
410.169647
  0
ARC
  8
_0-0_0
  6
CONTINUOUS
 62
    7
 10
361.62771599999996
 20
406.60000600000001
 40
0.2
 50
159.62355600000001
 51
269.99999700000001
  0
LINE
  8
_0-0_0
  6
CONTINUOUS
 62
    7
 10
361.62771599999996
 20
406.39999399999999
 11
364.22772199999997
 21
406.39999399999999
  0
LINE
  8
_0-0_0
  6
CONTINUOUS
 62
    7
 10
198.99490299999997
 20
455.002747
 11
198.99490299999997
 21
455.00173999999998
  0
LINE
  8
_0-0_0
  6
CONTINUOUS
 62
    7
 10
781.92776500000002
 20
443.39999399999999
 11
781.92776500000002
 21
430.39999399999999
  0
LINE
  8
_0-0_0
  6
CONTINUOUS
 62
    7
 10
308.92773399999999
 20
443.39999399999999
 11
308.92773399999999
 21
430.39999399999999
  0
LINE
  8
_0-0_0
  6
CONTINUOUS
 62
    7
 10
308.92773399999999
 20
443.39999399999999
 11
781.92776500000002
 21
443.39999399999999
  0
LINE
  8
_0-0_0
  6
CONTINUOUS
 62
    7
 10
308.92773399999999
 20
443.39999399999999
 11
308.92773399999999
 21
462
  0
LINE
  8
_0-0_0
  6
CONTINUOUS
 62
    7
 10
308.92773399999999
 20
464.5
 11
308.92773399999999
 21
462
  0
LINE
  8
_0-0_0
  6
CONTINUOUS
 62
    7
 10
308.92773399999999
 20
465
 11
308.92773399999999
 21
464.5
  0
LINE
  8
_0-0_0
  6
CONTINUOUS
 62
    7
 10
308.92773399999999
 20
417
 11
308.92773399999999
 21
416.5
  0
LINE
  8
_0-0_0
  6
CONTINUOUS
 62
    7
 10
308.92773399999999
 20
422
 11
308.92773399999999
 21
417
  0
LINE
  8
_0-0_0
  6
CONTINUOUS
 62
    7
 10
308.92773399999999
 20
422.5
 11
308.92773399999999
 21
422
  0
LINE
  8
_0-0_0
  6
CONTINUOUS
 62
    7
 10
308.92773399999999
 20
423
 11
308.92773399999999
 21
422.5
  0
LINE
  8
_0-0_0
  6
CONTINUOUS
 62
    7
 10
308.92773399999999
 20
426.20001200000002
 11
308.92773399999999
 21
423
  0
LINE
  8
_0-0_0
  6
CONTINUOUS
 62
    7
 10
308.92773399999999
 20
426.20001200000002
 11
308.92773399999999
 21
430.39999399999999
  0
LINE
  8
_0-0_0
  6
CONTINUOUS
 62
    7
 10
308.92773399999999
 20
430.39999399999999
 11
781.92776500000002
 21
430.39999399999999
  0
LINE
  8
_0-0_0
  6
CONTINUOUS
 62
    7
 10
781.92776500000002
 20
426.20001200000002
 11
781.92776500000002
 21
430.39999399999999
  0
LINE
  8
_0-0_0
  6
CONTINUOUS
 62
    7
 10
781.92776500000002
 20
423
 11
781.92776500000002
 21
426.20001200000002
  0
LINE
  8
_0-0_0
  6
CONTINUOUS
 62
    7
 10
781.92776500000002
 20
423
 11
781.92776500000002
 21
422.5
  0
LINE
  8
_0-0_0
  6
CONTINUOUS
 62
    7
 10
781.92776500000002
 20
422.5
 11
781.92776500000002
 21
422
  0
LINE
  8
_0-0_0
  6
CONTINUOUS
 62
    7
 10
781.92776500000002
 20
422
 11
781.92776500000002
 21
417
  0
LINE
  8
_0-0_0
  6
CONTINUOUS
 62
    7
 10
781.92776500000002
 20
417
 11
781.92776500000002
 21
416.5
  0
LINE
  8
_0-0_0
  6
CONTINUOUS
 62
    7
 10
781.92776500000002
 20
465
 11
781.92776500000002
 21
464.5
  0
LINE
  8
_0-0_0
  6
CONTINUOUS
 62
    7
 10
781.92776500000002
 20
462
 11
781.92776500000002
 21
464.5
  0
LINE
  8
_0-0_0
  6
CONTINUOUS
 62
    7
 10
781.92776500000002
 20
443.39999399999999
 11
781.92776500000002
 21
462
  0
CIRCLE
  8
_0-0_0
  6
CONTINUOUS
 62
    7
 10
745.42776500000002
 20
452.5
 40
6
  0
CIRCLE
  8
_0-0_0
  6
CONTINUOUS
 62
    7
 10
645.42776500000002
 20
452.5
 40
6
  0
CIRCLE
  8
_0-0_0
  6
CONTINUOUS
 62
    7
 10
545.42773399999999
 20
452.5
 40
6
  0
CIRCLE
  8
_0-0_0
  6
CONTINUOUS
 62
    7
 10
445.42773399999999
 20
452.5
 40
6
  0
CIRCLE
  8
_0-0_0
  6
CONTINUOUS
 62
    7
 10
345.42773399999999
 20
452.5
 40
6
  0
LINE
  8
_0-0_0
  6
CONTINUOUS
 62
    7
 10
308.92773399999999
 20
462
 11
781.92776500000002
 21
462
  0
LINE
  8
_0-0_0
  6
CONTINUOUS
 62
    7
 10
308.92773399999999
 20
465
 11
781.92776500000002
 21
465
  0
LINE
  8
_0-0_0
  6
CONTINUOUS
 62
    7
 10
308.92773399999999
 20
464.5
 11
306.42773399999999
 21
464.5
  0
LINE
  8
_0-0_0
  6
CONTINUOUS
 62
    7
 10
306.42773399999999
 20
464.5
 11
306.42773399999999
 21
464
  0
LINE
  8
_0-0_0
  6
CONTINUOUS
 62
    7
 10
306.42773399999999
 20
464
 11
306.42773399999999
 21
423.5
  0
LINE
  8
_0-0_0
  6
CONTINUOUS
 62
    7
 10
308.92773399999999
 20
423
 11
306.42773399999999
 21
423
  0
LINE
  8
_0-0_0
  6
CONTINUOUS
 62
    7
 10
306.42773399999999
 20
423.5
 11
306.42773399999999
 21
423
  0
LINE
  8
_0-0_0
  6
CONTINUOUS
 62
    7
 10
306.42773399999999
 20
423
 11
306.42773399999999
 21
422
  0
LINE
  8
_0-0_0
  6
CONTINUOUS
 62
    7
 10
306.42773399999999
 20
422
 11
306.42773399999999
 21
417.5
  0
LINE
  8
_0-0_0
  6
CONTINUOUS
 62
    7
 10
308.92773399999999
 20
417
 11
306.42773399999999
 21
417
  0
LINE
  8
_0-0_0
  6
CONTINUOUS
 62
    7
 10
306.42773399999999
 20
417.5
 11
306.42773399999999
 21
417
  0
LINE
  8
_0-0_0
  6
CONTINUOUS
 62
    7
 10
308.92773399999999
 20
416.5
 11
781.92776500000002
 21
416.5
  0
LINE
  8
_0-0_0
  6
CONTINUOUS
 62
    7
 10
308.92773399999999
 20
422.5
 11
781.92776500000002
 21
422.5
  0
LINE
  8
_0-0_0
  6
CONTINUOUS
 62
    7
 10
308.92773399999999
 20
426.20001200000002
 11
781.92776500000002
 21
426.20001200000002
  0
LINE
  8
_0-0_0
  6
CONTINUOUS
 62
    7
 10
781.92776500000002
 20
464.5
 11
784.42776500000002
 21
464.5
  0
LINE
  8
_0-0_0
  6
CONTINUOUS
 62
    7
 10
784.42776500000002
 20
464.5
 11
784.42776500000002
 21
464
  0
LINE
  8
_0-0_0
  6
CONTINUOUS
 62
    7
 10
784.42776500000002
 20
464
 11
784.42776500000002
 21
423.5
  0
LINE
  8
_0-0_0
  6
CONTINUOUS
 62
    7
 10
781.92776500000002
 20
423
 11
784.42776500000002
 21
423
  0
LINE
  8
_0-0_0
  6
CONTINUOUS
 62
    7
 10
784.42776500000002
 20
423.5
 11
784.42776500000002
 21
423
  0
LINE
  8
_0-0_0
  6
CONTINUOUS
 62
    7
 10
784.42776500000002
 20
423
 11
784.42776500000002
 21
422
  0
LINE
  8
_0-0_0
  6
CONTINUOUS
 62
    7
 10
784.42776500000002
 20
422
 11
784.42776500000002
 21
417.5
  0
LINE
  8
_0-0_0
  6
CONTINUOUS
 62
    7
 10
781.92776500000002
 20
417
 11
784.42776500000002
 21
417
  0
LINE
  8
_0-0_0
  6
CONTINUOUS
 62
    7
 10
784.42776500000002
 20
417.5
 11
784.42776500000002
 21
417
  0
ARC
  8
_0-0_0
  6
CONTINUOUS
 62
    7
 10
366.42773399999999
 20
417.5
 40
0.5
 50
269.99999700000001
 51
0
  0
LINE
  8
_0-0_0
  6
CONTINUOUS
 62
    7
 10
366.42773399999999
 20
417
 11
359.42773399999999
 21
417
  0
ARC
  8
_0-0_0
  6
CONTINUOUS
 62
    7
 10
359.42773399999999
 20
417.5
 40
0.5
 50
179.99999099999999
 51
269.99999700000001
  0
LINE
  8
_0-0_0
  6
CONTINUOUS
 62
    7
 10
358.92773399999999
 20
421.5
 11
358.92773399999999
 21
417.5
  0
ARC
  8
_0-0_0
  6
CONTINUOUS
 62
    7
 10
359.42773399999999
 20
421.5
 40
0.5
 50
90.000003000000007
 51
179.99999099999999
  0
ARC
  8
_0-0_0
  6
CONTINUOUS
 62
    7
 10
366.42773399999999
 20
421.5
 40
0.5
 50
0
 51
90.000003000000007
  0
LINE
  8
_0-0_0
  6
CONTINUOUS
 62
    7
 10
359.42773399999999
 20
422
 11
366.42773399999999
 21
422
  0
LINE
  8
_0-0_0
  6
CONTINUOUS
 62
    7
 10
781.92776500000002
 20
465
 11
781.92776500000002
 21
464.70001200000002
  0
LINE
  8
_0-0_0
  6
CONTINUOUS
 62
    7
 10
781.92776500000002
 20
464.70001200000002
 11
781.92776500000002
 21
464.5
  0
CIRCLE
  8
_0-0_0
  6
CONTINUOUS
 62
    7
 10
745.42776500000002
 20
452.5
 40
5.5
  0
CIRCLE
  8
_0-0_0
  6
CONTINUOUS
 62
    7
 10
645.42776500000002
 20
452.5
 40
5.5
  0
CIRCLE
  8
_0-0_0
  6
CONTINUOUS
 62
    7
 10
545.42773399999999
 20
452.5
 40
5.5
  0
CIRCLE
  8
_0-0_0
  6
CONTINUOUS
 62
    7
 10
445.42773399999999
 20
452.5
 40
5.5
  0
CIRCLE
  8
_0-0_0
  6
CONTINUOUS
 62
    7
 10
345.42773399999999
 20
452.5
 40
5.5
  0
LINE
  8
_0-0_0
  6
CONTINUOUS
 62
    7
 10
366.92773399999999
 20
417.5
 11
366.92773399999999
 21
421.5
  0
CIRCLE
  8
_0-0_0
  6
CONTINUOUS
 62
    7
 10
745.42776500000002
 20
452.5
 40
3.5
  0
CIRCLE
  8
_0-0_0
  6
CONTINUOUS
 62
    7
 10
645.42776500000002
 20
452.5
 40
3.5
  0
CIRCLE
  8
_0-0_0
  6
CONTINUOUS
 62
    7
 10
545.42773399999999
 20
452.5
 40
3.5
  0
CIRCLE
  8
_0-0_0
  6
CONTINUOUS
 62
    7
 10
445.42773399999999
 20
452.5
 40
3.5
  0
CIRCLE
  8
_0-0_0
  6
CONTINUOUS
 62
    7
 10
345.42773399999999
 20
452.5
 40
3.5
  0
ARC
  8
_0-0_0
  6
CONTINUOUS
 62
    7
 10
364.22772199999997
 20
421.20001200000002
 40
0.2
 50
339.62356199999999
 51
90.000002999999978
  0
LINE
  8
_0-0_0
  6
CONTINUOUS
 62
    7
 10
364.41522199999997
 20
421.13037100000003
 11
363.11520400000001
 21
417.63037100000003
  0
ARC
  8
_0-0_0
  6
CONTINUOUS
 62
    7
 10
362.92773399999999
 20
417.70001200000002
 40
0.2
 50
200.37643
 51
339.62356199999999
  0
LINE
  8
_0-0_0
  6
CONTINUOUS
 62
    7
 10
361.440246
 20
421.13037100000003
 11
362.74023399999999
 21
417.63037100000003
  0
ARC
  8
_0-0_0
  6
CONTINUOUS
 62
    7
 10
361.62771599999996
 20
421.20001200000002
 40
0.2
 50
90.000003000000007
 51
200.37643
  0
LINE
  8
_0-0_0
  6
CONTINUOUS
 62
    7
 10
361.62771599999996
 20
421.39999399999999
 11
364.22772199999997
 21
421.39999399999999
  0
ARC
  8
_0-0_0
  6
CONTINUOUS
 62
    7
 10
701.62777699999992
 20
421.20001200000002
 40
0.2
 50
90.000003000000007
 51
200.37643
  0
LINE
  8
_0-0_0
  6
CONTINUOUS
 62
    7
 10
701.62777699999992
 20
421.39999399999999
 11
704.22775300000001
 21
421.39999399999999
  0
ARC
  8
_0-0_0
  6
CONTINUOUS
 62
    7
 10
699.42776500000002
 20
421.5
 40
0.5
 50
90.000003000000007
 51
179.99999099999999
  0
LINE
  8
_0-0_0
  6
CONTINUOUS
 62
    7
 10
698.92776500000002
 20
421.5
 11
698.92776500000002
 21
417.5
  0
ARC
  8
_0-0_0
  6
CONTINUOUS
 62
    7
 10
699.42776500000002
 20
417.5
 40
0.5
 50
179.99999099999999
 51
269.99999700000001
  0
LINE
  8
_0-0_0
  6
CONTINUOUS
 62
    7
 10
706.42776500000002
 20
417
 11
699.42776500000002
 21
417
  0
ARC
  8
_0-0_0
  6
CONTINUOUS
 62
    7
 10
706.42776500000002
 20
417.5
 40
0.5
 50
269.99999700000001
 51
0
  0
LINE
  8
_0-0_0
  6
CONTINUOUS
 62
    7
 10
706.92776500000002
 20
417.5
 11
706.92776500000002
 21
421.5
  0
ARC
  8
_0-0_0
  6
CONTINUOUS
 62
    7
 10
706.42776500000002
 20
421.5
 40
0.5
 50
0
 51
90.000003000000007
  0
LINE
  8
_0-0_0
  6
CONTINUOUS
 62
    7
 10
699.42776500000002
 20
422
 11
706.42776500000002
 21
422
  0
LINE
  8
_0-0_0
  6
CONTINUOUS
 62
    7
 10
701.44027699999992
 20
421.13037100000003
 11
702.74026500000002
 21
417.63037100000003
  0
ARC
  8
_0-0_0
  6
CONTINUOUS
 62
    7
 10
702.92776500000002
 20
417.70001200000002
 40
0.2
 50
200.37643
 51
339.62356199999999
  0
LINE
  8
_0-0_0
  6
CONTINUOUS
 62
    7
 10
704.41525300000001
 20
421.13037100000003
 11
703.11526500000002
 21
417.63037100000003
  0
ARC
  8
_0-0_0
  6
CONTINUOUS
 62
    7
 10
704.22775300000001
 20
421.20001200000002
 40
0.2
 50
339.62356199999999
 51
90.000002999999978
  0
LINE
  8
_0-0_0
  6
CONTINUOUS
 62
    7
 10
315.42773399999999
 20
414.5
 11
320.42773399999999
 21
414.5
  0
LINE
  8
_0-0_0
  6
CONTINUOUS
 62
    7
 10
320.42773399999999
 20
414.5
 11
322.22772199999997
 21
414.5
  0
LINE
  8
_0-0_0
  6
CONTINUOUS
 62
    7
 10
322.22772199999997
 20
414.5
 11
322.92773399999999
 21
414.5
  0
ARC
  8
_0-0_0
  6
CONTINUOUS
 62
    7
 10
322.22772199999997
 20
414
 40
0.5
 50
0
 51
90.000003000000007
  0
ARC
  8
_0-0_0
  6
CONTINUOUS
 62
    7
 10
315.42773399999999
 20
414
 40
0.5
 50
90.000003000000007
 51
179.99999099999999
  0
ARC
  8
_0-0_0
  6
CONTINUOUS
 62
    7
 10
418.92773399999999
 20
414
 40
0.5
 50
0
 51
90.000003000000007
  0
LINE
  8
_0-0_0
  6
CONTINUOUS
 62
    7
 10
322.92773399999999
 20
414.5
 11
322.92773399999999
 21
413
  0
LINE
  8
_0-0_0
  6
CONTINUOUS
 62
    7
 10
322.92773399999999
 20
415
 11
322.92773399999999
 21
414.5
  0
LINE
  8
_0-0_0
  6
CONTINUOUS
 62
    7
 10
322.92773399999999
 20
415.5
 11
322.92773399999999
 21
415
  0
LINE
  8
_0-0_0
  6
CONTINUOUS
 62
    7
 10
322.92773399999999
 20
416.5
 11
322.92773399999999
 21
415.5
  0
LINE
  8
_0-0_0
  6
CONTINUOUS
 62
    7
 10
326.92773399999999
 20
414.5
 11
327.62771599999996
 21
414.5
  0
LINE
  8
_0-0_0
  6
CONTINUOUS
 62
    7
 10
322.72772199999997
 20
414
 11
322.72772199999997
 21
413
  0
LINE
  8
_0-0_0
  6
CONTINUOUS
 62
    7
 10
325.92773399999999
 20
387.5
 11
325.92773399999999
 21
389.10000600000001
  0
LINE
  8
_0-0_0
  6
CONTINUOUS
 62
    7
 10
325.92773399999999
 20
387.5
 11
320.42773399999999
 21
387.5
  0
LINE
  8
_0-0_0
  6
CONTINUOUS
 62
    7
 10
341.92773399999999
 20
394.20001200000002
 11
383.92773399999999
 21
394.20001200000002
  0
LINE
  8
_0-0_0
  6
CONTINUOUS
 62
    7
 10
341.92773399999999
 20
413.79998799999998
 11
383.92773399999999
 21
413.79998799999998
  0
LINE
  8
_0-0_0
  6
CONTINUOUS
 62
    7
 10
405.42773399999999
 20
387.5
 11
395.92773399999999
 21
387.5
  0
LINE
  8
_0-0_0
  6
CONTINUOUS
 62
    7
 10
395.92773399999999
 20
387.5
 11
395.92773399999999
 21
389.10000600000001
  0
ARC
  8
_0-0_0
  6
CONTINUOUS
 62
    7
 10
395.62771599999996
 20
389.10000600000001
 40
0.2999999999999999
 50
0
 51
90.000003000000007
  0
LINE
  8
_0-0_0
  6
CONTINUOUS
 62
    7
 10
394.92773399999999
 20
389.39999399999999
 11
395.62771599999996
 21
389.39999399999999
  0
LINE
  8
_0-0_0
  6
CONTINUOUS
 62
    7
 10
394.42773399999999
 20
389.79998799999998
 11
394.92773399999999
 21
389.79998799999998
  0
LINE
  8
_0-0_0
  6
CONTINUOUS
 62
    7
 10
380.92773399999999
 20
389.79998799999998
 11
394.42773399999999
 21
389.79998799999998
  0
ARC
  8
_0-0_0
  6
CONTINUOUS
 62
    7
 10
378.42773399999999
 20
389.79998799999998
 40
2.5
 50
0
 51
90.000003000000007
  0
LINE
  8
_0-0_0
  6
CONTINUOUS
 62
    7
 10
347.42773399999999
 20
392.29998799999998
 11
378.42773399999999
 21
392.29998799999998
  0
ARC
  8
_0-0_0
  6
CONTINUOUS
 62
    7
 10
347.42773399999999
 20
389.79998799999998
 40
2.5
 50
90.000003000000007
 51
179.99999099999999
  0
LINE
  8
_0-0_0
  6
CONTINUOUS
 62
    7
 10
327.42773399999999
 20
389.79998799999998
 11
344.92773399999999
 21
389.79998799999998
  0
LINE
  8
_0-0_0
  6
CONTINUOUS
 62
    7
 10
326.92773399999999
 20
389.79998799999998
 11
327.42773399999999
 21
389.79998799999998
  0
LINE
  8
_0-0_0
  6
CONTINUOUS
 62
    7
 10
326.22772199999997
 20
389.39999399999999
 11
326.92773399999999
 21
389.39999399999999
  0
ARC
  8
_0-0_0
  6
CONTINUOUS
 62
    7
 10
326.22772199999997
 20
389.10000600000001
 40
0.2999999999999999
 50
90.000003000000007
 51
179.99999099999999
  0
LINE
  8
_0-0_0
  6
CONTINUOUS
 62
    7
 10
314.92773399999999
 20
412.22485399999999
 11
314.92773399999999
 21
414
  0
LINE
  8
_0-0_0
  6
CONTINUOUS
 62
    7
 10
319.92773399999999
 20
415
 11
319.92773399999999
 21
414.5
  0
LINE
  8
_0-0_0
  6
CONTINUOUS
 62
    7
 10
319.92773399999999
 20
411.05355800000001
 11
319.92773399999999
 21
411.158569
  0
LINE
  8
_0-0_0
  6
CONTINUOUS
 62
    7
 10
319.92773399999999
 20
415
 11
319.92773399999999
 21
416.5
  0
LINE
  8
_0-0_0
  6
CONTINUOUS
 62
    7
 10
419.42773399999999
 20
416.5
 11
419.42773399999999
 21
415
  0
LINE
  8
_0-0_0
  6
CONTINUOUS
 62
    7
 10
419.42773399999999
 20
415
 11
419.42773399999999
 21
414
  0
LINE
  8
_0-0_0
  6
CONTINUOUS
 62
    7
 10
419.42773399999999
 20
413.20001200000002
 11
419.42773399999999
 21
414
  0
LINE
  8
_0-0_0
  6
CONTINUOUS
 62
    7
 10
418.92773399999999
 20
414.5
 11
419.42773399999999
 21
414.5
  0
LINE
  8
_0-0_0
  6
CONTINUOUS
 62
    7
 10
406.42773399999999
 20
414.5
 11
418.92773399999999
 21
414.5
  0
LINE
  8
_0-0_0
  6
CONTINUOUS
 62
    7
 10
419.42773399999999
 20
416.5
 11
419.42773399999999
 21
415.5
  0
LINE
  8
_0-0_0
  6
CONTINUOUS
 62
    7
 10
419.42773399999999
 20
415
 11
419.42773399999999
 21
414.5
  0
LINE
  8
_0-0_0
  6
CONTINUOUS
 62
    7
 10
419.42773399999999
 20
415.5
 11
419.42773399999999
 21
415
  0
ARC
  8
_0-0_0
  6
CONTINUOUS
 62
    7
 10
324.92773399999999
 20
413
 40
2
 50
179.99999099999999
 51
0
  0
LINE
  8
_0-0_0
  6
CONTINUOUS
 62
    7
 10
405.92773399999999
 20
414.5
 11
406.42773399999999
 21
414.5
  0
LINE
  8
_0-0_0
  6
CONTINUOUS
 62
    7
 10
405.92773399999999
 20
414
 11
405.92773399999999
 21
414.5
  0
LINE
  8
_0-0_0
  6
CONTINUOUS
 62
    7
 10
405.92773399999999
 20
413
 11
405.92773399999999
 21
413.20001200000002
  0
ARC
  8
_0-0_0
  6
CONTINUOUS
 62
    7
 10
403.92773399999999
 20
413
 40
2
 50
179.99999099999999
 51
0
  0
LINE
  8
_0-0_0
  6
CONTINUOUS
 62
    7
 10
401.92773399999999
 20
414.5
 11
401.92773399999999
 21
413
  0
LINE
  8
_0-0_0
  6
CONTINUOUS
 62
    7
 10
401.22772199999997
 20
414.5
 11
401.92773399999999
 21
414.5
  0
LINE
  8
_0-0_0
  6
CONTINUOUS
 62
    7
 10
326.92773399999999
 20
413
 11
326.92773399999999
 21
414.5
  0
LINE
  8
_0-0_0
  6
CONTINUOUS
 62
    7
 10
322.92773399999999
 20
415.5
 11
419.42773399999999
 21
415.5
  0
ARC
  8
_0-0_0
  6
CONTINUOUS
 62
    7
 10
327.62771599999996
 20
414
 40
0.5
 50
90.000003000000007
 51
179.99999099999999
  0
ARC
  8
_0-0_0
  6
CONTINUOUS
 62
    7
 10
324.92773399999999
 20
413
 40
2.2000000000000002
 50
179.99999099999999
 51
0
  0
LINE
  8
_0-0_0
  6
CONTINUOUS
 62
    7
 10
326.92773399999999
 20
389.39999399999999
 11
327.42773399999999
 21
389.39999399999999
  0
LINE
  8
_0-0_0
  6
CONTINUOUS
 62
    7
 10
327.42773399999999
 20
389.79998799999998
 11
327.42773399999999
 21
389.39999399999999
  0
LINE
  8
_0-0_0
  6
CONTINUOUS
 62
    7
 10
344.92773399999999
 20
389.79998799999998
 11
380.92773399999999
 21
389.79998799999998
  0
LINE
  8
_0-0_0
  6
CONTINUOUS
 62
    7
 10
394.42773399999999
 20
389.39999399999999
 11
394.92773399999999
 21
389.39999399999999
  0
LINE
  8
_0-0_0
  6
CONTINUOUS
 62
    7
 10
394.42773399999999
 20
389.79998799999998
 11
394.42773399999999
 21
389.39999399999999
  0
LINE
  8
_0-0_0
  6
CONTINUOUS
 62
    7
 10
405.42773399999999
 20
387
 11
396.42773399999999
 21
387
  0
ARC
  8
_0-0_0
  6
CONTINUOUS
 62
    7
 10
396.42773399999999
 20
387.5
 40
0.5
 50
179.99999099999999
 51
269.99999700000001
  0
LINE
  8
_0-0_0
  6
CONTINUOUS
 62
    7
 10
405.42773399999999
 20
387.5
 11
405.92773399999999
 21
387.5
  0
LINE
  8
_0-0_0
  6
CONTINUOUS
 62
    7
 10
405.92773399999999
 20
387.5
 11
405.92773399999999
 21
387.70001200000002
  0
LINE
  8
_0-0_0
  6
CONTINUOUS
 62
    7
 10
410.42773399999999
 20
387.89999399999999
 11
406.12771599999996
 21
387.89999399999999
  0
LINE
  8
_0-0_0
  6
CONTINUOUS
 62
    7
 10
410.92773399999999
 20
388.39999399999999
 11
410.92773399999999
 21
390.17514
  0
ARC
  8
_0-0_0
  6
CONTINUOUS
 62
    7
 10
407.87976099999997
 20
390.11901899999998
 40
3.0490550000000001
 50
1.0548960000000001
 51
14.838094000000002
  0
LINE
  8
_0-0_0
  6
CONTINUOUS
 62
    7
 10
410.42773399999999
 20
391.10000600000001
 11
406.060181
 21
391.10000600000001
  0
LINE
  8
_0-0_0
  6
CONTINUOUS
 62
    7
 10
405.92773399999999
 20
391.24142499999999
 11
405.92773399999999
 21
391.58371
  0
ARC
  8
_0-0_0
  6
CONTINUOUS
 62
    7
 10
403.92773399999999
 20
413
 40
2.2000000000000002
 50
179.99999099999999
 51
303.74900400000001
  0
LINE
  8
_0-0_0
  6
CONTINUOUS
 62
    7
 10
401.72772199999997
 20
414
 11
401.72772199999997
 21
413
  0
LINE
  8
_0-0_0
  6
CONTINUOUS
 62
    7
 10
401.22772199999997
 20
414.5
 11
327.62771599999996
 21
414.5
  0
LINE
  8
_0-0_0
  6
CONTINUOUS
 62
    7
 10
327.12771599999996
 20
413
 11
327.12771599999996
 21
414
  0
LINE
  8
_0-0_0
  6
CONTINUOUS
 62
    7
 10
327.62771599999996
 20
412.79998799999998
 11
327.62771599999996
 21
413
  0
ARC
  8
_0-0_0
  6
CONTINUOUS
 62
    7
 10
328.62771599999996
 20
412.79998799999998
 40
1
 50
90.000003000000007
 51
179.99999099999999
  0
LINE
  8
_0-0_0
  6
CONTINUOUS
 62
    7
 10
328.62771599999996
 20
413.79998799999998
 11
341.92773399999999
 21
413.79998799999998
  0
LINE
  8
_0-0_0
  6
CONTINUOUS
 62
    7
 10
383.92773399999999
 20
413.79998799999998
 11
397.92773399999999
 21
413.79998799999998
  0
ARC
  8
_0-0_0
  6
CONTINUOUS
 62
    7
 10
397.92773399999999
 20
410.79998799999998
 40
3
 50
0
 51
90.000003000000007
  0
LINE
  8
_0-0_0
  6
CONTINUOUS
 62
    7
 10
400.92773399999999
 20
397.20001200000002
 11
400.92773399999999
 21
410.79998799999998
  0
ARC
  8
_0-0_0
  6
CONTINUOUS
 62
    7
 10
397.92773399999999
 20
397.20001200000002
 40
3
 50
269.99999700000001
 51
0
  0
LINE
  8
_0-0_0
  6
CONTINUOUS
 62
    7
 10
397.92773399999999
 20
394.20001200000002
 11
383.92773399999999
 21
394.20001200000002
  0
LINE
  8
_0-0_0
  6
CONTINUOUS
 62
    7
 10
341.92773399999999
 20
394.20001200000002
 11
327.92773399999999
 21
394.20001200000002
  0
ARC
  8
_0-0_0
  6
CONTINUOUS
 62
    7
 10
327.92773399999999
 20
397.20001200000002
 40
3
 50
179.99999099999999
 51
269.99999700000001
  0
LINE
  8
_0-0_0
  6
CONTINUOUS
 62
    7
 10
324.92773399999999
 20
409.43768299999999
 11
324.92773399999999
 21
397.20001200000002
  0
ARC
  8
_0-0_0
  6
CONTINUOUS
 62
    7
 10
325.92773399999999
 20
409.43768299999999
 40
1
 50
105.68034800000001
 51
179.99999100000002
  0
ARC
  8
_0-0_0
  6
CONTINUOUS
 62
    7
 10
317.975708
 20
412.28097500000001
 40
3.0490550000000001
 50
181.05489
 51
194.838089
  0
LINE
  8
_0-0_0
  6
CONTINUOUS
 62
    7
 10
319.79525699999999
 20
411.29998799999998
 11
315.42773399999999
 21
411.29998799999998
  0
LINE
  8
_0-0_0
  6
CONTINUOUS
 62
    7
 10
319.92773399999999
 20
391.24142499999999
 11
319.92773399999999
 21
391.34643599999998
  0
LINE
  8
_0-0_0
  6
CONTINUOUS
 62
    7
 10
319.79525699999999
 20
391.10000600000001
 11
315.42773399999999
 21
391.10000600000001
  0
ARC
  8
_0-0_0
  6
CONTINUOUS
 62
    7
 10
317.97686799999997
 20
390.11834700000003
 40
3.050319
 50
165.15540799999999
 51
178.932897
  0
LINE
  8
_0-0_0
  6
CONTINUOUS
 62
    7
 10
314.92773399999999
 20
388.39999399999999
 11
314.92773399999999
 21
390.17514
  0
LINE
  8
_0-0_0
  6
CONTINUOUS
 62
    7
 10
319.72772199999997
 20
387.89999399999999
 11
315.42773399999999
 21
387.89999399999999
  0
LINE
  8
_0-0_0
  6
CONTINUOUS
 62
    7
 10
319.92773399999999
 20
387.5
 11
319.92773399999999
 21
387.70001200000002
  0
LINE
  8
_0-0_0
  6
CONTINUOUS
 62
    7
 10
319.92773399999999
 20
387.5
 11
320.42773399999999
 21
387.5
  0
LINE
  8
_0-0_0
  6
CONTINUOUS
 62
    7
 10
325.42773399999999
 20
387
 11
320.42773399999999
 21
387
  0
ARC
  8
_0-0_0
  6
CONTINUOUS
 62
    7
 10
325.42773399999999
 20
387.5
 40
0.5
 50
269.99999700000001
 51
0
  0
LINE
  8
_0-0_0
  6
CONTINUOUS
 62
    7
 10
315.24597199999999
 20
411.29998799999998
 11
315.22564699999998
 21
411.30102499999998
  0
LINE
  8
_0-0_0
  6
CONTINUOUS
 62
    7
 10
315.22564699999998
 20
411.30102499999998
 11
315.20523099999997
 21
411.304169
  0
LINE
  8
_0-0_0
  6
CONTINUOUS
 62
    7
 10
315.20523099999997
 20
411.304169
 11
315.178406
 21
411.31176799999997
  0
LINE
  8
_0-0_0
  6
CONTINUOUS
 62
    7
 10
315.178406
 20
411.31176799999997
 11
315.15277099999997
 21
411.32312000000002
  0
LINE
  8
_0-0_0
  6
CONTINUOUS
 62
    7
 10
315.15277099999997
 20
411.32312000000002
 11
315.12896699999999
 21
411.33801299999999
  0
LINE
  8
_0-0_0
  6
CONTINUOUS
 62
    7
 10
315.12896699999999
 20
411.33801299999999
 11
315.112213
 21
411.35150099999998
  0
LINE
  8
_0-0_0
  6
CONTINUOUS
 62
    7
 10
315.112213
 20
411.35150099999998
 11
315.09670999999997
 21
411.36673000000002
  0
LINE
  8
_0-0_0
  6
CONTINUOUS
 62
    7
 10
315.09670999999997
 20
411.36673000000002
 11
315.069794
 21
411.40139799999997
  0
LINE
  8
_0-0_0
  6
CONTINUOUS
 62
    7
 10
315.069794
 20
411.40139799999997
 11
315.048767
 21
411.439728
  0
LINE
  8
_0-0_0
  6
CONTINUOUS
 62
    7
 10
315.048767
 20
411.439728
 11
315.03677399999998
 21
411.46963499999998
  0
LINE
  8
_0-0_0
  6
CONTINUOUS
 62
    7
 10
315.03677399999998
 20
411.46963499999998
 11
315.02773999999999
 21
411.5
  0
LINE
  8
_0-0_0
  6
CONTINUOUS
 62
    7
 10
314.93893399999996
 20
412
 11
307.92773399999999
 21
412
  0
LINE
  8
_0-0_0
  6
CONTINUOUS
 62
    7
 10
307.92773399999999
 20
412
 11
303.25228900000002
 21
412
  0
LINE
  8
_0-0_0
  6
CONTINUOUS
 62
    7
 10
307.92773399999999
 20
412
 11
307.92773399999999
 21
410
  0
LINE
  8
_0-0_0
  6
CONTINUOUS
 62
    7
 10
319.92773399999999
 20
410
 11
319.92773399999999
 21
411.05355800000001
  0
ARC
  8
_0-0_0
  6
CONTINUOUS
 62
    7
 10
418.92773399999999
 20
413.20001200000002
 40
0.5
 50
269.99999700000001
 51
0
  0
ARC
  8
_0-0_0
  6
CONTINUOUS
 62
    7
 10
406.42773399999999
 20
414
 40
0.5
 50
90.000003000000007
 51
179.99999099999999
  0
LINE
  8
_0-0_0
  6
CONTINUOUS
 62
    7
 10
405.92773399999999
 20
413.20001200000002
 11
405.92773399999999
 21
414
  0
LINE
  8
_0-0_0
  6
CONTINUOUS
 62
    7
 10
326.12771599999996
 20
389.38284299999998
 11
326.12771599999996
 21
387.39999399999999
  0
LINE
  8
_0-0_0
  6
CONTINUOUS
 62
    7
 10
326.12771599999996
 20
387.39999399999999
 11
327.12771599999996
 21
387.39999399999999
  0
LINE
  8
_0-0_0
  6
CONTINUOUS
 62
    7
 10
327.42773399999999
 20
389.39999399999999
 11
394.42773399999999
 21
389.39999399999999
  0
LINE
  8
_0-0_0
  6
CONTINUOUS
 62
    7
 10
327.12771599999996
 20
387.39999399999999
 11
394.72772199999997
 21
387.39999399999999
  0
LINE
  8
_0-0_0
  6
CONTINUOUS
 62
    7
 10
394.72772199999997
 20
387.39999399999999
 11
395.72772199999997
 21
387.39999399999999
  0
LINE
  8
_0-0_0
  6
CONTINUOUS
 62
    7
 10
395.72772199999997
 20
389.38284299999998
 11
395.72772199999997
 21
387.39999399999999
  0
LINE
  8
_0-0_0
  6
CONTINUOUS
 62
    7
 10
405.92773399999999
 20
387.5
 11
405.42773399999999
 21
387
  0
ARC
  8
_0-0_0
  6
CONTINUOUS
 62
    7
 10
406.12771599999996
 20
387.70001200000002
 40
0.2
 50
90.000003000000007
 51
179.99999099999999
  0
ARC
  8
_0-0_0
  6
CONTINUOUS
 62
    7
 10
410.42773399999999
 20
388.39999399999999
 40
0.5
 50
269.99999700000001
 51
0
  0
LINE
  8
_0-0_0
  6
CONTINUOUS
 62
    7
 10
410.609466
 20
391.10000600000001
 11
410.62982199999999
 21
391.09899899999999
  0
LINE
  8
_0-0_0
  6
CONTINUOUS
 62
    7
 10
410.62982199999999
 20
391.09899899999999
 11
410.650238
 21
391.09582499999999
  0
LINE
  8
_0-0_0
  6
CONTINUOUS
 62
    7
 10
410.650238
 20
391.09582499999999
 11
410.67706299999998
 21
391.088257
  0
LINE
  8
_0-0_0
  6
CONTINUOUS
 62
    7
 10
410.67706299999998
 20
391.088257
 11
410.702698
 21
391.07687399999998
  0
LINE
  8
_0-0_0
  6
CONTINUOUS
 62
    7
 10
410.702698
 20
391.07687399999998
 11
410.72650099999998
 21
391.06201199999998
  0
LINE
  8
_0-0_0
  6
CONTINUOUS
 62
    7
 10
410.72650099999998
 20
391.06201199999998
 11
410.74325599999997
 21
391.04849200000001
  0
LINE
  8
_0-0_0
  6
CONTINUOUS
 62
    7
 10
410.74325599999997
 20
391.04849200000001
 11
410.758758
 21
391.03326399999997
  0
LINE
  8
_0-0_0
  6
CONTINUOUS
 62
    7
 10
410.758758
 20
391.03326399999997
 11
410.78564399999999
 21
390.99859600000002
  0
LINE
  8
_0-0_0
  6
CONTINUOUS
 62
    7
 10
410.78564399999999
 20
390.99859600000002
 11
410.80670199999997
 21
390.96026599999999
  0
LINE
  8
_0-0_0
  6
CONTINUOUS
 62
    7
 10
410.80670199999997
 20
390.96026599999999
 11
410.81869499999999
 21
390.93035900000001
  0
LINE
  8
_0-0_0
  6
CONTINUOUS
 62
    7
 10
410.81869499999999
 20
390.93035900000001
 11
410.82772799999998
 21
390.89999399999999
  0
LINE
  8
_0-0_0
  6
CONTINUOUS
 62
    7
 10
410.609466
 20
391.10000600000001
 11
410.42773399999999
 21
391.10000600000001
  0
LINE
  8
_0-0_0
  6
CONTINUOUS
 62
    7
 10
405.92773399999999
 20
409.54998799999998
 11
405.92773399999999
 21
412.04998799999998
  0
LINE
  8
_0-0_0
  6
CONTINUOUS
 62
    7
 10
405.92773399999999
 20
409.54998799999998
 11
405.92773399999999
 21
393.04998799999998
  0
LINE
  8
_0-0_0
  6
CONTINUOUS
 62
    7
 10
405.92773399999999
 20
391.58371
 11
405.92773399999999
 21
393.04998799999998
  0
ARC
  8
_0-0_0
  6
CONTINUOUS
 62
    7
 10
405.42773399999999
 20
410.75500499999998
 40
0.5
 50
0
 51
123.74898500000002
  0
ARC
  8
_0-0_0
  6
CONTINUOUS
 62
    7
 10
406.09802199999996
 20
391.27328499999999
 40
0.1734229999999999
 50
181.12417600000003
 51
270.64883800000007
  0
LINE
  8
_0-0_0
  6
CONTINUOUS
 62
    7
 10
405.923675
 20
391.29998799999998
 11
405.923767
 21
391.26986699999998
  0
ARC
  8
_0-0_0
  6
CONTINUOUS
 62
    7
 10
401.22772199999997
 20
414
 40
0.5
 50
0
 51
90.000003000000007
  0
ARC
  8
_0-0_0
  6
CONTINUOUS
 62
    7
 10
324.92773399999999
 20
413
 40
2.7000000000000002
 50
285.68033600000007
 51
0.0000000000000381
  0
ARC
  8
_0-0_0
  6
CONTINUOUS
 62
    7
 10
341.92773399999999
 20
397.20001200000002
 40
3
 50
269.99999700000001
 51
0
  0
LINE
  8
_0-0_0
  6
CONTINUOUS
 62
    7
 10
344.92773399999999
 20
397.20001200000002
 11
344.92773399999999
 21
410.79998799999998
  0
ARC
  8
_0-0_0
  6
CONTINUOUS
 62
    7
 10
341.92773399999999
 20
410.79998799999998
 40
3
 50
0
 51
90.000003000000007
  0
ARC
  8
_0-0_0
  6
CONTINUOUS
 62
    7
 10
337.42773399999999
 20
406.5
 40
4.5
 50
269.99999700000001
 51
90.000002999999992
  0
LINE
  8
_0-0_0
  6
CONTINUOUS
 62
    7
 10
337.42773399999999
 20
402
 11
332.42773399999999
 21
402
  0
ARC
  8
_0-0_0
  6
CONTINUOUS
 62
    7
 10
332.42773399999999
 20
406.5
 40
4.5
 50
90.000003000000007
 51
269.99999700000006
  0
LINE
  8
_0-0_0
  6
CONTINUOUS
 62
    7
 10
332.42773399999999
 20
411
 11
337.42773399999999
 21
411
  0
ARC
  8
_0-0_0
  6
CONTINUOUS
 62
    7
 10
383.92773399999999
 20
397.20001200000002
 40
3
 50
179.99999099999999
 51
269.99999700000001
  0
LINE
  8
_0-0_0
  6
CONTINUOUS
 62
    7
 10
380.92773399999999
 20
410.79998799999998
 11
380.92773399999999
 21
397.20001200000002
  0
ARC
  8
_0-0_0
  6
CONTINUOUS
 62
    7
 10
383.92773399999999
 20
410.79998799999998
 40
3
 50
90.000003000000007
 51
179.99999099999999
  0
ARC
  8
_0-0_0
  6
CONTINUOUS
 62
    7
 10
393.42773399999999
 20
406.5
 40
4.5
 50
269.99999700000001
 51
90.000002999999992
  0
LINE
  8
_0-0_0
  6
CONTINUOUS
 62
    7
 10
393.42773399999999
 20
402
 11
388.42773399999999
 21
402
  0
ARC
  8
_0-0_0
  6
CONTINUOUS
 62
    7
 10
388.42773399999999
 20
406.5
 40
4.5
 50
90.000003000000007
 51
269.99999700000006
  0
LINE
  8
_0-0_0
  6
CONTINUOUS
 62
    7
 10
388.42773399999999
 20
411
 11
393.42773399999999
 21
411
  0
LINE
  8
_0-0_0
  6
CONTINUOUS
 62
    7
 10
315.42773399999999
 20
411.29998799999998
 11
315.24597199999999
 21
411.29998799999998
  0
LINE
  8
_0-0_0
  6
CONTINUOUS
 62
    7
 10
319.92773399999999
 20
410
 11
319.92773399999999
 21
392.39999399999999
  0
LINE
  8
_0-0_0
  6
CONTINUOUS
 62
    7
 10
319.92773399999999
 20
391.34643599999998
 11
319.92773399999999
 21
392.39999399999999
  0
ARC
  8
_0-0_0
  6
CONTINUOUS
 62
    7
 10
319.75744599999996
 20
391.27328499999999
 40
0.1734209999999999
 50
269.35085600000002
 51
358.87625300000002
  0
LINE
  8
_0-0_0
  6
CONTINUOUS
 62
    7
 10
319.93176299999999
 20
391.29998799999998
 11
319.93170199999997
 21
391.26986699999998
  0
LINE
  8
_0-0_0
  6
CONTINUOUS
 62
    7
 10
319.93176299999999
 20
411.10000600000001
 11
319.93170199999997
 21
411.13012700000002
  0
ARC
  8
_0-0_0
  6
CONTINUOUS
 62
    7
 10
319.75744599999996
 20
411.12670900000001
 40
0.1734219999999999
 50
1.1236539999999999
 51
90.649110000000007
  0
LINE
  8
_0-0_0
  6
CONTINUOUS
 62
    7
 10
315.42773399999999
 20
391.10000600000001
 11
315.24597199999999
 21
391.10000600000001
  0
LINE
  8
_0-0_0
  6
CONTINUOUS
 62
    7
 10
315.24597199999999
 20
391.10000600000001
 11
315.22564699999998
 21
391.09899899999999
  0
LINE
  8
_0-0_0
  6
CONTINUOUS
 62
    7
 10
315.22564699999998
 20
391.09899899999999
 11
315.20523099999997
 21
391.09582499999999
  0
LINE
  8
_0-0_0
  6
CONTINUOUS
 62
    7
 10
315.20523099999997
 20
391.09582499999999
 11
315.178406
 21
391.088257
  0
LINE
  8
_0-0_0
  6
CONTINUOUS
 62
    7
 10
315.178406
 20
391.088257
 11
315.15277099999997
 21
391.07687399999998
  0
LINE
  8
_0-0_0
  6
CONTINUOUS
 62
    7
 10
315.15277099999997
 20
391.07687399999998
 11
315.12896699999999
 21
391.06201199999998
  0
LINE
  8
_0-0_0
  6
CONTINUOUS
 62
    7
 10
315.12896699999999
 20
391.06201199999998
 11
315.112213
 21
391.04849200000001
  0
LINE
  8
_0-0_0
  6
CONTINUOUS
 62
    7
 10
315.112213
 20
391.04849200000001
 11
315.09670999999997
 21
391.03326399999997
  0
LINE
  8
_0-0_0
  6
CONTINUOUS
 62
    7
 10
315.09670999999997
 20
391.03326399999997
 11
315.069794
 21
390.99859600000002
  0
LINE
  8
_0-0_0
  6
CONTINUOUS
 62
    7
 10
315.069794
 20
390.99859600000002
 11
315.048767
 21
390.96026599999999
  0
LINE
  8
_0-0_0
  6
CONTINUOUS
 62
    7
 10
315.048767
 20
390.96026599999999
 11
315.03677399999998
 21
390.93035900000001
  0
LINE
  8
_0-0_0
  6
CONTINUOUS
 62
    7
 10
315.03677399999998
 20
390.93035900000001
 11
315.02773999999999
 21
390.89999399999999
  0
ARC
  8
_0-0_0
  6
CONTINUOUS
 62
    7
 10
315.42773399999999
 20
388.39999399999999
 40
0.5
 50
179.99999099999999
 51
269.99999700000001
  0
ARC
  8
_0-0_0
  6
CONTINUOUS
 62
    7
 10
319.72772199999997
 20
387.70001200000002
 40
0.2
 50
0
 51
90.000003000000007
  0
LINE
  8
_0-0_0
  6
CONTINUOUS
 62
    7
 10
319.92773399999999
 20
387.5
 11
320.42773399999999
 21
387
  0
ARC
  8
_0-0_0
  6
CONTINUOUS
 62
    7
 10
303.25228900000002
 20
410
 40
2
 50
90.000003000000007
 51
108.434997
  0
LINE
  8
_0-0_0
  6
CONTINUOUS
 62
    7
 10
307.92773399999999
 20
409.5
 11
307.92773399999999
 21
410
  0
LINE
  8
_0-0_0
  6
CONTINUOUS
 62
    7
 10
307.92773399999999
 20
406.5
 11
307.92773399999999
 21
406
  0
LINE
  8
_0-0_0
  6
CONTINUOUS
 62
    7
 10
307.92773399999999
 20
406.5
 11
307.92773399999999
 21
409.5
  0
ARC
  8
_0-0_0
  6
CONTINUOUS
 62
    7
 10
313.92773399999999
 20
406.69998199999998
 40
0.500016
 50
0.001164
 51
179.99560600000004
  0
LINE
  8
_0-0_0
  6
CONTINUOUS
 62
    7
 10
313.42773399999999
 20
406.70001200000002
 11
313.42773399999999
 21
394.70001200000002
  0
ARC
  8
_0-0_0
  6
CONTINUOUS
 62
    7
 10
313.92773399999999
 20
394.70001200000002
 40
0.500016
 50
180.00117
 51
359.995611
  0
LINE
  8
_0-0_0
  6
CONTINUOUS
 62
    7
 10
314.42773399999999
 20
406.70001200000002
 11
314.42773399999999
 21
394.70001200000002
  0
ARC
  8
_0-0_0
  6
CONTINUOUS
 62
    7
 10
312.42773399999999
 20
406.69998199999998
 40
0.500016
 50
0.001164
 51
179.99560600000004
  0
LINE
  8
_0-0_0
  6
CONTINUOUS
 62
    7
 10
311.92773399999999
 20
406.70001200000002
 11
311.92773399999999
 21
394.70001200000002
  0
ARC
  8
_0-0_0
  6
CONTINUOUS
 62
    7
 10
312.42773399999999
 20
394.70001200000002
 40
0.500016
 50
180.00117
 51
359.995611
  0
LINE
  8
_0-0_0
  6
CONTINUOUS
 62
    7
 10
312.92773399999999
 20
406.70001200000002
 11
312.92773399999999
 21
394.70001200000002
  0
ARC
  8
_0-0_0
  6
CONTINUOUS
 62
    7
 10
310.92773399999999
 20
406.69998199999998
 40
0.500016
 50
0.001164
 51
179.99560600000004
  0
LINE
  8
_0-0_0
  6
CONTINUOUS
 62
    7
 10
310.42773399999999
 20
406.70001200000002
 11
310.42773399999999
 21
394.70001200000002
  0
ARC
  8
_0-0_0
  6
CONTINUOUS
 62
    7
 10
310.92773399999999
 20
394.70001200000002
 40
0.500016
 50
180.00117
 51
359.995611
  0
LINE
  8
_0-0_0
  6
CONTINUOUS
 62
    7
 10
311.42773399999999
 20
406.70001200000002
 11
311.42773399999999
 21
394.70001200000002
  0
ARC
  8
_0-0_0
  6
CONTINUOUS
 62
    7
 10
309.42773399999999
 20
406.69998199999998
 40
0.500016
 50
0.001164
 51
179.99560600000004
  0
LINE
  8
_0-0_0
  6
CONTINUOUS
 62
    7
 10
308.92773399999999
 20
406.70001200000002
 11
308.92773399999999
 21
394.70001200000002
  0
ARC
  8
_0-0_0
  6
CONTINUOUS
 62
    7
 10
309.42773399999999
 20
394.70001200000002
 40
0.500016
 50
180.00117
 51
359.995611
  0
LINE
  8
_0-0_0
  6
CONTINUOUS
 62
    7
 10
309.92773399999999
 20
406.70001200000002
 11
309.92773399999999
 21
394.70001200000002
  0
LINE
  8
_0-0_0
  6
CONTINUOUS
 62
    7
 10
405.92773399999999
 20
412.70001200000002
 11
406.42773399999999
 21
412.70001200000002
  0
LINE
  8
_0-0_0
  6
CONTINUOUS
 62
    7
 10
406.42773399999999
 20
412.70001200000002
 11
418.92773399999999
 21
412.70001200000002
  0
ARC
  8
_0-0_0
  6
CONTINUOUS
 62
    7
 10
406.42773399999999
 20
413.20001200000002
 40
0.5
 50
179.99999099999999
 51
269.99999700000001
  0
LINE
  8
_0-0_0
  6
CONTINUOUS
 62
    7
 10
405.92773399999999
 20
412.33398399999999
 11
405.92773399999999
 21
412.70001200000002
  0
LINE
  8
_0-0_0
  6
CONTINUOUS
 62
    7
 10
405.92773399999999
 20
412.08349600000003
 11
405.92773399999999
 21
412.04998799999998
  0
LINE
  8
_0-0_0
  6
CONTINUOUS
 62
    7
 10
405.92773399999999
 20
412.33398399999999
 11
405.92773399999999
 21
412.08349600000003
  0
CIRCLE
  8
_0-0_0
  6
CONTINUOUS
 62
    7
 10
324.92773399999999
 20
413
 40
1.4750000000000001
  0
CIRCLE
  8
_0-0_0
  6
CONTINUOUS
 62
    7
 10
403.92773399999999
 20
413
 40
1.4750000000000001
  0
LINE
  8
_0-0_0
  6
CONTINUOUS
 62
    7
 10
405.92773399999999
 20
387.35000600000001
 11
405.92773399999999
 21
387.5
  0
LINE
  8
_0-0_0
  6
CONTINUOUS
 62
    7
 10
411.42773399999999
 20
387.35000600000001
 11
405.92773399999999
 21
387.35000600000001
  0
LINE
  8
_0-0_0
  6
CONTINUOUS
 62
    7
 10
411.42773399999999
 20
389.89999399999999
 11
410.92773399999999
 21
389.89999399999999
  0
LINE
  8
_0-0_0
  6
CONTINUOUS
 62
    7
 10
406.42773399999999
 20
412.54998799999998
 11
405.92773399999999
 21
412.04998799999998
  0
LINE
  8
_0-0_0
  6
CONTINUOUS
 62
    7
 10
406.42773399999999
 20
412.54998799999998
 11
411.42773399999999
 21
412.54998799999998
  0
LINE
  8
_0-0_0
  6
CONTINUOUS
 62
    7
 10
314.93893399999996
 20
390.39999399999999
 11
303.25228900000002
 21
390.39999399999999
  0
LINE
  8
_0-0_0
  6
CONTINUOUS
 62
    7
 10
302.17773399999999
 20
411.75
 11
302.61981199999997
 21
411.89736900000003
  0
LINE
  8
_0-0_0
  6
CONTINUOUS
 62
    7
 10
298.45336899999995
 20
406.5
 11
297.76000999999997
 21
406.5
  0
LINE
  8
_0-0_0
  6
CONTINUOUS
 62
    7
 10
298.45336899999995
 20
406.5
 11
302.77795399999997
 21
406.5
  0
LINE
  8
_0-0_0
  6
CONTINUOUS
 62
    7
 10
303.25228900000002
 20
406.5
 11
302.77795399999997
 21
406.5
  0
LINE
  8
_0-0_0
  6
CONTINUOUS
 62
    7
 10
307.92773399999999
 20
406.5
 11
303.25228900000002
 21
406.5
  0
LINE
  8
_0-0_0
  6
CONTINUOUS
 62
    7
 10
405.92773399999999
 20
387.203552
 11
405.92773399999999
 21
387.35000600000001
  0
LINE
  8
_0-0_0
  6
CONTINUOUS
 62
    7
 10
405.92773399999999
 20
387.14645400000001
 11
405.92773399999999
 21
387.203552
  0
LINE
  8
_0-0_0
  6
CONTINUOUS
 62
    7
 10
405.92773399999999
 20
387
 11
405.92773399999999
 21
387.14645400000001
  0
ARC
  8
_0-0_0
  6
CONTINUOUS
 62
    7
 10
411.42773399999999
 20
387.85000600000001
 40
0.5
 50
269.99999700000001
 51
0
  0
LINE
  8
_0-0_0
  6
CONTINUOUS
 62
    7
 10
411.92773399999999
 20
389.405731
 11
411.92773399999999
 21
387.85000600000001
  0
ARC
  8
_0-0_0
  6
CONTINUOUS
 62
    7
 10
411.44082599999996
 20
389.40237400000001
 40
0.4869939999999999
 50
0.394923
 51
23.93947
  0
ARC
  8
_0-0_0
  6
CONTINUOUS
 62
    7
 10
411.42773399999999
 20
389.39999399999999
 40
0.5
 50
23.578231000000002
 51
90.000002999999992
  0
LINE
  8
_0-0_0
  6
CONTINUOUS
 62
    7
 10
411.92773399999999
 20
409.54998799999998
 11
411.92773399999999
 21
412.04998799999998
  0
ARC
  8
_0-0_0
  6
CONTINUOUS
 62
    7
 10
411.42773399999999
 20
412.04998799999998
 40
0.5
 50
0
 51
90.000003000000007
  0
LINE
  8
_0-0_0
  6
CONTINUOUS
 62
    7
 10
411.42773399999999
 20
396.25
 11
409.22772199999997
 21
396.25
  0
LINE
  8
_0-0_0
  6
CONTINUOUS
 62
    7
 10
411.92773399999999
 20
409.54998799999998
 11
411.92773399999999
 21
396.75
  0
LINE
  8
_0-0_0
  6
CONTINUOUS
 62
    7
 10
408.92773399999999
 20
395.95001200000002
 11
408.92773399999999
 21
393.37170400000002
  0
LINE
  8
_0-0_0
  6
CONTINUOUS
 62
    7
 10
338.89926099999997
 20
402.39999399999999
 11
330.95617699999997
 21
402.39999399999999
  0
ARC
  8
_0-0_0
  6
CONTINUOUS
 62
    7
 10
330.95617699999997
 20
402.89999399999999
 40
0.5
 50
210.00000299999999
 51
269.99999700000001
  0
LINE
  8
_0-0_0
  6
CONTINUOUS
 62
    7
 10
330.52316299999995
 20
402.64999399999999
 11
328.44470199999995
 21
406.25
  0
ARC
  8
_0-0_0
  6
CONTINUOUS
 62
    7
 10
328.87771599999996
 20
406.5
 40
0.5
 50
149.99999700000001
 51
210.00000299999996
  0
LINE
  8
_0-0_0
  6
CONTINUOUS
 62
    7
 10
328.44470199999995
 20
406.75
 11
330.52316299999995
 21
410.35000600000001
  0
ARC
  8
_0-0_0
  6
CONTINUOUS
 62
    7
 10
330.95617699999997
 20
410.10000600000001
 40
0.5
 50
90.000003000000007
 51
149.99999700000001
  0
LINE
  8
_0-0_0
  6
CONTINUOUS
 62
    7
 10
330.95617699999997
 20
410.60000600000001
 11
338.89926099999997
 21
410.60000600000001
  0
ARC
  8
_0-0_0
  6
CONTINUOUS
 62
    7
 10
338.89926099999997
 20
410.10000600000001
 40
0.5
 50
30.000001000000001
 51
90.000003000000007
  0
LINE
  8
_0-0_0
  6
CONTINUOUS
 62
    7
 10
339.33227499999998
 20
410.35000600000001
 11
341.41073599999999
 21
406.75
  0
ARC
  8
_0-0_0
  6
CONTINUOUS
 62
    7
 10
340.97772199999997
 20
406.5
 40
0.5
 50
329.99998900000003
 51
30.000000999999983
  0
LINE
  8
_0-0_0
  6
CONTINUOUS
 62
    7
 10
341.41073599999999
 20
406.25
 11
339.33227499999998
 21
402.64999399999999
  0
ARC
  8
_0-0_0
  6
CONTINUOUS
 62
    7
 10
338.89926099999997
 20
402.89999399999999
 40
0.5
 50
269.99999700000001
 51
329.99998900000003
  0
ARC
  8
_0-0_0
  6
CONTINUOUS
 62
    7
 10
386.89846799999998
 20
403
 40
0.5
 50
210.00000299999999
 51
269.99999700000001
  0
LINE
  8
_0-0_0
  6
CONTINUOUS
 62
    7
 10
386.46545399999997
 20
402.75
 11
384.44473299999999
 21
406.25
  0
ARC
  8
_0-0_0
  6
CONTINUOUS
 62
    7
 10
384.87771599999996
 20
406.5
 40
0.5
 50
149.99999700000001
 51
210.00000299999996
  0
LINE
  8
_0-0_0
  6
CONTINUOUS
 62
    7
 10
384.44473299999999
 20
406.75
 11
386.46545399999997
 21
410.25
  0
ARC
  8
_0-0_0
  6
CONTINUOUS
 62
    7
 10
386.89846799999998
 20
410
 40
0.5
 50
90.000003000000007
 51
149.99999700000001
  0
LINE
  8
_0-0_0
  6
CONTINUOUS
 62
    7
 10
386.89846799999998
 20
410.5
 11
394.95700099999999
 21
410.5
  0
ARC
  8
_0-0_0
  6
CONTINUOUS
 62
    7
 10
394.95700099999999
 20
410
 40
0.5
 50
30.000001000000001
 51
90.000003000000007
  0
LINE
  8
_0-0_0
  6
CONTINUOUS
 62
    7
 10
395.39001500000001
 20
410.25
 11
397.41073599999999
 21
406.75
  0
ARC
  8
_0-0_0
  6
CONTINUOUS
 62
    7
 10
396.97772199999997
 20
406.5
 40
0.5
 50
329.99998900000003
 51
30.000000999999983
  0
LINE
  8
_0-0_0
  6
CONTINUOUS
 62
    7
 10
397.41073599999999
 20
406.25
 11
395.39001500000001
 21
402.75
  0
ARC
  8
_0-0_0
  6
CONTINUOUS
 62
    7
 10
394.95700099999999
 20
403
 40
0.5
 50
269.99999700000001
 51
329.99998900000003
  0
LINE
  8
_0-0_0
  6
CONTINUOUS
 62
    7
 10
394.95700099999999
 20
402.5
 11
386.89846799999998
 21
402.5
  0
LINE
  8
_0-0_0
  6
CONTINUOUS
 62
    7
 10
302.61981199999997
 20
390.50262500000002
 11
302.73931899999997
 21
390.46701000000002
  0
LINE
  8
_0-0_0
  6
CONTINUOUS
 62
    7
 10
302.73931899999997
 20
390.46701000000002
 11
302.86086999999998
 21
390.43911700000001
  0
LINE
  8
_0-0_0
  6
CONTINUOUS
 62
    7
 10
302.86086999999998
 20
390.43911700000001
 11
302.98400900000001
 21
390.41909800000002
  0
LINE
  8
_0-0_0
  6
CONTINUOUS
 62
    7
 10
302.98400900000001
 20
390.41909800000002
 11
303.10821499999997
 21
390.40698200000003
  0
LINE
  8
_0-0_0
  6
CONTINUOUS
 62
    7
 10
303.10821499999997
 20
390.40698200000003
 11
303.23306300000002
 21
390.40283199999999
  0
LINE
  8
_0-0_0
  6
CONTINUOUS
 62
    7
 10
303.23306300000002
 20
390.40283199999999
 11
303.25228900000002
 21
390.40292399999998
  0
ARC
  8
_0-0_0
  6
CONTINUOUS
 62
    7
 10
303.25228900000002
 20
392.39999399999999
 40
2
 50
251.56498899999997
 51
269.99999700000001
  0
LINE
  8
_0-0_0
  6
CONTINUOUS
 62
    7
 10
296.92773399999999
 20
407.25003099999998
 11
296.92773399999999
 21
406.12902800000001
  0
LINE
  8
_0-0_0
  6
CONTINUOUS
 62
    7
 10
325.12771599999996
 20
411.89999399999999
 11
324.72772199999997
 21
411.89999399999999
  0
LINE
  8
_0-0_0
  6
CONTINUOUS
 62
    7
 10
325.12771599999996
 20
411.89999399999999
 11
325.12771599999996
 21
412.54998799999998
  0
ARC
  8
_0-0_0
  6
CONTINUOUS
 62
    7
 10
325.37771599999996
 20
412.54998799999998
 40
0.25
 50
90.000003000000007
 51
179.99999099999999
  0
LINE
  8
_0-0_0
  6
CONTINUOUS
 62
    7
 10
325.37771599999996
 20
412.79998799999998
 11
326.02773999999999
 21
412.79998799999998
  0
LINE
  8
_0-0_0
  6
CONTINUOUS
 62
    7
 10
326.02773999999999
 20
412.79998799999998
 11
326.02773999999999
 21
413.20001200000002
  0
LINE
  8
_0-0_0
  6
CONTINUOUS
 62
    7
 10
325.37771599999996
 20
413.20001200000002
 11
326.02773999999999
 21
413.20001200000002
  0
ARC
  8
_0-0_0
  6
CONTINUOUS
 62
    7
 10
325.37771599999996
 20
413.45001200000002
 40
0.25
 50
179.99999099999999
 51
269.99999700000001
  0
LINE
  8
_0-0_0
  6
CONTINUOUS
 62
    7
 10
325.12771599999996
 20
414.10000600000001
 11
325.12771599999996
 21
413.45001200000002
  0
LINE
  8
_0-0_0
  6
CONTINUOUS
 62
    7
 10
325.12771599999996
 20
414.10000600000001
 11
324.72772199999997
 21
414.10000600000001
  0
LINE
  8
_0-0_0
  6
CONTINUOUS
 62
    7
 10
324.72772199999997
 20
414.10000600000001
 11
324.72772199999997
 21
413.45001200000002
  0
ARC
  8
_0-0_0
  6
CONTINUOUS
 62
    7
 10
324.47772199999997
 20
413.45001200000002
 40
0.25
 50
269.99999700000001
 51
0
  0
LINE
  8
_0-0_0
  6
CONTINUOUS
 62
    7
 10
324.47772199999997
 20
413.20001200000002
 11
323.82772799999998
 21
413.20001200000002
  0
LINE
  8
_0-0_0
  6
CONTINUOUS
 62
    7
 10
323.82772799999998
 20
412.79998799999998
 11
323.82772799999998
 21
413.20001200000002
  0
LINE
  8
_0-0_0
  6
CONTINUOUS
 62
    7
 10
324.47772199999997
 20
412.79998799999998
 11
323.82772799999998
 21
412.79998799999998
  0
ARC
  8
_0-0_0
  6
CONTINUOUS
 62
    7
 10
324.47772199999997
 20
412.54998799999998
 40
0.25
 50
0
 51
90.000003000000007
  0
LINE
  8
_0-0_0
  6
CONTINUOUS
 62
    7
 10
324.72772199999997
 20
411.89999399999999
 11
324.72772199999997
 21
412.54998799999998
  0
LINE
  8
_0-0_0
  6
CONTINUOUS
 62
    7
 10
404.12771599999996
 20
411.89999399999999
 11
403.72772199999997
 21
411.89999399999999
  0
LINE
  8
_0-0_0
  6
CONTINUOUS
 62
    7
 10
404.12771599999996
 20
411.89999399999999
 11
404.12771599999996
 21
412.54998799999998
  0
ARC
  8
_0-0_0
  6
CONTINUOUS
 62
    7
 10
404.37771599999996
 20
412.54998799999998
 40
0.25
 50
90.000003000000007
 51
179.99999099999999
  0
LINE
  8
_0-0_0
  6
CONTINUOUS
 62
    7
 10
404.37771599999996
 20
412.79998799999998
 11
405.02773999999999
 21
412.79998799999998
  0
LINE
  8
_0-0_0
  6
CONTINUOUS
 62
    7
 10
405.02773999999999
 20
412.79998799999998
 11
405.02773999999999
 21
413.20001200000002
  0
LINE
  8
_0-0_0
  6
CONTINUOUS
 62
    7
 10
404.37771599999996
 20
413.20001200000002
 11
405.02773999999999
 21
413.20001200000002
  0
ARC
  8
_0-0_0
  6
CONTINUOUS
 62
    7
 10
404.37771599999996
 20
413.45001200000002
 40
0.25
 50
179.99999099999999
 51
269.99999700000001
  0
LINE
  8
_0-0_0
  6
CONTINUOUS
 62
    7
 10
404.12771599999996
 20
414.10000600000001
 11
404.12771599999996
 21
413.45001200000002
  0
LINE
  8
_0-0_0
  6
CONTINUOUS
 62
    7
 10
404.12771599999996
 20
414.10000600000001
 11
403.72772199999997
 21
414.10000600000001
  0
LINE
  8
_0-0_0
  6
CONTINUOUS
 62
    7
 10
403.72772199999997
 20
414.10000600000001
 11
403.72772199999997
 21
413.45001200000002
  0
ARC
  8
_0-0_0
  6
CONTINUOUS
 62
    7
 10
403.47772199999997
 20
413.45001200000002
 40
0.25
 50
269.99999700000001
 51
0
  0
LINE
  8
_0-0_0
  6
CONTINUOUS
 62
    7
 10
403.47772199999997
 20
413.20001200000002
 11
402.82772799999998
 21
413.20001200000002
  0
LINE
  8
_0-0_0
  6
CONTINUOUS
 62
    7
 10
402.82772799999998
 20
412.79998799999998
 11
402.82772799999998
 21
413.20001200000002
  0
LINE
  8
_0-0_0
  6
CONTINUOUS
 62
    7
 10
403.47772199999997
 20
412.79998799999998
 11
402.82772799999998
 21
412.79998799999998
  0
ARC
  8
_0-0_0
  6
CONTINUOUS
 62
    7
 10
403.47772199999997
 20
412.54998799999998
 40
0.25
 50
0
 51
90.000003000000007
  0
LINE
  8
_0-0_0
  6
CONTINUOUS
 62
    7
 10
403.72772199999997
 20
411.89999399999999
 11
403.72772199999997
 21
412.54998799999998
  0
LINE
  8
_0-0_0
  6
CONTINUOUS
 62
    7
 10
411.42773399999999
 20
387
 11
405.92773399999999
 21
387
  0
LINE
  8
_0-0_0
  6
CONTINUOUS
 62
    7
 10
411.92773399999999
 20
393.25
 11
411.92773399999999
 21
396.75
  0
LINE
  8
_0-0_0
  6
CONTINUOUS
 62
    7
 10
411.92773399999999
 20
393.25
 11
411.92773399999999
 21
392.89999399999999
  0
LINE
  8
_0-0_0
  6
CONTINUOUS
 62
    7
 10
411.92773399999999
 20
389.405731
 11
411.92773399999999
 21
392.89999399999999
  0
LINE
  8
_0-0_0
  6
CONTINUOUS
 62
    7
 10
411.92773399999999
 20
387.557098
 11
411.92773399999999
 21
387.85000600000001
  0
LINE
  8
_0-0_0
  6
CONTINUOUS
 62
    7
 10
411.92773399999999
 20
387.557098
 11
411.92773399999999
 21
387.5
  0
LINE
  8
_0-0_0
  6
CONTINUOUS
 62
    7
 10
408.92773399999999
 20
391.82128899999998
 11
408.92773399999999
 21
393.37170400000002
  0
LINE
  8
_0-0_0
  6
CONTINUOUS
 62
    7
 10
408.92773399999999
 20
391.10015900000002
 11
408.92773399999999
 21
391.82128899999998
  0
ARC
  8
_0-0_0
  6
CONTINUOUS
 62
    7
 10
411.42773399999999
 20
396.75
 40
0.5
 50
269.99999700000001
 51
0
  0
ARC
  8
_0-0_0
  6
CONTINUOUS
 62
    7
 10
409.22772199999997
 20
395.95001200000002
 40
0.2999999999999999
 50
90.000003000000007
 51
179.99999099999999
  0
LINE
  8
_0-0_0
  6
CONTINUOUS
 62
    7
 10
298.29525699999999
 20
391.94415299999997
 11
302.61981199999997
 21
390.50262500000002
  0
LINE
  8
_0-0_0
  6
CONTINUOUS
 62
    7
 10
296.92773399999999
 20
393.841522
 11
296.92773399999999
 21
397.19232199999999
  0
LINE
  8
_0-0_0
  6
CONTINUOUS
 62
    7
 10
296.92773399999999
 20
405.20770299999998
 11
296.92773399999999
 21
406.12902800000001
  0
ARC
  8
_0-0_0
  6
CONTINUOUS
 62
    7
 10
298.92773399999999
 20
393.841522
 40
2
 50
179.99999099999999
 51
251.56498899999997
  0
LINE
  8
_0-0_0
  6
CONTINUOUS
 62
    7
 10
281.92773399999999
 20
410.72543300000001
 11
281.92773399999999
 21
410.57870500000001
  0
LINE
  8
_0-0_0
  6
CONTINUOUS
 62
    7
 10
281.92773399999999
 20
410.915955
 11
281.92773399999999
 21
410.72543300000001
  0
LINE
  8
_0-0_0
  6
CONTINUOUS
 62
    7
 10
281.92773399999999
 20
411.091003
 11
281.92773399999999
 21
410.915955
  0
LINE
  8
_0-0_0
  6
CONTINUOUS
 62
    7
 10
281.92773399999999
 20
411.24856599999998
 11
281.92773399999999
 21
411.091003
  0
LINE
  8
_0-0_0
  6
CONTINUOUS
 62
    7
 10
281.92773399999999
 20
411.387024
 11
281.92773399999999
 21
411.24856599999998
  0
LINE
  8
_0-0_0
  6
CONTINUOUS
 62
    7
 10
281.92773399999999
 20
411.50476099999997
 11
281.92773399999999
 21
411.387024
  0
LINE
  8
_0-0_0
  6
CONTINUOUS
 62
    7
 10
281.92773399999999
 20
411.60055499999999
 11
281.92773399999999
 21
411.50476099999997
  0
LINE
  8
_0-0_0
  6
CONTINUOUS
 62
    7
 10
281.92773399999999
 20
411.67334
 11
281.92773399999999
 21
411.60055499999999
  0
LINE
  8
_0-0_0
  6
CONTINUOUS
 62
    7
 10
281.92773399999999
 20
411.72228999999999
 11
281.92773399999999
 21
411.67334
  0
LINE
  8
_0-0_0
  6
CONTINUOUS
 62
    7
 10
281.92773399999999
 20
411.74691799999999
 11
281.92773399999999
 21
411.72228999999999
  0
LINE
  8
_0-0_0
  6
CONTINUOUS
 62
    7
 10
281.92773399999999
 20
411.75
 11
281.92773399999999
 21
411.74691799999999
  0
LINE
  8
_0-0_0
  6
CONTINUOUS
 62
    7
 10
281.92773399999999
 20
407.25308200000001
 11
281.92773399999999
 21
407.25
  0
LINE
  8
_0-0_0
  6
CONTINUOUS
 62
    7
 10
281.92773399999999
 20
407.27771000000001
 11
281.92773399999999
 21
407.25308200000001
  0
LINE
  8
_0-0_0
  6
CONTINUOUS
 62
    7
 10
281.92773399999999
 20
407.32666
 11
281.92773399999999
 21
407.27771000000001
  0
LINE
  8
_0-0_0
  6
CONTINUOUS
 62
    7
 10
281.92773399999999
 20
407.39944500000001
 11
281.92773399999999
 21
407.32666
  0
LINE
  8
_0-0_0
  6
CONTINUOUS
 62
    7
 10
281.92773399999999
 20
407.49523900000003
 11
281.92773399999999
 21
407.39944500000001
  0
LINE
  8
_0-0_0
  6
CONTINUOUS
 62
    7
 10
281.92773399999999
 20
407.52545199999997
 11
281.92773399999999
 21
407.49523900000003
  0
LINE
  8
_0-0_0
  6
CONTINUOUS
 62
    7
 10
281.92773399999999
 20
407.612976
 11
281.92773399999999
 21
407.52545199999997
  0
LINE
  8
_0-0_0
  6
CONTINUOUS
 62
    7
 10
281.92773399999999
 20
407.75143400000002
 11
281.92773399999999
 21
407.612976
  0
LINE
  8
_0-0_0
  6
CONTINUOUS
 62
    7
 10
281.92773399999999
 20
407.908997
 11
281.92773399999999
 21
407.75143400000002
  0
LINE
  8
_0-0_0
  6
CONTINUOUS
 62
    7
 10
281.92773399999999
 20
408.084045
 11
281.92773399999999
 21
407.908997
  0
LINE
  8
_0-0_0
  6
CONTINUOUS
 62
    7
 10
281.92773399999999
 20
408.27456699999999
 11
281.92773399999999
 21
408.084045
  0
LINE
  8
_0-0_0
  6
CONTINUOUS
 62
    7
 10
281.92773399999999
 20
408.47851600000001
 11
281.92773399999999
 21
408.27456699999999
  0
LINE
  8
_0-0_0
  6
CONTINUOUS
 62
    7
 10
281.92773399999999
 20
408.69366500000001
 11
281.92773399999999
 21
408.47851600000001
  0
LINE
  8
_0-0_0
  6
CONTINUOUS
 62
    7
 10
281.92773399999999
 20
408.917664
 11
281.92773399999999
 21
408.69366500000001
  0
LINE
  8
_0-0_0
  6
CONTINUOUS
 62
    7
 10
281.92773399999999
 20
409.14801
 11
281.92773399999999
 21
408.917664
  0
LINE
  8
_0-0_0
  6
CONTINUOUS
 62
    7
 10
281.92773399999999
 20
409.38223299999999
 11
281.92773399999999
 21
409.14801
  0
LINE
  8
_0-0_0
  6
CONTINUOUS
 62
    7
 10
281.92773399999999
 20
409.61776700000001
 11
281.92773399999999
 21
409.38223299999999
  0
LINE
  8
_0-0_0
  6
CONTINUOUS
 62
    7
 10
281.92773399999999
 20
409.85199
 11
281.92773399999999
 21
409.61776700000001
  0
LINE
  8
_0-0_0
  6
CONTINUOUS
 62
    7
 10
281.92773399999999
 20
410.082336
 11
281.92773399999999
 21
409.85199
  0
LINE
  8
_0-0_0
  6
CONTINUOUS
 62
    7
 10
281.92773399999999
 20
410.30633499999999
 11
281.92773399999999
 21
410.082336
  0
LINE
  8
_0-0_0
  6
CONTINUOUS
 62
    7
 10
281.92773399999999
 20
410.52148399999999
 11
281.92773399999999
 21
410.30633499999999
  0
LINE
  8
_0-0_0
  6
CONTINUOUS
 62
    7
 10
281.92773399999999
 20
410.57870500000001
 11
281.92773399999999
 21
410.52148399999999
  0
LINE
  8
_0-0_0
  6
CONTINUOUS
 62
    7
 10
297.22772199999997
 20
403.41198700000001
 11
297.16894500000001
 21
403.65881300000001
  0
LINE
  8
_0-0_0
  6
CONTINUOUS
 62
    7
 10
297.16894500000001
 20
403.65881300000001
 11
297.11917099999994
 21
403.85116599999998
  0
LINE
  8
_0-0_0
  6
CONTINUOUS
 62
    7
 10
297.11917099999994
 20
403.85116599999998
 11
297.04803499999997
 21
404.11697400000003
  0
LINE
  8
_0-0_0
  6
CONTINUOUS
 62
    7
 10
297.04803499999997
 20
404.11697400000003
 11
297.01507599999997
 21
404.24368299999998
  0
LINE
  8
_0-0_0
  6
CONTINUOUS
 62
    7
 10
297.01507599999997
 20
404.24368299999998
 11
296.98980699999998
 21
404.34710699999999
  0
LINE
  8
_0-0_0
  6
CONTINUOUS
 62
    7
 10
296.98980699999998
 20
404.34710699999999
 11
296.96777299999997
 21
404.44705199999999
  0
LINE
  8
_0-0_0
  6
CONTINUOUS
 62
    7
 10
296.96777299999997
 20
404.44705199999999
 11
296.94641100000001
 21
404.56475799999998
  0
LINE
  8
_0-0_0
  6
CONTINUOUS
 62
    7
 10
296.94641100000001
 20
404.56475799999998
 11
296.93783599999995
 21
404.62686200000002
  0
LINE
  8
_0-0_0
  6
CONTINUOUS
 62
    7
 10
296.93783599999995
 20
404.62686200000002
 11
296.93176299999999
 21
404.68746900000002
  0
LINE
  8
_0-0_0
  6
CONTINUOUS
 62
    7
 10
296.93176299999999
 20
404.68746900000002
 11
296.92874099999995
 21
404.73672499999998
  0
LINE
  8
_0-0_0
  6
CONTINUOUS
 62
    7
 10
296.92874099999995
 20
404.73672499999998
 11
296.92773399999999
 21
404.784943
  0
LINE
  8
_0-0_0
  6
CONTINUOUS
 62
    7
 10
297.22772199999997
 20
398.987976
 11
297.31118800000002
 21
399.366669
  0
LINE
  8
_0-0_0
  6
CONTINUOUS
 62
    7
 10
297.31118800000002
 20
399.366669
 11
297.35128799999995
 21
399.55819700000001
  0
LINE
  8
_0-0_0
  6
CONTINUOUS
 62
    7
 10
297.35128799999995
 20
399.55819700000001
 11
297.40734899999995
 21
399.848206
  0
LINE
  8
_0-0_0
  6
CONTINUOUS
 62
    7
 10
297.40734899999995
 20
399.848206
 11
297.44494599999996
 21
400.06781000000001
  0
LINE
  8
_0-0_0
  6
CONTINUOUS
 62
    7
 10
297.44494599999996
 20
400.06781000000001
 11
297.47759999999994
 21
400.289063
  0
LINE
  8
_0-0_0
  6
CONTINUOUS
 62
    7
 10
297.47759999999994
 20
400.289063
 11
297.50476099999997
 21
400.51583900000003
  0
LINE
  8
_0-0_0
  6
CONTINUOUS
 62
    7
 10
297.50476099999997
 20
400.51583900000003
 11
297.52484099999998
 21
400.743225
  0
LINE
  8
_0-0_0
  6
CONTINUOUS
 62
    7
 10
297.52484099999998
 20
400.743225
 11
297.53198199999997
 21
400.856964
  0
LINE
  8
_0-0_0
  6
CONTINUOUS
 62
    7
 10
297.53198199999997
 20
400.856964
 11
297.53713999999997
 21
400.970642
  0
LINE
  8
_0-0_0
  6
CONTINUOUS
 62
    7
 10
297.53713999999997
 20
400.970642
 11
297.54086299999994
 21
401.12207000000001
  0
LINE
  8
_0-0_0
  6
CONTINUOUS
 62
    7
 10
297.54086299999994
 20
401.12207000000001
 11
297.54092400000002
 21
401.273346
  0
LINE
  8
_0-0_0
  6
CONTINUOUS
 62
    7
 10
297.54092400000002
 20
401.273346
 11
297.53735299999994
 21
401.42440800000003
  0
LINE
  8
_0-0_0
  6
CONTINUOUS
 62
    7
 10
297.53735299999994
 20
401.42440800000003
 11
297.52783199999999
 21
401.61294600000002
  0
LINE
  8
_0-0_0
  6
CONTINUOUS
 62
    7
 10
297.52783199999999
 20
401.61294600000002
 11
297.51297
 21
401.80117799999999
  0
LINE
  8
_0-0_0
  6
CONTINUOUS
 62
    7
 10
297.51297
 20
401.80117799999999
 11
297.49304199999995
 21
401.98913599999997
  0
LINE
  8
_0-0_0
  6
CONTINUOUS
 62
    7
 10
297.49304199999995
 20
401.98913599999997
 11
297.47665399999994
 21
402.11801100000002
  0
LINE
  8
_0-0_0
  6
CONTINUOUS
 62
    7
 10
297.47665399999994
 20
402.11801100000002
 11
297.45825200000002
 21
402.24667399999998
  0
LINE
  8
_0-0_0
  6
CONTINUOUS
 62
    7
 10
297.45825200000002
 20
402.24667399999998
 11
297.43408199999999
 21
402.39859000000001
  0
LINE
  8
_0-0_0
  6
CONTINUOUS
 62
    7
 10
297.43408199999999
 20
402.39859000000001
 11
297.40768400000002
 21
402.54992700000003
  0
LINE
  8
_0-0_0
  6
CONTINUOUS
 62
    7
 10
297.40768400000002
 20
402.54992700000003
 11
297.35153200000002
 21
402.84054600000002
  0
LINE
  8
_0-0_0
  6
CONTINUOUS
 62
    7
 10
297.35153200000002
 20
402.84054600000002
 11
297.31137100000001
 21
403.03250100000002
  0
LINE
  8
_0-0_0
  6
CONTINUOUS
 62
    7
 10
297.31137100000001
 20
403.03250100000002
 11
297.22772199999997
 21
403.41198700000001
  0
LINE
  8
_0-0_0
  6
CONTINUOUS
 62
    7
 10
297.22772199999997
 20
398.987976
 11
297.16891499999997
 21
398.74111900000003
  0
LINE
  8
_0-0_0
  6
CONTINUOUS
 62
    7
 10
297.16891499999997
 20
398.74111900000003
 11
297.11917099999994
 21
398.54879799999998
  0
LINE
  8
_0-0_0
  6
CONTINUOUS
 62
    7
 10
297.11917099999994
 20
398.54879799999998
 11
297.04803499999997
 21
398.283051
  0
LINE
  8
_0-0_0
  6
CONTINUOUS
 62
    7
 10
297.04803499999997
 20
398.283051
 11
297.01507599999997
 21
398.15637199999998
  0
LINE
  8
_0-0_0
  6
CONTINUOUS
 62
    7
 10
297.01507599999997
 20
398.15637199999998
 11
296.98980699999998
 21
398.05291699999998
  0
LINE
  8
_0-0_0
  6
CONTINUOUS
 62
    7
 10
296.98980699999998
 20
398.05291699999998
 11
296.96777299999997
 21
397.95294200000001
  0
LINE
  8
_0-0_0
  6
CONTINUOUS
 62
    7
 10
296.96777299999997
 20
397.95294200000001
 11
296.94641100000001
 21
397.83523600000001
  0
LINE
  8
_0-0_0
  6
CONTINUOUS
 62
    7
 10
296.94641100000001
 20
397.83523600000001
 11
296.93783599999995
 21
397.77313199999998
  0
LINE
  8
_0-0_0
  6
CONTINUOUS
 62
    7
 10
296.93783599999995
 20
397.77313199999998
 11
296.93176299999999
 21
397.71252399999997
  0
LINE
  8
_0-0_0
  6
CONTINUOUS
 62
    7
 10
296.93176299999999
 20
397.71252399999997
 11
296.92874099999995
 21
397.66326900000001
  0
LINE
  8
_0-0_0
  6
CONTINUOUS
 62
    7
 10
296.92874099999995
 20
397.66326900000001
 11
296.92773399999999
 21
397.61505099999999
  0
ARC
  8
_0-0_0
  6
CONTINUOUS
 62
    7
 10
411.42773399999999
 20
387.5
 40
0.5
 50
269.99999700000001
 51
0
  0
LINE
  8
_0-0_0
  6
CONTINUOUS
 62
    7
 10
411.38339199999996
 20
391.82128899999998
 11
411.38339199999996
 21
395.14999399999999
  0
LINE
  8
_0-0_0
  6
CONTINUOUS
 62
    7
 10
411.38339199999996
 20
390.64999399999999
 11
411.38339199999996
 21
391.82128899999998
  0
CIRCLE
  8
_0-0_0
  6
CONTINUOUS
 62
    7
 10
334.92773399999999
 20
406.5
 40
2.5
  0
CIRCLE
  8
_0-0_0
  6
CONTINUOUS
 62
    7
 10
390.92773399999999
 20
406.5
 40
2.5
  0
LINE
  8
_0-0_0
  6
CONTINUOUS
 62
    7
 10
296.92773399999999
 20
397.30767800000001
 11
287.21990999999997
 21
397.30767800000001
  0
LINE
  8
_0-0_0
  6
CONTINUOUS
 62
    7
 10
287.21990999999997
 20
394.70001200000002
 11
287.16541999999998
 21
394.76992799999999
  0
LINE
  8
_0-0_0
  6
CONTINUOUS
 62
    7
 10
287.16541999999998
 20
394.76992799999999
 11
287.11431899999997
 21
394.83874500000002
  0
LINE
  8
_0-0_0
  6
CONTINUOUS
 62
    7
 10
287.11431899999997
 20
394.83874500000002
 11
287.06668100000002
 21
394.90628099999998
  0
LINE
  8
_0-0_0
  6
CONTINUOUS
 62
    7
 10
287.06668100000002
 20
394.90628099999998
 11
287.02218599999998
 21
394.97280899999998
  0
LINE
  8
_0-0_0
  6
CONTINUOUS
 62
    7
 10
287.02218599999998
 20
394.97280899999998
 11
286.96746799999994
 21
395.06036399999999
  0
LINE
  8
_0-0_0
  6
CONTINUOUS
 62
    7
 10
286.96746799999994
 20
395.06036399999999
 11
286.91795300000001
 21
395.14645400000001
  0
LINE
  8
_0-0_0
  6
CONTINUOUS
 62
    7
 10
286.91795300000001
 20
395.14645400000001
 11
286.87347399999999
 21
395.23129299999999
  0
LINE
  8
_0-0_0
  6
CONTINUOUS
 62
    7
 10
286.87347399999999
 20
395.23129299999999
 11
286.82650699999999
 21
395.33160400000003
  0
LINE
  8
_0-0_0
  6
CONTINUOUS
 62
    7
 10
286.82650699999999
 20
395.33160400000003
 11
286.78631599999994
 21
395.430542
  0
LINE
  8
_0-0_0
  6
CONTINUOUS
 62
    7
 10
286.78631599999994
 20
395.430542
 11
286.752655
 21
395.52829000000003
  0
LINE
  8
_0-0_0
  6
CONTINUOUS
 62
    7
 10
286.752655
 20
395.52829000000003
 11
286.72535699999997
 21
395.625092
  0
LINE
  8
_0-0_0
  6
CONTINUOUS
 62
    7
 10
286.72535699999997
 20
395.625092
 11
286.70431499999995
 21
395.72113000000002
  0
LINE
  8
_0-0_0
  6
CONTINUOUS
 62
    7
 10
286.70431499999995
 20
395.72113000000002
 11
286.68838499999998
 21
395.82501200000002
  0
LINE
  8
_0-0_0
  6
CONTINUOUS
 62
    7
 10
286.68838499999998
 20
395.82501200000002
 11
286.67962599999998
 21
395.92843599999998
  0
LINE
  8
_0-0_0
  6
CONTINUOUS
 62
    7
 10
286.67962599999998
 20
395.92843599999998
 11
286.67797799999994
 21
396.031677
  0
LINE
  8
_0-0_0
  6
CONTINUOUS
 62
    7
 10
286.67797799999994
 20
396.031677
 11
286.68345599999998
 21
396.13494900000001
  0
LINE
  8
_0-0_0
  6
CONTINUOUS
 62
    7
 10
286.68345599999998
 20
396.13494900000001
 11
286.69605999999999
 21
396.23855600000002
  0
LINE
  8
_0-0_0
  6
CONTINUOUS
 62
    7
 10
286.69605999999999
 20
396.23855600000002
 11
286.71588099999997
 21
396.34271200000001
  0
LINE
  8
_0-0_0
  6
CONTINUOUS
 62
    7
 10
286.71588099999997
 20
396.34271200000001
 11
286.74302699999998
 21
396.44766199999998
  0
LINE
  8
_0-0_0
  6
CONTINUOUS
 62
    7
 10
286.74302699999998
 20
396.44766199999998
 11
286.77767899999998
 21
396.55367999999999
  0
LINE
  8
_0-0_0
  6
CONTINUOUS
 62
    7
 10
286.77767899999998
 20
396.55367999999999
 11
286.82002199999999
 21
396.66107199999999
  0
LINE
  8
_0-0_0
  6
CONTINUOUS
 62
    7
 10
286.82002199999999
 20
396.66107199999999
 11
286.87033099999996
 21
396.770081
  0
LINE
  8
_0-0_0
  6
CONTINUOUS
 62
    7
 10
286.87033099999996
 20
396.770081
 11
286.92459099999996
 21
396.87322999999998
  0
LINE
  8
_0-0_0
  6
CONTINUOUS
 62
    7
 10
286.92459099999996
 20
396.87322999999998
 11
286.98629799999998
 21
396.97827100000001
  0
LINE
  8
_0-0_0
  6
CONTINUOUS
 62
    7
 10
286.98629799999998
 20
396.97827100000001
 11
287.05581699999999
 21
397.08551
  0
LINE
  8
_0-0_0
  6
CONTINUOUS
 62
    7
 10
287.05581699999999
 20
397.08551
 11
287.13352999999995
 21
397.19519000000003
  0
LINE
  8
_0-0_0
  6
CONTINUOUS
 62
    7
 10
287.13352999999995
 20
397.19519000000003
 11
287.21990999999997
 21
397.30767800000001
  0
LINE
  8
_0-0_0
  6
CONTINUOUS
 62
    7
 10
296.92773399999999
 20
394.70001200000002
 11
287.21990999999997
 21
394.70001200000002
  0
LINE
  8
_0-0_0
  6
CONTINUOUS
 62
    7
 10
296.92773399999999
 20
397.19232199999999
 11
296.92773399999999
 21
397.30767800000001
  0
LINE
  8
_0-0_0
  6
CONTINUOUS
 62
    7
 10
287.17773399999999
 20
394.70001200000002
 11
287.21990999999997
 21
394.70001200000002
  0
LINE
  8
_0-0_0
  6
CONTINUOUS
 62
    7
 10
296.92773399999999
 20
405.09231599999998
 11
287.21990999999997
 21
405.09231599999998
  0
LINE
  8
_0-0_0
  6
CONTINUOUS
 62
    7
 10
296.92773399999999
 20
405.20770299999998
 11
296.92773399999999
 21
405.09231599999998
  0
LINE
  8
_0-0_0
  6
CONTINUOUS
 62
    7
 10
287.21990999999997
 20
405.09231599999998
 11
287.16541999999998
 21
405.16223100000002
  0
LINE
  8
_0-0_0
  6
CONTINUOUS
 62
    7
 10
287.16541999999998
 20
405.16223100000002
 11
287.11431899999997
 21
405.23107900000002
  0
LINE
  8
_0-0_0
  6
CONTINUOUS
 62
    7
 10
287.11431899999997
 20
405.23107900000002
 11
287.06668100000002
 21
405.29858400000001
  0
LINE
  8
_0-0_0
  6
CONTINUOUS
 62
    7
 10
287.06668100000002
 20
405.29858400000001
 11
287.02218599999998
 21
405.36511200000001
  0
LINE
  8
_0-0_0
  6
CONTINUOUS
 62
    7
 10
287.02218599999998
 20
405.36511200000001
 11
286.96746799999994
 21
405.45266700000002
  0
LINE
  8
_0-0_0
  6
CONTINUOUS
 62
    7
 10
286.96746799999994
 20
405.45266700000002
 11
286.91795300000001
 21
405.53875699999998
  0
LINE
  8
_0-0_0
  6
CONTINUOUS
 62
    7
 10
286.91795300000001
 20
405.53875699999998
 11
286.87347399999999
 21
405.62359600000002
  0
LINE
  8
_0-0_0
  6
CONTINUOUS
 62
    7
 10
286.87347399999999
 20
405.62359600000002
 11
286.82650699999999
 21
405.723907
  0
LINE
  8
_0-0_0
  6
CONTINUOUS
 62
    7
 10
286.82650699999999
 20
405.723907
 11
286.78631599999994
 21
405.82284499999997
  0
LINE
  8
_0-0_0
  6
CONTINUOUS
 62
    7
 10
286.78631599999994
 20
405.82284499999997
 11
286.752655
 21
405.920593
  0
LINE
  8
_0-0_0
  6
CONTINUOUS
 62
    7
 10
286.752655
 20
405.920593
 11
286.72535699999997
 21
406.01739500000002
  0
LINE
  8
_0-0_0
  6
CONTINUOUS
 62
    7
 10
286.72535699999997
 20
406.01739500000002
 11
286.70431499999995
 21
406.11346400000002
  0
LINE
  8
_0-0_0
  6
CONTINUOUS
 62
    7
 10
286.70431499999995
 20
406.11346400000002
 11
286.68838499999998
 21
406.21731599999998
  0
LINE
  8
_0-0_0
  6
CONTINUOUS
 62
    7
 10
286.68838499999998
 20
406.21731599999998
 11
286.67962599999998
 21
406.32074
  0
LINE
  8
_0-0_0
  6
CONTINUOUS
 62
    7
 10
286.67962599999998
 20
406.32074
 11
286.67797799999994
 21
406.42398100000003
  0
LINE
  8
_0-0_0
  6
CONTINUOUS
 62
    7
 10
286.67797799999994
 20
406.42398100000003
 11
286.68345599999998
 21
406.52725199999998
  0
LINE
  8
_0-0_0
  6
CONTINUOUS
 62
    7
 10
286.68345599999998
 20
406.52725199999998
 11
286.69605999999999
 21
406.63085899999999
  0
LINE
  8
_0-0_0
  6
CONTINUOUS
 62
    7
 10
286.69605999999999
 20
406.63085899999999
 11
286.71588099999997
 21
406.73501599999997
  0
LINE
  8
_0-0_0
  6
CONTINUOUS
 62
    7
 10
286.71588099999997
 20
406.73501599999997
 11
286.74302699999998
 21
406.839966
  0
LINE
  8
_0-0_0
  6
CONTINUOUS
 62
    7
 10
286.74302699999998
 20
406.839966
 11
286.77767899999998
 21
406.94598400000001
  0
LINE
  8
_0-0_0
  6
CONTINUOUS
 62
    7
 10
286.77767899999998
 20
406.94598400000001
 11
286.82002199999999
 21
407.05337500000002
  0
LINE
  8
_0-0_0
  6
CONTINUOUS
 62
    7
 10
286.82002199999999
 20
407.05337500000002
 11
286.87033099999996
 21
407.16238399999997
  0
LINE
  8
_0-0_0
  6
CONTINUOUS
 62
    7
 10
286.87033099999996
 20
407.16238399999997
 11
286.91603099999998
 21
407.25003099999998
  0
LINE
  8
_0-0_0
  6
CONTINUOUS
 62
    7
 10
281.92773399999999
 20
410.72543300000001
 11
281.67773399999999
 21
410.75
  0
LINE
  8
_0-0_0
  6
CONTINUOUS
 62
    7
 10
281.92773399999999
 20
410.52148399999999
 11
281.67773399999999
 21
410.75
  0
LINE
  8
_0-0_0
  6
CONTINUOUS
 62
    7
 10
281.92773399999999
 20
410.915955
 11
281.67773399999999
 21
410.96945199999999
  0
LINE
  8
_0-0_0
  6
CONTINUOUS
 62
    7
 10
281.92773399999999
 20
410.72543300000001
 11
281.67773399999999
 21
410.96945199999999
  0
LINE
  8
_0-0_0
  6
CONTINUOUS
 62
    7
 10
281.92773399999999
 20
411.091003
 11
281.67773399999999
 21
411.172821
  0
LINE
  8
_0-0_0
  6
CONTINUOUS
 62
    7
 10
281.92773399999999
 20
410.915955
 11
281.67773399999999
 21
411.172821
  0
LINE
  8
_0-0_0
  6
CONTINUOUS
 62
    7
 10
281.92773399999999
 20
411.24856599999998
 11
281.67773399999999
 21
411.35784899999999
  0
LINE
  8
_0-0_0
  6
CONTINUOUS
 62
    7
 10
281.92773399999999
 20
411.091003
 11
281.67773399999999
 21
411.35784899999999
  0
LINE
  8
_0-0_0
  6
CONTINUOUS
 62
    7
 10
281.92773399999999
 20
411.387024
 11
281.67773399999999
 21
411.52255200000002
  0
LINE
  8
_0-0_0
  6
CONTINUOUS
 62
    7
 10
281.92773399999999
 20
411.24856599999998
 11
281.67773399999999
 21
411.52255200000002
  0
LINE
  8
_0-0_0
  6
CONTINUOUS
 62
    7
 10
281.92773399999999
 20
411.50476099999997
 11
281.67773399999999
 21
411.66507000000001
  0
LINE
  8
_0-0_0
  6
CONTINUOUS
 62
    7
 10
281.92773399999999
 20
411.387024
 11
281.67773399999999
 21
411.66507000000001
  0
LINE
  8
_0-0_0
  6
CONTINUOUS
 62
    7
 10
281.92773399999999
 20
411.60055499999999
 11
281.67773399999999
 21
411.78387500000002
  0
LINE
  8
_0-0_0
  6
CONTINUOUS
 62
    7
 10
281.92773399999999
 20
411.50476099999997
 11
281.67773399999999
 21
411.78387500000002
  0
LINE
  8
_0-0_0
  6
CONTINUOUS
 62
    7
 10
281.92773399999999
 20
411.67334
 11
281.67773399999999
 21
411.87762500000002
  0
LINE
  8
_0-0_0
  6
CONTINUOUS
 62
    7
 10
281.92773399999999
 20
411.60055499999999
 11
281.67773399999999
 21
411.87762500000002
  0
LINE
  8
_0-0_0
  6
CONTINUOUS
 62
    7
 10
281.92773399999999
 20
411.72228999999999
 11
281.67773399999999
 21
411.94537400000002
  0
LINE
  8
_0-0_0
  6
CONTINUOUS
 62
    7
 10
281.92773399999999
 20
411.67334
 11
281.67773399999999
 21
411.94537400000002
  0
LINE
  8
_0-0_0
  6
CONTINUOUS
 62
    7
 10
281.92773399999999
 20
411.74691799999999
 11
281.67773399999999
 21
411.98629799999998
  0
LINE
  8
_0-0_0
  6
CONTINUOUS
 62
    7
 10
281.92773399999999
 20
411.72228999999999
 11
281.67773399999999
 21
411.98629799999998
  0
LINE
  8
_0-0_0
  6
CONTINUOUS
 62
    7
 10
281.92773399999999
 20
411.74691799999999
 11
281.67773399999999
 21
412
  0
LINE
  8
_0-0_0
  6
CONTINUOUS
 62
    7
 10
281.92773399999999
 20
407.25308200000001
 11
281.67773399999999
 21
407
  0
LINE
  8
_0-0_0
  6
CONTINUOUS
 62
    7
 10
281.92773399999999
 20
407.27771000000001
 11
281.67773399999999
 21
407.01370200000002
  0
LINE
  8
_0-0_0
  6
CONTINUOUS
 62
    7
 10
281.92773399999999
 20
407.25308200000001
 11
281.67773399999999
 21
407.01370200000002
  0
LINE
  8
_0-0_0
  6
CONTINUOUS
 62
    7
 10
281.92773399999999
 20
407.32666
 11
281.67773399999999
 21
407.05462599999998
  0
LINE
  8
_0-0_0
  6
CONTINUOUS
 62
    7
 10
281.92773399999999
 20
407.27771000000001
 11
281.67773399999999
 21
407.05462599999998
  0
LINE
  8
_0-0_0
  6
CONTINUOUS
 62
    7
 10
281.92773399999999
 20
407.39944500000001
 11
281.67773399999999
 21
407.12237499999998
  0
LINE
  8
_0-0_0
  6
CONTINUOUS
 62
    7
 10
281.92773399999999
 20
407.32666
 11
281.67773399999999
 21
407.12237499999998
  0
LINE
  8
_0-0_0
  6
CONTINUOUS
 62
    7
 10
281.92773399999999
 20
407.49523900000003
 11
281.67773399999999
 21
407.21612499999998
  0
LINE
  8
_0-0_0
  6
CONTINUOUS
 62
    7
 10
281.92773399999999
 20
407.39944500000001
 11
281.67773399999999
 21
407.21612499999998
  0
LINE
  8
_0-0_0
  6
CONTINUOUS
 62
    7
 10
281.92773399999999
 20
407.49523900000003
 11
281.79775999999998
 21
407.41137700000002
  0
LINE
  8
_0-0_0
  6
CONTINUOUS
 62
    7
 10
281.92773399999999
 20
407.612976
 11
281.67773399999999
 21
407.33492999999999
  0
LINE
  8
_0-0_0
  6
CONTINUOUS
 62
    7
 10
281.79775999999998
 20
407.41137700000002
 11
281.67773399999999
 21
407.33492999999999
  0
LINE
  8
_0-0_0
  6
CONTINUOUS
 62
    7
 10
281.92773399999999
 20
407.75143400000002
 11
281.67773399999999
 21
407.47744799999998
  0
LINE
  8
_0-0_0
  6
CONTINUOUS
 62
    7
 10
281.92773399999999
 20
407.612976
 11
281.67773399999999
 21
407.47744799999998
  0
LINE
  8
_0-0_0
  6
CONTINUOUS
 62
    7
 10
281.92773399999999
 20
407.908997
 11
281.67773399999999
 21
407.64215100000001
  0
LINE
  8
_0-0_0
  6
CONTINUOUS
 62
    7
 10
281.92773399999999
 20
407.75143400000002
 11
281.67773399999999
 21
407.64215100000001
  0
LINE
  8
_0-0_0
  6
CONTINUOUS
 62
    7
 10
281.92773399999999
 20
408.084045
 11
281.67773399999999
 21
407.827179
  0
LINE
  8
_0-0_0
  6
CONTINUOUS
 62
    7
 10
281.92773399999999
 20
407.908997
 11
281.67773399999999
 21
407.827179
  0
LINE
  8
_0-0_0
  6
CONTINUOUS
 62
    7
 10
281.92773399999999
 20
408.27456699999999
 11
281.67773399999999
 21
408.03054800000001
  0
LINE
  8
_0-0_0
  6
CONTINUOUS
 62
    7
 10
281.92773399999999
 20
408.084045
 11
281.67773399999999
 21
408.03054800000001
  0
LINE
  8
_0-0_0
  6
CONTINUOUS
 62
    7
 10
281.92773399999999
 20
408.47851600000001
 11
281.67773399999999
 21
408.25
  0
LINE
  8
_0-0_0
  6
CONTINUOUS
 62
    7
 10
281.92773399999999
 20
408.27456699999999
 11
281.67773399999999
 21
408.25
  0
LINE
  8
_0-0_0
  6
CONTINUOUS
 62
    7
 10
281.92773399999999
 20
408.69366500000001
 11
281.67773399999999
 21
408.48315400000001
  0
LINE
  8
_0-0_0
  6
CONTINUOUS
 62
    7
 10
281.92773399999999
 20
408.47851600000001
 11
281.67773399999999
 21
408.48315400000001
  0
LINE
  8
_0-0_0
  6
CONTINUOUS
 62
    7
 10
281.92773399999999
 20
408.917664
 11
281.67773399999999
 21
408.72744799999998
  0
LINE
  8
_0-0_0
  6
CONTINUOUS
 62
    7
 10
281.92773399999999
 20
408.69366500000001
 11
281.67773399999999
 21
408.72744799999998
  0
LINE
  8
_0-0_0
  6
CONTINUOUS
 62
    7
 10
281.92773399999999
 20
409.14801
 11
281.67773399999999
 21
408.98022500000002
  0
LINE
  8
_0-0_0
  6
CONTINUOUS
 62
    7
 10
281.92773399999999
 20
408.917664
 11
281.67773399999999
 21
408.98022500000002
  0
LINE
  8
_0-0_0
  6
CONTINUOUS
 62
    7
 10
281.92773399999999
 20
409.38223299999999
 11
281.67773399999999
 21
409.23867799999999
  0
LINE
  8
_0-0_0
  6
CONTINUOUS
 62
    7
 10
281.92773399999999
 20
409.14801
 11
281.67773399999999
 21
409.23867799999999
  0
LINE
  8
_0-0_0
  6
CONTINUOUS
 62
    7
 10
281.92773399999999
 20
409.61776700000001
 11
281.67773399999999
 21
409.5
  0
LINE
  8
_0-0_0
  6
CONTINUOUS
 62
    7
 10
281.92773399999999
 20
409.38223299999999
 11
281.67773399999999
 21
409.5
  0
LINE
  8
_0-0_0
  6
CONTINUOUS
 62
    7
 10
281.92773399999999
 20
409.85199
 11
281.67773399999999
 21
409.76132200000001
  0
LINE
  8
_0-0_0
  6
CONTINUOUS
 62
    7
 10
281.92773399999999
 20
409.61776700000001
 11
281.67773399999999
 21
409.76132200000001
  0
LINE
  8
_0-0_0
  6
CONTINUOUS
 62
    7
 10
281.92773399999999
 20
410.082336
 11
281.67773399999999
 21
410.01977499999998
  0
LINE
  8
_0-0_0
  6
CONTINUOUS
 62
    7
 10
281.92773399999999
 20
409.85199
 11
281.67773399999999
 21
410.01977499999998
  0
LINE
  8
_0-0_0
  6
CONTINUOUS
 62
    7
 10
281.92773399999999
 20
410.30633499999999
 11
281.67773399999999
 21
410.27255200000002
  0
LINE
  8
_0-0_0
  6
CONTINUOUS
 62
    7
 10
281.92773399999999
 20
410.082336
 11
281.67773399999999
 21
410.27255200000002
  0
LINE
  8
_0-0_0
  6
CONTINUOUS
 62
    7
 10
281.92773399999999
 20
410.52148399999999
 11
281.67773399999999
 21
410.51684599999999
  0
LINE
  8
_0-0_0
  6
CONTINUOUS
 62
    7
 10
281.92773399999999
 20
410.30633499999999
 11
281.67773399999999
 21
410.51684599999999
  0
LINE
  8
_0-0_0
  6
CONTINUOUS
 62
    7
 10
296.92773399999999
 20
402.76205399999998
 11
296.92773399999999
 21
403.80767800000001
  0
LINE
  8
_0-0_0
  6
CONTINUOUS
 62
    7
 10
296.92773399999999
 20
405.09231599999998
 11
296.92773399999999
 21
403.80767800000001
  0
LINE
  8
_0-0_0
  6
CONTINUOUS
 62
    7
 10
296.92773399999999
 20
402.76205399999998
 11
296.92773399999999
 21
399.63793900000002
  0
LINE
  8
_0-0_0
  6
CONTINUOUS
 62
    7
 10
296.92773399999999
 20
398.59231599999998
 11
296.92773399999999
 21
397.30767800000001
  0
LINE
  8
_0-0_0
  6
CONTINUOUS
 62
    7
 10
296.92773399999999
 20
398.59231599999998
 11
296.92773399999999
 21
399.63793900000002
  0
LINE
  8
_0-0_0
  6
CONTINUOUS
 62
    7
 10
411.52773999999999
 20
391.94116200000002
 11
411.52773999999999
 21
394.89999399999999
  0
LINE
  8
_0-0_0
  6
CONTINUOUS
 62
    7
 10
411.52773999999999
 20
390.89999399999999
 11
411.52773999999999
 21
391.94116200000002
  0
LINE
  8
_0-0_0
  6
CONTINUOUS
 62
    7
 10
296.92773399999999
 20
398.59231599999998
 11
287.21990999999997
 21
398.59231599999998
  0
ARC
  8
_0-0_0
  6
CONTINUOUS
 62
    7
 10
292.10162300000002
 20
397.94912699999998
 40
4.9238749999999998
 50
172.49424200000001
 51
181.535968
  0
ARC
  8
_0-0_0
  6
CONTINUOUS
 62
    7
 10
292.13964799999997
 20
397.954071
 40
4.9620009999999999
 50
181.58130700000004
 51
187.48478900000003
  0
LINE
  8
_0-0_0
  6
CONTINUOUS
 62
    7
 10
285.92773399999999
 20
398.46844499999997
 11
285.92773399999999
 21
395.95001200000002
  0
LINE
  8
_0-0_0
  6
CONTINUOUS
 62
    7
 10
285.92773399999999
 20
406.45001200000002
 11
285.92773399999999
 21
398.46844499999997
  0
LINE
  8
_0-0_0
  6
CONTINUOUS
 62
    7
 10
287.21990999999997
 20
403.80767800000001
 11
287.12556399999994
 21
403.56106599999998
  0
LINE
  8
_0-0_0
  6
CONTINUOUS
 62
    7
 10
287.12556399999994
 20
403.56106599999998
 11
287.04162599999995
 21
403.32110599999999
  0
LINE
  8
_0-0_0
  6
CONTINUOUS
 62
    7
 10
287.04162599999995
 20
403.32110599999999
 11
286.96746799999994
 21
403.086975
  0
LINE
  8
_0-0_0
  6
CONTINUOUS
 62
    7
 10
286.96746799999994
 20
403.086975
 11
286.90258799999998
 21
402.85794099999998
  0
LINE
  8
_0-0_0
  6
CONTINUOUS
 62
    7
 10
286.90258799999998
 20
402.85794099999998
 11
286.846542
 21
402.63326999999998
  0
LINE
  8
_0-0_0
  6
CONTINUOUS
 62
    7
 10
286.846542
 20
402.63326999999998
 11
286.79898099999997
 21
402.41229199999998
  0
LINE
  8
_0-0_0
  6
CONTINUOUS
 62
    7
 10
286.79898099999997
 20
402.41229199999998
 11
286.75956699999995
 21
402.19439699999998
  0
LINE
  8
_0-0_0
  6
CONTINUOUS
 62
    7
 10
286.75956699999995
 20
402.19439699999998
 11
286.72808799999996
 21
401.97894300000002
  0
LINE
  8
_0-0_0
  6
CONTINUOUS
 62
    7
 10
286.72808799999996
 20
401.97894300000002
 11
286.70431499999995
 21
401.76541099999997
  0
LINE
  8
_0-0_0
  6
CONTINUOUS
 62
    7
 10
286.70431499999995
 20
401.76541099999997
 11
286.68838499999998
 21
401.55767800000001
  0
LINE
  8
_0-0_0
  6
CONTINUOUS
 62
    7
 10
286.68838499999998
 20
401.55767800000001
 11
286.67962599999998
 21
401.35082999999997
  0
LINE
  8
_0-0_0
  6
CONTINUOUS
 62
    7
 10
286.67962599999998
 20
401.35082999999997
 11
286.67797799999994
 21
401.14434799999998
  0
LINE
  8
_0-0_0
  6
CONTINUOUS
 62
    7
 10
286.67797799999994
 20
401.14434799999998
 11
286.68345599999998
 21
400.93777499999999
  0
LINE
  8
_0-0_0
  6
CONTINUOUS
 62
    7
 10
286.68345599999998
 20
400.93777499999999
 11
286.69605999999999
 21
400.730591
  0
LINE
  8
_0-0_0
  6
CONTINUOUS
 62
    7
 10
286.69605999999999
 20
400.730591
 11
286.71588099999997
 21
400.52230800000001
  0
LINE
  8
_0-0_0
  6
CONTINUOUS
 62
    7
 10
286.71588099999997
 20
400.52230800000001
 11
286.74302699999998
 21
400.31237800000002
  0
LINE
  8
_0-0_0
  6
CONTINUOUS
 62
    7
 10
286.74302699999998
 20
400.31237800000002
 11
286.77767899999998
 21
400.10031099999998
  0
LINE
  8
_0-0_0
  6
CONTINUOUS
 62
    7
 10
286.77767899999998
 20
400.10031099999998
 11
286.82002199999999
 21
399.885559
  0
LINE
  8
_0-0_0
  6
CONTINUOUS
 62
    7
 10
286.82002199999999
 20
399.885559
 11
286.87033099999996
 21
399.66757200000001
  0
LINE
  8
_0-0_0
  6
CONTINUOUS
 62
    7
 10
286.87033099999996
 20
399.66757200000001
 11
286.92459099999996
 21
399.46127300000001
  0
LINE
  8
_0-0_0
  6
CONTINUOUS
 62
    7
 10
286.92459099999996
 20
399.46127300000001
 11
286.98629799999998
 21
399.25116000000003
  0
LINE
  8
_0-0_0
  6
CONTINUOUS
 62
    7
 10
286.98629799999998
 20
399.25116000000003
 11
287.05581699999999
 21
399.03668199999998
  0
LINE
  8
_0-0_0
  6
CONTINUOUS
 62
    7
 10
287.05581699999999
 20
399.03668199999998
 11
287.13352999999995
 21
398.81729100000001
  0
LINE
  8
_0-0_0
  6
CONTINUOUS
 62
    7
 10
287.13352999999995
 20
398.81729100000001
 11
287.21990999999997
 21
398.59231599999998
  0
ARC
  8
_0-0_0
  6
CONTINUOUS
 62
    7
 10
292.09146099999998
 20
404.45001200000002
 40
4.9136889999999998
 50
172.48898299999999
 51
187.51101699999998
  0
LINE
  8
_0-0_0
  6
CONTINUOUS
 62
    7
 10
296.92773399999999
 20
403.80767800000001
 11
287.21990999999997
 21
403.80767800000001
  0
LINE
  8
_0-0_0
  6
CONTINUOUS
 62
    7
 10
272.17773399999999
 20
410.72543300000001
 11
272.42773399999999
 21
410.75
  0
LINE
  8
_0-0_0
  6
CONTINUOUS
 62
    7
 10
272.42773399999999
 20
410.75
 11
281.67773399999999
 21
410.75
  0
LINE
  8
_0-0_0
  6
CONTINUOUS
 62
    7
 10
272.17773399999999
 20
410.52148399999999
 11
272.42773399999999
 21
410.75
  0
LINE
  8
_0-0_0
  6
CONTINUOUS
 62
    7
 10
272.17773399999999
 20
410.52148399999999
 11
281.92773399999999
 21
410.52148399999999
  0
LINE
  8
_0-0_0
  6
CONTINUOUS
 62
    7
 10
272.17773399999999
 20
410.915955
 11
272.42773399999999
 21
410.96945199999999
  0
LINE
  8
_0-0_0
  6
CONTINUOUS
 62
    7
 10
272.42773399999999
 20
410.96945199999999
 11
281.67773399999999
 21
410.96945199999999
  0
LINE
  8
_0-0_0
  6
CONTINUOUS
 62
    7
 10
272.17773399999999
 20
410.72543300000001
 11
272.42773399999999
 21
410.96945199999999
  0
LINE
  8
_0-0_0
  6
CONTINUOUS
 62
    7
 10
272.17773399999999
 20
411.091003
 11
272.42773399999999
 21
411.172821
  0
LINE
  8
_0-0_0
  6
CONTINUOUS
 62
    7
 10
272.42773399999999
 20
411.172821
 11
281.67773399999999
 21
411.172821
  0
LINE
  8
_0-0_0
  6
CONTINUOUS
 62
    7
 10
272.17773399999999
 20
410.915955
 11
272.42773399999999
 21
411.172821
  0
LINE
  8
_0-0_0
  6
CONTINUOUS
 62
    7
 10
272.17773399999999
 20
411.24856599999998
 11
272.42773399999999
 21
411.35784899999999
  0
LINE
  8
_0-0_0
  6
CONTINUOUS
 62
    7
 10
272.42773399999999
 20
411.35784899999999
 11
281.67773399999999
 21
411.35784899999999
  0
LINE
  8
_0-0_0
  6
CONTINUOUS
 62
    7
 10
272.17773399999999
 20
411.091003
 11
272.42773399999999
 21
411.35784899999999
  0
LINE
  8
_0-0_0
  6
CONTINUOUS
 62
    7
 10
272.17773399999999
 20
411.387024
 11
272.42773399999999
 21
411.52255200000002
  0
LINE
  8
_0-0_0
  6
CONTINUOUS
 62
    7
 10
272.42773399999999
 20
411.52255200000002
 11
281.67773399999999
 21
411.52255200000002
  0
LINE
  8
_0-0_0
  6
CONTINUOUS
 62
    7
 10
272.17773399999999
 20
411.24856599999998
 11
272.42773399999999
 21
411.52255200000002
  0
LINE
  8
_0-0_0
  6
CONTINUOUS
 62
    7
 10
272.17773399999999
 20
411.50476099999997
 11
272.42773399999999
 21
411.66507000000001
  0
LINE
  8
_0-0_0
  6
CONTINUOUS
 62
    7
 10
272.42773399999999
 20
411.66507000000001
 11
281.67773399999999
 21
411.66507000000001
  0
LINE
  8
_0-0_0
  6
CONTINUOUS
 62
    7
 10
272.17773399999999
 20
411.387024
 11
272.42773399999999
 21
411.66507000000001
  0
LINE
  8
_0-0_0
  6
CONTINUOUS
 62
    7
 10
272.17773399999999
 20
411.60055499999999
 11
272.42773399999999
 21
411.78387500000002
  0
LINE
  8
_0-0_0
  6
CONTINUOUS
 62
    7
 10
272.42773399999999
 20
411.78387500000002
 11
281.67773399999999
 21
411.78387500000002
  0
LINE
  8
_0-0_0
  6
CONTINUOUS
 62
    7
 10
272.17773399999999
 20
411.50476099999997
 11
272.42773399999999
 21
411.78387500000002
  0
LINE
  8
_0-0_0
  6
CONTINUOUS
 62
    7
 10
272.17773399999999
 20
411.67334
 11
272.42773399999999
 21
411.87762500000002
  0
LINE
  8
_0-0_0
  6
CONTINUOUS
 62
    7
 10
272.42773399999999
 20
411.87762500000002
 11
281.67773399999999
 21
411.87762500000002
  0
LINE
  8
_0-0_0
  6
CONTINUOUS
 62
    7
 10
272.17773399999999
 20
411.60055499999999
 11
272.42773399999999
 21
411.87762500000002
  0
LINE
  8
_0-0_0
  6
CONTINUOUS
 62
    7
 10
272.17773399999999
 20
411.72228999999999
 11
272.42773399999999
 21
411.94537400000002
  0
LINE
  8
_0-0_0
  6
CONTINUOUS
 62
    7
 10
272.42773399999999
 20
411.94537400000002
 11
281.67773399999999
 21
411.94537400000002
  0
LINE
  8
_0-0_0
  6
CONTINUOUS
 62
    7
 10
272.17773399999999
 20
411.67334
 11
272.42773399999999
 21
411.94537400000002
  0
LINE
  8
_0-0_0
  6
CONTINUOUS
 62
    7
 10
272.17773399999999
 20
411.74691799999999
 11
272.42773399999999
 21
411.98629799999998
  0
LINE
  8
_0-0_0
  6
CONTINUOUS
 62
    7
 10
272.42773399999999
 20
411.98629799999998
 11
281.67773399999999
 21
411.98629799999998
  0
LINE
  8
_0-0_0
  6
CONTINUOUS
 62
    7
 10
272.17773399999999
 20
411.72228999999999
 11
272.42773399999999
 21
411.98629799999998
  0
LINE
  8
_0-0_0
  6
CONTINUOUS
 62
    7
 10
272.42773399999999
 20
412
 11
281.67773399999999
 21
412
  0
LINE
  8
_0-0_0
  6
CONTINUOUS
 62
    7
 10
272.17773399999999
 20
411.74691799999999
 11
272.42773399999999
 21
412
  0
LINE
  8
_0-0_0
  6
CONTINUOUS
 62
    7
 10
272.17773399999999
 20
407.25308200000001
 11
272.42773399999999
 21
407
  0
LINE
  8
_0-0_0
  6
CONTINUOUS
 62
    7
 10
272.42773399999999
 20
407
 11
281.67773399999999
 21
407
  0
LINE
  8
_0-0_0
  6
CONTINUOUS
 62
    7
 10
272.17773399999999
 20
407.27771000000001
 11
272.42773399999999
 21
407.01370200000002
  0
LINE
  8
_0-0_0
  6
CONTINUOUS
 62
    7
 10
272.42773399999999
 20
407.01370200000002
 11
281.67773399999999
 21
407.01370200000002
  0
LINE
  8
_0-0_0
  6
CONTINUOUS
 62
    7
 10
272.17773399999999
 20
407.25308200000001
 11
272.42773399999999
 21
407.01370200000002
  0
LINE
  8
_0-0_0
  6
CONTINUOUS
 62
    7
 10
272.17773399999999
 20
407.32666
 11
272.42773399999999
 21
407.05462599999998
  0
LINE
  8
_0-0_0
  6
CONTINUOUS
 62
    7
 10
272.42773399999999
 20
407.05462599999998
 11
281.67773399999999
 21
407.05462599999998
  0
LINE
  8
_0-0_0
  6
CONTINUOUS
 62
    7
 10
272.17773399999999
 20
407.27771000000001
 11
272.42773399999999
 21
407.05462599999998
  0
LINE
  8
_0-0_0
  6
CONTINUOUS
 62
    7
 10
272.17773399999999
 20
407.39944500000001
 11
272.42773399999999
 21
407.12237499999998
  0
LINE
  8
_0-0_0
  6
CONTINUOUS
 62
    7
 10
272.42773399999999
 20
407.12237499999998
 11
281.67773399999999
 21
407.12237499999998
  0
LINE
  8
_0-0_0
  6
CONTINUOUS
 62
    7
 10
272.17773399999999
 20
407.32666
 11
272.42773399999999
 21
407.12237499999998
  0
LINE
  8
_0-0_0
  6
CONTINUOUS
 62
    7
 10
272.17773399999999
 20
407.49523900000003
 11
272.42773399999999
 21
407.21612499999998
  0
LINE
  8
_0-0_0
  6
CONTINUOUS
 62
    7
 10
272.42773399999999
 20
407.21612499999998
 11
281.67773399999999
 21
407.21612499999998
  0
LINE
  8
_0-0_0
  6
CONTINUOUS
 62
    7
 10
272.17773399999999
 20
407.39944500000001
 11
272.42773399999999
 21
407.21612499999998
  0
LINE
  8
_0-0_0
  6
CONTINUOUS
 62
    7
 10
272.42773399999999
 20
407.33492999999999
 11
281.67773399999999
 21
407.33492999999999
  0
LINE
  8
_0-0_0
  6
CONTINUOUS
 62
    7
 10
272.30769299999997
 20
407.41137700000002
 11
272.42773399999999
 21
407.33492999999999
  0
LINE
  8
_0-0_0
  6
CONTINUOUS
 62
    7
 10
272.17773399999999
 20
407.49523900000003
 11
272.30769299999997
 21
407.41137700000002
  0
LINE
  8
_0-0_0
  6
CONTINUOUS
 62
    7
 10
272.17773399999999
 20
407.612976
 11
272.42773399999999
 21
407.33492999999999
  0
LINE
  8
_0-0_0
  6
CONTINUOUS
 62
    7
 10
272.17773399999999
 20
407.75143400000002
 11
272.42773399999999
 21
407.47744799999998
  0
LINE
  8
_0-0_0
  6
CONTINUOUS
 62
    7
 10
272.42773399999999
 20
407.47744799999998
 11
281.67773399999999
 21
407.47744799999998
  0
LINE
  8
_0-0_0
  6
CONTINUOUS
 62
    7
 10
272.17773399999999
 20
407.612976
 11
272.42773399999999
 21
407.47744799999998
  0
LINE
  8
_0-0_0
  6
CONTINUOUS
 62
    7
 10
272.17773399999999
 20
407.908997
 11
272.42773399999999
 21
407.64215100000001
  0
LINE
  8
_0-0_0
  6
CONTINUOUS
 62
    7
 10
272.42773399999999
 20
407.64215100000001
 11
281.67773399999999
 21
407.64215100000001
  0
LINE
  8
_0-0_0
  6
CONTINUOUS
 62
    7
 10
272.17773399999999
 20
407.75143400000002
 11
272.42773399999999
 21
407.64215100000001
  0
LINE
  8
_0-0_0
  6
CONTINUOUS
 62
    7
 10
272.17773399999999
 20
408.084045
 11
272.42773399999999
 21
407.827179
  0
LINE
  8
_0-0_0
  6
CONTINUOUS
 62
    7
 10
272.42773399999999
 20
407.827179
 11
281.67773399999999
 21
407.827179
  0
LINE
  8
_0-0_0
  6
CONTINUOUS
 62
    7
 10
272.17773399999999
 20
407.908997
 11
272.42773399999999
 21
407.827179
  0
LINE
  8
_0-0_0
  6
CONTINUOUS
 62
    7
 10
272.17773399999999
 20
408.27456699999999
 11
272.42773399999999
 21
408.03054800000001
  0
LINE
  8
_0-0_0
  6
CONTINUOUS
 62
    7
 10
272.42773399999999
 20
408.03054800000001
 11
281.67773399999999
 21
408.03054800000001
  0
LINE
  8
_0-0_0
  6
CONTINUOUS
 62
    7
 10
272.17773399999999
 20
408.084045
 11
272.42773399999999
 21
408.03054800000001
  0
LINE
  8
_0-0_0
  6
CONTINUOUS
 62
    7
 10
272.17773399999999
 20
408.47851600000001
 11
272.42773399999999
 21
408.25
  0
LINE
  8
_0-0_0
  6
CONTINUOUS
 62
    7
 10
272.42773399999999
 20
408.25
 11
281.67773399999999
 21
408.25
  0
LINE
  8
_0-0_0
  6
CONTINUOUS
 62
    7
 10
272.17773399999999
 20
408.47851600000001
 11
281.92773399999999
 21
408.47851600000001
  0
LINE
  8
_0-0_0
  6
CONTINUOUS
 62
    7
 10
272.17773399999999
 20
408.27456699999999
 11
272.42773399999999
 21
408.25
  0
LINE
  8
_0-0_0
  6
CONTINUOUS
 62
    7
 10
272.17773399999999
 20
408.69366500000001
 11
272.42773399999999
 21
408.48315400000001
  0
LINE
  8
_0-0_0
  6
CONTINUOUS
 62
    7
 10
272.42773399999999
 20
408.48315400000001
 11
281.67773399999999
 21
408.48315400000001
  0
LINE
  8
_0-0_0
  6
CONTINUOUS
 62
    7
 10
272.17773399999999
 20
408.69366500000001
 11
281.92773399999999
 21
408.69366500000001
  0
LINE
  8
_0-0_0
  6
CONTINUOUS
 62
    7
 10
272.17773399999999
 20
408.47851600000001
 11
272.42773399999999
 21
408.48315400000001
  0
LINE
  8
_0-0_0
  6
CONTINUOUS
 62
    7
 10
272.17773399999999
 20
408.917664
 11
272.42773399999999
 21
408.72744799999998
  0
LINE
  8
_0-0_0
  6
CONTINUOUS
 62
    7
 10
272.42773399999999
 20
408.72744799999998
 11
281.67773399999999
 21
408.72744799999998
  0
LINE
  8
_0-0_0
  6
CONTINUOUS
 62
    7
 10
272.17773399999999
 20
408.917664
 11
281.92773399999999
 21
408.917664
  0
LINE
  8
_0-0_0
  6
CONTINUOUS
 62
    7
 10
272.17773399999999
 20
408.69366500000001
 11
272.42773399999999
 21
408.72744799999998
  0
LINE
  8
_0-0_0
  6
CONTINUOUS
 62
    7
 10
272.17773399999999
 20
409.14801
 11
272.42773399999999
 21
408.98022500000002
  0
LINE
  8
_0-0_0
  6
CONTINUOUS
 62
    7
 10
272.42773399999999
 20
408.98022500000002
 11
281.67773399999999
 21
408.98022500000002
  0
LINE
  8
_0-0_0
  6
CONTINUOUS
 62
    7
 10
272.17773399999999
 20
409.14801
 11
281.92773399999999
 21
409.14801
  0
LINE
  8
_0-0_0
  6
CONTINUOUS
 62
    7
 10
272.17773399999999
 20
408.917664
 11
272.42773399999999
 21
408.98022500000002
  0
LINE
  8
_0-0_0
  6
CONTINUOUS
 62
    7
 10
272.17773399999999
 20
409.38223299999999
 11
272.42773399999999
 21
409.23867799999999
  0
LINE
  8
_0-0_0
  6
CONTINUOUS
 62
    7
 10
272.42773399999999
 20
409.23867799999999
 11
281.67773399999999
 21
409.23867799999999
  0
LINE
  8
_0-0_0
  6
CONTINUOUS
 62
    7
 10
272.17773399999999
 20
409.38223299999999
 11
281.92773399999999
 21
409.38223299999999
  0
LINE
  8
_0-0_0
  6
CONTINUOUS
 62
    7
 10
272.17773399999999
 20
409.14801
 11
272.42773399999999
 21
409.23867799999999
  0
LINE
  8
_0-0_0
  6
CONTINUOUS
 62
    7
 10
272.17773399999999
 20
409.61776700000001
 11
272.42773399999999
 21
409.5
  0
LINE
  8
_0-0_0
  6
CONTINUOUS
 62
    7
 10
272.42773399999999
 20
409.5
 11
281.67773399999999
 21
409.5
  0
LINE
  8
_0-0_0
  6
CONTINUOUS
 62
    7
 10
272.17773399999999
 20
409.61776700000001
 11
281.92773399999999
 21
409.61776700000001
  0
LINE
  8
_0-0_0
  6
CONTINUOUS
 62
    7
 10
272.17773399999999
 20
409.38223299999999
 11
272.42773399999999
 21
409.5
  0
LINE
  8
_0-0_0
  6
CONTINUOUS
 62
    7
 10
272.17773399999999
 20
409.85199
 11
272.42773399999999
 21
409.76132200000001
  0
LINE
  8
_0-0_0
  6
CONTINUOUS
 62
    7
 10
272.42773399999999
 20
409.76132200000001
 11
281.67773399999999
 21
409.76132200000001
  0
LINE
  8
_0-0_0
  6
CONTINUOUS
 62
    7
 10
272.17773399999999
 20
409.85199
 11
281.92773399999999
 21
409.85199
  0
LINE
  8
_0-0_0
  6
CONTINUOUS
 62
    7
 10
272.17773399999999
 20
409.61776700000001
 11
272.42773399999999
 21
409.76132200000001
  0
LINE
  8
_0-0_0
  6
CONTINUOUS
 62
    7
 10
272.17773399999999
 20
410.082336
 11
272.42773399999999
 21
410.01977499999998
  0
LINE
  8
_0-0_0
  6
CONTINUOUS
 62
    7
 10
272.42773399999999
 20
410.01977499999998
 11
281.67773399999999
 21
410.01977499999998
  0
LINE
  8
_0-0_0
  6
CONTINUOUS
 62
    7
 10
272.17773399999999
 20
410.082336
 11
281.92773399999999
 21
410.082336
  0
LINE
  8
_0-0_0
  6
CONTINUOUS
 62
    7
 10
272.17773399999999
 20
409.85199
 11
272.42773399999999
 21
410.01977499999998
  0
LINE
  8
_0-0_0
  6
CONTINUOUS
 62
    7
 10
272.17773399999999
 20
410.30633499999999
 11
272.42773399999999
 21
410.27255200000002
  0
LINE
  8
_0-0_0
  6
CONTINUOUS
 62
    7
 10
272.42773399999999
 20
410.27255200000002
 11
281.67773399999999
 21
410.27255200000002
  0
LINE
  8
_0-0_0
  6
CONTINUOUS
 62
    7
 10
272.17773399999999
 20
410.30633499999999
 11
281.92773399999999
 21
410.30633499999999
  0
LINE
  8
_0-0_0
  6
CONTINUOUS
 62
    7
 10
272.17773399999999
 20
410.082336
 11
272.42773399999999
 21
410.27255200000002
  0
LINE
  8
_0-0_0
  6
CONTINUOUS
 62
    7
 10
272.17773399999999
 20
410.52148399999999
 11
272.42773399999999
 21
410.51684599999999
  0
LINE
  8
_0-0_0
  6
CONTINUOUS
 62
    7
 10
272.42773399999999
 20
410.51684599999999
 11
281.67773399999999
 21
410.51684599999999
  0
LINE
  8
_0-0_0
  6
CONTINUOUS
 62
    7
 10
272.17773399999999
 20
410.30633499999999
 11
272.42773399999999
 21
410.51684599999999
  0
LINE
  8
_0-0_0
  6
CONTINUOUS
 62
    7
 10
271.92773399999999
 20
411.5
 11
271.92773399999999
 21
407.744843
  0
LINE
  8
_0-0_0
  6
CONTINUOUS
 62
    7
 10
271.92773399999999
 20
407.744843
 11
271.92773399999999
 21
407.5
  0
LINE
  8
_0-0_0
  6
CONTINUOUS
 62
    7
 10
285.52772499999998
 20
406.20001200000002
 11
285.52772499999998
 21
403.70001200000002
  0
LINE
  8
_0-0_0
  6
CONTINUOUS
 62
    7
 10
285.52772499999998
 20
403.70001200000002
 11
285.52772499999998
 21
396.20001200000002
  0
LINE
  8
_0-0_0
  6
CONTINUOUS
 62
    7
 10
284.72772199999997
 20
405.73812900000001
 11
284.72772199999997
 21
403.46905500000003
  0
LINE
  8
_0-0_0
  6
CONTINUOUS
 62
    7
 10
284.72772199999997
 20
403.46905500000003
 11
284.72772199999997
 21
396.66186499999998
  0
LINE
  8
_0-0_0
  6
CONTINUOUS
 62
    7
 10
226.72772199999997
 20
405.20001200000002
 11
226.72772199999997
 21
405.19863900000001
  0
LINE
  8
_0-0_0
  6
CONTINUOUS
 62
    7
 10
226.72772199999997
 20
405.19863900000001
 11
226.72772199999997
 21
397.20001200000002
  0
LINE
  8
_0-0_0
  6
CONTINUOUS
 62
    7
 10
281.92773399999999
 20
390.653076
 11
281.92773399999999
 21
390.64999399999999
  0
LINE
  8
_0-0_0
  6
CONTINUOUS
 62
    7
 10
281.92773399999999
 20
390.67770400000001
 11
281.92773399999999
 21
390.653076
  0
LINE
  8
_0-0_0
  6
CONTINUOUS
 62
    7
 10
281.92773399999999
 20
390.72668499999997
 11
281.92773399999999
 21
390.64999399999999
  0
LINE
  8
_0-0_0
  6
CONTINUOUS
 62
    7
 10
281.92773399999999
 20
390.79943800000001
 11
281.92773399999999
 21
390.72668499999997
  0
LINE
  8
_0-0_0
  6
CONTINUOUS
 62
    7
 10
281.92773399999999
 20
390.89523300000002
 11
281.92773399999999
 21
390.79943800000001
  0
LINE
  8
_0-0_0
  6
CONTINUOUS
 62
    7
 10
281.92773399999999
 20
390.92544600000002
 11
281.92773399999999
 21
390.89523300000002
  0
LINE
  8
_0-0_0
  6
CONTINUOUS
 62
    7
 10
281.92773399999999
 20
391.01299999999998
 11
281.92773399999999
 21
390.92544600000002
  0
LINE
  8
_0-0_0
  6
CONTINUOUS
 62
    7
 10
281.92773399999999
 20
391.15142800000001
 11
281.92773399999999
 21
391.01299999999998
  0
LINE
  8
_0-0_0
  6
CONTINUOUS
 62
    7
 10
281.92773399999999
 20
391.30902099999997
 11
281.92773399999999
 21
391.15142800000001
  0
LINE
  8
_0-0_0
  6
CONTINUOUS
 62
    7
 10
281.92773399999999
 20
391.484039
 11
281.92773399999999
 21
391.30902099999997
  0
LINE
  8
_0-0_0
  6
CONTINUOUS
 62
    7
 10
281.92773399999999
 20
391.67456099999998
 11
281.92773399999999
 21
391.484039
  0
LINE
  8
_0-0_0
  6
CONTINUOUS
 62
    7
 10
281.92773399999999
 20
391.87853999999999
 11
281.92773399999999
 21
391.67456099999998
  0
LINE
  8
_0-0_0
  6
CONTINUOUS
 62
    7
 10
281.92773399999999
 20
392.093658
 11
281.92773399999999
 21
391.87853999999999
  0
LINE
  8
_0-0_0
  6
CONTINUOUS
 62
    7
 10
281.92773399999999
 20
392.317657
 11
281.92773399999999
 21
392.093658
  0
LINE
  8
_0-0_0
  6
CONTINUOUS
 62
    7
 10
281.92773399999999
 20
392.54803500000003
 11
281.92773399999999
 21
392.317657
  0
LINE
  8
_0-0_0
  6
CONTINUOUS
 62
    7
 10
281.92773399999999
 20
392.78225700000002
 11
281.92773399999999
 21
392.54803500000003
  0
LINE
  8
_0-0_0
  6
CONTINUOUS
 62
    7
 10
281.92773399999999
 20
393.01776100000001
 11
281.92773399999999
 21
392.78225700000002
  0
LINE
  8
_0-0_0
  6
CONTINUOUS
 62
    7
 10
281.92773399999999
 20
393.25198399999999
 11
281.92773399999999
 21
393.01776100000001
  0
LINE
  8
_0-0_0
  6
CONTINUOUS
 62
    7
 10
281.92773399999999
 20
393.48236100000003
 11
281.92773399999999
 21
393.25198399999999
  0
LINE
  8
_0-0_0
  6
CONTINUOUS
 62
    7
 10
281.92773399999999
 20
393.70632899999998
 11
281.92773399999999
 21
393.48236100000003
  0
LINE
  8
_0-0_0
  6
CONTINUOUS
 62
    7
 10
281.92773399999999
 20
393.92147799999998
 11
281.92773399999999
 21
393.70632899999998
  0
LINE
  8
_0-0_0
  6
CONTINUOUS
 62
    7
 10
281.92773399999999
 20
393.97869900000001
 11
281.92773399999999
 21
393.92147799999998
  0
LINE
  8
_0-0_0
  6
CONTINUOUS
 62
    7
 10
281.92773399999999
 20
390.653076
 11
281.67773399999999
 21
390.39999399999999
  0
LINE
  8
_0-0_0
  6
CONTINUOUS
 62
    7
 10
281.92773399999999
 20
390.67770400000001
 11
281.67773399999999
 21
390.41369600000002
  0
LINE
  8
_0-0_0
  6
CONTINUOUS
 62
    7
 10
281.92773399999999
 20
390.653076
 11
281.67773399999999
 21
390.41369600000002
  0
LINE
  8
_0-0_0
  6
CONTINUOUS
 62
    7
 10
281.92773399999999
 20
390.72668499999997
 11
281.67773399999999
 21
390.45461999999998
  0
LINE
  8
_0-0_0
  6
CONTINUOUS
 62
    7
 10
281.92773399999999
 20
390.67770400000001
 11
281.67773399999999
 21
390.45461999999998
  0
LINE
  8
_0-0_0
  6
CONTINUOUS
 62
    7
 10
281.92773399999999
 20
390.79943800000001
 11
281.67773399999999
 21
390.52236900000003
  0
LINE
  8
_0-0_0
  6
CONTINUOUS
 62
    7
 10
281.92773399999999
 20
390.72668499999997
 11
281.67773399999999
 21
390.52236900000003
  0
LINE
  8
_0-0_0
  6
CONTINUOUS
 62
    7
 10
281.92773399999999
 20
390.89523300000002
 11
281.67773399999999
 21
390.61611900000003
  0
LINE
  8
_0-0_0
  6
CONTINUOUS
 62
    7
 10
281.92773399999999
 20
390.79943800000001
 11
281.67773399999999
 21
390.61611900000003
  0
LINE
  8
_0-0_0
  6
CONTINUOUS
 62
    7
 10
281.92773399999999
 20
390.89523300000002
 11
281.79775999999998
 21
390.81140099999999
  0
LINE
  8
_0-0_0
  6
CONTINUOUS
 62
    7
 10
281.92773399999999
 20
391.01299999999998
 11
281.67773399999999
 21
390.73492399999998
  0
LINE
  8
_0-0_0
  6
CONTINUOUS
 62
    7
 10
281.79775999999998
 20
390.81140099999999
 11
281.67773399999999
 21
390.73492399999998
  0
LINE
  8
_0-0_0
  6
CONTINUOUS
 62
    7
 10
281.92773399999999
 20
391.15142800000001
 11
281.67773399999999
 21
390.87744099999998
  0
LINE
  8
_0-0_0
  6
CONTINUOUS
 62
    7
 10
281.92773399999999
 20
391.01299999999998
 11
281.67773399999999
 21
390.87744099999998
  0
LINE
  8
_0-0_0
  6
CONTINUOUS
 62
    7
 10
281.92773399999999
 20
391.30902099999997
 11
281.67773399999999
 21
391.042145
  0
LINE
  8
_0-0_0
  6
CONTINUOUS
 62
    7
 10
281.92773399999999
 20
391.15142800000001
 11
281.67773399999999
 21
391.042145
  0
LINE
  8
_0-0_0
  6
CONTINUOUS
 62
    7
 10
281.92773399999999
 20
391.484039
 11
281.67773399999999
 21
391.22717299999999
  0
LINE
  8
_0-0_0
  6
CONTINUOUS
 62
    7
 10
281.92773399999999
 20
391.30902099999997
 11
281.67773399999999
 21
391.22717299999999
  0
LINE
  8
_0-0_0
  6
CONTINUOUS
 62
    7
 10
281.92773399999999
 20
391.67456099999998
 11
281.67773399999999
 21
391.430542
  0
LINE
  8
_0-0_0
  6
CONTINUOUS
 62
    7
 10
281.92773399999999
 20
391.484039
 11
281.67773399999999
 21
391.430542
  0
LINE
  8
_0-0_0
  6
CONTINUOUS
 62
    7
 10
281.92773399999999
 20
391.87853999999999
 11
281.67773399999999
 21
391.64999399999999
  0
LINE
  8
_0-0_0
  6
CONTINUOUS
 62
    7
 10
281.92773399999999
 20
391.67456099999998
 11
281.67773399999999
 21
391.64999399999999
  0
LINE
  8
_0-0_0
  6
CONTINUOUS
 62
    7
 10
281.92773399999999
 20
392.093658
 11
281.67773399999999
 21
391.88314800000001
  0
LINE
  8
_0-0_0
  6
CONTINUOUS
 62
    7
 10
281.92773399999999
 20
391.87853999999999
 11
281.67773399999999
 21
391.88314800000001
  0
LINE
  8
_0-0_0
  6
CONTINUOUS
 62
    7
 10
281.92773399999999
 20
392.317657
 11
281.67773399999999
 21
392.12744099999998
  0
LINE
  8
_0-0_0
  6
CONTINUOUS
 62
    7
 10
281.92773399999999
 20
392.093658
 11
281.67773399999999
 21
392.12744099999998
  0
LINE
  8
_0-0_0
  6
CONTINUOUS
 62
    7
 10
281.92773399999999
 20
392.54803500000003
 11
281.67773399999999
 21
392.38021900000001
  0
LINE
  8
_0-0_0
  6
CONTINUOUS
 62
    7
 10
281.92773399999999
 20
392.317657
 11
281.67773399999999
 21
392.38021900000001
  0
LINE
  8
_0-0_0
  6
CONTINUOUS
 62
    7
 10
281.92773399999999
 20
392.78225700000002
 11
281.67773399999999
 21
392.63867199999999
  0
LINE
  8
_0-0_0
  6
CONTINUOUS
 62
    7
 10
281.92773399999999
 20
392.54803500000003
 11
281.67773399999999
 21
392.63867199999999
  0
LINE
  8
_0-0_0
  6
CONTINUOUS
 62
    7
 10
281.92773399999999
 20
393.01776100000001
 11
281.67773399999999
 21
392.89999399999999
  0
LINE
  8
_0-0_0
  6
CONTINUOUS
 62
    7
 10
281.92773399999999
 20
392.78225700000002
 11
281.67773399999999
 21
392.89999399999999
  0
LINE
  8
_0-0_0
  6
CONTINUOUS
 62
    7
 10
281.92773399999999
 20
393.25198399999999
 11
281.67773399999999
 21
393.161316
  0
LINE
  8
_0-0_0
  6
CONTINUOUS
 62
    7
 10
281.92773399999999
 20
393.01776100000001
 11
281.67773399999999
 21
393.161316
  0
LINE
  8
_0-0_0
  6
CONTINUOUS
 62
    7
 10
281.92773399999999
 20
393.48236100000003
 11
281.67773399999999
 21
393.41976899999997
  0
LINE
  8
_0-0_0
  6
CONTINUOUS
 62
    7
 10
281.92773399999999
 20
393.25198399999999
 11
281.67773399999999
 21
393.41976899999997
  0
LINE
  8
_0-0_0
  6
CONTINUOUS
 62
    7
 10
281.92773399999999
 20
393.70632899999998
 11
281.67773399999999
 21
393.67254600000001
  0
LINE
  8
_0-0_0
  6
CONTINUOUS
 62
    7
 10
281.92773399999999
 20
393.48236100000003
 11
281.67773399999999
 21
393.67254600000001
  0
LINE
  8
_0-0_0
  6
CONTINUOUS
 62
    7
 10
281.92773399999999
 20
393.92147799999998
 11
281.67773399999999
 21
393.91683999999998
  0
LINE
  8
_0-0_0
  6
CONTINUOUS
 62
    7
 10
281.92773399999999
 20
393.70632899999998
 11
281.67773399999999
 21
393.91683999999998
  0
LINE
  8
_0-0_0
  6
CONTINUOUS
 62
    7
 10
281.92773399999999
 20
394.125427
 11
281.92773399999999
 21
393.97869900000001
  0
LINE
  8
_0-0_0
  6
CONTINUOUS
 62
    7
 10
281.92773399999999
 20
394.125427
 11
281.67773399999999
 21
394.14999399999999
  0
LINE
  8
_0-0_0
  6
CONTINUOUS
 62
    7
 10
281.92773399999999
 20
393.92147799999998
 11
281.67773399999999
 21
394.14999399999999
  0
LINE
  8
_0-0_0
  6
CONTINUOUS
 62
    7
 10
281.92773399999999
 20
394.31597900000003
 11
281.92773399999999
 21
394.125427
  0
LINE
  8
_0-0_0
  6
CONTINUOUS
 62
    7
 10
281.92773399999999
 20
394.49099699999999
 11
281.92773399999999
 21
394.31597900000003
  0
LINE
  8
_0-0_0
  6
CONTINUOUS
 62
    7
 10
281.92773399999999
 20
394.64855999999997
 11
281.92773399999999
 21
394.49099699999999
  0
LINE
  8
_0-0_0
  6
CONTINUOUS
 62
    7
 10
281.92773399999999
 20
394.78701799999999
 11
281.92773399999999
 21
394.64855999999997
  0
LINE
  8
_0-0_0
  6
CONTINUOUS
 62
    7
 10
281.92773399999999
 20
394.90475500000002
 11
281.92773399999999
 21
394.78701799999999
  0
LINE
  8
_0-0_0
  6
CONTINUOUS
 62
    7
 10
281.92773399999999
 20
395.00054899999998
 11
281.92773399999999
 21
394.90475500000002
  0
LINE
  8
_0-0_0
  6
CONTINUOUS
 62
    7
 10
281.92773399999999
 20
395.07333399999999
 11
281.92773399999999
 21
395.00054899999998
  0
LINE
  8
_0-0_0
  6
CONTINUOUS
 62
    7
 10
281.92773399999999
 20
395.12231400000002
 11
281.92773399999999
 21
395.07333399999999
  0
LINE
  8
_0-0_0
  6
CONTINUOUS
 62
    7
 10
281.92773399999999
 20
395.14691199999999
 11
281.92773399999999
 21
395.12231400000002
  0
LINE
  8
_0-0_0
  6
CONTINUOUS
 62
    7
 10
281.92773399999999
 20
395.14999399999999
 11
281.92773399999999
 21
395.14691199999999
  0
LINE
  8
_0-0_0
  6
CONTINUOUS
 62
    7
 10
272.17773399999999
 20
390.653076
 11
272.42773399999999
 21
390.39999399999999
  0
LINE
  8
_0-0_0
  6
CONTINUOUS
 62
    7
 10
272.42773399999999
 20
390.39999399999999
 11
281.67773399999999
 21
390.39999399999999
  0
LINE
  8
_0-0_0
  6
CONTINUOUS
 62
    7
 10
272.17773399999999
 20
390.67770400000001
 11
272.42773399999999
 21
390.41369600000002
  0
LINE
  8
_0-0_0
  6
CONTINUOUS
 62
    7
 10
272.42773399999999
 20
390.41369600000002
 11
281.67773399999999
 21
390.41369600000002
  0
LINE
  8
_0-0_0
  6
CONTINUOUS
 62
    7
 10
272.17773399999999
 20
390.653076
 11
272.42773399999999
 21
390.41369600000002
  0
LINE
  8
_0-0_0
  6
CONTINUOUS
 62
    7
 10
272.17773399999999
 20
390.72668499999997
 11
272.42773399999999
 21
390.45461999999998
  0
LINE
  8
_0-0_0
  6
CONTINUOUS
 62
    7
 10
272.42773399999999
 20
390.45461999999998
 11
281.67773399999999
 21
390.45461999999998
  0
LINE
  8
_0-0_0
  6
CONTINUOUS
 62
    7
 10
272.17773399999999
 20
390.67770400000001
 11
272.42773399999999
 21
390.45461999999998
  0
LINE
  8
_0-0_0
  6
CONTINUOUS
 62
    7
 10
272.17773399999999
 20
390.79943800000001
 11
272.42773399999999
 21
390.52236900000003
  0
LINE
  8
_0-0_0
  6
CONTINUOUS
 62
    7
 10
272.42773399999999
 20
390.52236900000003
 11
281.67773399999999
 21
390.52236900000003
  0
LINE
  8
_0-0_0
  6
CONTINUOUS
 62
    7
 10
272.17773399999999
 20
390.72668499999997
 11
272.42773399999999
 21
390.52236900000003
  0
LINE
  8
_0-0_0
  6
CONTINUOUS
 62
    7
 10
272.17773399999999
 20
390.89523300000002
 11
272.42773399999999
 21
390.61611900000003
  0
LINE
  8
_0-0_0
  6
CONTINUOUS
 62
    7
 10
272.42773399999999
 20
390.61611900000003
 11
281.67773399999999
 21
390.61611900000003
  0
LINE
  8
_0-0_0
  6
CONTINUOUS
 62
    7
 10
272.17773399999999
 20
390.79943800000001
 11
272.42773399999999
 21
390.61611900000003
  0
LINE
  8
_0-0_0
  6
CONTINUOUS
 62
    7
 10
272.42773399999999
 20
390.73492399999998
 11
281.67773399999999
 21
390.73492399999998
  0
LINE
  8
_0-0_0
  6
CONTINUOUS
 62
    7
 10
272.30769299999997
 20
390.81140099999999
 11
272.42773399999999
 21
390.73492399999998
  0
LINE
  8
_0-0_0
  6
CONTINUOUS
 62
    7
 10
272.17773399999999
 20
390.89523300000002
 11
272.30769299999997
 21
390.81140099999999
  0
LINE
  8
_0-0_0
  6
CONTINUOUS
 62
    7
 10
272.17773399999999
 20
391.01299999999998
 11
272.42773399999999
 21
390.73492399999998
  0
LINE
  8
_0-0_0
  6
CONTINUOUS
 62
    7
 10
272.17773399999999
 20
391.15142800000001
 11
272.42773399999999
 21
390.87744099999998
  0
LINE
  8
_0-0_0
  6
CONTINUOUS
 62
    7
 10
272.42773399999999
 20
390.87744099999998
 11
281.67773399999999
 21
390.87744099999998
  0
LINE
  8
_0-0_0
  6
CONTINUOUS
 62
    7
 10
272.17773399999999
 20
391.01299999999998
 11
272.42773399999999
 21
390.87744099999998
  0
LINE
  8
_0-0_0
  6
CONTINUOUS
 62
    7
 10
272.17773399999999
 20
391.30902099999997
 11
272.42773399999999
 21
391.042145
  0
LINE
  8
_0-0_0
  6
CONTINUOUS
 62
    7
 10
272.42773399999999
 20
391.042145
 11
281.67773399999999
 21
391.042145
  0
LINE
  8
_0-0_0
  6
CONTINUOUS
 62
    7
 10
272.17773399999999
 20
391.15142800000001
 11
272.42773399999999
 21
391.042145
  0
LINE
  8
_0-0_0
  6
CONTINUOUS
 62
    7
 10
272.17773399999999
 20
391.484039
 11
272.42773399999999
 21
391.22717299999999
  0
LINE
  8
_0-0_0
  6
CONTINUOUS
 62
    7
 10
272.42773399999999
 20
391.22717299999999
 11
281.67773399999999
 21
391.22717299999999
  0
LINE
  8
_0-0_0
  6
CONTINUOUS
 62
    7
 10
272.17773399999999
 20
391.30902099999997
 11
272.42773399999999
 21
391.22717299999999
  0
LINE
  8
_0-0_0
  6
CONTINUOUS
 62
    7
 10
272.17773399999999
 20
391.67456099999998
 11
272.42773399999999
 21
391.430542
  0
LINE
  8
_0-0_0
  6
CONTINUOUS
 62
    7
 10
272.42773399999999
 20
391.430542
 11
281.67773399999999
 21
391.430542
  0
LINE
  8
_0-0_0
  6
CONTINUOUS
 62
    7
 10
272.17773399999999
 20
391.484039
 11
272.42773399999999
 21
391.430542
  0
LINE
  8
_0-0_0
  6
CONTINUOUS
 62
    7
 10
272.17773399999999
 20
391.87853999999999
 11
272.42773399999999
 21
391.64999399999999
  0
LINE
  8
_0-0_0
  6
CONTINUOUS
 62
    7
 10
272.42773399999999
 20
391.64999399999999
 11
281.67773399999999
 21
391.64999399999999
  0
LINE
  8
_0-0_0
  6
CONTINUOUS
 62
    7
 10
272.17773399999999
 20
391.87853999999999
 11
281.92773399999999
 21
391.87853999999999
  0
LINE
  8
_0-0_0
  6
CONTINUOUS
 62
    7
 10
272.17773399999999
 20
391.67456099999998
 11
272.42773399999999
 21
391.64999399999999
  0
LINE
  8
_0-0_0
  6
CONTINUOUS
 62
    7
 10
272.17773399999999
 20
392.093658
 11
272.42773399999999
 21
391.88314800000001
  0
LINE
  8
_0-0_0
  6
CONTINUOUS
 62
    7
 10
272.42773399999999
 20
391.88314800000001
 11
281.67773399999999
 21
391.88314800000001
  0
LINE
  8
_0-0_0
  6
CONTINUOUS
 62
    7
 10
272.17773399999999
 20
392.093658
 11
281.92773399999999
 21
392.093658
  0
LINE
  8
_0-0_0
  6
CONTINUOUS
 62
    7
 10
272.17773399999999
 20
391.87853999999999
 11
272.42773399999999
 21
391.88314800000001
  0
LINE
  8
_0-0_0
  6
CONTINUOUS
 62
    7
 10
272.17773399999999
 20
392.317657
 11
272.42773399999999
 21
392.12744099999998
  0
LINE
  8
_0-0_0
  6
CONTINUOUS
 62
    7
 10
272.42773399999999
 20
392.12744099999998
 11
281.67773399999999
 21
392.12744099999998
  0
LINE
  8
_0-0_0
  6
CONTINUOUS
 62
    7
 10
272.17773399999999
 20
392.317657
 11
281.92773399999999
 21
392.317657
  0
LINE
  8
_0-0_0
  6
CONTINUOUS
 62
    7
 10
272.17773399999999
 20
392.093658
 11
272.42773399999999
 21
392.12744099999998
  0
LINE
  8
_0-0_0
  6
CONTINUOUS
 62
    7
 10
272.17773399999999
 20
392.54803500000003
 11
272.42773399999999
 21
392.38021900000001
  0
LINE
  8
_0-0_0
  6
CONTINUOUS
 62
    7
 10
272.42773399999999
 20
392.38021900000001
 11
281.67773399999999
 21
392.38021900000001
  0
LINE
  8
_0-0_0
  6
CONTINUOUS
 62
    7
 10
272.17773399999999
 20
392.54803500000003
 11
281.92773399999999
 21
392.54803500000003
  0
LINE
  8
_0-0_0
  6
CONTINUOUS
 62
    7
 10
272.17773399999999
 20
392.317657
 11
272.42773399999999
 21
392.38021900000001
  0
LINE
  8
_0-0_0
  6
CONTINUOUS
 62
    7
 10
272.17773399999999
 20
392.78225700000002
 11
272.42773399999999
 21
392.63867199999999
  0
LINE
  8
_0-0_0
  6
CONTINUOUS
 62
    7
 10
272.42773399999999
 20
392.63867199999999
 11
281.67773399999999
 21
392.63867199999999
  0
LINE
  8
_0-0_0
  6
CONTINUOUS
 62
    7
 10
272.17773399999999
 20
392.78225700000002
 11
281.92773399999999
 21
392.78225700000002
  0
LINE
  8
_0-0_0
  6
CONTINUOUS
 62
    7
 10
272.17773399999999
 20
392.54803500000003
 11
272.42773399999999
 21
392.63867199999999
  0
LINE
  8
_0-0_0
  6
CONTINUOUS
 62
    7
 10
272.17773399999999
 20
393.01776100000001
 11
272.42773399999999
 21
392.89999399999999
  0
LINE
  8
_0-0_0
  6
CONTINUOUS
 62
    7
 10
272.42773399999999
 20
392.89999399999999
 11
281.67773399999999
 21
392.89999399999999
  0
LINE
  8
_0-0_0
  6
CONTINUOUS
 62
    7
 10
272.17773399999999
 20
393.01776100000001
 11
281.92773399999999
 21
393.01776100000001
  0
LINE
  8
_0-0_0
  6
CONTINUOUS
 62
    7
 10
272.17773399999999
 20
392.78225700000002
 11
272.42773399999999
 21
392.89999399999999
  0
LINE
  8
_0-0_0
  6
CONTINUOUS
 62
    7
 10
272.17773399999999
 20
393.25198399999999
 11
272.42773399999999
 21
393.161316
  0
LINE
  8
_0-0_0
  6
CONTINUOUS
 62
    7
 10
272.42773399999999
 20
393.161316
 11
281.67773399999999
 21
393.161316
  0
LINE
  8
_0-0_0
  6
CONTINUOUS
 62
    7
 10
272.17773399999999
 20
393.25198399999999
 11
281.92773399999999
 21
393.25198399999999
  0
LINE
  8
_0-0_0
  6
CONTINUOUS
 62
    7
 10
272.17773399999999
 20
393.01776100000001
 11
272.42773399999999
 21
393.161316
  0
LINE
  8
_0-0_0
  6
CONTINUOUS
 62
    7
 10
272.17773399999999
 20
393.48236100000003
 11
272.42773399999999
 21
393.41976899999997
  0
LINE
  8
_0-0_0
  6
CONTINUOUS
 62
    7
 10
272.42773399999999
 20
393.41976899999997
 11
281.67773399999999
 21
393.41976899999997
  0
LINE
  8
_0-0_0
  6
CONTINUOUS
 62
    7
 10
272.17773399999999
 20
393.48236100000003
 11
281.92773399999999
 21
393.48236100000003
  0
LINE
  8
_0-0_0
  6
CONTINUOUS
 62
    7
 10
272.17773399999999
 20
393.25198399999999
 11
272.42773399999999
 21
393.41976899999997
  0
LINE
  8
_0-0_0
  6
CONTINUOUS
 62
    7
 10
272.17773399999999
 20
393.70632899999998
 11
272.42773399999999
 21
393.67254600000001
  0
LINE
  8
_0-0_0
  6
CONTINUOUS
 62
    7
 10
272.42773399999999
 20
393.67254600000001
 11
281.67773399999999
 21
393.67254600000001
  0
LINE
  8
_0-0_0
  6
CONTINUOUS
 62
    7
 10
272.17773399999999
 20
393.70632899999998
 11
281.92773399999999
 21
393.70632899999998
  0
LINE
  8
_0-0_0
  6
CONTINUOUS
 62
    7
 10
272.17773399999999
 20
393.48236100000003
 11
272.42773399999999
 21
393.67254600000001
  0
LINE
  8
_0-0_0
  6
CONTINUOUS
 62
    7
 10
272.17773399999999
 20
393.92147799999998
 11
272.42773399999999
 21
393.91683999999998
  0
LINE
  8
_0-0_0
  6
CONTINUOUS
 62
    7
 10
272.42773399999999
 20
393.91683999999998
 11
281.67773399999999
 21
393.91683999999998
  0
LINE
  8
_0-0_0
  6
CONTINUOUS
 62
    7
 10
272.17773399999999
 20
393.92147799999998
 11
281.92773399999999
 21
393.92147799999998
  0
LINE
  8
_0-0_0
  6
CONTINUOUS
 62
    7
 10
272.17773399999999
 20
393.70632899999998
 11
272.42773399999999
 21
393.91683999999998
  0
LINE
  8
_0-0_0
  6
CONTINUOUS
 62
    7
 10
272.17773399999999
 20
394.125427
 11
272.42773399999999
 21
394.14999399999999
  0
LINE
  8
_0-0_0
  6
CONTINUOUS
 62
    7
 10
272.42773399999999
 20
394.14999399999999
 11
281.67773399999999
 21
394.14999399999999
  0
LINE
  8
_0-0_0
  6
CONTINUOUS
 62
    7
 10
272.17773399999999
 20
393.92147799999998
 11
272.42773399999999
 21
394.14999399999999
  0
LINE
  8
_0-0_0
  6
CONTINUOUS
 62
    7
 10
281.92773399999999
 20
394.31597900000003
 11
281.67773399999999
 21
394.36944599999998
  0
LINE
  8
_0-0_0
  6
CONTINUOUS
 62
    7
 10
281.92773399999999
 20
394.125427
 11
281.67773399999999
 21
394.36944599999998
  0
LINE
  8
_0-0_0
  6
CONTINUOUS
 62
    7
 10
281.92773399999999
 20
394.49099699999999
 11
281.67773399999999
 21
394.57281499999999
  0
LINE
  8
_0-0_0
  6
CONTINUOUS
 62
    7
 10
281.92773399999999
 20
394.31597900000003
 11
281.67773399999999
 21
394.57281499999999
  0
LINE
  8
_0-0_0
  6
CONTINUOUS
 62
    7
 10
281.92773399999999
 20
394.64855999999997
 11
281.67773399999999
 21
394.75787400000002
  0
LINE
  8
_0-0_0
  6
CONTINUOUS
 62
    7
 10
281.92773399999999
 20
394.49099699999999
 11
281.67773399999999
 21
394.75787400000002
  0
LINE
  8
_0-0_0
  6
CONTINUOUS
 62
    7
 10
281.92773399999999
 20
394.78701799999999
 11
281.67773399999999
 21
394.92254600000001
  0
LINE
  8
_0-0_0
  6
CONTINUOUS
 62
    7
 10
281.92773399999999
 20
394.64855999999997
 11
281.67773399999999
 21
394.92254600000001
  0
LINE
  8
_0-0_0
  6
CONTINUOUS
 62
    7
 10
281.92773399999999
 20
394.90475500000002
 11
281.67773399999999
 21
395.06506300000001
  0
LINE
  8
_0-0_0
  6
CONTINUOUS
 62
    7
 10
281.92773399999999
 20
394.78701799999999
 11
281.67773399999999
 21
395.06506300000001
  0
LINE
  8
_0-0_0
  6
CONTINUOUS
 62
    7
 10
281.92773399999999
 20
395.00054899999998
 11
281.67773399999999
 21
395.18386800000002
  0
LINE
  8
_0-0_0
  6
CONTINUOUS
 62
    7
 10
281.92773399999999
 20
394.90475500000002
 11
281.67773399999999
 21
395.18386800000002
  0
LINE
  8
_0-0_0
  6
CONTINUOUS
 62
    7
 10
281.92773399999999
 20
395.07333399999999
 11
281.67773399999999
 21
395.277649
  0
LINE
  8
_0-0_0
  6
CONTINUOUS
 62
    7
 10
281.92773399999999
 20
395.00054899999998
 11
281.67773399999999
 21
395.277649
  0
LINE
  8
_0-0_0
  6
CONTINUOUS
 62
    7
 10
281.92773399999999
 20
395.12231400000002
 11
281.67773399999999
 21
395.34536700000001
  0
LINE
  8
_0-0_0
  6
CONTINUOUS
 62
    7
 10
281.92773399999999
 20
395.07333399999999
 11
281.67773399999999
 21
395.34536700000001
  0
LINE
  8
_0-0_0
  6
CONTINUOUS
 62
    7
 10
281.92773399999999
 20
395.14691199999999
 11
281.67773399999999
 21
395.38632200000001
  0
LINE
  8
_0-0_0
  6
CONTINUOUS
 62
    7
 10
281.92773399999999
 20
395.12231400000002
 11
281.67773399999999
 21
395.38632200000001
  0
LINE
  8
_0-0_0
  6
CONTINUOUS
 62
    7
 10
281.92773399999999
 20
395.14691199999999
 11
281.92468299999996
 21
395.14999399999999
  0
LINE
  8
_0-0_0
  6
CONTINUOUS
 62
    7
 10
271.92773399999999
 20
391.144836
 11
271.92773399999999
 21
390.89999399999999
  0
LINE
  8
_0-0_0
  6
CONTINUOUS
 62
    7
 10
272.17773399999999
 20
394.125427
 11
272.42773399999999
 21
394.36944599999998
  0
LINE
  8
_0-0_0
  6
CONTINUOUS
 62
    7
 10
272.17773399999999
 20
394.31597900000003
 11
272.42773399999999
 21
394.36944599999998
  0
LINE
  8
_0-0_0
  6
CONTINUOUS
 62
    7
 10
272.17773399999999
 20
394.31597900000003
 11
272.42773399999999
 21
394.57281499999999
  0
LINE
  8
_0-0_0
  6
CONTINUOUS
 62
    7
 10
272.17773399999999
 20
394.49099699999999
 11
272.42773399999999
 21
394.57281499999999
  0
LINE
  8
_0-0_0
  6
CONTINUOUS
 62
    7
 10
272.17773399999999
 20
394.49099699999999
 11
272.42773399999999
 21
394.75787400000002
  0
LINE
  8
_0-0_0
  6
CONTINUOUS
 62
    7
 10
272.17773399999999
 20
394.64855999999997
 11
272.42773399999999
 21
394.75787400000002
  0
LINE
  8
_0-0_0
  6
CONTINUOUS
 62
    7
 10
272.17773399999999
 20
394.64855999999997
 11
272.42773399999999
 21
394.92254600000001
  0
LINE
  8
_0-0_0
  6
CONTINUOUS
 62
    7
 10
272.17773399999999
 20
394.78701799999999
 11
272.42773399999999
 21
394.92254600000001
  0
LINE
  8
_0-0_0
  6
CONTINUOUS
 62
    7
 10
272.17773399999999
 20
394.78701799999999
 11
272.42773399999999
 21
395.06506300000001
  0
LINE
  8
_0-0_0
  6
CONTINUOUS
 62
    7
 10
272.17773399999999
 20
394.90475500000002
 11
272.42773399999999
 21
395.06506300000001
  0
LINE
  8
_0-0_0
  6
CONTINUOUS
 62
    7
 10
272.17773399999999
 20
394.90475500000002
 11
272.42773399999999
 21
395.18386800000002
  0
LINE
  8
_0-0_0
  6
CONTINUOUS
 62
    7
 10
272.17773399999999
 20
395.00054899999998
 11
272.42773399999999
 21
395.18386800000002
  0
LINE
  8
_0-0_0
  6
CONTINUOUS
 62
    7
 10
272.17773399999999
 20
395.00054899999998
 11
272.42773399999999
 21
395.277649
  0
LINE
  8
_0-0_0
  6
CONTINUOUS
 62
    7
 10
272.17773399999999
 20
395.07333399999999
 11
272.42773399999999
 21
395.277649
  0
LINE
  8
_0-0_0
  6
CONTINUOUS
 62
    7
 10
272.17773399999999
 20
395.07333399999999
 11
272.42773399999999
 21
395.34536700000001
  0
LINE
  8
_0-0_0
  6
CONTINUOUS
 62
    7
 10
272.17773399999999
 20
395.12231400000002
 11
272.42773399999999
 21
395.34536700000001
  0
LINE
  8
_0-0_0
  6
CONTINUOUS
 62
    7
 10
272.17773399999999
 20
395.12231400000002
 11
272.42773399999999
 21
395.38632200000001
  0
LINE
  8
_0-0_0
  6
CONTINUOUS
 62
    7
 10
272.17773399999999
 20
395.14691199999999
 11
272.42773399999999
 21
395.38632200000001
  0
LINE
  8
_0-0_0
  6
CONTINUOUS
 62
    7
 10
272.17773399999999
 20
395.14691199999999
 11
272.42773399999999
 21
395.39999399999999
  0
LINE
  8
_0-0_0
  6
CONTINUOUS
 62
    7
 10
271.92773399999999
 20
394.89999399999999
 11
271.92773399999999
 21
391.144836
  0
LINE
  8
_0-0_0
  6
CONTINUOUS
 62
    7
 10
272.42773399999999
 20
394.36944599999998
 11
281.67773399999999
 21
394.36944599999998
  0
LINE
  8
_0-0_0
  6
CONTINUOUS
 62
    7
 10
272.42773399999999
 20
394.57281499999999
 11
281.67773399999999
 21
394.57281499999999
  0
LINE
  8
_0-0_0
  6
CONTINUOUS
 62
    7
 10
272.42773399999999
 20
394.75787400000002
 11
281.67773399999999
 21
394.75787400000002
  0
LINE
  8
_0-0_0
  6
CONTINUOUS
 62
    7
 10
272.42773399999999
 20
394.92254600000001
 11
281.67773399999999
 21
394.92254600000001
  0
LINE
  8
_0-0_0
  6
CONTINUOUS
 62
    7
 10
272.42773399999999
 20
395.06506300000001
 11
281.67773399999999
 21
395.06506300000001
  0
LINE
  8
_0-0_0
  6
CONTINUOUS
 62
    7
 10
272.42773399999999
 20
395.18386800000002
 11
281.67773399999999
 21
395.18386800000002
  0
LINE
  8
_0-0_0
  6
CONTINUOUS
 62
    7
 10
272.42773399999999
 20
395.277649
 11
281.67773399999999
 21
395.277649
  0
LINE
  8
_0-0_0
  6
CONTINUOUS
 62
    7
 10
272.42773399999999
 20
395.34536700000001
 11
281.67773399999999
 21
395.34536700000001
  0
LINE
  8
_0-0_0
  6
CONTINUOUS
 62
    7
 10
272.42773399999999
 20
395.38632200000001
 11
281.67773399999999
 21
395.38632200000001
  0
LINE
  8
_0-0_0
  6
CONTINUOUS
 62
    7
 10
272.42773399999999
 20
395.39999399999999
 11
281.67773399999999
 21
395.39999399999999
  0
LINE
  8
_0-0_0
  6
CONTINUOUS
 62
    7
 10
307.92773399999999
 20
411.75
 11
281.92773399999999
 21
411.75
  0
LINE
  8
_0-0_0
  6
CONTINUOUS
 62
    7
 10
307.92773399999999
 20
407.25
 11
281.92773399999999
 21
407.25
  0
LINE
  8
_0-0_0
  6
CONTINUOUS
 62
    7
 10
408.92773399999999
 20
395.14999399999999
 11
411.38339199999996
 21
395.14999399999999
  0
LINE
  8
_0-0_0
  6
CONTINUOUS
 62
    7
 10
410.88232399999998
 20
390.64999399999999
 11
411.38339199999996
 21
390.64999399999999
  0
LINE
  8
_0-0_0
  6
CONTINUOUS
 62
    7
 10
281.92773399999999
 20
407.25
 11
281.67773399999999
 21
407
  0
LINE
  8
_0-0_0
  6
CONTINUOUS
 62
    7
 10
411.52773999999999
 20
394.89999399999999
 11
411.38339199999996
 21
395.14999399999999
  0
LINE
  8
_0-0_0
  6
CONTINUOUS
 62
    7
 10
411.52773999999999
 20
390.89999399999999
 11
411.38339199999996
 21
390.64999399999999
  0
LINE
  8
_0-0_0
  6
CONTINUOUS
 62
    7
 10
285.92773399999999
 20
395.95001200000002
 11
287.17773399999999
 21
394.70001200000002
  0
LINE
  8
_0-0_0
  6
CONTINUOUS
 62
    7
 10
285.92773399999999
 20
406.45001200000002
 11
286.72772199999997
 21
407.25
  0
LINE
  8
_0-0_0
  6
CONTINUOUS
 62
    7
 10
271.92773399999999
 20
411.5
 11
272.42758199999997
 21
411.99984699999999
  0
LINE
  8
_0-0_0
  6
CONTINUOUS
 62
    7
 10
271.92773399999999
 20
407.5
 11
272.42758199999997
 21
407.00015300000001
  0
LINE
  8
_0-0_0
  6
CONTINUOUS
 62
    7
 10
285.92773399999999
 20
406.20001200000002
 11
285.52772499999998
 21
406.20001200000002
  0
LINE
  8
_0-0_0
  6
CONTINUOUS
 62
    7
 10
285.92773399999999
 20
396.20001200000002
 11
285.52772499999998
 21
396.20001200000002
  0
LINE
  8
_0-0_0
  6
CONTINUOUS
 62
    7
 10
284.72772199999997
 20
405.73812900000001
 11
285.52772499999998
 21
406.20001200000002
  0
LINE
  8
_0-0_0
  6
CONTINUOUS
 62
    7
 10
284.72772199999997
 20
396.66186499999998
 11
285.52772499999998
 21
396.20001200000002
  0
LINE
  8
_0-0_0
  6
CONTINUOUS
 62
    7
 10
284.72772199999997
 20
405.20001200000002
 11
226.72772199999997
 21
405.20001200000002
  0
LINE
  8
_0-0_0
  6
CONTINUOUS
 62
    7
 10
284.72772199999997
 20
397.20001200000002
 11
226.72772199999997
 21
397.20001200000002
  0
LINE
  8
_0-0_0
  6
CONTINUOUS
 62
    7
 10
302.17770399999995
 20
390.64999399999999
 11
281.92773399999999
 21
390.64999399999999
  0
LINE
  8
_0-0_0
  6
CONTINUOUS
 62
    7
 10
281.92773399999999
 20
390.64999399999999
 11
281.67773399999999
 21
390.39999399999999
  0
LINE
  8
_0-0_0
  6
CONTINUOUS
 62
    7
 10
286.72772199999997
 20
395.14999399999999
 11
281.92468299999996
 21
395.14999399999999
  0
LINE
  8
_0-0_0
  6
CONTINUOUS
 62
    7
 10
281.92773399999999
 20
395.14999399999999
 11
281.67773399999999
 21
395.39999399999999
  0
LINE
  8
_0-0_0
  6
CONTINUOUS
 62
    7
 10
271.92773399999999
 20
390.89999399999999
 11
272.42758199999997
 21
390.40014600000001
  0
LINE
  8
_0-0_0
  6
CONTINUOUS
 62
    7
 10
271.92773399999999
 20
394.89999399999999
 11
272.42758199999997
 21
395.39984099999998
  0
LINE
  8
_0-0_0
  6
CONTINUOUS
 62
    7
 10
198.41673299999997
 20
443.39999399999999
 11
198.41673299999997
 21
430.39999399999999
  0
LINE
  8
_0-0_0
  6
CONTINUOUS
 62
    7
 10
198.61672999999999
 20
443.39999399999999
 11
198.41673299999997
 21
443.39999399999999
  0
LINE
  8
_0-0_0
  6
CONTINUOUS
 62
    7
 10
198.61672999999999
 20
430.39999399999999
 11
198.41673299999997
 21
430.39999399999999
  0
LINE
  8
_0-0_0
  6
CONTINUOUS
 62
    7
 10
198.61672999999999
 20
443.39999399999999
 11
198.61672999999999
 21
462
  0
LINE
  8
_0-0_0
  6
CONTINUOUS
 62
    7
 10
198.71673599999997
 20
462
 11
198.61672999999999
 21
462
  0
LINE
  8
_0-0_0
  6
CONTINUOUS
 62
    7
 10
198.71673599999997
 20
464.5
 11
198.71673599999997
 21
462
  0
ARC
  8
_0-0_0
  6
CONTINUOUS
 62
    7
 10
198.21673599999997
 20
464.5
 40
0.5
 50
0
 51
90.000003000000007
  0
LINE
  8
_0-0_0
  6
CONTINUOUS
 62
    7
 10
198.21673599999997
 20
465
 11
195.21673599999997
 21
465
  0
ARC
  8
_0-0_0
  6
CONTINUOUS
 62
    7
 10
195.21673599999997
 20
464.5
 40
0.5
 50
90.000003000000007
 51
179.99999099999999
  0
ARC
  8
_0-0_0
  6
CONTINUOUS
 62
    7
 10
190.71673599999997
 20
417
 40
0.5
 50
179.99999099999999
 51
269.99999700000001
  0
LINE
  8
_0-0_0
  6
CONTINUOUS
 62
    7
 10
193.21673599999997
 20
416.5
 11
190.71673599999997
 21
416.5
  0
ARC
  8
_0-0_0
  6
CONTINUOUS
 62
    7
 10
193.21673599999997
 20
417
 40
0.5
 50
269.99999700000001
 51
0
  0
LINE
  8
_0-0_0
  6
CONTINUOUS
 62
    7
 10
193.71673599999997
 20
422
 11
193.71673599999997
 21
417
  0
ARC
  8
_0-0_0
  6
CONTINUOUS
 62
    7
 10
194.21673599999997
 20
422
 40
0.5
 50
90.000003000000007
 51
179.99999099999999
  0
LINE
  8
_0-0_0
  6
CONTINUOUS
 62
    7
 10
198.21673599999997
 20
422.5
 11
194.21673599999997
 21
422.5
  0
ARC
  8
_0-0_0
  6
CONTINUOUS
 62
    7
 10
198.21673599999997
 20
423
 40
0.5
 50
269.99999700000001
 51
0
  0
LINE
  8
_0-0_0
  6
CONTINUOUS
 62
    7
 10
198.71673599999997
 20
426.20001200000002
 11
198.71673599999997
 21
423
  0
LINE
  8
_0-0_0
  6
CONTINUOUS
 62
    7
 10
198.61672999999999
 20
426.20001200000002
 11
198.71673599999997
 21
426.20001200000002
  0
LINE
  8
_0-0_0
  6
CONTINUOUS
 62
    7
 10
198.61672999999999
 20
426.20001200000002
 11
198.61672999999999
 21
430.39999399999999
  0
LINE
  8
_0-0_0
  6
CONTINUOUS
 62
    7
 10
197.71673599999997
 20
464.5
 11
179.91673299999997
 21
464.5
  0
ARC
  8
_0-0_0
  6
CONTINUOUS
 62
    7
 10
197.71673599999997
 20
464
 40
0.5
 50
0
 51
90.000003000000007
  0
LINE
  8
_0-0_0
  6
CONTINUOUS
 62
    7
 10
198.21673599999997
 20
464
 11
198.21673599999997
 21
423.5
  0
ARC
  8
_0-0_0
  6
CONTINUOUS
 62
    7
 10
197.71673599999997
 20
423.5
 40
0.5
 50
269.99999700000001
 51
0
  0
LINE
  8
_0-0_0
  6
CONTINUOUS
 62
    7
 10
194.21673599999997
 20
423
 11
197.71673599999997
 21
423
  0
ARC
  8
_0-0_0
  6
CONTINUOUS
 62
    7
 10
194.21673599999997
 20
422
 40
1
 50
90.000003000000007
 51
179.99999099999999
  0
LINE
  8
_0-0_0
  6
CONTINUOUS
 62
    7
 10
193.21673599999997
 20
422
 11
193.21673599999997
 21
417.5
  0
ARC
  8
_0-0_0
  6
CONTINUOUS
 62
    7
 10
192.71673599999997
 20
417.5
 40
0.5
 50
269.99999700000001
 51
0
  0
LINE
  8
_0-0_0
  6
CONTINUOUS
 62
    7
 10
175.71673599999997
 20
417
 11
192.71673599999997
 21
417
  0
LINE
  8
_0-0_0
  6
CONTINUOUS
 62
    7
 10
194.21673599999997
 20
464.70001200000002
 11
194.21673599999997
 21
464.5
  0
ARC
  8
_0-0_0
  6
CONTINUOUS
 62
    7
 10
193.91673299999997
 20
464.70001200000002
 40
0.2999999999999999
 50
0
 51
90.000003000000007
  0
LINE
  8
_0-0_0
  6
CONTINUOUS
 62
    7
 10
193.91673299999997
 20
465
 11
179.21673599999997
 21
465
  0
ARC
  8
_0-0_0
  6
CONTINUOUS
 62
    7
 10
179.21673599999997
 20
464.70001200000002
 40
0.2999999999999999
 50
90.000003000000007
 51
179.99999099999999
  0
LINE
  8
_0-0_0
  6
CONTINUOUS
 62
    7
 10
178.91673299999997
 20
464.70001200000002
 11
178.91673299999997
 21
461.5
  0
LINE
  8
_0-0_0
  6
CONTINUOUS
 62
    7
 10
178.91673299999997
 20
461.5
 11
173.21673599999997
 21
461.5
  0
LINE
  8
_0-0_0
  6
CONTINUOUS
 62
    7
 10
173.21673599999997
 20
461.5
 11
172.41673299999997
 21
460.70001200000002
  0
ARC
  8
_0-0_0
  6
CONTINUOUS
 62
    7
 10
179.91673299999997
 20
464
 40
0.5
 50
90.000003000000007
 51
179.99999099999999
  0
LINE
  8
_0-0_0
  6
CONTINUOUS
 62
    7
 10
179.41673299999997
 20
464
 11
179.41673299999997
 21
461.20001200000002
  0
ARC
  8
_0-0_0
  6
CONTINUOUS
 62
    7
 10
178.91673299999997
 20
461.20001200000002
 40
0.5
 50
269.99999700000001
 51
0
  0
LINE
  8
_0-0_0
  6
CONTINUOUS
 62
    7
 10
178.91673299999997
 20
460.70001200000002
 11
170.71673599999997
 21
460.70001200000002
  0
ARC
  8
_0-0_0
  6
CONTINUOUS
 62
    7
 10
170.71673599999997
 20
460.20001200000002
 40
0.5
 50
90.000003000000007
 51
179.99999099999999
  0
LINE
  8
_0-0_0
  6
CONTINUOUS
 62
    7
 10
170.21673599999997
 20
423.5
 11
170.21673599999997
 21
460.20001200000002
  0
ARC
  8
_0-0_0
  6
CONTINUOUS
 62
    7
 10
170.71673599999997
 20
423.5
 40
0.5
 50
179.99999099999999
 51
269.99999700000001
  0
LINE
  8
_0-0_0
  6
CONTINUOUS
 62
    7
 10
170.71673599999997
 20
423
 11
174.21673599999997
 21
423
  0
ARC
  8
_0-0_0
  6
CONTINUOUS
 62
    7
 10
174.21673599999997
 20
422
 40
1
 50
0
 51
90.000003000000007
  0
LINE
  8
_0-0_0
  6
CONTINUOUS
 62
    7
 10
175.21673599999997
 20
417.5
 11
175.21673599999997
 21
422
  0
ARC
  8
_0-0_0
  6
CONTINUOUS
 62
    7
 10
175.71673599999997
 20
417.5
 40
0.5
 50
179.99999099999999
 51
269.99999700000001
  0
CIRCLE
  8
_0-0_0
  6
CONTINUOUS
 62
    7
 10
184.21673599999997
 20
426
 40
2.0670000000000002
  0
LINE
  8
_0-0_0
  6
CONTINUOUS
 62
    7
 10
172.21673599999997
 20
461
 11
172.21673599999997
 21
460.70001200000002
  0
LINE
  8
_0-0_0
  6
CONTINUOUS
 62
    7
 10
172.21673599999997
 20
461
 11
170.21673599999997
 21
461
  0
ARC
  8
_0-0_0
  6
CONTINUOUS
 62
    7
 10
170.21673599999997
 20
460.5
 40
0.5
 50
90.000003000000007
 51
179.99999099999999
  0
LINE
  8
_0-0_0
  6
CONTINUOUS
 62
    7
 10
169.71673599999997
 20
460.5
 11
169.71673599999997
 21
423
  0
ARC
  8
_0-0_0
  6
CONTINUOUS
 62
    7
 10
170.21673599999997
 20
423
 40
0.5
 50
179.99999099999999
 51
269.99999700000001
  0
LINE
  8
_0-0_0
  6
CONTINUOUS
 62
    7
 10
174.21673599999997
 20
422.5
 11
170.21673599999997
 21
422.5
  0
ARC
  8
_0-0_0
  6
CONTINUOUS
 62
    7
 10
174.21673599999997
 20
422
 40
0.5
 50
0
 51
90.000003000000007
  0
LINE
  8
_0-0_0
  6
CONTINUOUS
 62
    7
 10
174.71673599999997
 20
417
 11
174.71673599999997
 21
422
  0
ARC
  8
_0-0_0
  6
CONTINUOUS
 62
    7
 10
175.21673599999997
 20
417
 40
0.5
 50
179.99999099999999
 51
269.99999700000001
  0
LINE
  8
_0-0_0
  6
CONTINUOUS
 62
    7
 10
175.21673599999997
 20
416.5
 11
177.71673599999997
 21
416.5
  0
ARC
  8
_0-0_0
  6
CONTINUOUS
 62
    7
 10
177.71673599999997
 20
417
 40
0.5
 50
269.99999700000001
 51
0
  0
LINE
  8
_0-0_0
  6
CONTINUOUS
 62
    7
 10
193.71673599999997
 20
417
 11
193.81672699999999
 21
417
  0
LINE
  8
_0-0_0
  6
CONTINUOUS
 62
    7
 10
193.81672699999999
 20
417
 11
193.81672699999999
 21
417.5
  0
LINE
  8
_0-0_0
  6
CONTINUOUS
 62
    7
 10
193.81672699999999
 20
421.5
 11
193.81672699999999
 21
417.5
  0
LINE
  8
_0-0_0
  6
CONTINUOUS
 62
    7
 10
193.71673599999997
 20
422
 11
193.81672699999999
 21
422
  0
LINE
  8
_0-0_0
  6
CONTINUOUS
 62
    7
 10
193.81672699999999
 20
421.5
 11
193.81672699999999
 21
422
  0
LINE
  8
_0-0_0
  6
CONTINUOUS
 62
    7
 10
193.91673299999997
 20
417.5
 11
193.91673299999997
 21
417.63037100000003
  0
LINE
  8
_0-0_0
  6
CONTINUOUS
 62
    7
 10
193.91673299999997
 20
421.13037100000003
 11
193.91673299999997
 21
417.63037100000003
  0
LINE
  8
_0-0_0
  6
CONTINUOUS
 62
    7
 10
193.81672699999999
 20
421.39999399999999
 11
193.91673299999997
 21
421.39999399999999
  0
LINE
  8
_0-0_0
  6
CONTINUOUS
 62
    7
 10
193.91673299999997
 20
421.13037100000003
 11
193.91673299999997
 21
421.39999399999999
  0
LINE
  8
_0-0_0
  6
CONTINUOUS
 62
    7
 10
193.81672699999999
 20
417.5
 11
193.91673299999997
 21
417.5
  0
LINE
  8
_0-0_0
  6
CONTINUOUS
 62
    7
 10
193.81672699999999
 20
417.5
 11
193.91673299999997
 21
417.5
  0
LINE
  8
_0-0_0
  6
CONTINUOUS
 62
    7
 10
175.41673299999997
 20
414.5
 11
179.61672999999996
 21
414.5
  0
LINE
  8
_0-0_0
  6
CONTINUOUS
 62
    7
 10
191.21673599999997
 20
414.5
 11
188.81672699999999
 21
414.5
  0
LINE
  8
_0-0_0
  6
CONTINUOUS
 62
    7
 10
191.21673599999997
 20
414.5
 11
192.41673299999997
 21
414.5
  0
ARC
  8
_0-0_0
  6
CONTINUOUS
 62
    7
 10
192.41673299999997
 20
414
 40
0.5
 50
0
 51
90.000003000000007
  0
ARC
  8
_0-0_0
  6
CONTINUOUS
 62
    7
 10
191.21673599999997
 20
414
 40
0.5
 50
90.000003000000007
 51
179.99999099999999
  0
ARC
  8
_0-0_0
  6
CONTINUOUS
 62
    7
 10
188.81672699999999
 20
415
 40
0.5
 50
179.99999099999999
 51
269.99999700000001
  0
ARC
  8
_0-0_0
  6
CONTINUOUS
 62
    7
 10
179.61672999999996
 20
415
 40
0.5
 50
269.99999700000001
 51
0
  0
ARC
  8
_0-0_0
  6
CONTINUOUS
 62
    7
 10
175.41673299999997
 20
414
 40
0.5
 50
90.000003000000007
 51
179.99999099999999
  0
LINE
  8
_0-0_0
  6
CONTINUOUS
 62
    7
 10
176.41673299999997
 20
415
 11
176.41673299999997
 21
414.5
  0
ARC
  8
_0-0_0
  6
CONTINUOUS
 62
    7
 10
176.91673299999997
 20
415
 40
0.5
 50
90.000003000000007
 51
179.99999099999999
  0
LINE
  8
_0-0_0
  6
CONTINUOUS
 62
    7
 10
178.41673299999997
 20
415.5
 11
176.91673299999997
 21
415.5
  0
ARC
  8
_0-0_0
  6
CONTINUOUS
 62
    7
 10
178.41673299999997
 20
416.5
 40
1
 50
269.99999700000001
 51
0
  0
LINE
  8
_0-0_0
  6
CONTINUOUS
 62
    7
 10
179.41673299999997
 20
417
 11
179.41673299999997
 21
416.5
  0
LINE
  8
_0-0_0
  6
CONTINUOUS
 62
    7
 10
179.91673299999997
 20
417
 11
179.91673299999997
 21
416
  0
ARC
  8
_0-0_0
  6
CONTINUOUS
 62
    7
 10
178.41673299999997
 20
416
 40
1.5
 50
269.99999700000001
 51
0
  0
ARC
  8
_0-0_0
  6
CONTINUOUS
 62
    7
 10
190.01672399999998
 20
416
 40
1.5
 50
179.99999099999999
 51
269.99999700000001
  0
LINE
  8
_0-0_0
  6
CONTINUOUS
 62
    7
 10
192.01672399999998
 20
415
 11
192.01672399999998
 21
414.5
  0
ARC
  8
_0-0_0
  6
CONTINUOUS
 62
    7
 10
191.51672399999998
 20
415
 40
0.5
 50
0
 51
90.000003000000007
  0
LINE
  8
_0-0_0
  6
CONTINUOUS
 62
    7
 10
190.01672399999998
 20
415.5
 11
191.51672399999998
 21
415.5
  0
ARC
  8
_0-0_0
  6
CONTINUOUS
 62
    7
 10
190.01672399999998
 20
416.5
 40
1
 50
179.99999099999999
 51
269.99999700000001
  0
LINE
  8
_0-0_0
  6
CONTINUOUS
 62
    7
 10
189.01672399999998
 20
417
 11
189.01672399999998
 21
416.5
  0
LINE
  8
_0-0_0
  6
CONTINUOUS
 62
    7
 10
188.51672399999998
 20
417
 11
188.51672399999998
 21
416
  0
LINE
  8
_0-0_0
  6
CONTINUOUS
 62
    7
 10
192.91673299999997
 20
387.5
 11
192.91673299999997
 21
388.39999399999999
  0
LINE
  8
_0-0_0
  6
CONTINUOUS
 62
    7
 10
192.91673299999997
 20
388.39999399999999
 11
192.91673299999997
 21
390.89999399999999
  0
LINE
  8
_0-0_0
  6
CONTINUOUS
 62
    7
 10
192.91673299999997
 20
390.89999399999999
 11
192.91673299999997
 21
411.5
  0
LINE
  8
_0-0_0
  6
CONTINUOUS
 62
    7
 10
192.91673299999997
 20
411.5
 11
192.91673299999997
 21
414
  0
LINE
  8
_0-0_0
  6
CONTINUOUS
 62
    7
 10
190.71673599999997
 20
414
 11
190.71673599999997
 21
412.75500499999998
  0
LINE
  8
_0-0_0
  6
CONTINUOUS
 62
    7
 10
188.31672699999999
 20
415
 11
188.31672699999999
 21
416.79998799999998
  0
ARC
  8
_0-0_0
  6
CONTINUOUS
 62
    7
 10
187.81672699999999
 20
416.79998799999998
 40
0.5
 50
0
 51
23.579369
  0
LINE
  8
_0-0_0
  6
CONTINUOUS
 62
    7
 10
180.11672999999996
 20
415
 11
180.11672999999996
 21
416.79998799999998
  0
ARC
  8
_0-0_0
  6
CONTINUOUS
 62
    7
 10
180.61672999999996
 20
416.79998799999998
 40
0.5
 50
156.420635
 51
179.99999099999999
  0
LINE
  8
_0-0_0
  6
CONTINUOUS
 62
    7
 10
174.91673299999997
 20
387.5
 11
174.91673299999997
 21
397.70001200000002
  0
LINE
  8
_0-0_0
  6
CONTINUOUS
 62
    7
 10
174.91673299999997
 20
397.70001200000002
 11
174.91673299999997
 21
398.70001200000002
  0
LINE
  8
_0-0_0
  6
CONTINUOUS
 62
    7
 10
174.91673299999997
 20
398.70001200000002
 11
174.91673299999997
 21
403.70001200000002
  0
LINE
  8
_0-0_0
  6
CONTINUOUS
 62
    7
 10
174.91673299999997
 20
403.70001200000002
 11
174.91673299999997
 21
404.70001200000002
  0
LINE
  8
_0-0_0
  6
CONTINUOUS
 62
    7
 10
174.91673299999997
 20
414
 11
174.91673299999997
 21
404.70001200000002
  0
LINE
  8
_0-0_0
  6
CONTINUOUS
 62
    7
 10
193.71673599999997
 20
413
 11
192.91673299999997
 21
413
  0
LINE
  8
_0-0_0
  6
CONTINUOUS
 62
    7
 10
193.71673599999997
 20
413.79998799999998
 11
192.91673299999997
 21
413.79998799999998
  0
LINE
  8
_0-0_0
  6
CONTINUOUS
 62
    7
 10
193.71673599999997
 20
412.79998799999998
 11
193.71673599999997
 21
413.79998799999998
  0
LINE
  8
_0-0_0
  6
CONTINUOUS
 62
    7
 10
193.71673599999997
 20
394.20001200000002
 11
192.91673299999997
 21
394.20001200000002
  0
LINE
  8
_0-0_0
  6
CONTINUOUS
 62
    7
 10
193.71673599999997
 20
394.20001200000002
 11
193.71673599999997
 21
397.20001200000002
  0
LINE
  8
_0-0_0
  6
CONTINUOUS
 62
    7
 10
193.71673599999997
 20
409.43768299999999
 11
193.71673599999997
 21
397.20001200000002
  0
LINE
  8
_0-0_0
  6
CONTINUOUS
 62
    7
 10
193.71673599999997
 20
409.43768299999999
 11
193.71673599999997
 21
410.40048200000001
  0
LINE
  8
_0-0_0
  6
CONTINUOUS
 62
    7
 10
192.91673299999997
 20
410.40048200000001
 11
192.91673299999997
 21
413
  0
ARC
  8
_0-0_0
  6
CONTINUOUS
 62
    7
 10
187.30180299999998
 20
409.68203699999998
 40
5.7120379999999997
 50
18.558475999999999
 51
26.433648000000002
  0
ARC
  8
_0-0_0
  6
CONTINUOUS
 62
    7
 10
192.71673599999997
 20
411.5
 40
0.2
 50
269.99999700000001
 51
0
  0
ARC
  8
_0-0_0
  6
CONTINUOUS
 62
    7
 10
192.71673599999997
 20
390.89999399999999
 40
0.2
 50
0
 51
90.000003000000007
  0
ARC
  8
_0-0_0
  6
CONTINUOUS
 62
    7
 10
187.30192599999998
 20
392.71804800000001
 40
5.711964
 50
333.565022
 51
341.44031000000001
  0
ARC
  8
_0-0_0
  6
CONTINUOUS
 62
    7
 10
192.41673299999997
 20
388.39999399999999
 40
0.5
 50
269.99999700000001
 51
0
  0
LINE
  8
_0-0_0
  6
CONTINUOUS
 62
    7
 10
192.41673299999997
 20
387.5
 11
192.91673299999997
 21
387.5
  0
LINE
  8
_0-0_0
  6
CONTINUOUS
 62
    7
 10
192.91673299999997
 20
387.5
 11
192.41673299999997
 21
387
  0
ARC
  8
_0-0_0
  6
CONTINUOUS
 62
    7
 10
190.71673599999997
 20
410
 40
2.2999999999999998
 50
34.417387999999995
 51
79.713437000000013
  0
LINE
  8
_0-0_0
  6
CONTINUOUS
 62
    7
 10
192.65541099999999
 20
411.29998799999998
 11
192.61408999999998
 21
411.29998799999998
  0
LINE
  8
_0-0_0
  6
CONTINUOUS
 62
    7
 10
192.65541099999999
 20
411.29998799999998
 11
192.66497799999999
 21
411.30102499999998
  0
LINE
  8
_0-0_0
  6
CONTINUOUS
 62
    7
 10
192.66497799999999
 20
411.30102499999998
 11
192.67446899999999
 21
411.30423000000002
  0
LINE
  8
_0-0_0
  6
CONTINUOUS
 62
    7
 10
192.67446899999999
 20
411.30423000000002
 11
192.68371599999998
 21
411.30963100000002
  0
LINE
  8
_0-0_0
  6
CONTINUOUS
 62
    7
 10
192.68371599999998
 20
411.30963100000002
 11
192.69250499999998
 21
411.31710800000002
  0
LINE
  8
_0-0_0
  6
CONTINUOUS
 62
    7
 10
192.69250499999998
 20
411.31710800000002
 11
192.70791599999998
 21
411.33776899999998
  0
LINE
  8
_0-0_0
  6
CONTINUOUS
 62
    7
 10
192.70791599999998
 20
411.33776899999998
 11
192.71969599999997
 21
411.36505099999999
  0
LINE
  8
_0-0_0
  6
CONTINUOUS
 62
    7
 10
192.71969599999997
 20
411.36505099999999
 11
192.72686799999997
 21
411.39718599999998
  0
LINE
  8
_0-0_0
  6
CONTINUOUS
 62
    7
 10
192.72686799999997
 20
411.39718599999998
 11
192.72875999999997
 21
411.43221999999997
  0
LINE
  8
_0-0_0
  6
CONTINUOUS
 62
    7
 10
192.72875999999997
 20
411.43221999999997
 11
192.72491399999998
 21
411.468414
  0
LINE
  8
_0-0_0
  6
CONTINUOUS
 62
    7
 10
192.72491399999998
 20
411.468414
 11
192.71671999999998
 21
411.5
  0
ARC
  8
_0-0_0
  6
CONTINUOUS
 62
    7
 10
191.21673599999997
 20
412.75500499999998
 40
0.5
 50
179.99999099999999
 51
259.71343899999994
  0
LINE
  8
_0-0_0
  6
CONTINUOUS
 62
    7
 10
175.71673599999997
 20
410
 11
175.71673599999997
 21
396.39999399999999
  0
LINE
  8
_0-0_0
  6
CONTINUOUS
 62
    7
 10
175.71673599999997
 20
395.89999399999999
 11
175.71673599999997
 21
396.39999399999999
  0
LINE
  8
_0-0_0
  6
CONTINUOUS
 62
    7
 10
175.71673599999997
 20
392.89999399999999
 11
175.71673599999997
 21
395.89999399999999
  0
LINE
  8
_0-0_0
  6
CONTINUOUS
 62
    7
 10
175.71673599999997
 20
392.39999399999999
 11
175.71673599999997
 21
392.89999399999999
  0
ARC
  8
_0-0_0
  6
CONTINUOUS
 62
    7
 10
177.71673599999997
 20
410
 40
2
 50
93.840255999999997
 51
179.99999099999999
  0
LINE
  8
_0-0_0
  6
CONTINUOUS
 62
    7
 10
177.71673599999997
 20
412
 11
186.71673599999997
 21
412
  0
LINE
  8
_0-0_0
  6
CONTINUOUS
 62
    7
 10
190.71673599999997
 20
412
 11
190.21673599999997
 21
412
  0
LINE
  8
_0-0_0
  6
CONTINUOUS
 62
    7
 10
190.21673599999997
 20
412
 11
187.21673599999997
 21
412
  0
LINE
  8
_0-0_0
  6
CONTINUOUS
 62
    7
 10
186.71673599999997
 20
412
 11
187.21673599999997
 21
412
  0
ARC
  8
_0-0_0
  6
CONTINUOUS
 62
    7
 10
190.71673599999997
 20
410
 40
2
 50
0
 51
90.000003000000007
  0
LINE
  8
_0-0_0
  6
CONTINUOUS
 62
    7
 10
174.71673599999997
 20
413
 11
174.91673299999997
 21
413
  0
LINE
  8
_0-0_0
  6
CONTINUOUS
 62
    7
 10
174.71673599999997
 20
413.79998799999998
 11
174.91673299999997
 21
413.79998799999998
  0
LINE
  8
_0-0_0
  6
CONTINUOUS
 62
    7
 10
174.71673599999997
 20
413.79998799999998
 11
174.71673599999997
 21
413.00012199999998
  0
LINE
  8
_0-0_0
  6
CONTINUOUS
 62
    7
 10
174.71673599999997
 20
394.20001200000002
 11
174.91673299999997
 21
394.20001200000002
  0
LINE
  8
_0-0_0
  6
CONTINUOUS
 62
    7
 10
174.71673599999997
 20
397.20001200000002
 11
174.71673599999997
 21
394.20001200000002
  0
LINE
  8
_0-0_0
  6
CONTINUOUS
 62
    7
 10
174.71673599999997
 20
409.43768299999999
 11
174.71673599999997
 21
397.20001200000002
  0
LINE
  8
_0-0_0
  6
CONTINUOUS
 62
    7
 10
174.71673599999997
 20
410.40048200000001
 11
174.71673599999997
 21
409.43768299999999
  0
ARC
  8
_0-0_0
  6
CONTINUOUS
 62
    7
 10
175.41673299999997
 20
403.70001200000002
 40
0.5
 50
90.000003000000007
 51
179.99999099999999
  0
ARC
  8
_0-0_0
  6
CONTINUOUS
 62
    7
 10
175.41673299999997
 20
398.70001200000002
 40
0.5
 50
179.99999099999999
 51
269.99999700000001
  0
LINE
  8
_0-0_0
  6
CONTINUOUS
 62
    7
 10
174.91673299999997
 20
387.5
 11
175.41673299999997
 21
387.5
  0
LINE
  8
_0-0_0
  6
CONTINUOUS
 62
    7
 10
174.91673299999997
 20
387.5
 11
175.41673299999997
 21
387
  0
LINE
  8
_0-0_0
  6
CONTINUOUS
 62
    7
 10
192.91673299999997
 20
394.20001200000002
 11
192.91673299999997
 21
393.04998799999998
  0
ARC
  8
_0-0_0
  6
CONTINUOUS
 62
    7
 10
190.51672399999998
 20
393.04998799999998
 40
2.3999999999999999
 50
359.58604600000001
 51
0.0000099999999787
  0
LINE
  8
_0-0_0
  6
CONTINUOUS
 62
    7
 10
193.71673599999997
 20
410.40048200000001
 11
193.71673599999997
 21
413
  0
LINE
  8
_0-0_0
  6
CONTINUOUS
 62
    7
 10
192.71673599999997
 20
411.29998799999998
 11
192.65541099999999
 21
411.29998799999998
  0
LINE
  8
_0-0_0
  6
CONTINUOUS
 62
    7
 10
192.61408999999998
 20
411.29998799999998
 11
192.61187699999996
 21
411.29998799999998
  0
LINE
  8
_0-0_0
  6
CONTINUOUS
 62
    7
 10
192.41673299999997
 20
387.5
 11
175.41673299999997
 21
387.5
  0
LINE
  8
_0-0_0
  6
CONTINUOUS
 62
    7
 10
192.48019399999998
 20
391.29998799999998
 11
192.51711999999998
 21
391.22976699999998
  0
LINE
  8
_0-0_0
  6
CONTINUOUS
 62
    7
 10
192.51711999999998
 20
391.22976699999998
 11
192.53672799999998
 21
391.19528200000002
  0
LINE
  8
_0-0_0
  6
CONTINUOUS
 62
    7
 10
192.53672799999998
 20
391.19528200000002
 11
192.56280499999997
 21
391.15344199999998
  0
LINE
  8
_0-0_0
  6
CONTINUOUS
 62
    7
 10
192.56280499999997
 20
391.15344199999998
 11
192.57611099999997
 21
391.13439899999997
  0
LINE
  8
_0-0_0
  6
CONTINUOUS
 62
    7
 10
192.57611099999997
 20
391.13439899999997
 11
192.59448199999997
 21
391.11203
  0
LINE
  8
_0-0_0
  6
CONTINUOUS
 62
    7
 10
192.59448199999997
 20
391.11203
 11
192.60726899999997
 21
391.10137900000001
  0
LINE
  8
_0-0_0
  6
CONTINUOUS
 62
    7
 10
192.60726899999997
 20
391.10137900000001
 11
192.61187699999996
 21
391.10000600000001
  0
LINE
  8
_0-0_0
  6
CONTINUOUS
 62
    7
 10
192.61408999999998
 20
391.10000600000001
 11
192.61187699999996
 21
391.10000600000001
  0
LINE
  8
_0-0_0
  6
CONTINUOUS
 62
    7
 10
192.48019399999998
 20
411.10000600000001
 11
192.51711999999998
 21
411.17022700000001
  0
LINE
  8
_0-0_0
  6
CONTINUOUS
 62
    7
 10
192.51711999999998
 20
411.17022700000001
 11
192.53672799999998
 21
411.20471199999997
  0
LINE
  8
_0-0_0
  6
CONTINUOUS
 62
    7
 10
192.53672799999998
 20
411.20471199999997
 11
192.56280499999997
 21
411.24655200000001
  0
LINE
  8
_0-0_0
  6
CONTINUOUS
 62
    7
 10
192.56280499999997
 20
411.24655200000001
 11
192.57611099999997
 21
411.26559400000002
  0
LINE
  8
_0-0_0
  6
CONTINUOUS
 62
    7
 10
192.57611099999997
 20
411.26559400000002
 11
192.59448199999997
 21
411.28796399999999
  0
LINE
  8
_0-0_0
  6
CONTINUOUS
 62
    7
 10
192.59448199999997
 20
411.28796399999999
 11
192.60726899999997
 21
411.29861499999998
  0
LINE
  8
_0-0_0
  6
CONTINUOUS
 62
    7
 10
192.60726899999997
 20
411.29861499999998
 11
192.61187699999996
 21
411.29998799999998
  0
LINE
  8
_0-0_0
  6
CONTINUOUS
 62
    7
 10
192.61408999999998
 20
391.10000600000001
 11
192.65541099999999
 21
391.10000600000001
  0
LINE
  8
_0-0_0
  6
CONTINUOUS
 62
    7
 10
192.71673599999997
 20
391.10000600000001
 11
192.65541099999999
 21
391.10000600000001
  0
LINE
  8
_0-0_0
  6
CONTINUOUS
 62
    7
 10
192.65541099999999
 20
391.10000600000001
 11
192.66497799999999
 21
391.09896900000001
  0
LINE
  8
_0-0_0
  6
CONTINUOUS
 62
    7
 10
192.66497799999999
 20
391.09896900000001
 11
192.67446899999999
 21
391.09576399999997
  0
LINE
  8
_0-0_0
  6
CONTINUOUS
 62
    7
 10
192.67446899999999
 20
391.09576399999997
 11
192.68371599999998
 21
391.09039300000001
  0
LINE
  8
_0-0_0
  6
CONTINUOUS
 62
    7
 10
192.68371599999998
 20
391.09039300000001
 11
192.69250499999998
 21
391.08288599999997
  0
LINE
  8
_0-0_0
  6
CONTINUOUS
 62
    7
 10
192.69250499999998
 20
391.08288599999997
 11
192.70791599999998
 21
391.06222500000001
  0
LINE
  8
_0-0_0
  6
CONTINUOUS
 62
    7
 10
192.70791599999998
 20
391.06222500000001
 11
192.71969599999997
 21
391.034943
  0
LINE
  8
_0-0_0
  6
CONTINUOUS
 62
    7
 10
192.71969599999997
 20
391.034943
 11
192.72686799999997
 21
391.002838
  0
LINE
  8
_0-0_0
  6
CONTINUOUS
 62
    7
 10
192.72686799999997
 20
391.002838
 11
192.72875999999997
 21
390.96777300000002
  0
LINE
  8
_0-0_0
  6
CONTINUOUS
 62
    7
 10
192.72875999999997
 20
390.96777300000002
 11
192.72491399999998
 21
390.93160999999998
  0
LINE
  8
_0-0_0
  6
CONTINUOUS
 62
    7
 10
192.72491399999998
 20
390.93160999999998
 11
192.71671999999998
 21
390.89999399999999
  0
ARC
  8
_0-0_0
  6
CONTINUOUS
 62
    7
 10
190.71673599999997
 20
392.39999399999999
 40
2.2999999999999998
 50
280.28656300000006
 51
325.58260500000006
  0
LINE
  8
_0-0_0
  6
CONTINUOUS
 62
    7
 10
192.41673299999997
 20
387.89999399999999
 11
191.21673599999997
 21
387.89999399999999
  0
LINE
  8
_0-0_0
  6
CONTINUOUS
 62
    7
 10
192.41673299999997
 20
387
 11
175.41673299999997
 21
387
  0
LINE
  8
_0-0_0
  6
CONTINUOUS
 62
    7
 10
175.71671999999998
 20
404.20001200000002
 11
175.41673299999997
 21
404.20001200000002
  0
ARC
  8
_0-0_0
  6
CONTINUOUS
 62
    7
 10
176.21673599999997
 20
396.39999399999999
 40
0.5
 50
179.99999099999999
 51
269.99999700000001
  0
CIRCLE
  8
_0-0_0
  6
CONTINUOUS
 62
    7
 10
178.21673599999997
 20
392.89999399999999
 40
2.5
  0
LINE
  8
_0-0_0
  6
CONTINUOUS
 62
    7
 10
181.21673599999997
 20
390.39999399999999
 11
178.21673599999997
 21
390.39999399999999
  0
LINE
  8
_0-0_0
  6
CONTINUOUS
 62
    7
 10
181.71673599999997
 20
390.39999399999999
 11
181.21673599999997
 21
390.39999399999999
  0
ARC
  8
_0-0_0
  6
CONTINUOUS
 62
    7
 10
177.71673599999997
 20
392.39999399999999
 40
2
 50
179.99999099999999
 51
269.99999700000001
  0
LINE
  8
_0-0_0
  6
CONTINUOUS
 62
    7
 10
178.21673599999997
 20
390.39999399999999
 11
177.71673599999997
 21
390.39999399999999
  0
LINE
  8
_0-0_0
  6
CONTINUOUS
 62
    7
 10
177.71673599999997
 20
411.89736900000003
 11
177.70085099999997
 21
411.924622
  0
LINE
  8
_0-0_0
  6
CONTINUOUS
 62
    7
 10
177.70085099999997
 20
411.924622
 11
177.68499699999998
 21
411.94760100000002
  0
LINE
  8
_0-0_0
  6
CONTINUOUS
 62
    7
 10
177.68499699999998
 20
411.94760100000002
 11
177.67102
 21
411.96435500000001
  0
LINE
  8
_0-0_0
  6
CONTINUOUS
 62
    7
 10
177.67102
 20
411.96435500000001
 11
177.65711999999996
 21
411.97769199999999
  0
LINE
  8
_0-0_0
  6
CONTINUOUS
 62
    7
 10
177.65711999999996
 20
411.97769199999999
 11
177.64491299999997
 21
411.986603
  0
LINE
  8
_0-0_0
  6
CONTINUOUS
 62
    7
 10
177.64491299999997
 20
411.986603
 11
177.63279699999998
 21
411.99282799999997
  0
LINE
  8
_0-0_0
  6
CONTINUOUS
 62
    7
 10
177.63279699999998
 20
411.99282799999997
 11
177.62191799999999
 21
411.99609400000003
  0
LINE
  8
_0-0_0
  6
CONTINUOUS
 62
    7
 10
177.62191799999999
 20
411.99609400000003
 11
177.61115999999998
 21
411.997162
  0
LINE
  8
_0-0_0
  6
CONTINUOUS
 62
    7
 10
177.61115999999998
 20
411.997162
 11
177.60870399999999
 21
411.99707000000001
  0
LINE
  8
_0-0_0
  6
CONTINUOUS
 62
    7
 10
192.71673599999997
 20
409.5
 11
192.71673599999997
 21
410
  0
CIRCLE
  8
_0-0_0
  6
CONTINUOUS
 62
    7
 10
190.21673599999997
 20
409.5
 40
2.5
  0
LINE
  8
_0-0_0
  6
CONTINUOUS
 62
    7
 10
192.71673599999997
 20
406.5
 11
192.71673599999997
 21
406
  0
LINE
  8
_0-0_0
  6
CONTINUOUS
 62
    7
 10
192.71673599999997
 20
406.5
 11
192.71673599999997
 21
409.5
  0
ARC
  8
_0-0_0
  6
CONTINUOUS
 62
    7
 10
186.71673599999997
 20
411.5
 40
0.5
 50
0
 51
90.000003000000007
  0
LINE
  8
_0-0_0
  6
CONTINUOUS
 62
    7
 10
192.71673599999997
 20
392.39999399999999
 11
192.71673599999997
 21
406
  0
LINE
  8
_0-0_0
  6
CONTINUOUS
 62
    7
 10
174.71673599999997
 20
413
 11
174.71673599999997
 21
410.40048200000001
  0
LINE
  8
_0-0_0
  6
CONTINUOUS
 62
    7
 10
175.41673299999997
 20
398.20001200000002
 11
175.71671999999998
 21
398.20001200000002
  0
LINE
  8
_0-0_0
  6
CONTINUOUS
 62
    7
 10
192.91673299999997
 20
413.800049
 11
192.91673299999997
 21
414
  0
ARC
  8
_0-0_0
  6
CONTINUOUS
 62
    7
 10
190.71673599999997
 20
392.39999399999999
 40
2
 50
273.84026500000004
 51
0.000010000000014
  0
LINE
  8
_0-0_0
  6
CONTINUOUS
 62
    7
 10
190.71673599999997
 20
390.39999399999999
 11
181.71673599999997
 21
390.39999399999999
  0
ARC
  8
_0-0_0
  6
CONTINUOUS
 62
    7
 10
191.21673599999997
 20
389.64501999999999
 40
0.5
 50
100.28656100000001
 51
179.99999099999999
  0
LINE
  8
_0-0_0
  6
CONTINUOUS
 62
    7
 10
190.71673599999997
 20
388.39999399999999
 11
190.71673599999997
 21
389.64501999999999
  0
ARC
  8
_0-0_0
  6
CONTINUOUS
 62
    7
 10
191.21673599999997
 20
388.39999399999999
 40
0.5
 50
179.99999099999999
 51
269.99999700000001
  0
LINE
  8
_0-0_0
  6
CONTINUOUS
 62
    7
 10
176.293701
 20
395.89999399999999
 11
176.21673599999997
 21
395.89999399999999
  0
LINE
  8
_0-0_0
  6
CONTINUOUS
 62
    7
 10
178.21673599999997
 20
395.89999399999999
 11
177.73522899999998
 21
395.89999399999999
  0
LINE
  8
_0-0_0
  6
CONTINUOUS
 62
    7
 10
177.73522899999998
 20
395.89999399999999
 11
176.293701
 21
395.89999399999999
  0
LINE
  8
_0-0_0
  6
CONTINUOUS
 62
    7
 10
181.21673599999997
 20
390.89999399999999
 11
181.21673599999997
 21
390.97699
  0
LINE
  8
_0-0_0
  6
CONTINUOUS
 62
    7
 10
181.21673599999997
 20
392.41848800000002
 11
181.21673599999997
 21
390.97699
  0
LINE
  8
_0-0_0
  6
CONTINUOUS
 62
    7
 10
181.21673599999997
 20
392.41848800000002
 11
181.21673599999997
 21
392.89999399999999
  0
ARC
  8
_0-0_0
  6
CONTINUOUS
 62
    7
 10
178.21673599999997
 20
392.89999399999999
 40
3
 50
0
 51
89.999995999999996
  0
ARC
  8
_0-0_0
  6
CONTINUOUS
 62
    7
 10
181.71673599999997
 20
390.89999399999999
 40
0.5
 50
179.99999099999999
 51
269.99999700000001
  0
LINE
  8
_0-0_0
  6
CONTINUOUS
 62
    7
 10
187.21673599999997
 20
411.42303500000003
 11
187.21673599999997
 21
411.5
  0
LINE
  8
_0-0_0
  6
CONTINUOUS
 62
    7
 10
187.21673599999997
 20
409.98150600000002
 11
187.21673599999997
 21
411.42303500000003
  0
LINE
  8
_0-0_0
  6
CONTINUOUS
 62
    7
 10
187.21673599999997
 20
409.5
 11
187.21673599999997
 21
409.98150600000002
  0
ARC
  8
_0-0_0
  6
CONTINUOUS
 62
    7
 10
190.21673599999997
 20
409.5
 40
3
 50
179.99999099999999
 51
269.99999700000001
  0
LINE
  8
_0-0_0
  6
CONTINUOUS
 62
    7
 10
190.69822699999997
 20
406.5
 11
190.21673599999997
 21
406.5
  0
LINE
  8
_0-0_0
  6
CONTINUOUS
 62
    7
 10
190.69822699999997
 20
406.5
 11
192.13975499999998
 21
406.5
  0
LINE
  8
_0-0_0
  6
CONTINUOUS
 62
    7
 10
192.21673599999997
 20
406.5
 11
192.13975499999998
 21
406.5
  0
ARC
  8
_0-0_0
  6
CONTINUOUS
 62
    7
 10
192.21673599999997
 20
406
 40
0.5
 50
0
 51
90.000003000000007
  0
LINE
  8
_0-0_0
  6
CONTINUOUS
 62
    7
 10
190.71673599999997
 20
390.50262500000002
 11
190.73260499999998
 21
390.47537199999999
  0
LINE
  8
_0-0_0
  6
CONTINUOUS
 62
    7
 10
190.73260499999998
 20
390.47537199999999
 11
190.74845899999997
 21
390.45239299999997
  0
LINE
  8
_0-0_0
  6
CONTINUOUS
 62
    7
 10
190.74845899999997
 20
390.45239299999997
 11
190.76243599999998
 21
390.43563799999998
  0
LINE
  8
_0-0_0
  6
CONTINUOUS
 62
    7
 10
190.76243599999998
 20
390.43563799999998
 11
190.77633699999998
 21
390.42233299999998
  0
LINE
  8
_0-0_0
  6
CONTINUOUS
 62
    7
 10
190.77633699999998
 20
390.42233299999998
 11
190.78854399999997
 21
390.41339099999999
  0
LINE
  8
_0-0_0
  6
CONTINUOUS
 62
    7
 10
190.78854399999997
 20
390.41339099999999
 11
190.80067399999999
 21
390.40716600000002
  0
LINE
  8
_0-0_0
  6
CONTINUOUS
 62
    7
 10
190.80067399999999
 20
390.40716600000002
 11
190.81153899999998
 21
390.40390000000002
  0
LINE
  8
_0-0_0
  6
CONTINUOUS
 62
    7
 10
190.81153899999998
 20
390.40390000000002
 11
190.82229599999997
 21
390.40286300000002
  0
LINE
  8
_0-0_0
  6
CONTINUOUS
 62
    7
 10
190.82229599999997
 20
390.40286300000002
 11
190.82475299999999
 21
390.40292399999998
  0
ARC
  8
_0-0_0
  6
CONTINUOUS
 62
    7
 10
180.98661799999996
 20
400.02676400000001
 40
3.063399
 50
199.82113599999997
 51
205.28948099999999
  0
ARC
  8
_0-0_0
  6
CONTINUOUS
 62
    7
 10
180.98629799999998
 20
402.37338299999999
 40
3.0630549999999999
 50
154.710137
 51
160.17869999999999
  0
ARC
  8
_0-0_0
  6
CONTINUOUS
 62
    7
 10
184.21673599999997
 20
401.20001200000002
 40
6.5
 50
160.10415599999999
 51
199.895612
  0
ARC
  8
_0-0_0
  6
CONTINUOUS
 62
    7
 10
187.44683799999999
 20
402.37322999999998
 40
3.0633949999999999
 50
19.82113
 51
25.289566000000001
  0
ARC
  8
_0-0_0
  6
CONTINUOUS
 62
    7
 10
187.44715899999997
 20
400.026611
 40
3.0630519999999999
 50
334.71006
 51
340.17869200000001
  0
LINE
  8
_0-0_0
  6
CONTINUOUS
 62
    7
 10
184.95840399999997
 20
394.70001200000002
 11
189.47505199999998
 21
397.30767800000001
  0
LINE
  8
_0-0_0
  6
CONTINUOUS
 62
    7
 10
183.47505199999998
 20
394.70001200000002
 11
184.95840399999997
 21
394.70001200000002
  0
LINE
  8
_0-0_0
  6
CONTINUOUS
 62
    7
 10
178.95840399999997
 20
397.30767800000001
 11
183.47505199999998
 21
394.70001200000002
  0
LINE
  8
_0-0_0
  6
CONTINUOUS
 62
    7
 10
178.21673599999997
 20
403.80767800000001
 11
178.21673599999997
 21
398.59231599999998
  0
LINE
  8
_0-0_0
  6
CONTINUOUS
 62
    7
 10
178.95840399999997
 20
397.30767800000001
 11
178.21673599999997
 21
398.59231599999998
  0
LINE
  8
_0-0_0
  6
CONTINUOUS
 62
    7
 10
183.47505199999998
 20
407.70001200000002
 11
178.95840399999997
 21
405.09231599999998
  0
LINE
  8
_0-0_0
  6
CONTINUOUS
 62
    7
 10
178.66427599999997
 20
404.582855
 11
178.21673599999997
 21
403.80767800000001
  0
LINE
  8
_0-0_0
  6
CONTINUOUS
 62
    7
 10
178.66427599999997
 20
404.582855
 11
178.95840399999997
 21
405.09231599999998
  0
LINE
  8
_0-0_0
  6
CONTINUOUS
 62
    7
 10
184.95840399999997
 20
407.70001200000002
 11
183.47505199999998
 21
407.70001200000002
  0
LINE
  8
_0-0_0
  6
CONTINUOUS
 62
    7
 10
189.47505199999998
 20
405.09231599999998
 11
184.95840399999997
 21
407.70001200000002
  0
ARC
  8
_0-0_0
  6
CONTINUOUS
 62
    7
 10
184.21673599999997
 20
401.20001200000002
 40
6.5
 50
340.10416099999998
 51
19.895609999999952
  0
LINE
  8
_0-0_0
  6
CONTINUOUS
 62
    7
 10
189.76917999999998
 20
397.817139
 11
190.21673599999997
 21
398.59231599999998
  0
LINE
  8
_0-0_0
  6
CONTINUOUS
 62
    7
 10
189.76917999999998
 20
397.817139
 11
189.47505199999998
 21
397.30767800000001
  0
CIRCLE
  8
_0-0_0
  6
CONTINUOUS
 62
    7
 10
184.21673599999997
 20
401.20001200000002
 40
5.25
  0
LINE
  8
_0-0_0
  6
CONTINUOUS
 62
    7
 10
190.21673599999997
 20
403.80767800000001
 11
190.21673599999997
 21
398.59231599999998
  0
LINE
  8
_0-0_0
  6
CONTINUOUS
 62
    7
 10
189.47505199999998
 20
405.09231599999998
 11
190.21673599999997
 21
403.80767800000001
  0
LINE
  8
_0-0_0
  6
CONTINUOUS
 62
    7
 10
192.10372899999999
 20
410.72543300000001
 11
192.38178999999997
 21
410.75
  0
LINE
  8
_0-0_0
  6
CONTINUOUS
 62
    7
 10
192.22149599999997
 20
410.52148399999999
 11
192.38178999999997
 21
410.75
  0
LINE
  8
_0-0_0
  6
CONTINUOUS
 62
    7
 10
191.96530099999998
 20
410.915955
 11
192.23927299999997
 21
410.96945199999999
  0
LINE
  8
_0-0_0
  6
CONTINUOUS
 62
    7
 10
192.10372899999999
 20
410.72543300000001
 11
192.23927299999997
 21
410.96945199999999
  0
LINE
  8
_0-0_0
  6
CONTINUOUS
 62
    7
 10
191.80772399999998
 20
411.091003
 11
192.07458499999998
 21
411.172821
  0
LINE
  8
_0-0_0
  6
CONTINUOUS
 62
    7
 10
191.96530099999998
 20
410.915955
 11
192.07458499999998
 21
411.172821
  0
LINE
  8
_0-0_0
  6
CONTINUOUS
 62
    7
 10
191.63270599999998
 20
411.24856599999998
 11
191.88955699999997
 21
411.35784899999999
  0
LINE
  8
_0-0_0
  6
CONTINUOUS
 62
    7
 10
191.80772399999998
 20
411.091003
 11
191.88955699999997
 21
411.35784899999999
  0
LINE
  8
_0-0_0
  6
CONTINUOUS
 62
    7
 10
191.44216899999998
 20
411.387024
 11
191.68618799999999
 21
411.52255200000002
  0
LINE
  8
_0-0_0
  6
CONTINUOUS
 62
    7
 10
191.63270599999998
 20
411.24856599999998
 11
191.68618799999999
 21
411.52255200000002
  0
LINE
  8
_0-0_0
  6
CONTINUOUS
 62
    7
 10
191.23820499999997
 20
411.50476099999997
 11
191.46673599999997
 21
411.66507000000001
  0
LINE
  8
_0-0_0
  6
CONTINUOUS
 62
    7
 10
191.44216899999998
 20
411.387024
 11
191.46673599999997
 21
411.66507000000001
  0
LINE
  8
_0-0_0
  6
CONTINUOUS
 62
    7
 10
191.02305599999997
 20
411.60055499999999
 11
191.23356599999997
 21
411.78387500000002
  0
LINE
  8
_0-0_0
  6
CONTINUOUS
 62
    7
 10
191.23820499999997
 20
411.50476099999997
 11
191.23356599999997
 21
411.78387500000002
  0
LINE
  8
_0-0_0
  6
CONTINUOUS
 62
    7
 10
190.79907199999997
 20
411.67334
 11
190.98927299999997
 21
411.87762500000002
  0
LINE
  8
_0-0_0
  6
CONTINUOUS
 62
    7
 10
191.02305599999997
 20
411.60055499999999
 11
190.98927299999997
 21
411.87762500000002
  0
LINE
  8
_0-0_0
  6
CONTINUOUS
 62
    7
 10
190.56870999999998
 20
411.72228999999999
 11
190.73651099999998
 21
411.94537400000002
  0
LINE
  8
_0-0_0
  6
CONTINUOUS
 62
    7
 10
190.79907199999997
 20
411.67334
 11
190.73651099999998
 21
411.94537400000002
  0
LINE
  8
_0-0_0
  6
CONTINUOUS
 62
    7
 10
190.33448799999996
 20
411.74691799999999
 11
190.47805799999998
 21
411.98629799999998
  0
LINE
  8
_0-0_0
  6
CONTINUOUS
 62
    7
 10
190.56870999999998
 20
411.72228999999999
 11
190.47805799999998
 21
411.98629799999998
  0
LINE
  8
_0-0_0
  6
CONTINUOUS
 62
    7
 10
190.09896799999999
 20
411.74691799999999
 11
190.21673599999997
 21
412
  0
LINE
  8
_0-0_0
  6
CONTINUOUS
 62
    7
 10
190.33448799999996
 20
411.74691799999999
 11
190.21673599999997
 21
412
  0
LINE
  8
_0-0_0
  6
CONTINUOUS
 62
    7
 10
189.86474599999997
 20
411.72228999999999
 11
189.95541399999999
 21
411.98629799999998
  0
LINE
  8
_0-0_0
  6
CONTINUOUS
 62
    7
 10
190.09896799999999
 20
411.74691799999999
 11
189.95541399999999
 21
411.98629799999998
  0
LINE
  8
_0-0_0
  6
CONTINUOUS
 62
    7
 10
189.63438399999998
 20
411.67334
 11
189.69694499999997
 21
411.94537400000002
  0
LINE
  8
_0-0_0
  6
CONTINUOUS
 62
    7
 10
189.86474599999997
 20
411.72228999999999
 11
189.69694499999997
 21
411.94537400000002
  0
LINE
  8
_0-0_0
  6
CONTINUOUS
 62
    7
 10
189.41039999999998
 20
411.60055499999999
 11
189.44418299999998
 21
411.87762500000002
  0
LINE
  8
_0-0_0
  6
CONTINUOUS
 62
    7
 10
189.63438399999998
 20
411.67334
 11
189.44418299999998
 21
411.87762500000002
  0
LINE
  8
_0-0_0
  6
CONTINUOUS
 62
    7
 10
189.19525099999998
 20
411.50476099999997
 11
189.19988999999998
 21
411.78387500000002
  0
LINE
  8
_0-0_0
  6
CONTINUOUS
 62
    7
 10
189.41039999999998
 20
411.60055499999999
 11
189.19988999999998
 21
411.78387500000002
  0
LINE
  8
_0-0_0
  6
CONTINUOUS
 62
    7
 10
189.07571399999998
 20
411.58862299999998
 11
188.96673599999997
 21
411.66507000000001
  0
LINE
  8
_0-0_0
  6
CONTINUOUS
 62
    7
 10
189.19525099999998
 20
411.50476099999997
 11
189.07571399999998
 21
411.58862299999998
  0
LINE
  8
_0-0_0
  6
CONTINUOUS
 62
    7
 10
188.99128699999997
 20
411.387024
 11
188.96673599999997
 21
411.66507000000001
  0
LINE
  8
_0-0_0
  6
CONTINUOUS
 62
    7
 10
188.80075099999999
 20
411.24856599999998
 11
188.74726899999999
 21
411.52255200000002
  0
LINE
  8
_0-0_0
  6
CONTINUOUS
 62
    7
 10
188.99128699999997
 20
411.387024
 11
188.74726899999999
 21
411.52255200000002
  0
LINE
  8
_0-0_0
  6
CONTINUOUS
 62
    7
 10
188.62573199999997
 20
411.091003
 11
188.54389899999998
 21
411.35784899999999
  0
LINE
  8
_0-0_0
  6
CONTINUOUS
 62
    7
 10
188.80075099999999
 20
411.24856599999998
 11
188.54389899999998
 21
411.35784899999999
  0
LINE
  8
_0-0_0
  6
CONTINUOUS
 62
    7
 10
188.46815499999997
 20
410.915955
 11
188.35887099999997
 21
411.172821
  0
LINE
  8
_0-0_0
  6
CONTINUOUS
 62
    7
 10
188.62573199999997
 20
411.091003
 11
188.35887099999997
 21
411.172821
  0
LINE
  8
_0-0_0
  6
CONTINUOUS
 62
    7
 10
188.32971199999997
 20
410.72543300000001
 11
188.19418299999998
 21
410.96945199999999
  0
LINE
  8
_0-0_0
  6
CONTINUOUS
 62
    7
 10
188.46815499999997
 20
410.915955
 11
188.19418299999998
 21
410.96945199999999
  0
LINE
  8
_0-0_0
  6
CONTINUOUS
 62
    7
 10
188.21195999999998
 20
410.52148399999999
 11
188.05166599999998
 21
410.75
  0
LINE
  8
_0-0_0
  6
CONTINUOUS
 62
    7
 10
188.32971199999997
 20
410.72543300000001
 11
188.05166599999998
 21
410.75
  0
LINE
  8
_0-0_0
  6
CONTINUOUS
 62
    7
 10
188.11617999999999
 20
410.30633499999999
 11
187.93286099999997
 21
410.51684599999999
  0
LINE
  8
_0-0_0
  6
CONTINUOUS
 62
    7
 10
188.21195999999998
 20
410.52148399999999
 11
187.93286099999997
 21
410.51684599999999
  0
LINE
  8
_0-0_0
  6
CONTINUOUS
 62
    7
 10
188.04339599999997
 20
410.082336
 11
187.83908099999996
 21
410.27255200000002
  0
LINE
  8
_0-0_0
  6
CONTINUOUS
 62
    7
 10
188.11617999999999
 20
410.30633499999999
 11
187.83908099999996
 21
410.27255200000002
  0
LINE
  8
_0-0_0
  6
CONTINUOUS
 62
    7
 10
187.99442999999997
 20
409.85199
 11
187.77136199999998
 21
410.01977499999998
  0
LINE
  8
_0-0_0
  6
CONTINUOUS
 62
    7
 10
188.04339599999997
 20
410.082336
 11
187.77136199999998
 21
410.01977499999998
  0
LINE
  8
_0-0_0
  6
CONTINUOUS
 62
    7
 10
187.99442999999997
 20
409.85199
 11
187.73042299999997
 21
409.76132200000001
  0
LINE
  8
_0-0_0
  6
CONTINUOUS
 62
    7
 10
187.96981799999998
 20
409.61776700000001
 11
187.73042299999997
 21
409.76132200000001
  0
LINE
  8
_0-0_0
  6
CONTINUOUS
 62
    7
 10
187.96981799999998
 20
409.38223299999999
 11
187.71673599999997
 21
409.5
  0
LINE
  8
_0-0_0
  6
CONTINUOUS
 62
    7
 10
187.96981799999998
 20
409.61776700000001
 11
187.71673599999997
 21
409.5
  0
LINE
  8
_0-0_0
  6
CONTINUOUS
 62
    7
 10
187.99442999999997
 20
409.14801
 11
187.73042299999997
 21
409.23867799999999
  0
LINE
  8
_0-0_0
  6
CONTINUOUS
 62
    7
 10
187.96981799999998
 20
409.38223299999999
 11
187.73042299999997
 21
409.23867799999999
  0
LINE
  8
_0-0_0
  6
CONTINUOUS
 62
    7
 10
188.04339599999997
 20
408.917664
 11
187.77136199999998
 21
408.98022500000002
  0
LINE
  8
_0-0_0
  6
CONTINUOUS
 62
    7
 10
187.99442999999997
 20
409.14801
 11
187.77136199999998
 21
408.98022500000002
  0
LINE
  8
_0-0_0
  6
CONTINUOUS
 62
    7
 10
188.11617999999999
 20
408.69366500000001
 11
187.83908099999996
 21
408.72744799999998
  0
LINE
  8
_0-0_0
  6
CONTINUOUS
 62
    7
 10
188.04339599999997
 20
408.917664
 11
187.83908099999996
 21
408.72744799999998
  0
LINE
  8
_0-0_0
  6
CONTINUOUS
 62
    7
 10
188.21195999999998
 20
408.47851600000001
 11
187.93286099999997
 21
408.48315400000001
  0
LINE
  8
_0-0_0
  6
CONTINUOUS
 62
    7
 10
188.11617999999999
 20
408.69366500000001
 11
187.93286099999997
 21
408.48315400000001
  0
LINE
  8
_0-0_0
  6
CONTINUOUS
 62
    7
 10
188.32971199999997
 20
408.27456699999999
 11
188.05166599999998
 21
408.25
  0
LINE
  8
_0-0_0
  6
CONTINUOUS
 62
    7
 10
188.21195999999998
 20
408.47851600000001
 11
188.05166599999998
 21
408.25
  0
LINE
  8
_0-0_0
  6
CONTINUOUS
 62
    7
 10
188.46815499999997
 20
408.084045
 11
188.19418299999998
 21
408.03054800000001
  0
LINE
  8
_0-0_0
  6
CONTINUOUS
 62
    7
 10
188.32971199999997
 20
408.27456699999999
 11
188.19418299999998
 21
408.03054800000001
  0
LINE
  8
_0-0_0
  6
CONTINUOUS
 62
    7
 10
188.62573199999997
 20
407.908997
 11
188.35887099999997
 21
407.827179
  0
LINE
  8
_0-0_0
  6
CONTINUOUS
 62
    7
 10
188.46815499999997
 20
408.084045
 11
188.35887099999997
 21
407.827179
  0
LINE
  8
_0-0_0
  6
CONTINUOUS
 62
    7
 10
188.80075099999999
 20
407.75143400000002
 11
188.54389899999998
 21
407.64215100000001
  0
LINE
  8
_0-0_0
  6
CONTINUOUS
 62
    7
 10
188.62573199999997
 20
407.908997
 11
188.54389899999998
 21
407.64215100000001
  0
LINE
  8
_0-0_0
  6
CONTINUOUS
 62
    7
 10
188.99128699999997
 20
407.612976
 11
188.74726899999999
 21
407.47744799999998
  0
LINE
  8
_0-0_0
  6
CONTINUOUS
 62
    7
 10
188.80075099999999
 20
407.75143400000002
 11
188.74726899999999
 21
407.47744799999998
  0
LINE
  8
_0-0_0
  6
CONTINUOUS
 62
    7
 10
189.19525099999998
 20
407.49523900000003
 11
188.96673599999997
 21
407.33492999999999
  0
LINE
  8
_0-0_0
  6
CONTINUOUS
 62
    7
 10
188.99128699999997
 20
407.612976
 11
188.96673599999997
 21
407.33492999999999
  0
LINE
  8
_0-0_0
  6
CONTINUOUS
 62
    7
 10
189.41039999999998
 20
407.39944500000001
 11
189.19988999999998
 21
407.21612499999998
  0
LINE
  8
_0-0_0
  6
CONTINUOUS
 62
    7
 10
189.19525099999998
 20
407.49523900000003
 11
189.19988999999998
 21
407.21612499999998
  0
LINE
  8
_0-0_0
  6
CONTINUOUS
 62
    7
 10
189.63438399999998
 20
407.32666
 11
189.44418299999998
 21
407.12237499999998
  0
LINE
  8
_0-0_0
  6
CONTINUOUS
 62
    7
 10
189.41039999999998
 20
407.39944500000001
 11
189.44418299999998
 21
407.12237499999998
  0
LINE
  8
_0-0_0
  6
CONTINUOUS
 62
    7
 10
189.86474599999997
 20
407.27771000000001
 11
189.69694499999997
 21
407.05462599999998
  0
LINE
  8
_0-0_0
  6
CONTINUOUS
 62
    7
 10
189.63438399999998
 20
407.32666
 11
189.69694499999997
 21
407.05462599999998
  0
LINE
  8
_0-0_0
  6
CONTINUOUS
 62
    7
 10
190.09896799999999
 20
407.25308200000001
 11
189.95541399999999
 21
407.01370200000002
  0
LINE
  8
_0-0_0
  6
CONTINUOUS
 62
    7
 10
189.86474599999997
 20
407.27771000000001
 11
189.95541399999999
 21
407.01370200000002
  0
LINE
  8
_0-0_0
  6
CONTINUOUS
 62
    7
 10
190.33448799999996
 20
407.25308200000001
 11
190.21673599999997
 21
407
  0
LINE
  8
_0-0_0
  6
CONTINUOUS
 62
    7
 10
190.09896799999999
 20
407.25308200000001
 11
190.21673599999997
 21
407
  0
LINE
  8
_0-0_0
  6
CONTINUOUS
 62
    7
 10
190.56870999999998
 20
407.27771000000001
 11
190.47805799999998
 21
407.01370200000002
  0
LINE
  8
_0-0_0
  6
CONTINUOUS
 62
    7
 10
190.33448799999996
 20
407.25308200000001
 11
190.47805799999998
 21
407.01370200000002
  0
LINE
  8
_0-0_0
  6
CONTINUOUS
 62
    7
 10
190.79907199999997
 20
407.32666
 11
190.73651099999998
 21
407.05462599999998
  0
LINE
  8
_0-0_0
  6
CONTINUOUS
 62
    7
 10
190.56870999999998
 20
407.27771000000001
 11
190.73651099999998
 21
407.05462599999998
  0
LINE
  8
_0-0_0
  6
CONTINUOUS
 62
    7
 10
191.02305599999997
 20
407.39944500000001
 11
190.98927299999997
 21
407.12237499999998
  0
LINE
  8
_0-0_0
  6
CONTINUOUS
 62
    7
 10
190.79907199999997
 20
407.32666
 11
190.98927299999997
 21
407.12237499999998
  0
LINE
  8
_0-0_0
  6
CONTINUOUS
 62
    7
 10
191.23820499999997
 20
407.49523900000003
 11
191.23356599999997
 21
407.21612499999998
  0
LINE
  8
_0-0_0
  6
CONTINUOUS
 62
    7
 10
191.02305599999997
 20
407.39944500000001
 11
191.23356599999997
 21
407.21612499999998
  0
LINE
  8
_0-0_0
  6
CONTINUOUS
 62
    7
 10
191.35774199999997
 20
407.41137700000002
 11
191.46673599999997
 21
407.33492999999999
  0
LINE
  8
_0-0_0
  6
CONTINUOUS
 62
    7
 10
191.23820499999997
 20
407.49523900000003
 11
191.35774199999997
 21
407.41137700000002
  0
LINE
  8
_0-0_0
  6
CONTINUOUS
 62
    7
 10
191.44216899999998
 20
407.612976
 11
191.46673599999997
 21
407.33492999999999
  0
LINE
  8
_0-0_0
  6
CONTINUOUS
 62
    7
 10
191.63270599999998
 20
407.75143400000002
 11
191.68618799999999
 21
407.47744799999998
  0
LINE
  8
_0-0_0
  6
CONTINUOUS
 62
    7
 10
191.44216899999998
 20
407.612976
 11
191.68618799999999
 21
407.47744799999998
  0
LINE
  8
_0-0_0
  6
CONTINUOUS
 62
    7
 10
191.80772399999998
 20
407.908997
 11
191.88955699999997
 21
407.64215100000001
  0
LINE
  8
_0-0_0
  6
CONTINUOUS
 62
    7
 10
191.63270599999998
 20
407.75143400000002
 11
191.88955699999997
 21
407.64215100000001
  0
LINE
  8
_0-0_0
  6
CONTINUOUS
 62
    7
 10
191.96530099999998
 20
408.084045
 11
192.07458499999998
 21
407.827179
  0
LINE
  8
_0-0_0
  6
CONTINUOUS
 62
    7
 10
191.80772399999998
 20
407.908997
 11
192.07458499999998
 21
407.827179
  0
LINE
  8
_0-0_0
  6
CONTINUOUS
 62
    7
 10
192.10372899999999
 20
408.27456699999999
 11
192.23927299999997
 21
408.03054800000001
  0
LINE
  8
_0-0_0
  6
CONTINUOUS
 62
    7
 10
191.96530099999998
 20
408.084045
 11
192.23927299999997
 21
408.03054800000001
  0
LINE
  8
_0-0_0
  6
CONTINUOUS
 62
    7
 10
192.22149599999997
 20
408.47851600000001
 11
192.38178999999997
 21
408.25
  0
LINE
  8
_0-0_0
  6
CONTINUOUS
 62
    7
 10
192.10372899999999
 20
408.27456699999999
 11
192.38178999999997
 21
408.25
  0
LINE
  8
_0-0_0
  6
CONTINUOUS
 62
    7
 10
192.31729099999998
 20
408.69366500000001
 11
192.50059499999998
 21
408.48315400000001
  0
LINE
  8
_0-0_0
  6
CONTINUOUS
 62
    7
 10
192.22149599999997
 20
408.47851600000001
 11
192.50059499999998
 21
408.48315400000001
  0
LINE
  8
_0-0_0
  6
CONTINUOUS
 62
    7
 10
192.39005999999998
 20
408.917664
 11
192.59437599999998
 21
408.72744799999998
  0
LINE
  8
_0-0_0
  6
CONTINUOUS
 62
    7
 10
192.31729099999998
 20
408.69366500000001
 11
192.59437599999998
 21
408.72744799999998
  0
LINE
  8
_0-0_0
  6
CONTINUOUS
 62
    7
 10
192.43902599999998
 20
409.14801
 11
192.66209399999997
 21
408.98022500000002
  0
LINE
  8
_0-0_0
  6
CONTINUOUS
 62
    7
 10
192.39005999999998
 20
408.917664
 11
192.66209399999997
 21
408.98022500000002
  0
LINE
  8
_0-0_0
  6
CONTINUOUS
 62
    7
 10
192.46363799999997
 20
409.38223299999999
 11
192.70303299999998
 21
409.23867799999999
  0
LINE
  8
_0-0_0
  6
CONTINUOUS
 62
    7
 10
192.43902599999998
 20
409.14801
 11
192.70303299999998
 21
409.23867799999999
  0
LINE
  8
_0-0_0
  6
CONTINUOUS
 62
    7
 10
192.46363799999997
 20
409.61776700000001
 11
192.71673599999997
 21
409.5
  0
LINE
  8
_0-0_0
  6
CONTINUOUS
 62
    7
 10
192.46363799999997
 20
409.38223299999999
 11
192.71673599999997
 21
409.5
  0
LINE
  8
_0-0_0
  6
CONTINUOUS
 62
    7
 10
192.43902599999998
 20
409.85199
 11
192.70303299999998
 21
409.76132200000001
  0
LINE
  8
_0-0_0
  6
CONTINUOUS
 62
    7
 10
192.46363799999997
 20
409.61776700000001
 11
192.70303299999998
 21
409.76132200000001
  0
LINE
  8
_0-0_0
  6
CONTINUOUS
 62
    7
 10
192.39005999999998
 20
410.082336
 11
192.66209399999997
 21
410.01977499999998
  0
LINE
  8
_0-0_0
  6
CONTINUOUS
 62
    7
 10
192.43902599999998
 20
409.85199
 11
192.66209399999997
 21
410.01977499999998
  0
LINE
  8
_0-0_0
  6
CONTINUOUS
 62
    7
 10
192.31729099999998
 20
410.30633499999999
 11
192.59437599999998
 21
410.27255200000002
  0
LINE
  8
_0-0_0
  6
CONTINUOUS
 62
    7
 10
192.39005999999998
 20
410.082336
 11
192.59437599999998
 21
410.27255200000002
  0
LINE
  8
_0-0_0
  6
CONTINUOUS
 62
    7
 10
192.22149599999997
 20
410.52148399999999
 11
192.50059499999998
 21
410.51684599999999
  0
LINE
  8
_0-0_0
  6
CONTINUOUS
 62
    7
 10
192.31729099999998
 20
410.30633499999999
 11
192.50059499999998
 21
410.51684599999999
  0
CIRCLE
  8
_0-0_0
  6
CONTINUOUS
 62
    7
 10
190.21673599999997
 20
409.5
 40
2
  0
CIRCLE
  8
_0-0_0
  6
CONTINUOUS
 62
    7
 10
184.21673599999997
 20
401.20001200000002
 40
5
  0
LINE
  8
_0-0_0
  6
CONTINUOUS
 62
    7
 10
190.79884299999998
 20
408.5
 11
189.63461299999997
 21
408.5
  0
LINE
  8
_0-0_0
  6
CONTINUOUS
 62
    7
 10
189.63461299999997
 20
408.5
 11
189.06672699999999
 21
409.5
  0
LINE
  8
_0-0_0
  6
CONTINUOUS
 62
    7
 10
189.06672699999999
 20
409.5
 11
189.63461299999997
 21
410.5
  0
LINE
  8
_0-0_0
  6
CONTINUOUS
 62
    7
 10
189.63461299999997
 20
410.5
 11
190.79884299999998
 21
410.5
  0
LINE
  8
_0-0_0
  6
CONTINUOUS
 62
    7
 10
190.79884299999998
 20
410.5
 11
191.36672999999999
 21
409.5
  0
LINE
  8
_0-0_0
  6
CONTINUOUS
 62
    7
 10
191.36672999999999
 20
409.5
 11
190.79884299999998
 21
408.5
  0
CIRCLE
  8
_0-0_0
  6
CONTINUOUS
 62
    7
 10
184.21673599999997
 20
401.20001200000002
 40
4.5381200000000002
  0
CIRCLE
  8
_0-0_0
  6
CONTINUOUS
 62
    7
 10
184.21673599999997
 20
401.20001200000002
 40
4
  0
LINE
  8
_0-0_0
  6
CONTINUOUS
 62
    7
 10
176.32972699999999
 20
391.67456099999998
 11
176.05166599999998
 21
391.64999399999999
  0
LINE
  8
_0-0_0
  6
CONTINUOUS
 62
    7
 10
176.21195999999998
 20
391.87853999999999
 11
176.05166599999998
 21
391.64999399999999
  0
LINE
  8
_0-0_0
  6
CONTINUOUS
 62
    7
 10
176.46815499999997
 20
391.484039
 11
176.19418299999998
 21
391.430542
  0
LINE
  8
_0-0_0
  6
CONTINUOUS
 62
    7
 10
176.32972699999999
 20
391.67456099999998
 11
176.19418299999998
 21
391.430542
  0
LINE
  8
_0-0_0
  6
CONTINUOUS
 62
    7
 10
176.62574799999999
 20
391.30902099999997
 11
176.35887099999997
 21
391.22717299999999
  0
LINE
  8
_0-0_0
  6
CONTINUOUS
 62
    7
 10
176.46815499999997
 20
391.484039
 11
176.35887099999997
 21
391.22717299999999
  0
LINE
  8
_0-0_0
  6
CONTINUOUS
 62
    7
 10
176.80076599999998
 20
391.15142800000001
 11
176.54389899999998
 21
391.042145
  0
LINE
  8
_0-0_0
  6
CONTINUOUS
 62
    7
 10
176.62574799999999
 20
391.30902099999997
 11
176.54389899999998
 21
391.042145
  0
LINE
  8
_0-0_0
  6
CONTINUOUS
 62
    7
 10
176.99128699999997
 20
391.01299999999998
 11
176.74726899999996
 21
390.87744099999998
  0
LINE
  8
_0-0_0
  6
CONTINUOUS
 62
    7
 10
176.80076599999998
 20
391.15142800000001
 11
176.74726899999996
 21
390.87744099999998
  0
LINE
  8
_0-0_0
  6
CONTINUOUS
 62
    7
 10
177.19525099999998
 20
390.89523300000002
 11
176.96673599999997
 21
390.73492399999998
  0
LINE
  8
_0-0_0
  6
CONTINUOUS
 62
    7
 10
176.99128699999997
 20
391.01299999999998
 11
176.96673599999997
 21
390.73492399999998
  0
LINE
  8
_0-0_0
  6
CONTINUOUS
 62
    7
 10
177.41039999999998
 20
390.79943800000001
 11
177.19988999999998
 21
390.61611900000003
  0
LINE
  8
_0-0_0
  6
CONTINUOUS
 62
    7
 10
177.19525099999998
 20
390.89523300000002
 11
177.19988999999998
 21
390.61611900000003
  0
LINE
  8
_0-0_0
  6
CONTINUOUS
 62
    7
 10
177.63438399999998
 20
390.72668499999997
 11
177.44418299999998
 21
390.52236900000003
  0
LINE
  8
_0-0_0
  6
CONTINUOUS
 62
    7
 10
177.41039999999998
 20
390.79943800000001
 11
177.44418299999998
 21
390.52236900000003
  0
LINE
  8
_0-0_0
  6
CONTINUOUS
 62
    7
 10
177.86476099999999
 20
390.67770400000001
 11
177.69694499999997
 21
390.45461999999998
  0
LINE
  8
_0-0_0
  6
CONTINUOUS
 62
    7
 10
177.63438399999998
 20
390.72668499999997
 11
177.69694499999997
 21
390.45461999999998
  0
LINE
  8
_0-0_0
  6
CONTINUOUS
 62
    7
 10
178.09896799999996
 20
390.653076
 11
177.95541399999996
 21
390.41369600000002
  0
LINE
  8
_0-0_0
  6
CONTINUOUS
 62
    7
 10
177.86476099999999
 20
390.67770400000001
 11
177.95541399999996
 21
390.41369600000002
  0
LINE
  8
_0-0_0
  6
CONTINUOUS
 62
    7
 10
178.33448799999996
 20
390.653076
 11
178.21673599999997
 21
390.39999399999999
  0
LINE
  8
_0-0_0
  6
CONTINUOUS
 62
    7
 10
178.09896799999996
 20
390.653076
 11
178.21673599999997
 21
390.39999399999999
  0
LINE
  8
_0-0_0
  6
CONTINUOUS
 62
    7
 10
178.56870999999998
 20
390.67770400000001
 11
178.47805799999998
 21
390.41369600000002
  0
LINE
  8
_0-0_0
  6
CONTINUOUS
 62
    7
 10
178.33448799999996
 20
390.653076
 11
178.47805799999998
 21
390.41369600000002
  0
LINE
  8
_0-0_0
  6
CONTINUOUS
 62
    7
 10
178.79907199999997
 20
390.72668499999997
 11
178.73651099999998
 21
390.45461999999998
  0
LINE
  8
_0-0_0
  6
CONTINUOUS
 62
    7
 10
178.56870999999998
 20
390.67770400000001
 11
178.73651099999998
 21
390.45461999999998
  0
LINE
  8
_0-0_0
  6
CONTINUOUS
 62
    7
 10
179.023056
 20
390.79943800000001
 11
178.98927299999997
 21
390.52236900000003
  0
LINE
  8
_0-0_0
  6
CONTINUOUS
 62
    7
 10
178.79907199999997
 20
390.72668499999997
 11
178.98927299999997
 21
390.52236900000003
  0
LINE
  8
_0-0_0
  6
CONTINUOUS
 62
    7
 10
179.23820499999999
 20
390.89523300000002
 11
179.233566
 21
390.61611900000003
  0
LINE
  8
_0-0_0
  6
CONTINUOUS
 62
    7
 10
179.023056
 20
390.79943800000001
 11
179.233566
 21
390.61611900000003
  0
LINE
  8
_0-0_0
  6
CONTINUOUS
 62
    7
 10
179.35774199999997
 20
390.81140099999999
 11
179.46673599999997
 21
390.73492399999998
  0
LINE
  8
_0-0_0
  6
CONTINUOUS
 62
    7
 10
179.23820499999999
 20
390.89523300000002
 11
179.35774199999997
 21
390.81140099999999
  0
LINE
  8
_0-0_0
  6
CONTINUOUS
 62
    7
 10
179.44216899999998
 20
391.01299999999998
 11
179.46673599999997
 21
390.73492399999998
  0
LINE
  8
_0-0_0
  6
CONTINUOUS
 62
    7
 10
179.63270599999998
 20
391.15142800000001
 11
179.68618799999996
 21
390.87744099999998
  0
LINE
  8
_0-0_0
  6
CONTINUOUS
 62
    7
 10
179.44216899999998
 20
391.01299999999998
 11
179.68618799999996
 21
390.87744099999998
  0
LINE
  8
_0-0_0
  6
CONTINUOUS
 62
    7
 10
179.80772399999998
 20
391.30902099999997
 11
179.88955699999997
 21
391.042145
  0
LINE
  8
_0-0_0
  6
CONTINUOUS
 62
    7
 10
179.63270599999998
 20
391.15142800000001
 11
179.88955699999997
 21
391.042145
  0
LINE
  8
_0-0_0
  6
CONTINUOUS
 62
    7
 10
179.96531699999997
 20
391.484039
 11
180.07459999999998
 21
391.22717299999999
  0
LINE
  8
_0-0_0
  6
CONTINUOUS
 62
    7
 10
179.80772399999998
 20
391.30902099999997
 11
180.07459999999998
 21
391.22717299999999
  0
LINE
  8
_0-0_0
  6
CONTINUOUS
 62
    7
 10
180.10374399999998
 20
391.67456099999998
 11
180.23927299999997
 21
391.430542
  0
LINE
  8
_0-0_0
  6
CONTINUOUS
 62
    7
 10
179.96531699999997
 20
391.484039
 11
180.23927299999997
 21
391.430542
  0
LINE
  8
_0-0_0
  6
CONTINUOUS
 62
    7
 10
180.22149599999997
 20
391.87853999999999
 11
180.38178999999997
 21
391.64999399999999
  0
LINE
  8
_0-0_0
  6
CONTINUOUS
 62
    7
 10
180.10374399999998
 20
391.67456099999998
 11
180.38178999999997
 21
391.64999399999999
  0
LINE
  8
_0-0_0
  6
CONTINUOUS
 62
    7
 10
180.31729099999998
 20
392.093658
 11
180.50059499999998
 21
391.88314800000001
  0
LINE
  8
_0-0_0
  6
CONTINUOUS
 62
    7
 10
180.22149599999997
 20
391.87853999999999
 11
180.50059499999998
 21
391.88314800000001
  0
LINE
  8
_0-0_0
  6
CONTINUOUS
 62
    7
 10
180.39005999999998
 20
392.317657
 11
180.59437599999998
 21
392.12744099999998
  0
LINE
  8
_0-0_0
  6
CONTINUOUS
 62
    7
 10
180.31729099999998
 20
392.093658
 11
180.59437599999998
 21
392.12744099999998
  0
LINE
  8
_0-0_0
  6
CONTINUOUS
 62
    7
 10
180.43902599999998
 20
392.54803500000003
 11
180.66209399999997
 21
392.38021900000001
  0
LINE
  8
_0-0_0
  6
CONTINUOUS
 62
    7
 10
180.39005999999998
 20
392.317657
 11
180.66209399999997
 21
392.38021900000001
  0
LINE
  8
_0-0_0
  6
CONTINUOUS
 62
    7
 10
180.46365299999997
 20
392.78225700000002
 11
180.70303299999998
 21
392.63867199999999
  0
LINE
  8
_0-0_0
  6
CONTINUOUS
 62
    7
 10
180.43902599999998
 20
392.54803500000003
 11
180.70303299999998
 21
392.63867199999999
  0
LINE
  8
_0-0_0
  6
CONTINUOUS
 62
    7
 10
180.46365299999997
 20
393.01776100000001
 11
180.71673599999997
 21
392.89999399999999
  0
LINE
  8
_0-0_0
  6
CONTINUOUS
 62
    7
 10
180.46365299999997
 20
392.78225700000002
 11
180.71673599999997
 21
392.89999399999999
  0
LINE
  8
_0-0_0
  6
CONTINUOUS
 62
    7
 10
180.43902599999998
 20
393.25198399999999
 11
180.70303299999998
 21
393.161316
  0
LINE
  8
_0-0_0
  6
CONTINUOUS
 62
    7
 10
180.46365299999997
 20
393.01776100000001
 11
180.70303299999998
 21
393.161316
  0
LINE
  8
_0-0_0
  6
CONTINUOUS
 62
    7
 10
180.39005999999998
 20
393.48236100000003
 11
180.66209399999997
 21
393.41976899999997
  0
LINE
  8
_0-0_0
  6
CONTINUOUS
 62
    7
 10
180.43902599999998
 20
393.25198399999999
 11
180.66209399999997
 21
393.41976899999997
  0
LINE
  8
_0-0_0
  6
CONTINUOUS
 62
    7
 10
180.31729099999998
 20
393.70632899999998
 11
180.59437599999998
 21
393.67254600000001
  0
LINE
  8
_0-0_0
  6
CONTINUOUS
 62
    7
 10
180.39005999999998
 20
393.48236100000003
 11
180.59437599999998
 21
393.67254600000001
  0
LINE
  8
_0-0_0
  6
CONTINUOUS
 62
    7
 10
180.22149599999997
 20
393.92147799999998
 11
180.50059499999998
 21
393.91683999999998
  0
LINE
  8
_0-0_0
  6
CONTINUOUS
 62
    7
 10
180.31729099999998
 20
393.70632899999998
 11
180.50059499999998
 21
393.91683999999998
  0
LINE
  8
_0-0_0
  6
CONTINUOUS
 62
    7
 10
180.10374399999998
 20
394.125427
 11
180.38178999999997
 21
394.14999399999999
  0
LINE
  8
_0-0_0
  6
CONTINUOUS
 62
    7
 10
180.22149599999997
 20
393.92147799999998
 11
180.38178999999997
 21
394.14999399999999
  0
LINE
  8
_0-0_0
  6
CONTINUOUS
 62
    7
 10
176.80076599999998
 20
394.64855999999997
 11
176.74726899999996
 21
394.92254600000001
  0
LINE
  8
_0-0_0
  6
CONTINUOUS
 62
    7
 10
176.80076599999998
 20
394.64855999999997
 11
176.54389899999998
 21
394.75787400000002
  0
LINE
  8
_0-0_0
  6
CONTINUOUS
 62
    7
 10
176.62574799999999
 20
394.49099699999999
 11
176.54389899999998
 21
394.75787400000002
  0
LINE
  8
_0-0_0
  6
CONTINUOUS
 62
    7
 10
176.62574799999999
 20
394.49099699999999
 11
176.35887099999997
 21
394.57281499999999
  0
LINE
  8
_0-0_0
  6
CONTINUOUS
 62
    7
 10
176.46815499999997
 20
394.31597900000003
 11
176.35887099999997
 21
394.57281499999999
  0
LINE
  8
_0-0_0
  6
CONTINUOUS
 62
    7
 10
176.46815499999997
 20
394.31597900000003
 11
176.19418299999998
 21
394.36944599999998
  0
LINE
  8
_0-0_0
  6
CONTINUOUS
 62
    7
 10
176.32972699999999
 20
394.125427
 11
176.19418299999998
 21
394.36944599999998
  0
LINE
  8
_0-0_0
  6
CONTINUOUS
 62
    7
 10
176.32972699999999
 20
394.125427
 11
176.05166599999998
 21
394.14999399999999
  0
LINE
  8
_0-0_0
  6
CONTINUOUS
 62
    7
 10
176.21195999999998
 20
393.92147799999998
 11
176.05166599999998
 21
394.14999399999999
  0
LINE
  8
_0-0_0
  6
CONTINUOUS
 62
    7
 10
176.21195999999998
 20
393.92147799999998
 11
175.93286099999997
 21
393.91683999999998
  0
LINE
  8
_0-0_0
  6
CONTINUOUS
 62
    7
 10
176.11617999999999
 20
393.70632899999998
 11
175.93286099999997
 21
393.91683999999998
  0
LINE
  8
_0-0_0
  6
CONTINUOUS
 62
    7
 10
176.11617999999999
 20
393.70632899999998
 11
175.83909599999998
 21
393.67254600000001
  0
LINE
  8
_0-0_0
  6
CONTINUOUS
 62
    7
 10
176.04339599999997
 20
393.48236100000003
 11
175.83909599999998
 21
393.67254600000001
  0
LINE
  8
_0-0_0
  6
CONTINUOUS
 62
    7
 10
176.04339599999997
 20
393.48236100000003
 11
175.77136199999998
 21
393.41976899999997
  0
LINE
  8
_0-0_0
  6
CONTINUOUS
 62
    7
 10
175.99442999999997
 20
393.25198399999999
 11
175.77136199999998
 21
393.41976899999997
  0
LINE
  8
_0-0_0
  6
CONTINUOUS
 62
    7
 10
175.99442999999997
 20
393.25198399999999
 11
175.73042299999997
 21
393.161316
  0
LINE
  8
_0-0_0
  6
CONTINUOUS
 62
    7
 10
175.96981799999998
 20
393.01776100000001
 11
175.73042299999997
 21
393.161316
  0
LINE
  8
_0-0_0
  6
CONTINUOUS
 62
    7
 10
175.96981799999998
 20
393.01776100000001
 11
175.71673599999997
 21
392.89999399999999
  0
LINE
  8
_0-0_0
  6
CONTINUOUS
 62
    7
 10
175.96981799999998
 20
392.78225700000002
 11
175.71673599999997
 21
392.89999399999999
  0
LINE
  8
_0-0_0
  6
CONTINUOUS
 62
    7
 10
175.96981799999998
 20
392.78225700000002
 11
175.73042299999997
 21
392.63867199999999
  0
LINE
  8
_0-0_0
  6
CONTINUOUS
 62
    7
 10
175.99442999999997
 20
392.54803500000003
 11
175.73042299999997
 21
392.63867199999999
  0
LINE
  8
_0-0_0
  6
CONTINUOUS
 62
    7
 10
175.99442999999997
 20
392.54803500000003
 11
175.77136199999998
 21
392.38021900000001
  0
LINE
  8
_0-0_0
  6
CONTINUOUS
 62
    7
 10
176.04339599999997
 20
392.317657
 11
175.77136199999998
 21
392.38021900000001
  0
LINE
  8
_0-0_0
  6
CONTINUOUS
 62
    7
 10
176.04339599999997
 20
392.317657
 11
175.83909599999998
 21
392.12744099999998
  0
LINE
  8
_0-0_0
  6
CONTINUOUS
 62
    7
 10
176.11617999999999
 20
392.093658
 11
175.83909599999998
 21
392.12744099999998
  0
LINE
  8
_0-0_0
  6
CONTINUOUS
 62
    7
 10
176.11617999999999
 20
392.093658
 11
175.93286099999997
 21
391.88314800000001
  0
LINE
  8
_0-0_0
  6
CONTINUOUS
 62
    7
 10
176.21195999999998
 20
391.87853999999999
 11
175.93286099999997
 21
391.88314800000001
  0
CIRCLE
  8
_0-0_0
  6
CONTINUOUS
 62
    7
 10
178.21673599999997
 20
392.89999399999999
 40
2
  0
LINE
  8
_0-0_0
  6
CONTINUOUS
 62
    7
 10
177.07571399999998
 20
394.98861699999998
 11
176.96673599999997
 21
395.06506300000001
  0
LINE
  8
_0-0_0
  6
CONTINUOUS
 62
    7
 10
176.99128699999997
 20
394.78701799999999
 11
176.96673599999997
 21
395.06506300000001
  0
LINE
  8
_0-0_0
  6
CONTINUOUS
 62
    7
 10
176.99128699999997
 20
394.78701799999999
 11
176.74726899999996
 21
394.92254600000001
  0
LINE
  8
_0-0_0
  6
CONTINUOUS
 62
    7
 10
180.10374399999998
 20
394.125427
 11
180.23927299999997
 21
394.36944599999998
  0
LINE
  8
_0-0_0
  6
CONTINUOUS
 62
    7
 10
179.96531699999997
 20
394.31597900000003
 11
180.23927299999997
 21
394.36944599999998
  0
LINE
  8
_0-0_0
  6
CONTINUOUS
 62
    7
 10
179.96531699999997
 20
394.31597900000003
 11
180.07459999999998
 21
394.57281499999999
  0
LINE
  8
_0-0_0
  6
CONTINUOUS
 62
    7
 10
179.80772399999998
 20
394.49099699999999
 11
180.07459999999998
 21
394.57281499999999
  0
LINE
  8
_0-0_0
  6
CONTINUOUS
 62
    7
 10
179.80772399999998
 20
394.49099699999999
 11
179.88955699999997
 21
394.75787400000002
  0
LINE
  8
_0-0_0
  6
CONTINUOUS
 62
    7
 10
179.63270599999998
 20
394.64855999999997
 11
179.88955699999997
 21
394.75787400000002
  0
LINE
  8
_0-0_0
  6
CONTINUOUS
 62
    7
 10
179.63270599999998
 20
394.64855999999997
 11
179.68618799999996
 21
394.92254600000001
  0
LINE
  8
_0-0_0
  6
CONTINUOUS
 62
    7
 10
179.44216899999998
 20
394.78701799999999
 11
179.68618799999996
 21
394.92254600000001
  0
LINE
  8
_0-0_0
  6
CONTINUOUS
 62
    7
 10
179.44216899999998
 20
394.78701799999999
 11
179.46673599999997
 21
395.06506300000001
  0
LINE
  8
_0-0_0
  6
CONTINUOUS
 62
    7
 10
179.23820499999999
 20
394.90475500000002
 11
179.46673599999997
 21
395.06506300000001
  0
LINE
  8
_0-0_0
  6
CONTINUOUS
 62
    7
 10
179.23820499999999
 20
394.90475500000002
 11
179.233566
 21
395.18386800000002
  0
LINE
  8
_0-0_0
  6
CONTINUOUS
 62
    7
 10
179.023056
 20
395.00054899999998
 11
179.233566
 21
395.18386800000002
  0
LINE
  8
_0-0_0
  6
CONTINUOUS
 62
    7
 10
179.023056
 20
395.00054899999998
 11
178.98927299999997
 21
395.277649
  0
LINE
  8
_0-0_0
  6
CONTINUOUS
 62
    7
 10
178.79907199999997
 20
395.07333399999999
 11
178.98927299999997
 21
395.277649
  0
LINE
  8
_0-0_0
  6
CONTINUOUS
 62
    7
 10
178.79907199999997
 20
395.07333399999999
 11
178.73651099999998
 21
395.34536700000001
  0
LINE
  8
_0-0_0
  6
CONTINUOUS
 62
    7
 10
178.56870999999998
 20
395.12231400000002
 11
178.73651099999998
 21
395.34536700000001
  0
LINE
  8
_0-0_0
  6
CONTINUOUS
 62
    7
 10
178.56870999999998
 20
395.12231400000002
 11
178.47805799999998
 21
395.38632200000001
  0
LINE
  8
_0-0_0
  6
CONTINUOUS
 62
    7
 10
178.33448799999996
 20
395.14691199999999
 11
178.47805799999998
 21
395.38632200000001
  0
LINE
  8
_0-0_0
  6
CONTINUOUS
 62
    7
 10
178.33448799999996
 20
395.14691199999999
 11
178.21673599999997
 21
395.39999399999999
  0
LINE
  8
_0-0_0
  6
CONTINUOUS
 62
    7
 10
178.09896799999996
 20
395.14691199999999
 11
178.21673599999997
 21
395.39999399999999
  0
LINE
  8
_0-0_0
  6
CONTINUOUS
 62
    7
 10
178.09896799999996
 20
395.14691199999999
 11
177.95541399999996
 21
395.38632200000001
  0
LINE
  8
_0-0_0
  6
CONTINUOUS
 62
    7
 10
177.86476099999999
 20
395.12231400000002
 11
177.95541399999996
 21
395.38632200000001
  0
LINE
  8
_0-0_0
  6
CONTINUOUS
 62
    7
 10
177.86476099999999
 20
395.12231400000002
 11
177.69694499999997
 21
395.34536700000001
  0
LINE
  8
_0-0_0
  6
CONTINUOUS
 62
    7
 10
177.63438399999998
 20
395.07333399999999
 11
177.69694499999997
 21
395.34536700000001
  0
LINE
  8
_0-0_0
  6
CONTINUOUS
 62
    7
 10
177.63438399999998
 20
395.07333399999999
 11
177.44418299999998
 21
395.277649
  0
LINE
  8
_0-0_0
  6
CONTINUOUS
 62
    7
 10
177.41039999999998
 20
395.00054899999998
 11
177.44418299999998
 21
395.277649
  0
LINE
  8
_0-0_0
  6
CONTINUOUS
 62
    7
 10
177.41039999999998
 20
395.00054899999998
 11
177.19988999999998
 21
395.18386800000002
  0
LINE
  8
_0-0_0
  6
CONTINUOUS
 62
    7
 10
177.19525099999998
 20
394.90475500000002
 11
177.19988999999998
 21
395.18386800000002
  0
LINE
  8
_0-0_0
  6
CONTINUOUS
 62
    7
 10
177.19525099999998
 20
394.90475500000002
 11
177.07571399999998
 21
394.98861699999998
  0
LINE
  8
_0-0_0
  6
CONTINUOUS
 62
    7
 10
178.79884299999998
 20
391.89999399999999
 11
177.63462799999996
 21
391.89999399999999
  0
LINE
  8
_0-0_0
  6
CONTINUOUS
 62
    7
 10
177.63462799999996
 20
391.89999399999999
 11
177.06672699999996
 21
392.89999399999999
  0
LINE
  8
_0-0_0
  6
CONTINUOUS
 62
    7
 10
177.06672699999996
 20
392.89999399999999
 11
177.63462799999996
 21
393.89999399999999
  0
LINE
  8
_0-0_0
  6
CONTINUOUS
 62
    7
 10
177.63462799999996
 20
393.89999399999999
 11
178.79884299999998
 21
393.89999399999999
  0
LINE
  8
_0-0_0
  6
CONTINUOUS
 62
    7
 10
178.79884299999998
 20
393.89999399999999
 11
179.36672999999996
 21
392.89999399999999
  0
LINE
  8
_0-0_0
  6
CONTINUOUS
 62
    7
 10
179.36672999999996
 20
392.89999399999999
 11
178.79884299999998
 21
391.89999399999999
  0
LINE
  8
_0-0_0
  6
CONTINUOUS
 62
    7
 10
192.91673299999997
 20
410.30029300000001
 11
192.91673299999997
 21
410.30630500000001
  0
LINE
  8
_0-0_0
  6
CONTINUOUS
 62
    7
 10
192.91673299999997
 20
411.5
 11
192.91636599999998
 21
411.48788500000001
  0
LINE
  8
_0-0_0
  6
CONTINUOUS
 62
    7
 10
192.91636599999998
 20
390.91210899999999
 11
192.91673299999997
 21
390.89999399999999
  0
ARC
  8
_0-0_0
  6
CONTINUOUS
 62
    7
 10
177.71673599999997
 20
410
 40
2
 50
90.000003000000007
 51
93.840255999999997
  0
ARC
  8
_0-0_0
  6
CONTINUOUS
 62
    7
 10
190.71673599999997
 20
392.39999399999999
 40
2
 50
269.99999700000001
 51
273.84026499999999
  0
ENDSEC
  0
EOF
