  0
SECTION
  2
HEADER
  9
$ACADVER
  1
AC1009
  9
$INSBASE
 10
0
 20
0
 30
0
  9
$EXTMIN
 10
0
 20
0
  9
$EXTMAX
 10
420.5
 20
297
  9
$LIMMIN
 10
0
 20
0
  9
$LIMMAX
 10
420.5
 20
297
  9
$LTSCALE
 40
0.5
  0
ENDSEC
  0
SECTION
  2
TABLES
  0
TABLE
  2
LTYPE
 70
     9
  0
LTYPE
  2
CONTINUOUS
 70
    64
  3
実線
 72
    65
 73
     0
 40
0.0
  0
LTYPE
  2
DASHED1
 70
    64
  3
--  --  --  --  --  --  --  --  
 72
    65
 73
     2
 40
2.5
 49
1.25
 49
-1.25
  0
LTYPE
  2
DASHED2
 70
    64
  3
----    ----    ----    ----    
 72
    65
 73
     2
 40
5.0
 49
2.5
 49
-2.5
  0
LTYPE
  2
DASHED3
 70
    64
  3
------  ------  ------  ------  
 72
    65
 73
     2
 40
5.0
 49
3.75
 49
-1.25
  0
LTYPE
  2
CENTER1
 70
    64
  3
----- - ----- - ----- - ----- - 
 72
    65
 73
     4
 40
10.0
 49
6.25
 49
-1.25
 49
1.25
 49
-1.25
  0
LTYPE
  2
CENTER2
 70
    64
  3
----------  --  ----------  --  
 72
    65
 73
     4
 40
20.0
 49
12.5
 49
-2.5
 49
2.5
 49
-2.5
  0
LTYPE
  2
PHANTOM1
 70
    64
  3
--- - - --- - - --- - - --- - - 
 72
    65
 73
     6
 40
10.0
 49
3.25
 49
-1.25
 49
1.25
 49
-1.25
 49
1.25
 49
-1.25
  0
LTYPE
  2
PHANTOM2
 70
    64
  3
--------  -  -  --------  -  -  
 72
    65
 73
     6
 40
20.0
 49
10.0
 49
-2.5
 49
1.25
 49
-2.5
 49
1.25
 49
-2.5
  0
LTYPE
  2
DOT
 70
    64
  3
-   -   -   -   -   -   -   -   
 72
    65
 73
     2
 40
2.5
 49
0.625
 49
-1.875
  0
LTYPE
  2
DUMMY
 70
    64
  3
ダミー
 72
    65
 73
     0
 40
0.0
  0
LTYPE
  2
RAND1
 70
    64
  3
ランダム線1
 72
    65
 73
     4
 40
10.0
 49
1.0
 49
-2.0
 49
3.0
 49
-4.0
  0
LTYPE
  2
RAND2
 70
    64
  3
ランダム線2
 72
    65
 73
     4
 40
14.0
 49
2.0
 49
-3.0
 49
4.0
 49
-5.0
  0
LTYPE
  2
RAND3
 70
    64
  3
ランダム線3
 72
    65
 73
     4
 40
18.0
 49
3.0
 49
-4.0
 49
5.0
 49
-6.0
  0
LTYPE
  2
RAND4
 70
    64
  3
ランダム線4
 72
    65
 73
     4
 40
22.0
 49
4.0
 49
-5.0
 49
6.0
 49
-7.0
  0
LTYPE
  2
RAND5
 70
    64
  3
ランダム線5
 72
    65
 73
     4
 40
26.0
 49
5.0
 49
-6.0
 49
7.0
 49
-8.0
  0
LTYPE
  2
LONG1
 70
    64
  3
----------  --  ----------  --  
 72
    65
 73
     4
 40
40.0
 49
32.5
 49
-2.5
 49
2.5
 49
-2.5
  0
LTYPE
  2
LONG2
 70
    64
  3
--------  -  -  --------  -  -  
 72
    65
 73
     6
 40
40.0
 49
30.0
 49
-2.5
 49
1.25
 49
-2.5
 49
1.25
 49
-2.5
  0
LTYPE
  2
LONG3
 70
    64
  3
+++++++++++++++..+++++++++++++++
 72
    65
 73
     2
 40
40.0
 49
37.5
 49
-2.5
  0
LTYPE
  2
LONG4
 70
    64
  3
+++++++++++++++..+++++++++++++++
 72
    65
 73
     2
 40
80.0
 49
75.0
 49
-5.0
  0
LTYPE
  2
LONG5
 70
    64
  3
----------  --  ----------  --  
 72
    65
 73
     4
 40
60.0
 49
37.5
 49
-7.5
 49
7.5
 49
-7.5
  0
LTYPE
  2
dashed
 70
   64
  3
-------   -------------   ------
 72
   65
 73
    2
 40
7.5
 49
6
 49
-1.5
  0
LTYPE
  2
dashed_spaced
 70
   64
  3
----        --------        ----
 72
   65
 73
    2
 40
12
 49
6
 49
-6
  0
LTYPE
  2
long_dashed_dotted
 70
   64
  3
------------- --- --------------
 72
   65
 73
    4
 40
15.25
 49
12
 49
-1.5
 49
0.25
 49
-1.5
  0
LTYPE
  2
long_dashed_double-dotted
 70
   64
  3
----------- --- --- ------------
 72
   65
 73
    6
 40
17
 49
12
 49
-1.5
 49
0.25
 49
-1.5
 49
0.25
 49
-1.5
  0
LTYPE
  2
long_dashed_triplicate-dotted
 70
   64
  3
--------- --- --- --- ----------
 72
   65
 73
    8
 40
18.75
 49
12
 49
-1.5
 49
0.25
 49
-1.5
 49
0.25
 49
-1.5
 49
0.25
 49
-1.5
  0
LTYPE
  2
dotted
 70
   64
  3
   -       -       -       -    
 72
   65
 73
    2
 40
1.75
 49
0.25
 49
-1.5
  0
LTYPE
  2
chain
 70
   64
  3
-------------- -- --------------
 72
   65
 73
    4
 40
18.5
 49
12
 49
-1.5
 49
3.5
 49
-1.5
  0
LTYPE
  2
chain_double_dash
 70
   64
  3
------------ -- -- -------------
 72
   65
 73
    6
 40
23.5
 49
12
 49
-1.5
 49
3.5
 49
-1.5
 49
3.5
 49
-1.5
  0
LTYPE
  2
dashed_dotted
 70
   64
  3
-----------     -     ----------
 72
   65
 73
    4
 40
9.25
 49
6
 49
-1.5
 49
0.25
 49
-1.5
  0
LTYPE
  2
double-dashed_dotted
 70
   64
  3
------   -----------   -   -----
 72
   65
 73
    6
 40
16.75
 49
6
 49
-1.5
 49
6
 49
-1.5
 49
0.25
 49
-1.5
  0
LTYPE
  2
dashed_double-dotted
 70
   64
  3
---------    -    -    ---------
 72
   65
 73
    6
 40
11
 49
6
 49
-1.5
 49
0.25
 49
-1.5
 49
0.25
 49
-1.5
  0
LTYPE
  2
double-dashed_double-dotted
 70
   64
  3
-----   ---------   -   -   ----
 72
   65
 73
    8
 40
18.5
 49
6
 49
-1.5
 49
6
 49
-1.5
 49
0.25
 49
-1.5
 49
0.25
 49
-1.5
  0
LTYPE
  2
dashed_triplicate-dotted
 70
   64
  3
-------    -    -    -    ------
 72
   65
 73
    8
 40
12.75
 49
6
 49
-1.5
 49
0.25
 49
-1.5
 49
0.25
 49
-1.5
 49
0.25
 49
-1.5
  0
LTYPE
  2
double-dashed_triplicate-dotted
 70
   64
  3
-----  ---------  -  -  -  -----
 72
   65
 73
   10
 40
20.25
 49
6
 49
-1.5
 49
6
 49
-1.5
 49
0.25
 49
-1.5
 49
0.25
 49
-1.5
 49
0.25
 49
-1.5
  0
LTYPE
  2
undefined
 70
   64
  3
--------------------------------
 72
   65
 73
    0
 40
0
  0
ENDTAB
  0
TABLE
  2
STYLE
  5
3
100
AcDbSymbolTable
 70
     1
  0
STYLE
  5
10
100
AcDbSymbolTableRecord
100
AcDbTextStyleTableRecord
  2
STANDARD
 70
     0
 40
0.0
 41
1.0
 50
0.0
 71
     0
 42
0.2
  3
txt
  4
bigfont.shx
  0
STYLE
  5
26
100
AcDbSymbolTableRecord
100
AcDbTextStyleTableRecord
  2
TATEGAKI
 70
    68
 40
0.0
 41
1.0
 50
0.0
 71
     0
 42
1.0
  3
txt
  4
bigfont.shx
  0
ENDTAB
  0
TABLE
  2
LAYER
 70
    2
  0
LAYER
  2
_0-0_0
 70
   64
 62
    7
  6
CONTINUOUS
  0
LAYER
  2
ADD_LINE
 70
   64
 62
    7
  6
CONTINUOUS
  0
ENDTAB
  0
ENDSEC
  0
SECTION
  2
BLOCKS
  0
ENDSEC
  0
SECTION
  2
ENTITIES
  0
ARC
  8
_0-0_0
  6
CONTINUOUS
 62
    7
 10
198.72775250000001
 20
183.85000600000001
 40
0.2
 50
269.99999700000001
 51
20.376440000000013
  0
LINE
  8
_0-0_0
  6
CONTINUOUS
 62
    7
 10
198.91523749999999
 20
183.91963200000001
 11
197.61523449999999
 21
187.41963200000001
  0
ARC
  8
_0-0_0
  6
CONTINUOUS
 62
    7
 10
197.4277495
 20
187.35000600000001
 40
0.2
 50
20.376439999999999
 51
159.62355600000001
  0
LINE
  8
_0-0_0
  6
CONTINUOUS
 62
    7
 10
195.94026149999999
 20
183.91963200000001
 11
197.24026549999999
 21
187.41963200000001
  0
ARC
  8
_0-0_0
  6
CONTINUOUS
 62
    7
 10
196.1277465
 20
183.85000600000001
 40
0.2
 50
159.62355600000001
 51
269.99999700000001
  0
LINE
  8
_0-0_0
  6
CONTINUOUS
 62
    7
 10
196.1277465
 20
183.64999399999999
 11
198.72775250000001
 21
183.64999399999999
  0
LINE
  8
_0-0_0
  6
CONTINUOUS
 62
    7
 10
33.494930500000009
 20
232.252747
 11
33.494930500000009
 21
232.25174000000001
  0
LINE
  8
_0-0_0
  6
CONTINUOUS
 62
    7
 10
416.4277495
 20
220.64999399999999
 11
416.4277495
 21
207.64999399999999
  0
LINE
  8
_0-0_0
  6
CONTINUOUS
 62
    7
 10
143.4277495
 20
220.64999399999999
 11
143.4277495
 21
207.64999399999999
  0
LINE
  8
_0-0_0
  6
CONTINUOUS
 62
    7
 10
143.4277495
 20
220.64999399999999
 11
416.4277495
 21
220.64999399999999
  0
LINE
  8
_0-0_0
  6
CONTINUOUS
 62
    7
 10
143.4277495
 20
220.64999399999999
 11
143.4277495
 21
239.25
  0
LINE
  8
_0-0_0
  6
CONTINUOUS
 62
    7
 10
143.4277495
 20
241.75
 11
143.4277495
 21
239.25
  0
LINE
  8
_0-0_0
  6
CONTINUOUS
 62
    7
 10
143.4277495
 20
242.25
 11
143.4277495
 21
241.75
  0
LINE
  8
_0-0_0
  6
CONTINUOUS
 62
    7
 10
143.4277495
 20
194.25
 11
143.4277495
 21
193.75
  0
LINE
  8
_0-0_0
  6
CONTINUOUS
 62
    7
 10
143.4277495
 20
199.25
 11
143.4277495
 21
194.25
  0
LINE
  8
_0-0_0
  6
CONTINUOUS
 62
    7
 10
143.4277495
 20
199.75
 11
143.4277495
 21
199.25
  0
LINE
  8
_0-0_0
  6
CONTINUOUS
 62
    7
 10
143.4277495
 20
200.25
 11
143.4277495
 21
199.75
  0
LINE
  8
_0-0_0
  6
CONTINUOUS
 62
    7
 10
143.4277495
 20
203.449997
 11
143.4277495
 21
200.25
  0
LINE
  8
_0-0_0
  6
CONTINUOUS
 62
    7
 10
143.4277495
 20
203.449997
 11
143.4277495
 21
207.64999399999999
  0
LINE
  8
_0-0_0
  6
CONTINUOUS
 62
    7
 10
143.4277495
 20
207.64999399999999
 11
416.4277495
 21
207.64999399999999
  0
LINE
  8
_0-0_0
  6
CONTINUOUS
 62
    7
 10
416.4277495
 20
203.449997
 11
416.4277495
 21
207.64999399999999
  0
LINE
  8
_0-0_0
  6
CONTINUOUS
 62
    7
 10
416.4277495
 20
200.25
 11
416.4277495
 21
203.449997
  0
LINE
  8
_0-0_0
  6
CONTINUOUS
 62
    7
 10
416.4277495
 20
200.25
 11
416.4277495
 21
199.75
  0
LINE
  8
_0-0_0
  6
CONTINUOUS
 62
    7
 10
416.4277495
 20
199.75
 11
416.4277495
 21
199.25
  0
LINE
  8
_0-0_0
  6
CONTINUOUS
 62
    7
 10
416.4277495
 20
199.25
 11
416.4277495
 21
194.25
  0
LINE
  8
_0-0_0
  6
CONTINUOUS
 62
    7
 10
416.4277495
 20
194.25
 11
416.4277495
 21
193.75
  0
LINE
  8
_0-0_0
  6
CONTINUOUS
 62
    7
 10
416.42771950000002
 20
242.25
 11
416.42771950000002
 21
241.75
  0
LINE
  8
_0-0_0
  6
CONTINUOUS
 62
    7
 10
416.42771950000002
 20
239.25
 11
416.42771950000002
 21
241.75
  0
LINE
  8
_0-0_0
  6
CONTINUOUS
 62
    7
 10
416.4277495
 20
220.64999399999999
 11
416.42771950000002
 21
239.25
  0
CIRCLE
  8
_0-0_0
  6
CONTINUOUS
 62
    7
 10
379.9277495
 20
229.75
 40
6
  0
CIRCLE
  8
_0-0_0
  6
CONTINUOUS
 62
    7
 10
279.9277495
 20
229.75
 40
6
  0
CIRCLE
  8
_0-0_0
  6
CONTINUOUS
 62
    7
 10
179.9277495
 20
229.75
 40
6
  0
LINE
  8
_0-0_0
  6
CONTINUOUS
 62
    7
 10
143.4277495
 20
239.25
 11
416.42771950000002
 21
239.25
  0
LINE
  8
_0-0_0
  6
CONTINUOUS
 62
    7
 10
143.4277495
 20
242.25
 11
416.42771950000002
 21
242.25
  0
LINE
  8
_0-0_0
  6
CONTINUOUS
 62
    7
 10
143.4277495
 20
241.75
 11
140.9277495
 21
241.75
  0
LINE
  8
_0-0_0
  6
CONTINUOUS
 62
    7
 10
140.9277495
 20
241.75
 11
140.9277495
 21
241.25
  0
LINE
  8
_0-0_0
  6
CONTINUOUS
 62
    7
 10
140.9277495
 20
241.25
 11
140.9277495
 21
200.75
  0
LINE
  8
_0-0_0
  6
CONTINUOUS
 62
    7
 10
143.4277495
 20
200.25
 11
140.9277495
 21
200.25
  0
LINE
  8
_0-0_0
  6
CONTINUOUS
 62
    7
 10
140.9277495
 20
200.75
 11
140.9277495
 21
200.25
  0
LINE
  8
_0-0_0
  6
CONTINUOUS
 62
    7
 10
140.9277495
 20
200.25
 11
140.9277495
 21
199.25
  0
LINE
  8
_0-0_0
  6
CONTINUOUS
 62
    7
 10
140.9277495
 20
199.25
 11
140.9277495
 21
194.75
  0
LINE
  8
_0-0_0
  6
CONTINUOUS
 62
    7
 10
143.4277495
 20
194.25
 11
140.9277495
 21
194.25
  0
LINE
  8
_0-0_0
  6
CONTINUOUS
 62
    7
 10
140.9277495
 20
194.75
 11
140.9277495
 21
194.25
  0
LINE
  8
_0-0_0
  6
CONTINUOUS
 62
    7
 10
143.4277495
 20
193.75
 11
416.4277495
 21
193.75
  0
LINE
  8
_0-0_0
  6
CONTINUOUS
 62
    7
 10
143.4277495
 20
199.75
 11
416.4277495
 21
199.75
  0
LINE
  8
_0-0_0
  6
CONTINUOUS
 62
    7
 10
143.4277495
 20
203.449997
 11
416.4277495
 21
203.449997
  0
LINE
  8
_0-0_0
  6
CONTINUOUS
 62
    7
 10
416.42771950000002
 20
241.75
 11
418.92771950000002
 21
241.75
  0
LINE
  8
_0-0_0
  6
CONTINUOUS
 62
    7
 10
418.92771950000002
 20
241.75
 11
418.92771950000002
 21
241.25
  0
LINE
  8
_0-0_0
  6
CONTINUOUS
 62
    7
 10
418.92771950000002
 20
241.25
 11
418.9277495
 21
200.75
  0
LINE
  8
_0-0_0
  6
CONTINUOUS
 62
    7
 10
416.4277495
 20
200.25
 11
418.9277495
 21
200.25
  0
LINE
  8
_0-0_0
  6
CONTINUOUS
 62
    7
 10
418.9277495
 20
200.75
 11
418.9277495
 21
200.25
  0
LINE
  8
_0-0_0
  6
CONTINUOUS
 62
    7
 10
418.9277495
 20
200.25
 11
418.9277495
 21
199.25
  0
LINE
  8
_0-0_0
  6
CONTINUOUS
 62
    7
 10
418.9277495
 20
199.25
 11
418.9277495
 21
194.75
  0
LINE
  8
_0-0_0
  6
CONTINUOUS
 62
    7
 10
416.4277495
 20
194.25
 11
418.9277495
 21
194.25
  0
LINE
  8
_0-0_0
  6
CONTINUOUS
 62
    7
 10
418.9277495
 20
194.75
 11
418.9277495
 21
194.25
  0
ARC
  8
_0-0_0
  6
CONTINUOUS
 62
    7
 10
200.9277495
 20
194.75
 40
0.5
 50
269.99999700000001
 51
0
  0
LINE
  8
_0-0_0
  6
CONTINUOUS
 62
    7
 10
200.9277495
 20
194.25
 11
193.9277495
 21
194.25
  0
ARC
  8
_0-0_0
  6
CONTINUOUS
 62
    7
 10
193.9277495
 20
194.75
 40
0.5
 50
179.99999099999999
 51
269.99999700000001
  0
LINE
  8
_0-0_0
  6
CONTINUOUS
 62
    7
 10
193.4277495
 20
198.75
 11
193.4277495
 21
194.75
  0
ARC
  8
_0-0_0
  6
CONTINUOUS
 62
    7
 10
193.9277495
 20
198.75
 40
0.5
 50
90.000003000000007
 51
179.99999099999999
  0
ARC
  8
_0-0_0
  6
CONTINUOUS
 62
    7
 10
200.9277495
 20
198.75
 40
0.5
 50
0
 51
90.000003000000007
  0
LINE
  8
_0-0_0
  6
CONTINUOUS
 62
    7
 10
193.9277495
 20
199.25
 11
200.9277495
 21
199.25
  0
LINE
  8
_0-0_0
  6
CONTINUOUS
 62
    7
 10
416.42771950000002
 20
242.25
 11
416.42771950000002
 21
241.949997
  0
LINE
  8
_0-0_0
  6
CONTINUOUS
 62
    7
 10
416.42771950000002
 20
241.949997
 11
416.42771950000002
 21
241.75
  0
CIRCLE
  8
_0-0_0
  6
CONTINUOUS
 62
    7
 10
379.9277495
 20
229.75
 40
5.5
  0
CIRCLE
  8
_0-0_0
  6
CONTINUOUS
 62
    7
 10
279.9277495
 20
229.75
 40
5.5
  0
CIRCLE
  8
_0-0_0
  6
CONTINUOUS
 62
    7
 10
179.9277495
 20
229.75
 40
5.5
  0
LINE
  8
_0-0_0
  6
CONTINUOUS
 62
    7
 10
201.4277495
 20
194.75
 11
201.4277495
 21
198.75
  0
CIRCLE
  8
_0-0_0
  6
CONTINUOUS
 62
    7
 10
379.9277495
 20
229.75
 40
3.5
  0
CIRCLE
  8
_0-0_0
  6
CONTINUOUS
 62
    7
 10
279.9277495
 20
229.75
 40
3.5
  0
CIRCLE
  8
_0-0_0
  6
CONTINUOUS
 62
    7
 10
179.9277495
 20
229.75
 40
3.5
  0
ARC
  8
_0-0_0
  6
CONTINUOUS
 62
    7
 10
198.72775250000001
 20
198.449997
 40
0.2
 50
339.62356199999999
 51
90.000002999999978
  0
LINE
  8
_0-0_0
  6
CONTINUOUS
 62
    7
 10
198.91523749999999
 20
198.380371
 11
197.61523449999999
 21
194.880371
  0
ARC
  8
_0-0_0
  6
CONTINUOUS
 62
    7
 10
197.4277495
 20
194.949997
 40
0.2
 50
200.37643
 51
339.62356199999999
  0
LINE
  8
_0-0_0
  6
CONTINUOUS
 62
    7
 10
195.94026149999999
 20
198.380371
 11
197.24026549999999
 21
194.880371
  0
ARC
  8
_0-0_0
  6
CONTINUOUS
 62
    7
 10
196.1277465
 20
198.449997
 40
0.2
 50
90.000003000000007
 51
200.37643
  0
LINE
  8
_0-0_0
  6
CONTINUOUS
 62
    7
 10
196.1277465
 20
198.64999399999999
 11
198.72775250000001
 21
198.64999399999999
  0
ARC
  8
_0-0_0
  6
CONTINUOUS
 62
    7
 10
336.12773149999998
 20
198.449997
 40
0.2
 50
90.000003000000007
 51
200.37643
  0
LINE
  8
_0-0_0
  6
CONTINUOUS
 62
    7
 10
336.12773149999998
 20
198.64999399999999
 11
338.72773749999999
 21
198.64999399999999
  0
ARC
  8
_0-0_0
  6
CONTINUOUS
 62
    7
 10
333.9277495
 20
198.75
 40
0.5
 50
90.000003000000007
 51
179.99999099999999
  0
LINE
  8
_0-0_0
  6
CONTINUOUS
 62
    7
 10
333.4277495
 20
198.75
 11
333.4277495
 21
194.75
  0
ARC
  8
_0-0_0
  6
CONTINUOUS
 62
    7
 10
333.9277495
 20
194.75
 40
0.5
 50
179.99999099999999
 51
269.99999700000001
  0
LINE
  8
_0-0_0
  6
CONTINUOUS
 62
    7
 10
340.9277495
 20
194.25
 11
333.9277495
 21
194.25
  0
ARC
  8
_0-0_0
  6
CONTINUOUS
 62
    7
 10
340.9277495
 20
194.75
 40
0.5
 50
269.99999700000001
 51
0
  0
LINE
  8
_0-0_0
  6
CONTINUOUS
 62
    7
 10
341.4277495
 20
194.75
 11
341.4277495
 21
198.75
  0
ARC
  8
_0-0_0
  6
CONTINUOUS
 62
    7
 10
340.9277495
 20
198.75
 40
0.5
 50
0
 51
90.000003000000007
  0
LINE
  8
_0-0_0
  6
CONTINUOUS
 62
    7
 10
333.9277495
 20
199.25
 11
340.9277495
 21
199.25
  0
LINE
  8
_0-0_0
  6
CONTINUOUS
 62
    7
 10
335.94026150000002
 20
198.380371
 11
337.2402495
 21
194.880371
  0
ARC
  8
_0-0_0
  6
CONTINUOUS
 62
    7
 10
337.4277495
 20
194.949997
 40
0.2
 50
200.37643
 51
339.62356199999999
  0
LINE
  8
_0-0_0
  6
CONTINUOUS
 62
    7
 10
338.91523749999999
 20
198.380371
 11
337.61521950000002
 21
194.880371
  0
ARC
  8
_0-0_0
  6
CONTINUOUS
 62
    7
 10
338.72773749999999
 20
198.449997
 40
0.2
 50
339.62356199999999
 51
90.000002999999978
  0
LINE
  8
_0-0_0
  6
CONTINUOUS
 62
    7
 10
149.9277495
 20
191.75
 11
154.9277495
 21
191.75
  0
LINE
  8
_0-0_0
  6
CONTINUOUS
 62
    7
 10
154.9277495
 20
191.75
 11
156.72775250000001
 21
191.75
  0
LINE
  8
_0-0_0
  6
CONTINUOUS
 62
    7
 10
156.72775250000001
 20
191.75
 11
157.4277495
 21
191.75
  0
ARC
  8
_0-0_0
  6
CONTINUOUS
 62
    7
 10
156.72775250000001
 20
191.25
 40
0.5
 50
0
 51
90.000003000000007
  0
ARC
  8
_0-0_0
  6
CONTINUOUS
 62
    7
 10
149.9277495
 20
191.25
 40
0.5
 50
90.000003000000007
 51
179.99999099999999
  0
ARC
  8
_0-0_0
  6
CONTINUOUS
 62
    7
 10
253.4277495
 20
191.25
 40
0.5
 50
0
 51
90.000003000000007
  0
LINE
  8
_0-0_0
  6
CONTINUOUS
 62
    7
 10
157.4277495
 20
191.75
 11
157.4277495
 21
190.25
  0
LINE
  8
_0-0_0
  6
CONTINUOUS
 62
    7
 10
157.4277495
 20
192.25
 11
157.4277495
 21
191.75
  0
LINE
  8
_0-0_0
  6
CONTINUOUS
 62
    7
 10
157.4277495
 20
192.75
 11
157.4277495
 21
192.25
  0
LINE
  8
_0-0_0
  6
CONTINUOUS
 62
    7
 10
157.4277495
 20
193.75
 11
157.4277495
 21
192.75
  0
LINE
  8
_0-0_0
  6
CONTINUOUS
 62
    7
 10
161.4277495
 20
191.75
 11
162.1277465
 21
191.75
  0
LINE
  8
_0-0_0
  6
CONTINUOUS
 62
    7
 10
157.22775250000001
 20
191.25
 11
157.22775250000001
 21
190.25
  0
LINE
  8
_0-0_0
  6
CONTINUOUS
 62
    7
 10
160.4277495
 20
164.75
 11
160.4277495
 21
166.349998
  0
LINE
  8
_0-0_0
  6
CONTINUOUS
 62
    7
 10
160.4277495
 20
164.75
 11
154.9277495
 21
164.75
  0
LINE
  8
_0-0_0
  6
CONTINUOUS
 62
    7
 10
176.4277495
 20
171.449997
 11
218.4277495
 21
171.449997
  0
LINE
  8
_0-0_0
  6
CONTINUOUS
 62
    7
 10
176.4277495
 20
191.050003
 11
218.4277495
 21
191.050003
  0
LINE
  8
_0-0_0
  6
CONTINUOUS
 62
    7
 10
239.9277495
 20
164.75
 11
230.4277495
 21
164.75
  0
LINE
  8
_0-0_0
  6
CONTINUOUS
 62
    7
 10
230.4277495
 20
164.75
 11
230.4277495
 21
166.349998
  0
ARC
  8
_0-0_0
  6
CONTINUOUS
 62
    7
 10
230.1277465
 20
166.349998
 40
0.2999999999999999
 50
0
 51
90.000003000000007
  0
LINE
  8
_0-0_0
  6
CONTINUOUS
 62
    7
 10
229.4277495
 20
166.650002
 11
230.1277465
 21
166.650002
  0
LINE
  8
_0-0_0
  6
CONTINUOUS
 62
    7
 10
228.9277495
 20
167.050003
 11
229.4277495
 21
167.050003
  0
LINE
  8
_0-0_0
  6
CONTINUOUS
 62
    7
 10
215.4277495
 20
167.050003
 11
228.9277495
 21
167.050003
  0
ARC
  8
_0-0_0
  6
CONTINUOUS
 62
    7
 10
212.9277495
 20
167.050003
 40
2.5
 50
0
 51
90.000003000000007
  0
LINE
  8
_0-0_0
  6
CONTINUOUS
 62
    7
 10
181.9277495
 20
169.550003
 11
212.9277495
 21
169.550003
  0
ARC
  8
_0-0_0
  6
CONTINUOUS
 62
    7
 10
181.9277495
 20
167.050003
 40
2.5
 50
90.000003000000007
 51
179.99999099999999
  0
LINE
  8
_0-0_0
  6
CONTINUOUS
 62
    7
 10
161.9277495
 20
167.050003
 11
179.4277495
 21
167.050003
  0
LINE
  8
_0-0_0
  6
CONTINUOUS
 62
    7
 10
161.4277495
 20
167.050003
 11
161.9277495
 21
167.050003
  0
LINE
  8
_0-0_0
  6
CONTINUOUS
 62
    7
 10
160.72775250000001
 20
166.650002
 11
161.4277495
 21
166.650002
  0
ARC
  8
_0-0_0
  6
CONTINUOUS
 62
    7
 10
160.72775250000001
 20
166.349998
 40
0.2999999999999999
 50
90.000003000000007
 51
179.99999099999999
  0
LINE
  8
_0-0_0
  6
CONTINUOUS
 62
    7
 10
149.4277495
 20
189.47485399999999
 11
149.4277495
 21
191.25
  0
LINE
  8
_0-0_0
  6
CONTINUOUS
 62
    7
 10
154.4277495
 20
192.25
 11
154.4277495
 21
191.75
  0
LINE
  8
_0-0_0
  6
CONTINUOUS
 62
    7
 10
154.4277495
 20
188.30355800000001
 11
154.4277495
 21
188.408569
  0
LINE
  8
_0-0_0
  6
CONTINUOUS
 62
    7
 10
154.4277495
 20
192.25
 11
154.4277495
 21
193.75
  0
LINE
  8
_0-0_0
  6
CONTINUOUS
 62
    7
 10
253.9277495
 20
193.75
 11
253.9277495
 21
192.25
  0
LINE
  8
_0-0_0
  6
CONTINUOUS
 62
    7
 10
253.9277495
 20
192.25
 11
253.9277495
 21
191.25
  0
LINE
  8
_0-0_0
  6
CONTINUOUS
 62
    7
 10
253.9277495
 20
190.449997
 11
253.9277495
 21
191.25
  0
LINE
  8
_0-0_0
  6
CONTINUOUS
 62
    7
 10
253.4277495
 20
191.75
 11
253.9277495
 21
191.75
  0
LINE
  8
_0-0_0
  6
CONTINUOUS
 62
    7
 10
240.9277495
 20
191.75
 11
253.4277495
 21
191.75
  0
LINE
  8
_0-0_0
  6
CONTINUOUS
 62
    7
 10
253.9277495
 20
193.75
 11
253.9277495
 21
192.75
  0
LINE
  8
_0-0_0
  6
CONTINUOUS
 62
    7
 10
253.9277495
 20
192.25
 11
253.9277495
 21
191.75
  0
LINE
  8
_0-0_0
  6
CONTINUOUS
 62
    7
 10
253.9277495
 20
192.75
 11
253.9277495
 21
192.25
  0
ARC
  8
_0-0_0
  6
CONTINUOUS
 62
    7
 10
159.4277495
 20
190.25
 40
2
 50
179.99999099999999
 51
0
  0
LINE
  8
_0-0_0
  6
CONTINUOUS
 62
    7
 10
240.4277495
 20
191.75
 11
240.9277495
 21
191.75
  0
LINE
  8
_0-0_0
  6
CONTINUOUS
 62
    7
 10
240.4277495
 20
191.25
 11
240.4277495
 21
191.75
  0
LINE
  8
_0-0_0
  6
CONTINUOUS
 62
    7
 10
240.4277495
 20
190.25
 11
240.4277495
 21
190.449997
  0
ARC
  8
_0-0_0
  6
CONTINUOUS
 62
    7
 10
238.4277495
 20
190.25
 40
2
 50
179.99999099999999
 51
0
  0
LINE
  8
_0-0_0
  6
CONTINUOUS
 62
    7
 10
236.4277495
 20
191.75
 11
236.4277495
 21
190.25
  0
LINE
  8
_0-0_0
  6
CONTINUOUS
 62
    7
 10
235.72775250000001
 20
191.75
 11
236.4277495
 21
191.75
  0
LINE
  8
_0-0_0
  6
CONTINUOUS
 62
    7
 10
161.4277495
 20
190.25
 11
161.4277495
 21
191.75
  0
LINE
  8
_0-0_0
  6
CONTINUOUS
 62
    7
 10
157.4277495
 20
192.75
 11
253.9277495
 21
192.75
  0
ARC
  8
_0-0_0
  6
CONTINUOUS
 62
    7
 10
162.1277465
 20
191.25
 40
0.5
 50
90.000003000000007
 51
179.99999099999999
  0
ARC
  8
_0-0_0
  6
CONTINUOUS
 62
    7
 10
159.4277495
 20
190.25
 40
2.2000000000000002
 50
179.99999099999999
 51
0
  0
LINE
  8
_0-0_0
  6
CONTINUOUS
 62
    7
 10
161.4277495
 20
166.650002
 11
161.9277495
 21
166.650002
  0
LINE
  8
_0-0_0
  6
CONTINUOUS
 62
    7
 10
161.9277495
 20
167.050003
 11
161.9277495
 21
166.650002
  0
LINE
  8
_0-0_0
  6
CONTINUOUS
 62
    7
 10
179.4277495
 20
167.050003
 11
215.4277495
 21
167.050003
  0
LINE
  8
_0-0_0
  6
CONTINUOUS
 62
    7
 10
228.9277495
 20
166.650002
 11
229.4277495
 21
166.650002
  0
LINE
  8
_0-0_0
  6
CONTINUOUS
 62
    7
 10
228.9277495
 20
167.050003
 11
228.9277495
 21
166.650002
  0
LINE
  8
_0-0_0
  6
CONTINUOUS
 62
    7
 10
239.9277495
 20
164.25
 11
230.9277495
 21
164.25
  0
ARC
  8
_0-0_0
  6
CONTINUOUS
 62
    7
 10
230.9277495
 20
164.75
 40
0.5
 50
179.99999099999999
 51
269.99999700000001
  0
LINE
  8
_0-0_0
  6
CONTINUOUS
 62
    7
 10
239.9277495
 20
164.75
 11
240.4277495
 21
164.75
  0
LINE
  8
_0-0_0
  6
CONTINUOUS
 62
    7
 10
240.4277495
 20
164.75
 11
240.4277495
 21
164.949997
  0
LINE
  8
_0-0_0
  6
CONTINUOUS
 62
    7
 10
244.9277495
 20
165.150002
 11
240.6277465
 21
165.150002
  0
LINE
  8
_0-0_0
  6
CONTINUOUS
 62
    7
 10
245.4277495
 20
165.650002
 11
245.4277495
 21
167.42514
  0
ARC
  8
_0-0_0
  6
CONTINUOUS
 62
    7
 10
242.37979149999998
 20
167.36901899999998
 40
3.0490550000000001
 50
1.0548960000000001
 51
14.838094000000002
  0
LINE
  8
_0-0_0
  6
CONTINUOUS
 62
    7
 10
244.9277495
 20
168.349998
 11
240.56021150000001
 21
168.349998
  0
LINE
  8
_0-0_0
  6
CONTINUOUS
 62
    7
 10
240.4277495
 20
168.491432
 11
240.4277495
 21
168.83371
  0
ARC
  8
_0-0_0
  6
CONTINUOUS
 62
    7
 10
238.4277495
 20
190.25
 40
2.2000000000000002
 50
179.99999099999999
 51
303.74900400000001
  0
LINE
  8
_0-0_0
  6
CONTINUOUS
 62
    7
 10
236.22775250000001
 20
191.25
 11
236.22775250000001
 21
190.25
  0
LINE
  8
_0-0_0
  6
CONTINUOUS
 62
    7
 10
235.72775250000001
 20
191.75
 11
162.1277465
 21
191.75
  0
LINE
  8
_0-0_0
  6
CONTINUOUS
 62
    7
 10
161.6277465
 20
190.25
 11
161.6277465
 21
191.25
  0
LINE
  8
_0-0_0
  6
CONTINUOUS
 62
    7
 10
162.1277465
 20
190.050003
 11
162.1277465
 21
190.25
  0
ARC
  8
_0-0_0
  6
CONTINUOUS
 62
    7
 10
163.1277465
 20
190.050003
 40
1
 50
90.000003000000007
 51
179.99999099999999
  0
LINE
  8
_0-0_0
  6
CONTINUOUS
 62
    7
 10
163.1277465
 20
191.050003
 11
176.4277495
 21
191.050003
  0
LINE
  8
_0-0_0
  6
CONTINUOUS
 62
    7
 10
218.4277495
 20
191.050003
 11
232.4277495
 21
191.050003
  0
ARC
  8
_0-0_0
  6
CONTINUOUS
 62
    7
 10
232.4277495
 20
188.050003
 40
3
 50
0
 51
90.000003000000007
  0
LINE
  8
_0-0_0
  6
CONTINUOUS
 62
    7
 10
235.4277495
 20
174.450005
 11
235.4277495
 21
188.050003
  0
ARC
  8
_0-0_0
  6
CONTINUOUS
 62
    7
 10
232.4277495
 20
174.450005
 40
3
 50
269.99999700000001
 51
0
  0
LINE
  8
_0-0_0
  6
CONTINUOUS
 62
    7
 10
232.4277495
 20
171.449997
 11
218.4277495
 21
171.449997
  0
LINE
  8
_0-0_0
  6
CONTINUOUS
 62
    7
 10
176.4277495
 20
171.449997
 11
162.4277495
 21
171.449997
  0
ARC
  8
_0-0_0
  6
CONTINUOUS
 62
    7
 10
162.4277495
 20
174.450005
 40
3
 50
179.99999099999999
 51
269.99999700000001
  0
LINE
  8
_0-0_0
  6
CONTINUOUS
 62
    7
 10
159.4277495
 20
186.68769800000001
 11
159.4277495
 21
174.450005
  0
ARC
  8
_0-0_0
  6
CONTINUOUS
 62
    7
 10
160.4277495
 20
186.68769800000001
 40
1
 50
105.68034800000001
 51
179.99999100000002
  0
ARC
  8
_0-0_0
  6
CONTINUOUS
 62
    7
 10
152.47572349999999
 20
189.53097500000001
 40
3.0490550000000001
 50
181.05489
 51
194.838089
  0
LINE
  8
_0-0_0
  6
CONTINUOUS
 62
    7
 10
154.2952885
 20
188.550003
 11
149.9277495
 21
188.550003
  0
LINE
  8
_0-0_0
  6
CONTINUOUS
 62
    7
 10
154.4277495
 20
168.491432
 11
154.4277495
 21
168.59643599999998
  0
LINE
  8
_0-0_0
  6
CONTINUOUS
 62
    7
 10
154.2952885
 20
168.349998
 11
149.9277495
 21
168.349998
  0
ARC
  8
_0-0_0
  6
CONTINUOUS
 62
    7
 10
152.4768985
 20
167.368347
 40
3.050319
 50
165.15540799999999
 51
178.932897
  0
LINE
  8
_0-0_0
  6
CONTINUOUS
 62
    7
 10
149.4277495
 20
165.650002
 11
149.4277495
 21
167.42514
  0
LINE
  8
_0-0_0
  6
CONTINUOUS
 62
    7
 10
154.22775250000001
 20
165.150002
 11
149.9277495
 21
165.150002
  0
LINE
  8
_0-0_0
  6
CONTINUOUS
 62
    7
 10
154.4277495
 20
164.75
 11
154.4277495
 21
164.949997
  0
LINE
  8
_0-0_0
  6
CONTINUOUS
 62
    7
 10
154.4277495
 20
164.75
 11
154.9277495
 21
164.75
  0
LINE
  8
_0-0_0
  6
CONTINUOUS
 62
    7
 10
159.9277495
 20
164.25
 11
154.9277495
 21
164.25
  0
ARC
  8
_0-0_0
  6
CONTINUOUS
 62
    7
 10
159.9277495
 20
164.75
 40
0.5
 50
269.99999700000001
 51
0
  0
LINE
  8
_0-0_0
  6
CONTINUOUS
 62
    7
 10
149.7460025
 20
188.550003
 11
149.7256625
 21
188.55102500000001
  0
LINE
  8
_0-0_0
  6
CONTINUOUS
 62
    7
 10
149.7256625
 20
188.55102500000001
 11
149.70524649999999
 21
188.554169
  0
LINE
  8
_0-0_0
  6
CONTINUOUS
 62
    7
 10
149.70524649999999
 20
188.554169
 11
149.6784365
 21
188.56175200000001
  0
LINE
  8
_0-0_0
  6
CONTINUOUS
 62
    7
 10
149.6784365
 20
188.56175200000001
 11
149.65278649999999
 21
188.57311999999999
  0
LINE
  8
_0-0_0
  6
CONTINUOUS
 62
    7
 10
149.65278649999999
 20
188.57311999999999
 11
149.62898250000001
 21
188.587997
  0
LINE
  8
_0-0_0
  6
CONTINUOUS
 62
    7
 10
149.62898250000001
 20
188.587997
 11
149.61222849999999
 21
188.60150100000001
  0
LINE
  8
_0-0_0
  6
CONTINUOUS
 62
    7
 10
149.61222849999999
 20
188.60150100000001
 11
149.59672549999999
 21
188.61672999999999
  0
LINE
  8
_0-0_0
  6
CONTINUOUS
 62
    7
 10
149.59672549999999
 20
188.61672999999999
 11
149.56982449999998
 21
188.65138200000001
  0
LINE
  8
_0-0_0
  6
CONTINUOUS
 62
    7
 10
149.56982449999998
 20
188.65138200000001
 11
149.54878249999999
 21
188.689728
  0
LINE
  8
_0-0_0
  6
CONTINUOUS
 62
    7
 10
149.54878249999999
 20
188.689728
 11
149.5367895
 21
188.71963500000001
  0
LINE
  8
_0-0_0
  6
CONTINUOUS
 62
    7
 10
149.5367895
 20
188.71963500000001
 11
149.52775549999998
 21
188.75
  0
LINE
  8
_0-0_0
  6
CONTINUOUS
 62
    7
 10
149.43894950000001
 20
189.25
 11
142.4277495
 21
189.25
  0
LINE
  8
_0-0_0
  6
CONTINUOUS
 62
    7
 10
142.4277495
 20
189.25
 11
137.75230450000001
 21
189.25
  0
LINE
  8
_0-0_0
  6
CONTINUOUS
 62
    7
 10
142.4277495
 20
189.25
 11
142.4277495
 21
187.25
  0
LINE
  8
_0-0_0
  6
CONTINUOUS
 62
    7
 10
154.4277495
 20
187.25
 11
154.4277495
 21
188.30355800000001
  0
ARC
  8
_0-0_0
  6
CONTINUOUS
 62
    7
 10
253.4277495
 20
190.449997
 40
0.5
 50
269.99999700000001
 51
0
  0
ARC
  8
_0-0_0
  6
CONTINUOUS
 62
    7
 10
240.9277495
 20
191.25
 40
0.5
 50
90.000003000000007
 51
179.99999099999999
  0
LINE
  8
_0-0_0
  6
CONTINUOUS
 62
    7
 10
240.4277495
 20
190.449997
 11
240.4277495
 21
191.25
  0
LINE
  8
_0-0_0
  6
CONTINUOUS
 62
    7
 10
160.6277465
 20
166.63284299999998
 11
160.6277465
 21
164.650002
  0
LINE
  8
_0-0_0
  6
CONTINUOUS
 62
    7
 10
160.6277465
 20
164.650002
 11
161.6277465
 21
164.650002
  0
LINE
  8
_0-0_0
  6
CONTINUOUS
 62
    7
 10
161.9277495
 20
166.650002
 11
228.9277495
 21
166.650002
  0
LINE
  8
_0-0_0
  6
CONTINUOUS
 62
    7
 10
161.6277465
 20
164.650002
 11
229.22775250000001
 21
164.650002
  0
LINE
  8
_0-0_0
  6
CONTINUOUS
 62
    7
 10
229.22775250000001
 20
164.650002
 11
230.22775250000001
 21
164.650002
  0
LINE
  8
_0-0_0
  6
CONTINUOUS
 62
    7
 10
230.22775250000001
 20
166.63284299999998
 11
230.22775250000001
 21
164.650002
  0
LINE
  8
_0-0_0
  6
CONTINUOUS
 62
    7
 10
240.4277495
 20
164.75
 11
239.9277495
 21
164.25
  0
ARC
  8
_0-0_0
  6
CONTINUOUS
 62
    7
 10
240.6277465
 20
164.949997
 40
0.2
 50
90.000003000000007
 51
179.99999099999999
  0
ARC
  8
_0-0_0
  6
CONTINUOUS
 62
    7
 10
244.9277495
 20
165.650002
 40
0.5
 50
269.99999700000001
 51
0
  0
LINE
  8
_0-0_0
  6
CONTINUOUS
 62
    7
 10
245.1094975
 20
168.349998
 11
245.1298525
 21
168.348984
  0
LINE
  8
_0-0_0
  6
CONTINUOUS
 62
    7
 10
245.1298525
 20
168.348984
 11
245.15025349999999
 21
168.34584000000001
  0
LINE
  8
_0-0_0
  6
CONTINUOUS
 62
    7
 10
245.15025349999999
 20
168.34584000000001
 11
245.17707849999999
 21
168.33824900000002
  0
LINE
  8
_0-0_0
  6
CONTINUOUS
 62
    7
 10
245.17707849999999
 20
168.33824900000002
 11
245.20271349999999
 21
168.32688100000001
  0
LINE
  8
_0-0_0
  6
CONTINUOUS
 62
    7
 10
245.20271349999999
 20
168.32688100000001
 11
245.2265165
 21
168.31199599999999
  0
LINE
  8
_0-0_0
  6
CONTINUOUS
 62
    7
 10
245.2265165
 20
168.31199599999999
 11
245.24327149999999
 21
168.29849200000001
  0
LINE
  8
_0-0_0
  6
CONTINUOUS
 62
    7
 10
245.24327149999999
 20
168.29849200000001
 11
245.25877349999999
 21
168.283264
  0
LINE
  8
_0-0_0
  6
CONTINUOUS
 62
    7
 10
245.25877349999999
 20
168.283264
 11
245.2856755
 21
168.24861099999998
  0
LINE
  8
_0-0_0
  6
CONTINUOUS
 62
    7
 10
245.2856755
 20
168.24861099999998
 11
245.30671749999999
 21
168.21028100000001
  0
LINE
  8
_0-0_0
  6
CONTINUOUS
 62
    7
 10
245.30671749999999
 20
168.21028100000001
 11
245.31871050000001
 21
168.18035900000001
  0
LINE
  8
_0-0_0
  6
CONTINUOUS
 62
    7
 10
245.31871050000001
 20
168.18035900000001
 11
245.32775849999999
 21
168.150002
  0
LINE
  8
_0-0_0
  6
CONTINUOUS
 62
    7
 10
245.1094975
 20
168.349998
 11
244.9277495
 21
168.349998
  0
LINE
  8
_0-0_0
  6
CONTINUOUS
 62
    7
 10
240.4277495
 20
186.800003
 11
240.4277495
 21
189.300003
  0
LINE
  8
_0-0_0
  6
CONTINUOUS
 62
    7
 10
240.4277495
 20
186.800003
 11
240.4277495
 21
170.300003
  0
LINE
  8
_0-0_0
  6
CONTINUOUS
 62
    7
 10
240.4277495
 20
168.83371
 11
240.4277495
 21
170.300003
  0
ARC
  8
_0-0_0
  6
CONTINUOUS
 62
    7
 10
239.9277495
 20
188.00500500000001
 40
0.5
 50
0
 51
123.74898500000002
  0
ARC
  8
_0-0_0
  6
CONTINUOUS
 62
    7
 10
240.5980375
 20
168.523293
 40
0.1734229999999999
 50
181.12417600000003
 51
270.64883800000007
  0
LINE
  8
_0-0_0
  6
CONTINUOUS
 62
    7
 10
240.42370650000001
 20
168.550003
 11
240.42379750000001
 21
168.519867
  0
ARC
  8
_0-0_0
  6
CONTINUOUS
 62
    7
 10
235.72775250000001
 20
191.25
 40
0.5
 50
0
 51
90.000003000000007
  0
ARC
  8
_0-0_0
  6
CONTINUOUS
 62
    7
 10
159.4277495
 20
190.25
 40
2.7000000000000002
 50
285.68033600000007
 51
0.0000000000000381
  0
ARC
  8
_0-0_0
  6
CONTINUOUS
 62
    7
 10
176.4277495
 20
174.450005
 40
3
 50
269.99999700000001
 51
0
  0
LINE
  8
_0-0_0
  6
CONTINUOUS
 62
    7
 10
179.4277495
 20
174.450005
 11
179.4277495
 21
188.050003
  0
ARC
  8
_0-0_0
  6
CONTINUOUS
 62
    7
 10
176.4277495
 20
188.050003
 40
3
 50
0
 51
90.000003000000007
  0
ARC
  8
_0-0_0
  6
CONTINUOUS
 62
    7
 10
171.9277495
 20
183.75
 40
4.5
 50
269.99999700000001
 51
90.000002999999992
  0
LINE
  8
_0-0_0
  6
CONTINUOUS
 62
    7
 10
171.9277495
 20
179.25
 11
166.9277495
 21
179.25
  0
ARC
  8
_0-0_0
  6
CONTINUOUS
 62
    7
 10
166.9277495
 20
183.75
 40
4.5
 50
90.000003000000007
 51
269.99999700000006
  0
LINE
  8
_0-0_0
  6
CONTINUOUS
 62
    7
 10
166.9277495
 20
188.25
 11
171.9277495
 21
188.25
  0
ARC
  8
_0-0_0
  6
CONTINUOUS
 62
    7
 10
218.4277495
 20
174.450005
 40
3
 50
179.99999099999999
 51
269.99999700000001
  0
LINE
  8
_0-0_0
  6
CONTINUOUS
 62
    7
 10
215.4277495
 20
188.050003
 11
215.4277495
 21
174.450005
  0
ARC
  8
_0-0_0
  6
CONTINUOUS
 62
    7
 10
218.4277495
 20
188.050003
 40
3
 50
90.000003000000007
 51
179.99999099999999
  0
ARC
  8
_0-0_0
  6
CONTINUOUS
 62
    7
 10
227.9277495
 20
183.75
 40
4.5
 50
269.99999700000001
 51
90.000002999999992
  0
LINE
  8
_0-0_0
  6
CONTINUOUS
 62
    7
 10
227.9277495
 20
179.25
 11
222.9277495
 21
179.25
  0
ARC
  8
_0-0_0
  6
CONTINUOUS
 62
    7
 10
222.9277495
 20
183.75
 40
4.5
 50
90.000003000000007
 51
269.99999700000006
  0
LINE
  8
_0-0_0
  6
CONTINUOUS
 62
    7
 10
222.9277495
 20
188.25
 11
227.9277495
 21
188.25
  0
LINE
  8
_0-0_0
  6
CONTINUOUS
 62
    7
 10
149.9277495
 20
188.550003
 11
149.7460025
 21
188.550003
  0
LINE
  8
_0-0_0
  6
CONTINUOUS
 62
    7
 10
154.4277495
 20
187.25
 11
154.4277495
 21
169.650002
  0
LINE
  8
_0-0_0
  6
CONTINUOUS
 62
    7
 10
154.4277495
 20
168.59643599999998
 11
154.4277495
 21
169.650002
  0
ARC
  8
_0-0_0
  6
CONTINUOUS
 62
    7
 10
154.25746150000001
 20
168.52328499999999
 40
0.1734209999999999
 50
269.35085600000002
 51
358.87625300000002
  0
LINE
  8
_0-0_0
  6
CONTINUOUS
 62
    7
 10
154.4317935
 20
168.550003
 11
154.43171749999999
 21
168.519867
  0
LINE
  8
_0-0_0
  6
CONTINUOUS
 62
    7
 10
154.4317935
 20
188.35000600000001
 11
154.43171749999999
 21
188.38012699999999
  0
ARC
  8
_0-0_0
  6
CONTINUOUS
 62
    7
 10
154.25746150000001
 20
188.37670900000001
 40
0.1734219999999999
 50
1.1236539999999999
 51
90.649110000000007
  0
LINE
  8
_0-0_0
  6
CONTINUOUS
 62
    7
 10
149.9277495
 20
168.349998
 11
149.7460025
 21
168.349998
  0
LINE
  8
_0-0_0
  6
CONTINUOUS
 62
    7
 10
149.7460025
 20
168.349998
 11
149.7256625
 21
168.348984
  0
LINE
  8
_0-0_0
  6
CONTINUOUS
 62
    7
 10
149.7256625
 20
168.348984
 11
149.70524649999999
 21
168.345833
  0
LINE
  8
_0-0_0
  6
CONTINUOUS
 62
    7
 10
149.70524649999999
 20
168.345833
 11
149.6784365
 21
168.33824900000002
  0
LINE
  8
_0-0_0
  6
CONTINUOUS
 62
    7
 10
149.6784365
 20
168.33824900000002
 11
149.65278649999999
 21
168.32688100000001
  0
LINE
  8
_0-0_0
  6
CONTINUOUS
 62
    7
 10
149.65278649999999
 20
168.32688100000001
 11
149.62898250000001
 21
168.31199599999999
  0
LINE
  8
_0-0_0
  6
CONTINUOUS
 62
    7
 10
149.62898250000001
 20
168.31199599999999
 11
149.61222849999999
 21
168.29849200000001
  0
LINE
  8
_0-0_0
  6
CONTINUOUS
 62
    7
 10
149.61222849999999
 20
168.29849200000001
 11
149.59672549999999
 21
168.283264
  0
LINE
  8
_0-0_0
  6
CONTINUOUS
 62
    7
 10
149.59672549999999
 20
168.283264
 11
149.56982449999998
 21
168.24861099999998
  0
LINE
  8
_0-0_0
  6
CONTINUOUS
 62
    7
 10
149.56982449999998
 20
168.24861099999998
 11
149.54878249999999
 21
168.21028100000001
  0
LINE
  8
_0-0_0
  6
CONTINUOUS
 62
    7
 10
149.54878249999999
 20
168.21028100000001
 11
149.5367895
 21
168.18035900000001
  0
LINE
  8
_0-0_0
  6
CONTINUOUS
 62
    7
 10
149.5367895
 20
168.18035900000001
 11
149.52775549999998
 21
168.150002
  0
ARC
  8
_0-0_0
  6
CONTINUOUS
 62
    7
 10
149.9277495
 20
165.650002
 40
0.5
 50
179.99999099999999
 51
269.99999700000001
  0
ARC
  8
_0-0_0
  6
CONTINUOUS
 62
    7
 10
154.22775250000001
 20
164.949997
 40
0.2
 50
0
 51
90.000003000000007
  0
LINE
  8
_0-0_0
  6
CONTINUOUS
 62
    7
 10
154.4277495
 20
164.75
 11
154.9277495
 21
164.25
  0
ARC
  8
_0-0_0
  6
CONTINUOUS
 62
    7
 10
137.75230450000001
 20
187.25
 40
2
 50
90.000003000000007
 51
108.434997
  0
LINE
  8
_0-0_0
  6
CONTINUOUS
 62
    7
 10
142.4277495
 20
186.75
 11
142.4277495
 21
187.25
  0
LINE
  8
_0-0_0
  6
CONTINUOUS
 62
    7
 10
142.4277495
 20
183.75
 11
142.4277495
 21
183.25
  0
LINE
  8
_0-0_0
  6
CONTINUOUS
 62
    7
 10
142.4277495
 20
183.75
 11
142.4277495
 21
186.75
  0
ARC
  8
_0-0_0
  6
CONTINUOUS
 62
    7
 10
148.42776549999999
 20
183.94998200000001
 40
0.500016
 50
0.001164
 51
179.99560600000004
  0
LINE
  8
_0-0_0
  6
CONTINUOUS
 62
    7
 10
147.9277495
 20
183.949997
 11
147.9277495
 21
171.949997
  0
ARC
  8
_0-0_0
  6
CONTINUOUS
 62
    7
 10
148.42776549999999
 20
171.95001200000002
 40
0.500016
 50
180.00117
 51
359.995611
  0
LINE
  8
_0-0_0
  6
CONTINUOUS
 62
    7
 10
148.9277495
 20
183.949997
 11
148.9277495
 21
171.949997
  0
ARC
  8
_0-0_0
  6
CONTINUOUS
 62
    7
 10
146.92776549999999
 20
183.94998200000001
 40
0.500016
 50
0.001164
 51
179.99560600000004
  0
LINE
  8
_0-0_0
  6
CONTINUOUS
 62
    7
 10
146.4277495
 20
183.949997
 11
146.4277495
 21
171.949997
  0
ARC
  8
_0-0_0
  6
CONTINUOUS
 62
    7
 10
146.92776549999999
 20
171.95001200000002
 40
0.500016
 50
180.00117
 51
359.995611
  0
LINE
  8
_0-0_0
  6
CONTINUOUS
 62
    7
 10
147.4277495
 20
183.949997
 11
147.4277495
 21
171.949997
  0
ARC
  8
_0-0_0
  6
CONTINUOUS
 62
    7
 10
145.42776549999999
 20
183.94998200000001
 40
0.500016
 50
0.001164
 51
179.99560600000004
  0
LINE
  8
_0-0_0
  6
CONTINUOUS
 62
    7
 10
144.9277495
 20
183.949997
 11
144.9277495
 21
171.949997
  0
ARC
  8
_0-0_0
  6
CONTINUOUS
 62
    7
 10
145.42776549999999
 20
171.95001200000002
 40
0.500016
 50
180.00117
 51
359.995611
  0
LINE
  8
_0-0_0
  6
CONTINUOUS
 62
    7
 10
145.9277495
 20
183.949997
 11
145.9277495
 21
171.949997
  0
ARC
  8
_0-0_0
  6
CONTINUOUS
 62
    7
 10
143.92776549999999
 20
183.94998200000001
 40
0.500016
 50
0.001164
 51
179.99560600000004
  0
LINE
  8
_0-0_0
  6
CONTINUOUS
 62
    7
 10
143.4277495
 20
183.949997
 11
143.4277495
 21
171.949997
  0
ARC
  8
_0-0_0
  6
CONTINUOUS
 62
    7
 10
143.92776549999999
 20
171.95001200000002
 40
0.500016
 50
180.00117
 51
359.995611
  0
LINE
  8
_0-0_0
  6
CONTINUOUS
 62
    7
 10
144.4277495
 20
183.949997
 11
144.4277495
 21
171.949997
  0
LINE
  8
_0-0_0
  6
CONTINUOUS
 62
    7
 10
240.4277495
 20
189.949997
 11
240.9277495
 21
189.949997
  0
LINE
  8
_0-0_0
  6
CONTINUOUS
 62
    7
 10
240.9277495
 20
189.949997
 11
253.4277495
 21
189.949997
  0
ARC
  8
_0-0_0
  6
CONTINUOUS
 62
    7
 10
240.9277495
 20
190.449997
 40
0.5
 50
179.99999099999999
 51
269.99999700000001
  0
LINE
  8
_0-0_0
  6
CONTINUOUS
 62
    7
 10
240.4277495
 20
189.583969
 11
240.4277495
 21
189.949997
  0
LINE
  8
_0-0_0
  6
CONTINUOUS
 62
    7
 10
240.4277495
 20
189.33348100000001
 11
240.4277495
 21
189.300003
  0
LINE
  8
_0-0_0
  6
CONTINUOUS
 62
    7
 10
240.4277495
 20
189.583969
 11
240.4277495
 21
189.33348100000001
  0
CIRCLE
  8
_0-0_0
  6
CONTINUOUS
 62
    7
 10
159.4277495
 20
190.25
 40
1.4750000000000001
  0
CIRCLE
  8
_0-0_0
  6
CONTINUOUS
 62
    7
 10
238.4277495
 20
190.25
 40
1.4750000000000001
  0
LINE
  8
_0-0_0
  6
CONTINUOUS
 62
    7
 10
240.4277495
 20
164.599998
 11
240.4277495
 21
164.75
  0
LINE
  8
_0-0_0
  6
CONTINUOUS
 62
    7
 10
245.9277495
 20
164.599998
 11
240.4277495
 21
164.599998
  0
LINE
  8
_0-0_0
  6
CONTINUOUS
 62
    7
 10
245.9277495
 20
167.150002
 11
245.4277495
 21
167.150002
  0
LINE
  8
_0-0_0
  6
CONTINUOUS
 62
    7
 10
240.9277495
 20
189.800003
 11
240.4277495
 21
189.300003
  0
LINE
  8
_0-0_0
  6
CONTINUOUS
 62
    7
 10
240.9277495
 20
189.800003
 11
245.9277495
 21
189.800003
  0
LINE
  8
_0-0_0
  6
CONTINUOUS
 62
    7
 10
149.43894950000001
 20
167.650002
 11
137.75230450000001
 21
167.650002
  0
LINE
  8
_0-0_0
  6
CONTINUOUS
 62
    7
 10
136.6777495
 20
189
 11
137.1198425
 21
189.147369
  0
LINE
  8
_0-0_0
  6
CONTINUOUS
 62
    7
 10
132.95339949999999
 20
183.75
 11
132.2600405
 21
183.75
  0
LINE
  8
_0-0_0
  6
CONTINUOUS
 62
    7
 10
132.95339949999999
 20
183.75
 11
137.27796949999998
 21
183.75
  0
LINE
  8
_0-0_0
  6
CONTINUOUS
 62
    7
 10
137.75230450000001
 20
183.75
 11
137.27796949999998
 21
183.75
  0
LINE
  8
_0-0_0
  6
CONTINUOUS
 62
    7
 10
142.4277495
 20
183.75
 11
137.75230450000001
 21
183.75
  0
LINE
  8
_0-0_0
  6
CONTINUOUS
 62
    7
 10
240.4277495
 20
164.453552
 11
240.4277495
 21
164.599998
  0
LINE
  8
_0-0_0
  6
CONTINUOUS
 62
    7
 10
240.4277495
 20
164.396446
 11
240.4277495
 21
164.453552
  0
LINE
  8
_0-0_0
  6
CONTINUOUS
 62
    7
 10
240.4277495
 20
164.25
 11
240.4277495
 21
164.396446
  0
ARC
  8
_0-0_0
  6
CONTINUOUS
 62
    7
 10
245.9277495
 20
165.099998
 40
0.5
 50
269.99999700000001
 51
0
  0
LINE
  8
_0-0_0
  6
CONTINUOUS
 62
    7
 10
246.4277495
 20
166.65571599999998
 11
246.4277495
 21
165.099998
  0
ARC
  8
_0-0_0
  6
CONTINUOUS
 62
    7
 10
245.9408415
 20
166.65235899999999
 40
0.4869939999999999
 50
0.394923
 51
23.93947
  0
ARC
  8
_0-0_0
  6
CONTINUOUS
 62
    7
 10
245.9277495
 20
166.650002
 40
0.5
 50
23.578231000000002
 51
90.000002999999992
  0
LINE
  8
_0-0_0
  6
CONTINUOUS
 62
    7
 10
246.4277495
 20
186.800003
 11
246.4277495
 21
189.300003
  0
ARC
  8
_0-0_0
  6
CONTINUOUS
 62
    7
 10
245.9277495
 20
189.300003
 40
0.5
 50
0
 51
90.000003000000007
  0
LINE
  8
_0-0_0
  6
CONTINUOUS
 62
    7
 10
245.9277495
 20
173.5
 11
243.72775250000001
 21
173.5
  0
LINE
  8
_0-0_0
  6
CONTINUOUS
 62
    7
 10
246.4277495
 20
186.800003
 11
246.4277495
 21
174
  0
LINE
  8
_0-0_0
  6
CONTINUOUS
 62
    7
 10
243.4277495
 20
173.199997
 11
243.4277495
 21
170.62169599999999
  0
LINE
  8
_0-0_0
  6
CONTINUOUS
 62
    7
 10
173.3992925
 20
179.650002
 11
165.4562075
 21
179.650002
  0
ARC
  8
_0-0_0
  6
CONTINUOUS
 62
    7
 10
165.4562075
 20
180.150002
 40
0.5
 50
210.00000299999999
 51
269.99999700000001
  0
LINE
  8
_0-0_0
  6
CONTINUOUS
 62
    7
 10
165.02319349999999
 20
179.900002
 11
162.94473249999999
 21
183.5
  0
ARC
  8
_0-0_0
  6
CONTINUOUS
 62
    7
 10
163.3777465
 20
183.75
 40
0.5
 50
149.99999700000001
 51
210.00000299999996
  0
LINE
  8
_0-0_0
  6
CONTINUOUS
 62
    7
 10
162.94473249999999
 20
184
 11
165.02319349999999
 21
187.60000600000001
  0
ARC
  8
_0-0_0
  6
CONTINUOUS
 62
    7
 10
165.4562075
 20
187.35000600000001
 40
0.5
 50
90.000003000000007
 51
149.99999700000001
  0
LINE
  8
_0-0_0
  6
CONTINUOUS
 62
    7
 10
165.4562075
 20
187.85000600000001
 11
173.3992925
 21
187.85000600000001
  0
ARC
  8
_0-0_0
  6
CONTINUOUS
 62
    7
 10
173.3992925
 20
187.35000600000001
 40
0.5
 50
30.000001000000001
 51
90.000003000000007
  0
LINE
  8
_0-0_0
  6
CONTINUOUS
 62
    7
 10
173.83230649999999
 20
187.60000600000001
 11
175.91076649999999
 21
184
  0
ARC
  8
_0-0_0
  6
CONTINUOUS
 62
    7
 10
175.47775250000001
 20
183.75
 40
0.5
 50
329.99998900000003
 51
30.000000999999983
  0
LINE
  8
_0-0_0
  6
CONTINUOUS
 62
    7
 10
175.91076649999999
 20
183.5
 11
173.83230649999999
 21
179.900002
  0
ARC
  8
_0-0_0
  6
CONTINUOUS
 62
    7
 10
173.3992925
 20
180.150002
 40
0.5
 50
269.99999700000001
 51
329.99998900000003
  0
ARC
  8
_0-0_0
  6
CONTINUOUS
 62
    7
 10
221.3984835
 20
180.25
 40
0.5
 50
210.00000299999999
 51
269.99999700000001
  0
LINE
  8
_0-0_0
  6
CONTINUOUS
 62
    7
 10
220.96546949999998
 20
180
 11
218.9447485
 21
183.5
  0
ARC
  8
_0-0_0
  6
CONTINUOUS
 62
    7
 10
219.3777465
 20
183.75
 40
0.5
 50
149.99999700000001
 51
210.00000299999996
  0
LINE
  8
_0-0_0
  6
CONTINUOUS
 62
    7
 10
218.9447485
 20
184
 11
220.96546949999998
 21
187.5
  0
ARC
  8
_0-0_0
  6
CONTINUOUS
 62
    7
 10
221.3984835
 20
187.25
 40
0.5
 50
90.000003000000007
 51
149.99999700000001
  0
LINE
  8
_0-0_0
  6
CONTINUOUS
 62
    7
 10
221.3984835
 20
187.75
 11
229.4570315
 21
187.75
  0
ARC
  8
_0-0_0
  6
CONTINUOUS
 62
    7
 10
229.4570315
 20
187.25
 40
0.5
 50
30.000001000000001
 51
90.000003000000007
  0
LINE
  8
_0-0_0
  6
CONTINUOUS
 62
    7
 10
229.89004549999999
 20
187.5
 11
231.91076649999999
 21
184
  0
ARC
  8
_0-0_0
  6
CONTINUOUS
 62
    7
 10
231.47775250000001
 20
183.75
 40
0.5
 50
329.99998900000003
 51
30.000000999999983
  0
LINE
  8
_0-0_0
  6
CONTINUOUS
 62
    7
 10
231.91076649999999
 20
183.5
 11
229.89004549999999
 21
180
  0
ARC
  8
_0-0_0
  6
CONTINUOUS
 62
    7
 10
229.4570315
 20
180.25
 40
0.5
 50
269.99999700000001
 51
329.99998900000003
  0
LINE
  8
_0-0_0
  6
CONTINUOUS
 62
    7
 10
229.4570315
 20
179.75
 11
221.3984835
 21
179.75
  0
LINE
  8
_0-0_0
  6
CONTINUOUS
 62
    7
 10
137.1198425
 20
167.75263200000001
 11
137.23933449999998
 21
167.717018
  0
LINE
  8
_0-0_0
  6
CONTINUOUS
 62
    7
 10
137.23933449999998
 20
167.717018
 11
137.36090149999998
 21
167.689133
  0
LINE
  8
_0-0_0
  6
CONTINUOUS
 62
    7
 10
137.36090149999998
 20
167.689133
 11
137.4840245
 21
167.66908999999998
  0
LINE
  8
_0-0_0
  6
CONTINUOUS
 62
    7
 10
137.4840245
 20
167.66908999999998
 11
137.60824550000001
 21
167.656982
  0
LINE
  8
_0-0_0
  6
CONTINUOUS
 62
    7
 10
137.60824550000001
 20
167.656982
 11
137.7330785
 21
167.65284
  0
LINE
  8
_0-0_0
  6
CONTINUOUS
 62
    7
 10
137.7330785
 20
167.65284
 11
137.75230450000001
 21
167.652916
  0
ARC
  8
_0-0_0
  6
CONTINUOUS
 62
    7
 10
137.75230450000001
 20
169.650002
 40
2
 50
251.56498899999997
 51
269.99999700000001
  0
LINE
  8
_0-0_0
  6
CONTINUOUS
 62
    7
 10
131.4277495
 20
184.50003100000001
 11
131.4277495
 21
183.37901299999999
  0
LINE
  8
_0-0_0
  6
CONTINUOUS
 62
    7
 10
159.6277465
 20
189.14999399999999
 11
159.22775250000001
 21
189.14999399999999
  0
LINE
  8
_0-0_0
  6
CONTINUOUS
 62
    7
 10
159.6277465
 20
189.14999399999999
 11
159.6277465
 21
189.800003
  0
ARC
  8
_0-0_0
  6
CONTINUOUS
 62
    7
 10
159.8777465
 20
189.800003
 40
0.25
 50
90.000003000000007
 51
179.99999099999999
  0
LINE
  8
_0-0_0
  6
CONTINUOUS
 62
    7
 10
159.8777465
 20
190.050003
 11
160.52775549999998
 21
190.050003
  0
LINE
  8
_0-0_0
  6
CONTINUOUS
 62
    7
 10
160.52775549999998
 20
190.050003
 11
160.52775549999998
 21
190.449997
  0
LINE
  8
_0-0_0
  6
CONTINUOUS
 62
    7
 10
159.8777465
 20
190.449997
 11
160.52775549999998
 21
190.449997
  0
ARC
  8
_0-0_0
  6
CONTINUOUS
 62
    7
 10
159.8777465
 20
190.699997
 40
0.25
 50
179.99999099999999
 51
269.99999700000001
  0
LINE
  8
_0-0_0
  6
CONTINUOUS
 62
    7
 10
159.6277465
 20
191.35000600000001
 11
159.6277465
 21
190.699997
  0
LINE
  8
_0-0_0
  6
CONTINUOUS
 62
    7
 10
159.6277465
 20
191.35000600000001
 11
159.22775250000001
 21
191.35000600000001
  0
LINE
  8
_0-0_0
  6
CONTINUOUS
 62
    7
 10
159.22775250000001
 20
191.35000600000001
 11
159.22775250000001
 21
190.699997
  0
ARC
  8
_0-0_0
  6
CONTINUOUS
 62
    7
 10
158.97775250000001
 20
190.699997
 40
0.25
 50
269.99999700000001
 51
0
  0
LINE
  8
_0-0_0
  6
CONTINUOUS
 62
    7
 10
158.97775250000001
 20
190.449997
 11
158.3277435
 21
190.449997
  0
LINE
  8
_0-0_0
  6
CONTINUOUS
 62
    7
 10
158.3277435
 20
190.050003
 11
158.3277435
 21
190.449997
  0
LINE
  8
_0-0_0
  6
CONTINUOUS
 62
    7
 10
158.97775250000001
 20
190.050003
 11
158.3277435
 21
190.050003
  0
ARC
  8
_0-0_0
  6
CONTINUOUS
 62
    7
 10
158.97775250000001
 20
189.800003
 40
0.25
 50
0
 51
90.000003000000007
  0
LINE
  8
_0-0_0
  6
CONTINUOUS
 62
    7
 10
159.22775250000001
 20
189.14999399999999
 11
159.22775250000001
 21
189.800003
  0
LINE
  8
_0-0_0
  6
CONTINUOUS
 62
    7
 10
238.6277465
 20
189.14999399999999
 11
238.22775250000001
 21
189.14999399999999
  0
LINE
  8
_0-0_0
  6
CONTINUOUS
 62
    7
 10
238.6277465
 20
189.14999399999999
 11
238.6277465
 21
189.800003
  0
ARC
  8
_0-0_0
  6
CONTINUOUS
 62
    7
 10
238.8777465
 20
189.800003
 40
0.25
 50
90.000003000000007
 51
179.99999099999999
  0
LINE
  8
_0-0_0
  6
CONTINUOUS
 62
    7
 10
238.8777465
 20
190.050003
 11
239.52775549999998
 21
190.050003
  0
LINE
  8
_0-0_0
  6
CONTINUOUS
 62
    7
 10
239.52775549999998
 20
190.050003
 11
239.52775549999998
 21
190.449997
  0
LINE
  8
_0-0_0
  6
CONTINUOUS
 62
    7
 10
238.8777465
 20
190.449997
 11
239.52775549999998
 21
190.449997
  0
ARC
  8
_0-0_0
  6
CONTINUOUS
 62
    7
 10
238.8777465
 20
190.699997
 40
0.25
 50
179.99999099999999
 51
269.99999700000001
  0
LINE
  8
_0-0_0
  6
CONTINUOUS
 62
    7
 10
238.6277465
 20
191.35000600000001
 11
238.6277465
 21
190.699997
  0
LINE
  8
_0-0_0
  6
CONTINUOUS
 62
    7
 10
238.6277465
 20
191.35000600000001
 11
238.22775250000001
 21
191.35000600000001
  0
LINE
  8
_0-0_0
  6
CONTINUOUS
 62
    7
 10
238.22775250000001
 20
191.35000600000001
 11
238.22775250000001
 21
190.699997
  0
ARC
  8
_0-0_0
  6
CONTINUOUS
 62
    7
 10
237.97775250000001
 20
190.699997
 40
0.25
 50
269.99999700000001
 51
0
  0
LINE
  8
_0-0_0
  6
CONTINUOUS
 62
    7
 10
237.97775250000001
 20
190.449997
 11
237.32775849999999
 21
190.449997
  0
LINE
  8
_0-0_0
  6
CONTINUOUS
 62
    7
 10
237.32775849999999
 20
190.050003
 11
237.32775849999999
 21
190.449997
  0
LINE
  8
_0-0_0
  6
CONTINUOUS
 62
    7
 10
237.97775250000001
 20
190.050003
 11
237.32775849999999
 21
190.050003
  0
ARC
  8
_0-0_0
  6
CONTINUOUS
 62
    7
 10
237.97775250000001
 20
189.800003
 40
0.25
 50
0
 51
90.000003000000007
  0
LINE
  8
_0-0_0
  6
CONTINUOUS
 62
    7
 10
238.22775250000001
 20
189.14999399999999
 11
238.22775250000001
 21
189.800003
  0
LINE
  8
_0-0_0
  6
CONTINUOUS
 62
    7
 10
245.9277495
 20
164.25
 11
240.4277495
 21
164.25
  0
LINE
  8
_0-0_0
  6
CONTINUOUS
 62
    7
 10
246.4277495
 20
170.5
 11
246.4277495
 21
174
  0
LINE
  8
_0-0_0
  6
CONTINUOUS
 62
    7
 10
246.4277495
 20
170.5
 11
246.4277495
 21
170.150002
  0
LINE
  8
_0-0_0
  6
CONTINUOUS
 62
    7
 10
246.4277495
 20
166.65571599999998
 11
246.4277495
 21
170.150002
  0
LINE
  8
_0-0_0
  6
CONTINUOUS
 62
    7
 10
246.4277495
 20
164.807106
 11
246.4277495
 21
165.099998
  0
LINE
  8
_0-0_0
  6
CONTINUOUS
 62
    7
 10
246.4277495
 20
164.807106
 11
246.4277495
 21
164.75
  0
LINE
  8
_0-0_0
  6
CONTINUOUS
 62
    7
 10
243.4277495
 20
169.07128899999998
 11
243.4277495
 21
170.62169599999999
  0
LINE
  8
_0-0_0
  6
CONTINUOUS
 62
    7
 10
243.4277495
 20
168.350143
 11
243.4277495
 21
169.07128899999998
  0
ARC
  8
_0-0_0
  6
CONTINUOUS
 62
    7
 10
245.9277495
 20
174
 40
0.5
 50
269.99999700000001
 51
0
  0
ARC
  8
_0-0_0
  6
CONTINUOUS
 62
    7
 10
243.72775250000001
 20
173.199997
 40
0.2999999999999999
 50
90.000003000000007
 51
179.99999099999999
  0
LINE
  8
_0-0_0
  6
CONTINUOUS
 62
    7
 10
132.7952885
 20
169.19416000000001
 11
137.1198425
 21
167.75263200000001
  0
LINE
  8
_0-0_0
  6
CONTINUOUS
 62
    7
 10
131.4277495
 20
171.091522
 11
131.4277495
 21
174.442307
  0
LINE
  8
_0-0_0
  6
CONTINUOUS
 62
    7
 10
131.4277495
 20
182.45768700000002
 11
131.4277495
 21
183.37901299999999
  0
ARC
  8
_0-0_0
  6
CONTINUOUS
 62
    7
 10
133.4277495
 20
171.091522
 40
2
 50
179.99999099999999
 51
251.56498899999997
  0
LINE
  8
_0-0_0
  6
CONTINUOUS
 62
    7
 10
116.42774949999999
 20
187.97543300000001
 11
116.42774949999999
 21
187.82870500000001
  0
LINE
  8
_0-0_0
  6
CONTINUOUS
 62
    7
 10
116.42774949999999
 20
188.16596999999999
 11
116.42774949999999
 21
187.97543300000001
  0
LINE
  8
_0-0_0
  6
CONTINUOUS
 62
    7
 10
116.42774949999999
 20
188.34098800000001
 11
116.42774949999999
 21
188.16596999999999
  0
LINE
  8
_0-0_0
  6
CONTINUOUS
 62
    7
 10
116.42774949999999
 20
188.498581
 11
116.42774949999999
 21
188.34098800000001
  0
LINE
  8
_0-0_0
  6
CONTINUOUS
 62
    7
 10
116.42774949999999
 20
188.63700900000001
 11
116.42774949999999
 21
188.498581
  0
LINE
  8
_0-0_0
  6
CONTINUOUS
 62
    7
 10
116.42774949999999
 20
188.754761
 11
116.42774949999999
 21
188.63700900000001
  0
LINE
  8
_0-0_0
  6
CONTINUOUS
 62
    7
 10
116.42774949999999
 20
188.85055500000001
 11
116.42774949999999
 21
188.754761
  0
LINE
  8
_0-0_0
  6
CONTINUOUS
 62
    7
 10
116.42774949999999
 20
188.92334
 11
116.42774949999999
 21
188.85055500000001
  0
LINE
  8
_0-0_0
  6
CONTINUOUS
 62
    7
 10
116.42774949999999
 20
189
 11
116.42774949999999
 21
188.92334
  0
LINE
  8
_0-0_0
  6
CONTINUOUS
 62
    7
 10
116.42774949999999
 20
188.99691799999999
 11
116.42774949999999
 21
188.97228999999999
  0
LINE
  8
_0-0_0
  6
CONTINUOUS
 62
    7
 10
116.42774949999999
 20
189
 11
116.42774949999999
 21
188.99691799999999
  0
LINE
  8
_0-0_0
  6
CONTINUOUS
 62
    7
 10
116.42774949999999
 20
184.50308200000001
 11
116.42774949999999
 21
184.5
  0
LINE
  8
_0-0_0
  6
CONTINUOUS
 62
    7
 10
116.42774949999999
 20
184.52771000000001
 11
116.42774949999999
 21
184.50308200000001
  0
LINE
  8
_0-0_0
  6
CONTINUOUS
 62
    7
 10
116.42774949999999
 20
184.57666
 11
116.42774949999999
 21
184.52771000000001
  0
LINE
  8
_0-0_0
  6
CONTINUOUS
 62
    7
 10
116.42774949999999
 20
184.64944499999999
 11
116.42774949999999
 21
184.5
  0
LINE
  8
_0-0_0
  6
CONTINUOUS
 62
    7
 10
116.42774949999999
 20
184.745239
 11
116.42774949999999
 21
184.64944499999999
  0
LINE
  8
_0-0_0
  6
CONTINUOUS
 62
    7
 10
116.42774949999999
 20
184.77543600000001
 11
116.42774949999999
 21
184.745239
  0
LINE
  8
_0-0_0
  6
CONTINUOUS
 62
    7
 10
116.42774949999999
 20
184.86299099999999
 11
116.42774949999999
 21
184.77543600000001
  0
LINE
  8
_0-0_0
  6
CONTINUOUS
 62
    7
 10
116.42774949999999
 20
185.001419
 11
116.42774949999999
 21
184.86299099999999
  0
LINE
  8
_0-0_0
  6
CONTINUOUS
 62
    7
 10
116.42774949999999
 20
185.15901199999999
 11
116.42774949999999
 21
185.001419
  0
LINE
  8
_0-0_0
  6
CONTINUOUS
 62
    7
 10
116.42774949999999
 20
185.33403000000001
 11
116.42774949999999
 21
185.15901199999999
  0
LINE
  8
_0-0_0
  6
CONTINUOUS
 62
    7
 10
116.42774949999999
 20
185.52456699999999
 11
116.42774949999999
 21
185.33403000000001
  0
LINE
  8
_0-0_0
  6
CONTINUOUS
 62
    7
 10
116.42774949999999
 20
185.72851600000001
 11
116.42774949999999
 21
185.52456699999999
  0
LINE
  8
_0-0_0
  6
CONTINUOUS
 62
    7
 10
116.42774949999999
 20
185.94366500000001
 11
116.42774949999999
 21
185.72851600000001
  0
LINE
  8
_0-0_0
  6
CONTINUOUS
 62
    7
 10
116.42774949999999
 20
186.167664
 11
116.42774949999999
 21
185.94366500000001
  0
LINE
  8
_0-0_0
  6
CONTINUOUS
 62
    7
 10
116.42774949999999
 20
186.39802599999999
 11
116.42774949999999
 21
186.167664
  0
LINE
  8
_0-0_0
  6
CONTINUOUS
 62
    7
 10
116.42774949999999
 20
186.632248
 11
116.42774949999999
 21
186.39802599999999
  0
LINE
  8
_0-0_0
  6
CONTINUOUS
 62
    7
 10
116.42774949999999
 20
186.867752
 11
116.42774949999999
 21
186.632248
  0
LINE
  8
_0-0_0
  6
CONTINUOUS
 62
    7
 10
116.42774949999999
 20
187.10197400000001
 11
116.42774949999999
 21
186.867752
  0
LINE
  8
_0-0_0
  6
CONTINUOUS
 62
    7
 10
116.42774949999999
 20
187.332336
 11
116.42774949999999
 21
187.10197400000001
  0
LINE
  8
_0-0_0
  6
CONTINUOUS
 62
    7
 10
116.42774949999999
 20
187.55633499999999
 11
116.42774949999999
 21
187.332336
  0
LINE
  8
_0-0_0
  6
CONTINUOUS
 62
    7
 10
116.42774949999999
 20
187.77148399999999
 11
116.42774949999999
 21
187.55633499999999
  0
LINE
  8
_0-0_0
  6
CONTINUOUS
 62
    7
 10
116.42774949999999
 20
187.82870500000001
 11
116.42774949999999
 21
187.77148399999999
  0
LINE
  8
_0-0_0
  6
CONTINUOUS
 62
    7
 10
131.72775250000001
 20
180.662003
 11
131.6689605
 21
180.908829
  0
LINE
  8
_0-0_0
  6
CONTINUOUS
 62
    7
 10
131.6689605
 20
180.908829
 11
131.61918649999998
 21
181.10116600000001
  0
LINE
  8
_0-0_0
  6
CONTINUOUS
 62
    7
 10
131.61918649999998
 20
181.10116600000001
 11
131.54805049999999
 21
181.36695900000001
  0
LINE
  8
_0-0_0
  6
CONTINUOUS
 62
    7
 10
131.54805049999999
 20
181.36695900000001
 11
131.51509149999998
 21
181.493683
  0
LINE
  8
_0-0_0
  6
CONTINUOUS
 62
    7
 10
131.51509149999998
 20
181.493683
 11
131.48983749999999
 21
181.59709900000001
  0
LINE
  8
_0-0_0
  6
CONTINUOUS
 62
    7
 10
131.48983749999999
 20
181.59709900000001
 11
131.4678045
 21
181.69703699999999
  0
LINE
  8
_0-0_0
  6
CONTINUOUS
 62
    7
 10
131.4678045
 20
181.69703699999999
 11
131.4464265
 21
181.81474300000002
  0
LINE
  8
_0-0_0
  6
CONTINUOUS
 62
    7
 10
131.4464265
 20
181.81474300000002
 11
131.43785149999999
 21
181.87687699999998
  0
LINE
  8
_0-0_0
  6
CONTINUOUS
 62
    7
 10
131.43785149999999
 20
181.87687699999998
 11
131.43177850000001
 21
181.93748499999998
  0
LINE
  8
_0-0_0
  6
CONTINUOUS
 62
    7
 10
131.43177850000001
 20
181.93748499999998
 11
131.42877250000001
 21
181.98672500000001
  0
LINE
  8
_0-0_0
  6
CONTINUOUS
 62
    7
 10
131.42877250000001
 20
181.98672500000001
 11
131.4277495
 21
182.034943
  0
LINE
  8
_0-0_0
  6
CONTINUOUS
 62
    7
 10
131.72775250000001
 20
176.237976
 11
131.8112185
 21
176.61665299999999
  0
LINE
  8
_0-0_0
  6
CONTINUOUS
 62
    7
 10
131.8112185
 20
176.61665299999999
 11
131.8513035
 21
176.80818199999999
  0
LINE
  8
_0-0_0
  6
CONTINUOUS
 62
    7
 10
131.8513035
 20
176.80818199999999
 11
131.90737949999999
 21
177.098206
  0
LINE
  8
_0-0_0
  6
CONTINUOUS
 62
    7
 10
131.90737949999999
 20
177.098206
 11
131.9449765
 21
177.31779499999999
  0
LINE
  8
_0-0_0
  6
CONTINUOUS
 62
    7
 10
131.9449765
 20
177.31779499999999
 11
131.9776305
 21
177.53904699999998
  0
LINE
  8
_0-0_0
  6
CONTINUOUS
 62
    7
 10
131.9776305
 20
177.53904699999998
 11
132.00479149999998
 21
177.765839
  0
LINE
  8
_0-0_0
  6
CONTINUOUS
 62
    7
 10
132.00479149999998
 20
177.765839
 11
132.0248565
 21
177.99324000000001
  0
LINE
  8
_0-0_0
  6
CONTINUOUS
 62
    7
 10
132.0248565
 20
177.99324000000001
 11
132.03201350000001
 21
178.106964
  0
LINE
  8
_0-0_0
  6
CONTINUOUS
 62
    7
 10
132.03201350000001
 20
178.106964
 11
132.0371705
 21
178.220642
  0
LINE
  8
_0-0_0
  6
CONTINUOUS
 62
    7
 10
132.0371705
 20
178.220642
 11
132.04089349999998
 21
178.372086
  0
LINE
  8
_0-0_0
  6
CONTINUOUS
 62
    7
 10
132.04089349999998
 20
178.372086
 11
132.04093950000001
 21
178.523346
  0
LINE
  8
_0-0_0
  6
CONTINUOUS
 62
    7
 10
132.04093950000001
 20
178.523346
 11
132.03736849999999
 21
178.67439300000001
  0
LINE
  8
_0-0_0
  6
CONTINUOUS
 62
    7
 10
132.03736849999999
 20
178.67439300000001
 11
132.0278625
 21
178.86294599999999
  0
LINE
  8
_0-0_0
  6
CONTINUOUS
 62
    7
 10
132.0278625
 20
178.86294599999999
 11
132.0130005
 21
179.05119300000001
  0
LINE
  8
_0-0_0
  6
CONTINUOUS
 62
    7
 10
132.0130005
 20
179.05119300000001
 11
131.99307249999998
 21
179.239136
  0
LINE
  8
_0-0_0
  6
CONTINUOUS
 62
    7
 10
131.99307249999998
 20
179.239136
 11
131.9766845
 21
179.368011
  0
LINE
  8
_0-0_0
  6
CONTINUOUS
 62
    7
 10
131.9766845
 20
179.368011
 11
131.95826750000001
 21
179.496658
  0
LINE
  8
_0-0_0
  6
CONTINUOUS
 62
    7
 10
131.95826750000001
 20
179.496658
 11
131.9341125
 21
179.64859000000001
  0
LINE
  8
_0-0_0
  6
CONTINUOUS
 62
    7
 10
131.9341125
 20
179.64859000000001
 11
131.9077145
 21
179.799927
  0
LINE
  8
_0-0_0
  6
CONTINUOUS
 62
    7
 10
131.9077145
 20
179.799927
 11
131.85154750000001
 21
180.090553
  0
LINE
  8
_0-0_0
  6
CONTINUOUS
 62
    7
 10
131.85154750000001
 20
180.090553
 11
131.8113865
 21
180.282501
  0
LINE
  8
_0-0_0
  6
CONTINUOUS
 62
    7
 10
131.8113865
 20
180.282501
 11
131.72775250000001
 21
180.662003
  0
LINE
  8
_0-0_0
  6
CONTINUOUS
 62
    7
 10
131.72775250000001
 20
176.237976
 11
131.66894550000001
 21
175.99113499999999
  0
LINE
  8
_0-0_0
  6
CONTINUOUS
 62
    7
 10
131.66894550000001
 20
175.99113499999999
 11
131.61918649999998
 21
175.79880500000002
  0
LINE
  8
_0-0_0
  6
CONTINUOUS
 62
    7
 10
131.61918649999998
 20
175.79880500000002
 11
131.54806550000001
 21
175.53305799999998
  0
LINE
  8
_0-0_0
  6
CONTINUOUS
 62
    7
 10
131.54806550000001
 20
175.53305799999998
 11
131.5151065
 21
175.406364
  0
LINE
  8
_0-0_0
  6
CONTINUOUS
 62
    7
 10
131.5151065
 20
175.406364
 11
131.48983749999999
 21
175.30291699999998
  0
LINE
  8
_0-0_0
  6
CONTINUOUS
 62
    7
 10
131.48983749999999
 20
175.30291699999998
 11
131.4678045
 21
175.20294999999999
  0
LINE
  8
_0-0_0
  6
CONTINUOUS
 62
    7
 10
131.4678045
 20
175.20294999999999
 11
131.4464265
 21
175.085251
  0
LINE
  8
_0-0_0
  6
CONTINUOUS
 62
    7
 10
131.4464265
 20
175.085251
 11
131.43785149999999
 21
175.02311700000001
  0
LINE
  8
_0-0_0
  6
CONTINUOUS
 62
    7
 10
131.43785149999999
 20
175.02311700000001
 11
131.43177850000001
 21
174.96250900000001
  0
LINE
  8
_0-0_0
  6
CONTINUOUS
 62
    7
 10
131.43177850000001
 20
174.96250900000001
 11
131.42877250000001
 21
174.91327699999999
  0
LINE
  8
_0-0_0
  6
CONTINUOUS
 62
    7
 10
131.42877250000001
 20
174.91327699999999
 11
131.4277495
 21
174.865059
  0
ARC
  8
_0-0_0
  6
CONTINUOUS
 62
    7
 10
245.9277495
 20
164.75
 40
0.5
 50
269.99999700000001
 51
0
  0
LINE
  8
_0-0_0
  6
CONTINUOUS
 62
    7
 10
245.88342249999999
 20
169.07128899999998
 11
245.88342249999999
 21
172.400002
  0
LINE
  8
_0-0_0
  6
CONTINUOUS
 62
    7
 10
245.88342249999999
 20
167.900002
 11
245.88342249999999
 21
169.07128899999998
  0
CIRCLE
  8
_0-0_0
  6
CONTINUOUS
 62
    7
 10
169.4277495
 20
183.75
 40
2.5
  0
CIRCLE
  8
_0-0_0
  6
CONTINUOUS
 62
    7
 10
225.4277495
 20
183.75
 40
2.5
  0
LINE
  8
_0-0_0
  6
CONTINUOUS
 62
    7
 10
131.4277495
 20
174.557693
 11
121.7199255
 21
174.557693
  0
LINE
  8
_0-0_0
  6
CONTINUOUS
 62
    7
 10
121.7199255
 20
171.949997
 11
121.6654355
 21
172.019936
  0
LINE
  8
_0-0_0
  6
CONTINUOUS
 62
    7
 10
121.6654355
 20
172.019936
 11
121.6143345
 21
172.08875999999998
  0
LINE
  8
_0-0_0
  6
CONTINUOUS
 62
    7
 10
121.6143345
 20
172.08875999999998
 11
121.56669649999999
 21
172.156273
  0
LINE
  8
_0-0_0
  6
CONTINUOUS
 62
    7
 10
121.56669649999999
 20
172.156273
 11
121.52220149999999
 21
172.22281599999999
  0
LINE
  8
_0-0_0
  6
CONTINUOUS
 62
    7
 10
121.52220149999999
 20
172.22281599999999
 11
121.4674835
 21
172.31035600000001
  0
LINE
  8
_0-0_0
  6
CONTINUOUS
 62
    7
 10
121.4674835
 20
172.31035600000001
 11
121.4179685
 21
172.39646099999999
  0
LINE
  8
_0-0_0
  6
CONTINUOUS
 62
    7
 10
121.4179685
 20
172.39646099999999
 11
121.3735045
 21
172.48129299999999
  0
LINE
  8
_0-0_0
  6
CONTINUOUS
 62
    7
 10
121.3735045
 20
172.48129299999999
 11
121.3265385
 21
172.581604
  0
LINE
  8
_0-0_0
  6
CONTINUOUS
 62
    7
 10
121.3265385
 20
172.581604
 11
121.28633149999999
 21
172.68053399999999
  0
LINE
  8
_0-0_0
  6
CONTINUOUS
 62
    7
 10
121.28633149999999
 20
172.68053399999999
 11
121.25267049999999
 21
172.77829
  0
LINE
  8
_0-0_0
  6
CONTINUOUS
 62
    7
 10
121.25267049999999
 20
172.77829
 11
121.22537249999999
 21
172.87509900000001
  0
LINE
  8
_0-0_0
  6
CONTINUOUS
 62
    7
 10
121.22537249999999
 20
172.87509900000001
 11
121.2043305
 21
172.971146
  0
LINE
  8
_0-0_0
  6
CONTINUOUS
 62
    7
 10
121.2043305
 20
172.971146
 11
121.1884005
 21
173.075005
  0
LINE
  8
_0-0_0
  6
CONTINUOUS
 62
    7
 10
121.1884005
 20
173.075005
 11
121.1796415
 21
173.17842899999999
  0
LINE
  8
_0-0_0
  6
CONTINUOUS
 62
    7
 10
121.1796415
 20
173.17842899999999
 11
121.1780095
 21
173.28167000000002
  0
LINE
  8
_0-0_0
  6
CONTINUOUS
 62
    7
 10
121.1780095
 20
173.28167000000002
 11
121.1834715
 21
173.38495599999999
  0
LINE
  8
_0-0_0
  6
CONTINUOUS
 62
    7
 10
121.1834715
 20
173.38495599999999
 11
121.19607549999999
 21
173.48854799999998
  0
LINE
  8
_0-0_0
  6
CONTINUOUS
 62
    7
 10
121.19607549999999
 20
173.48854799999998
 11
121.2158965
 21
173.59269699999999
  0
LINE
  8
_0-0_0
  6
CONTINUOUS
 62
    7
 10
121.2158965
 20
173.59269699999999
 11
121.2430425
 21
173.697655
  0
LINE
  8
_0-0_0
  6
CONTINUOUS
 62
    7
 10
121.2430425
 20
173.697655
 11
121.2776945
 21
173.80368799999999
  0
LINE
  8
_0-0_0
  6
CONTINUOUS
 62
    7
 10
121.2776945
 20
173.80368799999999
 11
121.3200375
 21
173.91106400000001
  0
LINE
  8
_0-0_0
  6
CONTINUOUS
 62
    7
 10
121.3200375
 20
173.91106400000001
 11
121.3703615
 21
174.020073
  0
LINE
  8
_0-0_0
  6
CONTINUOUS
 62
    7
 10
121.3703615
 20
174.020073
 11
121.4246065
 21
174.12321500000002
  0
LINE
  8
_0-0_0
  6
CONTINUOUS
 62
    7
 10
121.4246065
 20
174.12321500000002
 11
121.48631349999999
 21
174.228264
  0
LINE
  8
_0-0_0
  6
CONTINUOUS
 62
    7
 10
121.48631349999999
 20
174.228264
 11
121.55583249999999
 21
174.33549499999998
  0
LINE
  8
_0-0_0
  6
CONTINUOUS
 62
    7
 10
121.55583249999999
 20
174.33549499999998
 11
121.6335455
 21
174.44520599999998
  0
LINE
  8
_0-0_0
  6
CONTINUOUS
 62
    7
 10
121.6335455
 20
174.44520599999998
 11
121.7199255
 21
174.557693
  0
LINE
  8
_0-0_0
  6
CONTINUOUS
 62
    7
 10
131.4277495
 20
171.949997
 11
121.7199255
 21
171.949997
  0
LINE
  8
_0-0_0
  6
CONTINUOUS
 62
    7
 10
131.4277495
 20
174.442307
 11
131.4277495
 21
174.557693
  0
LINE
  8
_0-0_0
  6
CONTINUOUS
 62
    7
 10
121.67774949999999
 20
171.949997
 11
121.7199255
 21
171.949997
  0
LINE
  8
_0-0_0
  6
CONTINUOUS
 62
    7
 10
131.4277495
 20
182.34229999999999
 11
121.7199255
 21
182.34229999999999
  0
LINE
  8
_0-0_0
  6
CONTINUOUS
 62
    7
 10
131.4277495
 20
182.45768700000002
 11
131.4277495
 21
182.34229999999999
  0
LINE
  8
_0-0_0
  6
CONTINUOUS
 62
    7
 10
121.7199255
 20
182.34229999999999
 11
121.6654355
 21
182.41224699999998
  0
LINE
  8
_0-0_0
  6
CONTINUOUS
 62
    7
 10
121.6654355
 20
182.41224699999998
 11
121.6143345
 21
182.481064
  0
LINE
  8
_0-0_0
  6
CONTINUOUS
 62
    7
 10
121.6143345
 20
182.481064
 11
121.56669649999999
 21
182.54856899999999
  0
LINE
  8
_0-0_0
  6
CONTINUOUS
 62
    7
 10
121.56669649999999
 20
182.54856899999999
 11
121.52220149999999
 21
182.615128
  0
LINE
  8
_0-0_0
  6
CONTINUOUS
 62
    7
 10
121.52220149999999
 20
182.615128
 11
121.4674835
 21
182.70265999999998
  0
LINE
  8
_0-0_0
  6
CONTINUOUS
 62
    7
 10
121.4674835
 20
182.70265999999998
 11
121.4179685
 21
182.788757
  0
LINE
  8
_0-0_0
  6
CONTINUOUS
 62
    7
 10
121.4179685
 20
182.788757
 11
121.3735045
 21
182.87359599999999
  0
LINE
  8
_0-0_0
  6
CONTINUOUS
 62
    7
 10
121.3735045
 20
182.87359599999999
 11
121.3265385
 21
182.973907
  0
LINE
  8
_0-0_0
  6
CONTINUOUS
 62
    7
 10
121.3265385
 20
182.973907
 11
121.28633149999999
 21
183.072845
  0
LINE
  8
_0-0_0
  6
CONTINUOUS
 62
    7
 10
121.28633149999999
 20
183.072845
 11
121.25267049999999
 21
183.170593
  0
LINE
  8
_0-0_0
  6
CONTINUOUS
 62
    7
 10
121.25267049999999
 20
183.170593
 11
121.22537249999999
 21
183.26739499999999
  0
LINE
  8
_0-0_0
  6
CONTINUOUS
 62
    7
 10
121.22537249999999
 20
183.26739499999999
 11
121.2043305
 21
183.363449
  0
LINE
  8
_0-0_0
  6
CONTINUOUS
 62
    7
 10
121.2043305
 20
183.363449
 11
121.1884005
 21
183.46731600000001
  0
LINE
  8
_0-0_0
  6
CONTINUOUS
 62
    7
 10
121.1884005
 20
183.46731600000001
 11
121.1796415
 21
183.57074
  0
LINE
  8
_0-0_0
  6
CONTINUOUS
 62
    7
 10
121.1796415
 20
183.57074
 11
121.1780095
 21
183.67396500000001
  0
LINE
  8
_0-0_0
  6
CONTINUOUS
 62
    7
 10
121.1780095
 20
183.67396500000001
 11
121.1834715
 21
183.77726699999999
  0
LINE
  8
_0-0_0
  6
CONTINUOUS
 62
    7
 10
121.1834715
 20
183.77726699999999
 11
121.19607549999999
 21
183.88085899999999
  0
LINE
  8
_0-0_0
  6
CONTINUOUS
 62
    7
 10
121.19607549999999
 20
183.88085899999999
 11
121.2158965
 21
183.98500100000001
  0
LINE
  8
_0-0_0
  6
CONTINUOUS
 62
    7
 10
121.2158965
 20
183.98500100000001
 11
121.2430425
 21
184.089966
  0
LINE
  8
_0-0_0
  6
CONTINUOUS
 62
    7
 10
121.2430425
 20
184.089966
 11
121.2776945
 21
184.195999
  0
LINE
  8
_0-0_0
  6
CONTINUOUS
 62
    7
 10
121.2776945
 20
184.195999
 11
121.3200375
 21
184.30337499999999
  0
LINE
  8
_0-0_0
  6
CONTINUOUS
 62
    7
 10
121.3200375
 20
184.30337499999999
 11
121.3703615
 21
184.412384
  0
LINE
  8
_0-0_0
  6
CONTINUOUS
 62
    7
 10
121.3703615
 20
184.412384
 11
121.41604649999999
 21
184.50003100000001
  0
LINE
  8
_0-0_0
  6
CONTINUOUS
 62
    7
 10
116.42774949999999
 20
187.97543300000001
 11
116.17774949999999
 21
188
  0
LINE
  8
_0-0_0
  6
CONTINUOUS
 62
    7
 10
116.42774949999999
 20
187.77148399999999
 11
116.17774949999999
 21
188
  0
LINE
  8
_0-0_0
  6
CONTINUOUS
 62
    7
 10
116.42774949999999
 20
188.16596999999999
 11
116.17774949999999
 21
188.21946700000001
  0
LINE
  8
_0-0_0
  6
CONTINUOUS
 62
    7
 10
116.42774949999999
 20
187.97543300000001
 11
116.17774949999999
 21
188.21946700000001
  0
LINE
  8
_0-0_0
  6
CONTINUOUS
 62
    7
 10
116.42774949999999
 20
188.34098800000001
 11
116.17774949999999
 21
188.422821
  0
LINE
  8
_0-0_0
  6
CONTINUOUS
 62
    7
 10
116.42774949999999
 20
188.16596999999999
 11
116.17774949999999
 21
188.422821
  0
LINE
  8
_0-0_0
  6
CONTINUOUS
 62
    7
 10
116.42774949999999
 20
188.498581
 11
116.17774949999999
 21
188.60786400000001
  0
LINE
  8
_0-0_0
  6
CONTINUOUS
 62
    7
 10
116.42774949999999
 20
188.34098800000001
 11
116.17774949999999
 21
188.60786400000001
  0
LINE
  8
_0-0_0
  6
CONTINUOUS
 62
    7
 10
116.42774949999999
 20
188.63700900000001
 11
116.17774949999999
 21
188.772537
  0
LINE
  8
_0-0_0
  6
CONTINUOUS
 62
    7
 10
116.42774949999999
 20
188.498581
 11
116.17774949999999
 21
188.772537
  0
LINE
  8
_0-0_0
  6
CONTINUOUS
 62
    7
 10
116.42774949999999
 20
188.754761
 11
116.17774949999999
 21
188.91506999999999
  0
LINE
  8
_0-0_0
  6
CONTINUOUS
 62
    7
 10
116.42774949999999
 20
188.63700900000001
 11
116.17774949999999
 21
188.91506999999999
  0
LINE
  8
_0-0_0
  6
CONTINUOUS
 62
    7
 10
116.42774949999999
 20
188.85055500000001
 11
116.17774949999999
 21
189.03385900000001
  0
LINE
  8
_0-0_0
  6
CONTINUOUS
 62
    7
 10
116.42774949999999
 20
188.754761
 11
116.17774949999999
 21
189.03385900000001
  0
LINE
  8
_0-0_0
  6
CONTINUOUS
 62
    7
 10
116.42774949999999
 20
188.92334
 11
116.17774949999999
 21
189.12764000000001
  0
LINE
  8
_0-0_0
  6
CONTINUOUS
 62
    7
 10
116.42774949999999
 20
188.85055500000001
 11
116.17774949999999
 21
189.12764000000001
  0
LINE
  8
_0-0_0
  6
CONTINUOUS
 62
    7
 10
116.42774949999999
 20
188.97228999999999
 11
116.17774949999999
 21
189.19537399999999
  0
LINE
  8
_0-0_0
  6
CONTINUOUS
 62
    7
 10
116.42774949999999
 20
188.92334
 11
116.17774949999999
 21
189.19537399999999
  0
LINE
  8
_0-0_0
  6
CONTINUOUS
 62
    7
 10
116.42774949999999
 20
188.99691799999999
 11
116.17774949999999
 21
189.23629800000001
  0
LINE
  8
_0-0_0
  6
CONTINUOUS
 62
    7
 10
116.42774949999999
 20
188.97228999999999
 11
116.17774949999999
 21
189.23629800000001
  0
LINE
  8
_0-0_0
  6
CONTINUOUS
 62
    7
 10
116.42774949999999
 20
188.99691799999999
 11
116.17774949999999
 21
189.25
  0
LINE
  8
_0-0_0
  6
CONTINUOUS
 62
    7
 10
116.42774949999999
 20
184.50308200000001
 11
116.17774949999999
 21
184.25
  0
LINE
  8
_0-0_0
  6
CONTINUOUS
 62
    7
 10
116.42774949999999
 20
184.52771000000001
 11
116.17774949999999
 21
184.26370199999999
  0
LINE
  8
_0-0_0
  6
CONTINUOUS
 62
    7
 10
116.42774949999999
 20
184.50308200000001
 11
116.17774949999999
 21
184.26370199999999
  0
LINE
  8
_0-0_0
  6
CONTINUOUS
 62
    7
 10
116.42774949999999
 20
184.57666
 11
116.17774949999999
 21
184.30462600000001
  0
LINE
  8
_0-0_0
  6
CONTINUOUS
 62
    7
 10
116.42774949999999
 20
184.52771000000001
 11
116.17774949999999
 21
184.30462600000001
  0
LINE
  8
_0-0_0
  6
CONTINUOUS
 62
    7
 10
116.42774949999999
 20
184.64944499999999
 11
116.17774949999999
 21
184.37235999999999
  0
LINE
  8
_0-0_0
  6
CONTINUOUS
 62
    7
 10
116.42774949999999
 20
184.57666
 11
116.17774949999999
 21
184.37235999999999
  0
LINE
  8
_0-0_0
  6
CONTINUOUS
 62
    7
 10
116.42774949999999
 20
184.745239
 11
116.17774949999999
 21
184.46614099999999
  0
LINE
  8
_0-0_0
  6
CONTINUOUS
 62
    7
 10
116.42774949999999
 20
184.64944499999999
 11
116.17774949999999
 21
184.46614099999999
  0
LINE
  8
_0-0_0
  6
CONTINUOUS
 62
    7
 10
116.42774949999999
 20
184.745239
 11
116.29779049999999
 21
184.66137699999999
  0
LINE
  8
_0-0_0
  6
CONTINUOUS
 62
    7
 10
116.42774949999999
 20
184.86299099999999
 11
116.17774949999999
 21
184.58493000000001
  0
LINE
  8
_0-0_0
  6
CONTINUOUS
 62
    7
 10
116.29779049999999
 20
184.66137699999999
 11
116.17774949999999
 21
184.58493000000001
  0
LINE
  8
_0-0_0
  6
CONTINUOUS
 62
    7
 10
116.42774949999999
 20
185.001419
 11
116.17774949999999
 21
184.727463
  0
LINE
  8
_0-0_0
  6
CONTINUOUS
 62
    7
 10
116.42774949999999
 20
184.86299099999999
 11
116.17774949999999
 21
184.727463
  0
LINE
  8
_0-0_0
  6
CONTINUOUS
 62
    7
 10
116.42774949999999
 20
185.15901199999999
 11
116.17774949999999
 21
184.89213599999999
  0
LINE
  8
_0-0_0
  6
CONTINUOUS
 62
    7
 10
116.42774949999999
 20
185.001419
 11
116.17774949999999
 21
184.89213599999999
  0
LINE
  8
_0-0_0
  6
CONTINUOUS
 62
    7
 10
116.42774949999999
 20
185.33403000000001
 11
116.17774949999999
 21
185.077179
  0
LINE
  8
_0-0_0
  6
CONTINUOUS
 62
    7
 10
116.42774949999999
 20
185.15901199999999
 11
116.17774949999999
 21
185.077179
  0
LINE
  8
_0-0_0
  6
CONTINUOUS
 62
    7
 10
116.42774949999999
 20
185.52456699999999
 11
116.17774949999999
 21
185.28053299999999
  0
LINE
  8
_0-0_0
  6
CONTINUOUS
 62
    7
 10
116.42774949999999
 20
185.33403000000001
 11
116.17774949999999
 21
185.28053299999999
  0
LINE
  8
_0-0_0
  6
CONTINUOUS
 62
    7
 10
116.42774949999999
 20
185.72851600000001
 11
116.17774949999999
 21
185.5
  0
LINE
  8
_0-0_0
  6
CONTINUOUS
 62
    7
 10
116.42774949999999
 20
185.52456699999999
 11
116.17774949999999
 21
185.5
  0
LINE
  8
_0-0_0
  6
CONTINUOUS
 62
    7
 10
116.42774949999999
 20
185.94366500000001
 11
116.17774949999999
 21
185.73315400000001
  0
LINE
  8
_0-0_0
  6
CONTINUOUS
 62
    7
 10
116.42774949999999
 20
185.72851600000001
 11
116.17774949999999
 21
185.73315400000001
  0
LINE
  8
_0-0_0
  6
CONTINUOUS
 62
    7
 10
116.42774949999999
 20
186.167664
 11
116.17774949999999
 21
185.977463
  0
LINE
  8
_0-0_0
  6
CONTINUOUS
 62
    7
 10
116.42774949999999
 20
185.94366500000001
 11
116.17774949999999
 21
185.977463
  0
LINE
  8
_0-0_0
  6
CONTINUOUS
 62
    7
 10
116.42774949999999
 20
186.39802599999999
 11
116.17774949999999
 21
186.23022499999999
  0
LINE
  8
_0-0_0
  6
CONTINUOUS
 62
    7
 10
116.42774949999999
 20
186.167664
 11
116.17774949999999
 21
186.23022499999999
  0
LINE
  8
_0-0_0
  6
CONTINUOUS
 62
    7
 10
116.42774949999999
 20
186.632248
 11
116.17774949999999
 21
186.48867799999999
  0
LINE
  8
_0-0_0
  6
CONTINUOUS
 62
    7
 10
116.42774949999999
 20
186.39802599999999
 11
116.17774949999999
 21
186.48867799999999
  0
LINE
  8
_0-0_0
  6
CONTINUOUS
 62
    7
 10
116.42774949999999
 20
186.867752
 11
116.17774949999999
 21
186.75
  0
LINE
  8
_0-0_0
  6
CONTINUOUS
 62
    7
 10
116.42774949999999
 20
186.632248
 11
116.17774949999999
 21
186.75
  0
LINE
  8
_0-0_0
  6
CONTINUOUS
 62
    7
 10
116.42774949999999
 20
187.10197400000001
 11
116.17774949999999
 21
187.01132200000001
  0
LINE
  8
_0-0_0
  6
CONTINUOUS
 62
    7
 10
116.42774949999999
 20
186.867752
 11
116.17774949999999
 21
187.01132200000001
  0
LINE
  8
_0-0_0
  6
CONTINUOUS
 62
    7
 10
116.42774949999999
 20
187.332336
 11
116.17774949999999
 21
187.26977500000001
  0
LINE
  8
_0-0_0
  6
CONTINUOUS
 62
    7
 10
116.42774949999999
 20
187.10197400000001
 11
116.17774949999999
 21
187.26977500000001
  0
LINE
  8
_0-0_0
  6
CONTINUOUS
 62
    7
 10
116.42774949999999
 20
187.55633499999999
 11
116.17774949999999
 21
187.522537
  0
LINE
  8
_0-0_0
  6
CONTINUOUS
 62
    7
 10
116.42774949999999
 20
187.332336
 11
116.17774949999999
 21
187.522537
  0
LINE
  8
_0-0_0
  6
CONTINUOUS
 62
    7
 10
116.42774949999999
 20
187.77148399999999
 11
116.17774949999999
 21
187.76684599999999
  0
LINE
  8
_0-0_0
  6
CONTINUOUS
 62
    7
 10
116.42774949999999
 20
187.55633499999999
 11
116.17774949999999
 21
187.76684599999999
  0
LINE
  8
_0-0_0
  6
CONTINUOUS
 62
    7
 10
131.4277495
 20
180.01205400000001
 11
131.4277495
 21
181.057693
  0
LINE
  8
_0-0_0
  6
CONTINUOUS
 62
    7
 10
131.4277495
 20
182.34229999999999
 11
131.4277495
 21
181.057693
  0
LINE
  8
_0-0_0
  6
CONTINUOUS
 62
    7
 10
131.4277495
 20
180.01205400000001
 11
131.4277495
 21
176.88795500000001
  0
LINE
  8
_0-0_0
  6
CONTINUOUS
 62
    7
 10
131.4277495
 20
175.84229999999999
 11
131.4277495
 21
174.557693
  0
LINE
  8
_0-0_0
  6
CONTINUOUS
 62
    7
 10
131.4277495
 20
175.84229999999999
 11
131.4277495
 21
176.88795500000001
  0
LINE
  8
_0-0_0
  6
CONTINUOUS
 62
    7
 10
246.02775549999998
 20
169.191147
 11
246.02775549999998
 21
172.150002
  0
LINE
  8
_0-0_0
  6
CONTINUOUS
 62
    7
 10
246.02775549999998
 20
168.150002
 11
246.02775549999998
 21
169.191147
  0
LINE
  8
_0-0_0
  6
CONTINUOUS
 62
    7
 10
131.4277495
 20
175.84229999999999
 11
121.7199255
 21
175.84229999999999
  0
ARC
  8
_0-0_0
  6
CONTINUOUS
 62
    7
 10
126.60163849999999
 20
175.19911200000001
 40
4.9238749999999998
 50
172.49424200000001
 51
181.535968
  0
ARC
  8
_0-0_0
  6
CONTINUOUS
 62
    7
 10
126.6396635
 20
175.20406300000002
 40
4.9620009999999999
 50
181.58130700000004
 51
187.48478900000003
  0
LINE
  8
_0-0_0
  6
CONTINUOUS
 62
    7
 10
120.42774949999999
 20
175.718445
 11
120.42774949999999
 21
173.199997
  0
LINE
  8
_0-0_0
  6
CONTINUOUS
 62
    7
 10
120.42774949999999
 20
183.699997
 11
120.42774949999999
 21
175.718445
  0
LINE
  8
_0-0_0
  6
CONTINUOUS
 62
    7
 10
121.7199255
 20
181.057693
 11
121.6255795
 21
180.81106599999998
  0
LINE
  8
_0-0_0
  6
CONTINUOUS
 62
    7
 10
121.6255795
 20
180.81106599999998
 11
121.5416415
 21
180.57110599999999
  0
LINE
  8
_0-0_0
  6
CONTINUOUS
 62
    7
 10
121.5416415
 20
180.57110599999999
 11
121.4674835
 21
180.33699000000001
  0
LINE
  8
_0-0_0
  6
CONTINUOUS
 62
    7
 10
121.4674835
 20
180.33699000000001
 11
121.4026035
 21
180.107956
  0
LINE
  8
_0-0_0
  6
CONTINUOUS
 62
    7
 10
121.4026035
 20
180.107956
 11
121.34655749999999
 21
179.883286
  0
LINE
  8
_0-0_0
  6
CONTINUOUS
 62
    7
 10
121.34655749999999
 20
179.883286
 11
121.2989965
 21
179.66230000000002
  0
LINE
  8
_0-0_0
  6
CONTINUOUS
 62
    7
 10
121.2989965
 20
179.66230000000002
 11
121.25958249999999
 21
179.44438200000002
  0
LINE
  8
_0-0_0
  6
CONTINUOUS
 62
    7
 10
121.25958249999999
 20
179.44438200000002
 11
121.22810349999999
 21
179.228928
  0
LINE
  8
_0-0_0
  6
CONTINUOUS
 62
    7
 10
121.22810349999999
 20
179.228928
 11
121.2043305
 21
179.01539600000001
  0
LINE
  8
_0-0_0
  6
CONTINUOUS
 62
    7
 10
121.2043305
 20
179.01539600000001
 11
121.1884005
 21
178.80768599999999
  0
LINE
  8
_0-0_0
  6
CONTINUOUS
 62
    7
 10
121.1884005
 20
178.80768599999999
 11
121.1796415
 21
178.60083800000001
  0
LINE
  8
_0-0_0
  6
CONTINUOUS
 62
    7
 10
121.1796415
 20
178.60083800000001
 11
121.1780095
 21
178.394363
  0
LINE
  8
_0-0_0
  6
CONTINUOUS
 62
    7
 10
121.1780095
 20
178.394363
 11
121.1834715
 21
178.187782
  0
LINE
  8
_0-0_0
  6
CONTINUOUS
 62
    7
 10
121.1834715
 20
178.187782
 11
121.19607549999999
 21
177.980591
  0
LINE
  8
_0-0_0
  6
CONTINUOUS
 62
    7
 10
121.19607549999999
 20
177.980591
 11
121.2158965
 21
177.772301
  0
LINE
  8
_0-0_0
  6
CONTINUOUS
 62
    7
 10
121.2158965
 20
177.772301
 11
121.2430425
 21
177.562378
  0
LINE
  8
_0-0_0
  6
CONTINUOUS
 62
    7
 10
121.2430425
 20
177.562378
 11
121.2776945
 21
177.350311
  0
LINE
  8
_0-0_0
  6
CONTINUOUS
 62
    7
 10
121.2776945
 20
177.350311
 11
121.3200375
 21
177.135559
  0
LINE
  8
_0-0_0
  6
CONTINUOUS
 62
    7
 10
121.3200375
 20
177.135559
 11
121.3703615
 21
176.91755699999999
  0
LINE
  8
_0-0_0
  6
CONTINUOUS
 62
    7
 10
121.3703615
 20
176.91755699999999
 11
121.4246065
 21
176.71127300000001
  0
LINE
  8
_0-0_0
  6
CONTINUOUS
 62
    7
 10
121.4246065
 20
176.71127300000001
 11
121.48631349999999
 21
176.50116700000001
  0
LINE
  8
_0-0_0
  6
CONTINUOUS
 62
    7
 10
121.48631349999999
 20
176.50116700000001
 11
121.55583249999999
 21
176.286697
  0
LINE
  8
_0-0_0
  6
CONTINUOUS
 62
    7
 10
121.55583249999999
 20
176.286697
 11
121.6335455
 21
176.067284
  0
LINE
  8
_0-0_0
  6
CONTINUOUS
 62
    7
 10
121.6335455
 20
176.067284
 11
121.7199255
 21
175.84229999999999
  0
ARC
  8
_0-0_0
  6
CONTINUOUS
 62
    7
 10
126.5914765
 20
181.699997
 40
4.9136889999999998
 50
172.48898299999999
 51
187.51101699999998
  0
LINE
  8
_0-0_0
  6
CONTINUOUS
 62
    7
 10
131.4277495
 20
181.057693
 11
121.7199255
 21
181.057693
  0
LINE
  8
_0-0_0
  6
CONTINUOUS
 62
    7
 10
106.67774949999999
 20
187.97543300000001
 11
106.92774949999999
 21
188
  0
LINE
  8
_0-0_0
  6
CONTINUOUS
 62
    7
 10
106.92774949999999
 20
188
 11
116.17774949999999
 21
188
  0
LINE
  8
_0-0_0
  6
CONTINUOUS
 62
    7
 10
106.67774949999999
 20
187.77148399999999
 11
106.92774949999999
 21
188
  0
LINE
  8
_0-0_0
  6
CONTINUOUS
 62
    7
 10
106.67774949999999
 20
187.77148399999999
 11
116.42774949999999
 21
187.77148399999999
  0
LINE
  8
_0-0_0
  6
CONTINUOUS
 62
    7
 10
106.67774949999999
 20
188.16596999999999
 11
106.92774949999999
 21
188.21946700000001
  0
LINE
  8
_0-0_0
  6
CONTINUOUS
 62
    7
 10
106.92774949999999
 20
188.21946700000001
 11
116.17774949999999
 21
188.21946700000001
  0
LINE
  8
_0-0_0
  6
CONTINUOUS
 62
    7
 10
106.67774949999999
 20
187.97543300000001
 11
106.92774949999999
 21
188.21946700000001
  0
LINE
  8
_0-0_0
  6
CONTINUOUS
 62
    7
 10
106.67774949999999
 20
188.34098800000001
 11
106.92774949999999
 21
188.422821
  0
LINE
  8
_0-0_0
  6
CONTINUOUS
 62
    7
 10
106.92774949999999
 20
188.422821
 11
116.17774949999999
 21
188.422821
  0
LINE
  8
_0-0_0
  6
CONTINUOUS
 62
    7
 10
106.67774949999999
 20
188.16596999999999
 11
106.92774949999999
 21
188.422821
  0
LINE
  8
_0-0_0
  6
CONTINUOUS
 62
    7
 10
106.67774949999999
 20
188.498581
 11
106.92774949999999
 21
188.60786400000001
  0
LINE
  8
_0-0_0
  6
CONTINUOUS
 62
    7
 10
106.92774949999999
 20
188.60786400000001
 11
116.17774949999999
 21
188.60786400000001
  0
LINE
  8
_0-0_0
  6
CONTINUOUS
 62
    7
 10
106.67774949999999
 20
188.34098800000001
 11
106.92774949999999
 21
188.60786400000001
  0
LINE
  8
_0-0_0
  6
CONTINUOUS
 62
    7
 10
106.67774949999999
 20
188.63700900000001
 11
106.92774949999999
 21
188.772537
  0
LINE
  8
_0-0_0
  6
CONTINUOUS
 62
    7
 10
106.92774949999999
 20
188.772537
 11
116.17774949999999
 21
188.772537
  0
LINE
  8
_0-0_0
  6
CONTINUOUS
 62
    7
 10
106.67774949999999
 20
188.498581
 11
106.92774949999999
 21
188.772537
  0
LINE
  8
_0-0_0
  6
CONTINUOUS
 62
    7
 10
106.67774949999999
 20
188.754761
 11
106.92774949999999
 21
188.91506999999999
  0
LINE
  8
_0-0_0
  6
CONTINUOUS
 62
    7
 10
106.92774949999999
 20
188.91506999999999
 11
116.17774949999999
 21
188.91506999999999
  0
LINE
  8
_0-0_0
  6
CONTINUOUS
 62
    7
 10
106.67774949999999
 20
188.63700900000001
 11
106.92774949999999
 21
188.91506999999999
  0
LINE
  8
_0-0_0
  6
CONTINUOUS
 62
    7
 10
106.67774949999999
 20
188.85055500000001
 11
106.92774949999999
 21
189.03385900000001
  0
LINE
  8
_0-0_0
  6
CONTINUOUS
 62
    7
 10
106.92774949999999
 20
189.03385900000001
 11
116.17774949999999
 21
189.03385900000001
  0
LINE
  8
_0-0_0
  6
CONTINUOUS
 62
    7
 10
106.67774949999999
 20
188.754761
 11
106.92774949999999
 21
189.03385900000001
  0
LINE
  8
_0-0_0
  6
CONTINUOUS
 62
    7
 10
106.67774949999999
 20
188.92334
 11
106.92774949999999
 21
189.12764000000001
  0
LINE
  8
_0-0_0
  6
CONTINUOUS
 62
    7
 10
106.92774949999999
 20
189.12764000000001
 11
116.17774949999999
 21
189.12764000000001
  0
LINE
  8
_0-0_0
  6
CONTINUOUS
 62
    7
 10
106.67774949999999
 20
188.85055500000001
 11
106.92774949999999
 21
189.12764000000001
  0
LINE
  8
_0-0_0
  6
CONTINUOUS
 62
    7
 10
106.67774949999999
 20
188.97228999999999
 11
106.92774949999999
 21
189.19537399999999
  0
LINE
  8
_0-0_0
  6
CONTINUOUS
 62
    7
 10
106.92774949999999
 20
189.19537399999999
 11
116.17774949999999
 21
189.19537399999999
  0
LINE
  8
_0-0_0
  6
CONTINUOUS
 62
    7
 10
106.67774949999999
 20
188.92334
 11
106.92774949999999
 21
189.19537399999999
  0
LINE
  8
_0-0_0
  6
CONTINUOUS
 62
    7
 10
106.67774949999999
 20
188.99691799999999
 11
106.92774949999999
 21
189.23629800000001
  0
LINE
  8
_0-0_0
  6
CONTINUOUS
 62
    7
 10
106.92774949999999
 20
189.23629800000001
 11
116.17774949999999
 21
189.23629800000001
  0
LINE
  8
_0-0_0
  6
CONTINUOUS
 62
    7
 10
106.67774949999999
 20
188.97228999999999
 11
106.92774949999999
 21
189.23629800000001
  0
LINE
  8
_0-0_0
  6
CONTINUOUS
 62
    7
 10
106.92774949999999
 20
189.25
 11
116.17774949999999
 21
189.25
  0
LINE
  8
_0-0_0
  6
CONTINUOUS
 62
    7
 10
106.67774949999999
 20
188.99691799999999
 11
106.92774949999999
 21
189.25
  0
LINE
  8
_0-0_0
  6
CONTINUOUS
 62
    7
 10
106.67774949999999
 20
184.50308200000001
 11
106.92774949999999
 21
184.25
  0
LINE
  8
_0-0_0
  6
CONTINUOUS
 62
    7
 10
106.92774949999999
 20
184.25
 11
116.17774949999999
 21
184.25
  0
LINE
  8
_0-0_0
  6
CONTINUOUS
 62
    7
 10
106.67774949999999
 20
184.52771000000001
 11
106.92774949999999
 21
184.26370199999999
  0
LINE
  8
_0-0_0
  6
CONTINUOUS
 62
    7
 10
106.92774949999999
 20
184.26370199999999
 11
116.17774949999999
 21
184.26370199999999
  0
LINE
  8
_0-0_0
  6
CONTINUOUS
 62
    7
 10
106.67774949999999
 20
184.50308200000001
 11
106.92774949999999
 21
184.26370199999999
  0
LINE
  8
_0-0_0
  6
CONTINUOUS
 62
    7
 10
106.67774949999999
 20
184.57666
 11
106.92774949999999
 21
184.30462600000001
  0
LINE
  8
_0-0_0
  6
CONTINUOUS
 62
    7
 10
106.92774949999999
 20
184.30462600000001
 11
116.17774949999999
 21
184.30462600000001
  0
LINE
  8
_0-0_0
  6
CONTINUOUS
 62
    7
 10
106.67774949999999
 20
184.52771000000001
 11
106.92774949999999
 21
184.30462600000001
  0
LINE
  8
_0-0_0
  6
CONTINUOUS
 62
    7
 10
106.67774949999999
 20
184.64944499999999
 11
106.92774949999999
 21
184.37235999999999
  0
LINE
  8
_0-0_0
  6
CONTINUOUS
 62
    7
 10
106.92774949999999
 20
184.37235999999999
 11
116.17774949999999
 21
184.37235999999999
  0
LINE
  8
_0-0_0
  6
CONTINUOUS
 62
    7
 10
106.67774949999999
 20
184.57666
 11
106.92774949999999
 21
184.37235999999999
  0
LINE
  8
_0-0_0
  6
CONTINUOUS
 62
    7
 10
106.67774949999999
 20
184.745239
 11
106.92774949999999
 21
184.46614099999999
  0
LINE
  8
_0-0_0
  6
CONTINUOUS
 62
    7
 10
106.92774949999999
 20
184.46614099999999
 11
116.17774949999999
 21
184.46614099999999
  0
LINE
  8
_0-0_0
  6
CONTINUOUS
 62
    7
 10
106.67774949999999
 20
184.64944499999999
 11
106.92774949999999
 21
184.46614099999999
  0
LINE
  8
_0-0_0
  6
CONTINUOUS
 62
    7
 10
106.92774949999999
 20
184.58493000000001
 11
116.17774949999999
 21
184.58493000000001
  0
LINE
  8
_0-0_0
  6
CONTINUOUS
 62
    7
 10
106.80770849999999
 20
184.66137699999999
 11
106.92774949999999
 21
184.58493000000001
  0
LINE
  8
_0-0_0
  6
CONTINUOUS
 62
    7
 10
106.67774949999999
 20
184.745239
 11
106.80770849999999
 21
184.66137699999999
  0
LINE
  8
_0-0_0
  6
CONTINUOUS
 62
    7
 10
106.67774949999999
 20
184.86299099999999
 11
106.92774949999999
 21
184.58493000000001
  0
LINE
  8
_0-0_0
  6
CONTINUOUS
 62
    7
 10
106.67774949999999
 20
185.001419
 11
106.92774949999999
 21
184.727463
  0
LINE
  8
_0-0_0
  6
CONTINUOUS
 62
    7
 10
106.92774949999999
 20
184.727463
 11
116.17774949999999
 21
184.727463
  0
LINE
  8
_0-0_0
  6
CONTINUOUS
 62
    7
 10
106.67774949999999
 20
184.86299099999999
 11
106.92774949999999
 21
184.727463
  0
LINE
  8
_0-0_0
  6
CONTINUOUS
 62
    7
 10
106.67774949999999
 20
185.15901199999999
 11
106.92774949999999
 21
184.89213599999999
  0
LINE
  8
_0-0_0
  6
CONTINUOUS
 62
    7
 10
106.92774949999999
 20
184.89213599999999
 11
116.17774949999999
 21
184.89213599999999
  0
LINE
  8
_0-0_0
  6
CONTINUOUS
 62
    7
 10
106.67774949999999
 20
185.001419
 11
106.92774949999999
 21
184.89213599999999
  0
LINE
  8
_0-0_0
  6
CONTINUOUS
 62
    7
 10
106.67774949999999
 20
185.33403000000001
 11
106.92774949999999
 21
185.077179
  0
LINE
  8
_0-0_0
  6
CONTINUOUS
 62
    7
 10
106.92774949999999
 20
185.077179
 11
116.17774949999999
 21
185.077179
  0
LINE
  8
_0-0_0
  6
CONTINUOUS
 62
    7
 10
106.67774949999999
 20
185.15901199999999
 11
106.92774949999999
 21
185.077179
  0
LINE
  8
_0-0_0
  6
CONTINUOUS
 62
    7
 10
106.67774949999999
 20
185.52456699999999
 11
106.92774949999999
 21
185.28053299999999
  0
LINE
  8
_0-0_0
  6
CONTINUOUS
 62
    7
 10
106.92774949999999
 20
185.28053299999999
 11
116.17774949999999
 21
185.28053299999999
  0
LINE
  8
_0-0_0
  6
CONTINUOUS
 62
    7
 10
106.67774949999999
 20
185.33403000000001
 11
106.92774949999999
 21
185.28053299999999
  0
LINE
  8
_0-0_0
  6
CONTINUOUS
 62
    7
 10
106.67774949999999
 20
185.72851600000001
 11
106.92774949999999
 21
185.5
  0
LINE
  8
_0-0_0
  6
CONTINUOUS
 62
    7
 10
106.92774949999999
 20
185.5
 11
116.17774949999999
 21
185.5
  0
LINE
  8
_0-0_0
  6
CONTINUOUS
 62
    7
 10
106.67774949999999
 20
185.72851600000001
 11
116.42774949999999
 21
185.72851600000001
  0
LINE
  8
_0-0_0
  6
CONTINUOUS
 62
    7
 10
106.67774949999999
 20
185.52456699999999
 11
106.92774949999999
 21
185.5
  0
LINE
  8
_0-0_0
  6
CONTINUOUS
 62
    7
 10
106.67774949999999
 20
185.94366500000001
 11
106.92774949999999
 21
185.73315400000001
  0
LINE
  8
_0-0_0
  6
CONTINUOUS
 62
    7
 10
106.92774949999999
 20
185.73315400000001
 11
116.17774949999999
 21
185.73315400000001
  0
LINE
  8
_0-0_0
  6
CONTINUOUS
 62
    7
 10
106.67774949999999
 20
185.94366500000001
 11
116.42774949999999
 21
185.94366500000001
  0
LINE
  8
_0-0_0
  6
CONTINUOUS
 62
    7
 10
106.67774949999999
 20
185.72851600000001
 11
106.92774949999999
 21
185.73315400000001
  0
LINE
  8
_0-0_0
  6
CONTINUOUS
 62
    7
 10
106.67774949999999
 20
186.167664
 11
106.92774949999999
 21
185.977463
  0
LINE
  8
_0-0_0
  6
CONTINUOUS
 62
    7
 10
106.92774949999999
 20
185.977463
 11
116.17774949999999
 21
185.977463
  0
LINE
  8
_0-0_0
  6
CONTINUOUS
 62
    7
 10
106.67774949999999
 20
186.167664
 11
116.42774949999999
 21
186.167664
  0
LINE
  8
_0-0_0
  6
CONTINUOUS
 62
    7
 10
106.67774949999999
 20
185.94366500000001
 11
106.92774949999999
 21
185.977463
  0
LINE
  8
_0-0_0
  6
CONTINUOUS
 62
    7
 10
106.67774949999999
 20
186.39802599999999
 11
106.92774949999999
 21
186.23022499999999
  0
LINE
  8
_0-0_0
  6
CONTINUOUS
 62
    7
 10
106.92774949999999
 20
186.23022499999999
 11
116.17774949999999
 21
186.23022499999999
  0
LINE
  8
_0-0_0
  6
CONTINUOUS
 62
    7
 10
106.67774949999999
 20
186.39802599999999
 11
116.42774949999999
 21
186.39802599999999
  0
LINE
  8
_0-0_0
  6
CONTINUOUS
 62
    7
 10
106.67774949999999
 20
186.167664
 11
106.92774949999999
 21
186.23022499999999
  0
LINE
  8
_0-0_0
  6
CONTINUOUS
 62
    7
 10
106.67774949999999
 20
186.632248
 11
106.92774949999999
 21
186.48867799999999
  0
LINE
  8
_0-0_0
  6
CONTINUOUS
 62
    7
 10
106.92774949999999
 20
186.48867799999999
 11
116.17774949999999
 21
186.48867799999999
  0
LINE
  8
_0-0_0
  6
CONTINUOUS
 62
    7
 10
106.67774949999999
 20
186.632248
 11
116.42774949999999
 21
186.632248
  0
LINE
  8
_0-0_0
  6
CONTINUOUS
 62
    7
 10
106.67774949999999
 20
186.39802599999999
 11
106.92774949999999
 21
186.48867799999999
  0
LINE
  8
_0-0_0
  6
CONTINUOUS
 62
    7
 10
106.67774949999999
 20
186.867752
 11
106.92774949999999
 21
186.75
  0
LINE
  8
_0-0_0
  6
CONTINUOUS
 62
    7
 10
106.92774949999999
 20
186.75
 11
116.17774949999999
 21
186.75
  0
LINE
  8
_0-0_0
  6
CONTINUOUS
 62
    7
 10
106.67774949999999
 20
186.867752
 11
116.42774949999999
 21
186.867752
  0
LINE
  8
_0-0_0
  6
CONTINUOUS
 62
    7
 10
106.67774949999999
 20
186.632248
 11
106.92774949999999
 21
186.75
  0
LINE
  8
_0-0_0
  6
CONTINUOUS
 62
    7
 10
106.67774949999999
 20
187.10197400000001
 11
106.92774949999999
 21
187.01132200000001
  0
LINE
  8
_0-0_0
  6
CONTINUOUS
 62
    7
 10
106.92774949999999
 20
187.01132200000001
 11
116.17774949999999
 21
187.01132200000001
  0
LINE
  8
_0-0_0
  6
CONTINUOUS
 62
    7
 10
106.67774949999999
 20
187.10197400000001
 11
116.42774949999999
 21
187.10197400000001
  0
LINE
  8
_0-0_0
  6
CONTINUOUS
 62
    7
 10
106.67774949999999
 20
186.867752
 11
106.92774949999999
 21
187.01132200000001
  0
LINE
  8
_0-0_0
  6
CONTINUOUS
 62
    7
 10
106.67774949999999
 20
187.332336
 11
106.92774949999999
 21
187.26977500000001
  0
LINE
  8
_0-0_0
  6
CONTINUOUS
 62
    7
 10
106.92774949999999
 20
187.26977500000001
 11
116.17774949999999
 21
187.26977500000001
  0
LINE
  8
_0-0_0
  6
CONTINUOUS
 62
    7
 10
106.67774949999999
 20
187.332336
 11
116.42774949999999
 21
187.332336
  0
LINE
  8
_0-0_0
  6
CONTINUOUS
 62
    7
 10
106.67774949999999
 20
187.10197400000001
 11
106.92774949999999
 21
187.26977500000001
  0
LINE
  8
_0-0_0
  6
CONTINUOUS
 62
    7
 10
106.67774949999999
 20
187.55633499999999
 11
106.92774949999999
 21
187.522537
  0
LINE
  8
_0-0_0
  6
CONTINUOUS
 62
    7
 10
106.92774949999999
 20
187.522537
 11
116.17774949999999
 21
187.522537
  0
LINE
  8
_0-0_0
  6
CONTINUOUS
 62
    7
 10
106.67774949999999
 20
187.55633499999999
 11
116.42774949999999
 21
187.55633499999999
  0
LINE
  8
_0-0_0
  6
CONTINUOUS
 62
    7
 10
106.67774949999999
 20
187.332336
 11
106.92774949999999
 21
187.522537
  0
LINE
  8
_0-0_0
  6
CONTINUOUS
 62
    7
 10
106.67774949999999
 20
187.77148399999999
 11
106.92774949999999
 21
187.76684599999999
  0
LINE
  8
_0-0_0
  6
CONTINUOUS
 62
    7
 10
106.92774949999999
 20
187.76684599999999
 11
116.17774949999999
 21
187.76684599999999
  0
LINE
  8
_0-0_0
  6
CONTINUOUS
 62
    7
 10
106.67774949999999
 20
187.55633499999999
 11
106.92774949999999
 21
187.76684599999999
  0
LINE
  8
_0-0_0
  6
CONTINUOUS
 62
    7
 10
106.42774949999999
 20
188.75
 11
106.42774949999999
 21
184.994843
  0
LINE
  8
_0-0_0
  6
CONTINUOUS
 62
    7
 10
106.42774949999999
 20
184.994843
 11
106.42774949999999
 21
184.75
  0
LINE
  8
_0-0_0
  6
CONTINUOUS
 62
    7
 10
120.02774049999999
 20
183.449997
 11
120.02774049999999
 21
180.949997
  0
LINE
  8
_0-0_0
  6
CONTINUOUS
 62
    7
 10
120.02774049999999
 20
180.949997
 11
120.02774049999999
 21
173.449997
  0
LINE
  8
_0-0_0
  6
CONTINUOUS
 62
    7
 10
119.22775249999999
 20
182.98812899999999
 11
119.22775249999999
 21
180.719055
  0
LINE
  8
_0-0_0
  6
CONTINUOUS
 62
    7
 10
119.22775249999999
 20
180.719055
 11
119.22775249999999
 21
173.91188
  0
LINE
  8
_0-0_0
  6
CONTINUOUS
 62
    7
 10
61.227749499999987
 20
182.449997
 11
61.227749499999987
 21
182.448654
  0
LINE
  8
_0-0_0
  6
CONTINUOUS
 62
    7
 10
61.227749499999987
 20
182.448654
 11
61.227749499999987
 21
174.450005
  0
LINE
  8
_0-0_0
  6
CONTINUOUS
 62
    7
 10
116.42774949999999
 20
167.90308400000001
 11
116.42774949999999
 21
167.900002
  0
LINE
  8
_0-0_0
  6
CONTINUOUS
 62
    7
 10
116.42774949999999
 20
167.92770400000001
 11
116.42774949999999
 21
167.90308400000001
  0
LINE
  8
_0-0_0
  6
CONTINUOUS
 62
    7
 10
116.42774949999999
 20
167.97666900000002
 11
116.42774949999999
 21
167.900002
  0
LINE
  8
_0-0_0
  6
CONTINUOUS
 62
    7
 10
116.42774949999999
 20
168.04944599999999
 11
116.42774949999999
 21
167.97666900000002
  0
LINE
  8
_0-0_0
  6
CONTINUOUS
 62
    7
 10
116.42774949999999
 20
168.14523300000002
 11
116.42774949999999
 21
168.04944599999999
  0
LINE
  8
_0-0_0
  6
CONTINUOUS
 62
    7
 10
116.42774949999999
 20
168.17543799999999
 11
116.42774949999999
 21
168.14523300000002
  0
LINE
  8
_0-0_0
  6
CONTINUOUS
 62
    7
 10
116.42774949999999
 20
168.26299299999999
 11
116.42774949999999
 21
168.17543799999999
  0
LINE
  8
_0-0_0
  6
CONTINUOUS
 62
    7
 10
116.42774949999999
 20
168.401421
 11
116.42774949999999
 21
168.26299299999999
  0
LINE
  8
_0-0_0
  6
CONTINUOUS
 62
    7
 10
116.42774949999999
 20
168.55901299999999
 11
116.42774949999999
 21
168.401421
  0
LINE
  8
_0-0_0
  6
CONTINUOUS
 62
    7
 10
116.42774949999999
 20
168.73403200000001
 11
116.42774949999999
 21
168.55901299999999
  0
LINE
  8
_0-0_0
  6
CONTINUOUS
 62
    7
 10
116.42774949999999
 20
168.92456099999998
 11
116.42774949999999
 21
168.73403200000001
  0
LINE
  8
_0-0_0
  6
CONTINUOUS
 62
    7
 10
116.42774949999999
 20
169.128525
 11
116.42774949999999
 21
168.92456099999998
  0
LINE
  8
_0-0_0
  6
CONTINUOUS
 62
    7
 10
116.42774949999999
 20
169.34367399999999
 11
116.42774949999999
 21
169.128525
  0
LINE
  8
_0-0_0
  6
CONTINUOUS
 62
    7
 10
116.42774949999999
 20
169.567657
 11
116.42774949999999
 21
169.34367399999999
  0
LINE
  8
_0-0_0
  6
CONTINUOUS
 62
    7
 10
116.42774949999999
 20
169.79801900000001
 11
116.42774949999999
 21
169.567657
  0
LINE
  8
_0-0_0
  6
CONTINUOUS
 62
    7
 10
116.42774949999999
 20
170.032242
 11
116.42774949999999
 21
169.79801900000001
  0
LINE
  8
_0-0_0
  6
CONTINUOUS
 62
    7
 10
116.42774949999999
 20
170.267754
 11
116.42774949999999
 21
170.032242
  0
LINE
  8
_0-0_0
  6
CONTINUOUS
 62
    7
 10
116.42774949999999
 20
170.50197600000001
 11
116.42774949999999
 21
170.267754
  0
LINE
  8
_0-0_0
  6
CONTINUOUS
 62
    7
 10
116.42774949999999
 20
170.73234600000001
 11
116.42774949999999
 21
170.50197600000001
  0
LINE
  8
_0-0_0
  6
CONTINUOUS
 62
    7
 10
116.42774949999999
 20
170.95632899999998
 11
116.42774949999999
 21
170.73234600000001
  0
LINE
  8
_0-0_0
  6
CONTINUOUS
 62
    7
 10
116.42774949999999
 20
171.17147799999998
 11
116.42774949999999
 21
170.95632899999998
  0
LINE
  8
_0-0_0
  6
CONTINUOUS
 62
    7
 10
116.42774949999999
 20
171.22870599999999
 11
116.42774949999999
 21
171.17147799999998
  0
LINE
  8
_0-0_0
  6
CONTINUOUS
 62
    7
 10
116.42774949999999
 20
167.90308400000001
 11
116.17774949999999
 21
167.650002
  0
LINE
  8
_0-0_0
  6
CONTINUOUS
 62
    7
 10
116.42774949999999
 20
167.92770400000001
 11
116.17774949999999
 21
167.66369600000002
  0
LINE
  8
_0-0_0
  6
CONTINUOUS
 62
    7
 10
116.42774949999999
 20
167.90308400000001
 11
116.17774949999999
 21
167.66369600000002
  0
LINE
  8
_0-0_0
  6
CONTINUOUS
 62
    7
 10
116.42774949999999
 20
167.97666900000002
 11
116.17774949999999
 21
167.70462800000001
  0
LINE
  8
_0-0_0
  6
CONTINUOUS
 62
    7
 10
116.42774949999999
 20
167.92770400000001
 11
116.17774949999999
 21
167.70462800000001
  0
LINE
  8
_0-0_0
  6
CONTINUOUS
 62
    7
 10
116.42774949999999
 20
168.04944599999999
 11
116.17774949999999
 21
167.77236199999999
  0
LINE
  8
_0-0_0
  6
CONTINUOUS
 62
    7
 10
116.42774949999999
 20
167.97666900000002
 11
116.17774949999999
 21
167.77236199999999
  0
LINE
  8
_0-0_0
  6
CONTINUOUS
 62
    7
 10
116.42774949999999
 20
168.14523300000002
 11
116.17774949999999
 21
167.86613499999999
  0
LINE
  8
_0-0_0
  6
CONTINUOUS
 62
    7
 10
116.42774949999999
 20
168.04944599999999
 11
116.17774949999999
 21
167.86613499999999
  0
LINE
  8
_0-0_0
  6
CONTINUOUS
 62
    7
 10
116.42774949999999
 20
168.14523300000002
 11
116.29779049999999
 21
168.061386
  0
LINE
  8
_0-0_0
  6
CONTINUOUS
 62
    7
 10
116.42774949999999
 20
168.26299299999999
 11
116.17774949999999
 21
167.98493999999999
  0
LINE
  8
_0-0_0
  6
CONTINUOUS
 62
    7
 10
116.29779049999999
 20
168.061386
 11
116.17774949999999
 21
167.98493999999999
  0
LINE
  8
_0-0_0
  6
CONTINUOUS
 62
    7
 10
116.42774949999999
 20
168.401421
 11
116.17774949999999
 21
168.12745699999999
  0
LINE
  8
_0-0_0
  6
CONTINUOUS
 62
    7
 10
116.42774949999999
 20
168.26299299999999
 11
116.17774949999999
 21
168.12745699999999
  0
LINE
  8
_0-0_0
  6
CONTINUOUS
 62
    7
 10
116.42774949999999
 20
168.55901299999999
 11
116.17774949999999
 21
168.292137
  0
LINE
  8
_0-0_0
  6
CONTINUOUS
 62
    7
 10
116.42774949999999
 20
168.401421
 11
116.17774949999999
 21
168.292137
  0
LINE
  8
_0-0_0
  6
CONTINUOUS
 62
    7
 10
116.42774949999999
 20
168.73403200000001
 11
116.17774949999999
 21
168.47717299999999
  0
LINE
  8
_0-0_0
  6
CONTINUOUS
 62
    7
 10
116.42774949999999
 20
168.55901299999999
 11
116.17774949999999
 21
168.47717299999999
  0
LINE
  8
_0-0_0
  6
CONTINUOUS
 62
    7
 10
116.42774949999999
 20
168.92456099999998
 11
116.17774949999999
 21
168.68053399999999
  0
LINE
  8
_0-0_0
  6
CONTINUOUS
 62
    7
 10
116.42774949999999
 20
168.73403200000001
 11
116.17774949999999
 21
168.68053399999999
  0
LINE
  8
_0-0_0
  6
CONTINUOUS
 62
    7
 10
116.42774949999999
 20
169.128525
 11
116.17774949999999
 21
168.900002
  0
LINE
  8
_0-0_0
  6
CONTINUOUS
 62
    7
 10
116.42774949999999
 20
168.92456099999998
 11
116.17774949999999
 21
168.900002
  0
LINE
  8
_0-0_0
  6
CONTINUOUS
 62
    7
 10
116.42774949999999
 20
169.34367399999999
 11
116.17774949999999
 21
169.13315599999999
  0
LINE
  8
_0-0_0
  6
CONTINUOUS
 62
    7
 10
116.42774949999999
 20
169.128525
 11
116.17774949999999
 21
169.13315599999999
  0
LINE
  8
_0-0_0
  6
CONTINUOUS
 62
    7
 10
116.42774949999999
 20
169.567657
 11
116.17774949999999
 21
169.37745699999999
  0
LINE
  8
_0-0_0
  6
CONTINUOUS
 62
    7
 10
116.42774949999999
 20
169.34367399999999
 11
116.17774949999999
 21
169.37745699999999
  0
LINE
  8
_0-0_0
  6
CONTINUOUS
 62
    7
 10
116.42774949999999
 20
169.79801900000001
 11
116.17774949999999
 21
169.63021900000001
  0
LINE
  8
_0-0_0
  6
CONTINUOUS
 62
    7
 10
116.42774949999999
 20
169.567657
 11
116.17774949999999
 21
169.63021900000001
  0
LINE
  8
_0-0_0
  6
CONTINUOUS
 62
    7
 10
116.42774949999999
 20
170.032242
 11
116.17774949999999
 21
169.88867999999999
  0
LINE
  8
_0-0_0
  6
CONTINUOUS
 62
    7
 10
116.42774949999999
 20
169.79801900000001
 11
116.17774949999999
 21
169.88867999999999
  0
LINE
  8
_0-0_0
  6
CONTINUOUS
 62
    7
 10
116.42774949999999
 20
170.267754
 11
116.17774949999999
 21
170.150002
  0
LINE
  8
_0-0_0
  6
CONTINUOUS
 62
    7
 10
116.42774949999999
 20
170.032242
 11
116.17774949999999
 21
170.150002
  0
LINE
  8
_0-0_0
  6
CONTINUOUS
 62
    7
 10
116.42774949999999
 20
170.50197600000001
 11
116.17774949999999
 21
170.41132399999998
  0
LINE
  8
_0-0_0
  6
CONTINUOUS
 62
    7
 10
116.42774949999999
 20
170.267754
 11
116.17774949999999
 21
170.41132399999998
  0
LINE
  8
_0-0_0
  6
CONTINUOUS
 62
    7
 10
116.42774949999999
 20
170.73234600000001
 11
116.17774949999999
 21
170.66977700000001
  0
LINE
  8
_0-0_0
  6
CONTINUOUS
 62
    7
 10
116.42774949999999
 20
170.50197600000001
 11
116.17774949999999
 21
170.66977700000001
  0
LINE
  8
_0-0_0
  6
CONTINUOUS
 62
    7
 10
116.42774949999999
 20
170.95632899999998
 11
116.17774949999999
 21
170.922539
  0
LINE
  8
_0-0_0
  6
CONTINUOUS
 62
    7
 10
116.42774949999999
 20
170.73234600000001
 11
116.17774949999999
 21
170.922539
  0
LINE
  8
_0-0_0
  6
CONTINUOUS
 62
    7
 10
116.42774949999999
 20
171.17147799999998
 11
116.17774949999999
 21
171.16683999999998
  0
LINE
  8
_0-0_0
  6
CONTINUOUS
 62
    7
 10
116.42774949999999
 20
170.95632899999998
 11
116.17774949999999
 21
171.16683999999998
  0
LINE
  8
_0-0_0
  6
CONTINUOUS
 62
    7
 10
116.42774949999999
 20
171.37543499999998
 11
116.42774949999999
 21
171.22870599999999
  0
LINE
  8
_0-0_0
  6
CONTINUOUS
 62
    7
 10
116.42774949999999
 20
171.37543499999998
 11
116.17774949999999
 21
171.400002
  0
LINE
  8
_0-0_0
  6
CONTINUOUS
 62
    7
 10
116.42774949999999
 20
171.17147799999998
 11
116.17774949999999
 21
171.400002
  0
LINE
  8
_0-0_0
  6
CONTINUOUS
 62
    7
 10
116.42774949999999
 20
171.56597099999999
 11
116.42774949999999
 21
171.37543499999998
  0
LINE
  8
_0-0_0
  6
CONTINUOUS
 62
    7
 10
116.42774949999999
 20
171.74099000000001
 11
116.42774949999999
 21
171.56597099999999
  0
LINE
  8
_0-0_0
  6
CONTINUOUS
 62
    7
 10
116.42774949999999
 20
171.89857499999999
 11
116.42774949999999
 21
171.74099000000001
  0
LINE
  8
_0-0_0
  6
CONTINUOUS
 62
    7
 10
116.42774949999999
 20
172.03701000000001
 11
116.42774949999999
 21
171.89857499999999
  0
LINE
  8
_0-0_0
  6
CONTINUOUS
 62
    7
 10
116.42774949999999
 20
172.15476200000001
 11
116.42774949999999
 21
172.03701000000001
  0
LINE
  8
_0-0_0
  6
CONTINUOUS
 62
    7
 10
116.42774949999999
 20
172.25055700000001
 11
116.42774949999999
 21
172.15476200000001
  0
LINE
  8
_0-0_0
  6
CONTINUOUS
 62
    7
 10
116.42774949999999
 20
172.32333399999999
 11
116.42774949999999
 21
172.25055700000001
  0
LINE
  8
_0-0_0
  6
CONTINUOUS
 62
    7
 10
116.42774949999999
 20
172.372299
 11
116.42774949999999
 21
172.32333399999999
  0
LINE
  8
_0-0_0
  6
CONTINUOUS
 62
    7
 10
116.42774949999999
 20
172.396919
 11
116.42774949999999
 21
172.372299
  0
LINE
  8
_0-0_0
  6
CONTINUOUS
 62
    7
 10
116.42774949999999
 20
172.400002
 11
116.42774949999999
 21
172.396919
  0
LINE
  8
_0-0_0
  6
CONTINUOUS
 62
    7
 10
106.67774949999999
 20
167.90308400000001
 11
106.92774949999999
 21
167.650002
  0
LINE
  8
_0-0_0
  6
CONTINUOUS
 62
    7
 10
106.92774949999999
 20
167.650002
 11
116.17774949999999
 21
167.650002
  0
LINE
  8
_0-0_0
  6
CONTINUOUS
 62
    7
 10
106.67774949999999
 20
167.92770400000001
 11
106.92774949999999
 21
167.66369600000002
  0
LINE
  8
_0-0_0
  6
CONTINUOUS
 62
    7
 10
106.92774949999999
 20
167.66369600000002
 11
116.17774949999999
 21
167.66369600000002
  0
LINE
  8
_0-0_0
  6
CONTINUOUS
 62
    7
 10
106.67774949999999
 20
167.90308400000001
 11
106.92774949999999
 21
167.66369600000002
  0
LINE
  8
_0-0_0
  6
CONTINUOUS
 62
    7
 10
106.67774949999999
 20
167.97666900000002
 11
106.92774949999999
 21
167.70462800000001
  0
LINE
  8
_0-0_0
  6
CONTINUOUS
 62
    7
 10
106.92774949999999
 20
167.70462800000001
 11
116.17774949999999
 21
167.70462800000001
  0
LINE
  8
_0-0_0
  6
CONTINUOUS
 62
    7
 10
106.67774949999999
 20
167.92770400000001
 11
106.92774949999999
 21
167.70462800000001
  0
LINE
  8
_0-0_0
  6
CONTINUOUS
 62
    7
 10
106.67774949999999
 20
168.04944599999999
 11
106.92774949999999
 21
167.77236199999999
  0
LINE
  8
_0-0_0
  6
CONTINUOUS
 62
    7
 10
106.92774949999999
 20
167.77236199999999
 11
116.17774949999999
 21
167.77236199999999
  0
LINE
  8
_0-0_0
  6
CONTINUOUS
 62
    7
 10
106.67774949999999
 20
167.97666900000002
 11
106.92774949999999
 21
167.77236199999999
  0
LINE
  8
_0-0_0
  6
CONTINUOUS
 62
    7
 10
106.67774949999999
 20
168.14523300000002
 11
106.92774949999999
 21
167.86613499999999
  0
LINE
  8
_0-0_0
  6
CONTINUOUS
 62
    7
 10
106.92774949999999
 20
167.86613499999999
 11
116.17774949999999
 21
167.86613499999999
  0
LINE
  8
_0-0_0
  6
CONTINUOUS
 62
    7
 10
106.67774949999999
 20
168.04944599999999
 11
106.92774949999999
 21
167.86613499999999
  0
LINE
  8
_0-0_0
  6
CONTINUOUS
 62
    7
 10
106.92774949999999
 20
167.98493999999999
 11
116.17774949999999
 21
167.98493999999999
  0
LINE
  8
_0-0_0
  6
CONTINUOUS
 62
    7
 10
106.80770849999999
 20
168.061386
 11
106.92774949999999
 21
167.98493999999999
  0
LINE
  8
_0-0_0
  6
CONTINUOUS
 62
    7
 10
106.67774949999999
 20
168.14523300000002
 11
106.80770849999999
 21
168.061386
  0
LINE
  8
_0-0_0
  6
CONTINUOUS
 62
    7
 10
106.67774949999999
 20
168.26299299999999
 11
106.92774949999999
 21
167.98493999999999
  0
LINE
  8
_0-0_0
  6
CONTINUOUS
 62
    7
 10
106.67774949999999
 20
168.401421
 11
106.92774949999999
 21
168.12745699999999
  0
LINE
  8
_0-0_0
  6
CONTINUOUS
 62
    7
 10
106.92774949999999
 20
168.12745699999999
 11
116.17774949999999
 21
168.12745699999999
  0
LINE
  8
_0-0_0
  6
CONTINUOUS
 62
    7
 10
106.67774949999999
 20
168.26299299999999
 11
106.92774949999999
 21
168.12745699999999
  0
LINE
  8
_0-0_0
  6
CONTINUOUS
 62
    7
 10
106.67774949999999
 20
168.55901299999999
 11
106.92774949999999
 21
168.292137
  0
LINE
  8
_0-0_0
  6
CONTINUOUS
 62
    7
 10
106.92774949999999
 20
168.292137
 11
116.17774949999999
 21
168.292137
  0
LINE
  8
_0-0_0
  6
CONTINUOUS
 62
    7
 10
106.67774949999999
 20
168.401421
 11
106.92774949999999
 21
168.292137
  0
LINE
  8
_0-0_0
  6
CONTINUOUS
 62
    7
 10
106.67774949999999
 20
168.73403200000001
 11
106.92774949999999
 21
168.47717299999999
  0
LINE
  8
_0-0_0
  6
CONTINUOUS
 62
    7
 10
106.92774949999999
 20
168.47717299999999
 11
116.17774949999999
 21
168.47717299999999
  0
LINE
  8
_0-0_0
  6
CONTINUOUS
 62
    7
 10
106.67774949999999
 20
168.55901299999999
 11
106.92774949999999
 21
168.47717299999999
  0
LINE
  8
_0-0_0
  6
CONTINUOUS
 62
    7
 10
106.67774949999999
 20
168.92456099999998
 11
106.92774949999999
 21
168.68053399999999
  0
LINE
  8
_0-0_0
  6
CONTINUOUS
 62
    7
 10
106.92774949999999
 20
168.68053399999999
 11
116.17774949999999
 21
168.68053399999999
  0
LINE
  8
_0-0_0
  6
CONTINUOUS
 62
    7
 10
106.67774949999999
 20
168.73403200000001
 11
106.92774949999999
 21
168.68053399999999
  0
LINE
  8
_0-0_0
  6
CONTINUOUS
 62
    7
 10
106.67774949999999
 20
169.128525
 11
106.92774949999999
 21
168.900002
  0
LINE
  8
_0-0_0
  6
CONTINUOUS
 62
    7
 10
106.92774949999999
 20
168.900002
 11
116.17774949999999
 21
168.900002
  0
LINE
  8
_0-0_0
  6
CONTINUOUS
 62
    7
 10
106.67774949999999
 20
169.128525
 11
116.42774949999999
 21
169.128525
  0
LINE
  8
_0-0_0
  6
CONTINUOUS
 62
    7
 10
106.67774949999999
 20
168.92456099999998
 11
106.92774949999999
 21
168.900002
  0
LINE
  8
_0-0_0
  6
CONTINUOUS
 62
    7
 10
106.67774949999999
 20
169.34367399999999
 11
106.92774949999999
 21
169.13315599999999
  0
LINE
  8
_0-0_0
  6
CONTINUOUS
 62
    7
 10
106.92774949999999
 20
169.13315599999999
 11
116.17774949999999
 21
169.13315599999999
  0
LINE
  8
_0-0_0
  6
CONTINUOUS
 62
    7
 10
106.67774949999999
 20
169.34367399999999
 11
116.42774949999999
 21
169.34367399999999
  0
LINE
  8
_0-0_0
  6
CONTINUOUS
 62
    7
 10
106.67774949999999
 20
169.128525
 11
106.92774949999999
 21
169.13315599999999
  0
LINE
  8
_0-0_0
  6
CONTINUOUS
 62
    7
 10
106.67774949999999
 20
169.567657
 11
106.92774949999999
 21
169.37745699999999
  0
LINE
  8
_0-0_0
  6
CONTINUOUS
 62
    7
 10
106.92774949999999
 20
169.37745699999999
 11
116.17774949999999
 21
169.37745699999999
  0
LINE
  8
_0-0_0
  6
CONTINUOUS
 62
    7
 10
106.67774949999999
 20
169.567657
 11
116.42774949999999
 21
169.567657
  0
LINE
  8
_0-0_0
  6
CONTINUOUS
 62
    7
 10
106.67774949999999
 20
169.34367399999999
 11
106.92774949999999
 21
169.37745699999999
  0
LINE
  8
_0-0_0
  6
CONTINUOUS
 62
    7
 10
106.67774949999999
 20
169.79801900000001
 11
106.92774949999999
 21
169.63021900000001
  0
LINE
  8
_0-0_0
  6
CONTINUOUS
 62
    7
 10
106.92774949999999
 20
169.63021900000001
 11
116.17774949999999
 21
169.63021900000001
  0
LINE
  8
_0-0_0
  6
CONTINUOUS
 62
    7
 10
106.67774949999999
 20
169.79801900000001
 11
116.42774949999999
 21
169.79801900000001
  0
LINE
  8
_0-0_0
  6
CONTINUOUS
 62
    7
 10
106.67774949999999
 20
169.567657
 11
106.92774949999999
 21
169.63021900000001
  0
LINE
  8
_0-0_0
  6
CONTINUOUS
 62
    7
 10
106.67774949999999
 20
170.032242
 11
106.92774949999999
 21
169.88867999999999
  0
LINE
  8
_0-0_0
  6
CONTINUOUS
 62
    7
 10
106.92774949999999
 20
169.88867999999999
 11
116.17774949999999
 21
169.88867999999999
  0
LINE
  8
_0-0_0
  6
CONTINUOUS
 62
    7
 10
106.67774949999999
 20
170.032242
 11
116.42774949999999
 21
170.032242
  0
LINE
  8
_0-0_0
  6
CONTINUOUS
 62
    7
 10
106.67774949999999
 20
169.79801900000001
 11
106.92774949999999
 21
169.88867999999999
  0
LINE
  8
_0-0_0
  6
CONTINUOUS
 62
    7
 10
106.67774949999999
 20
170.267754
 11
106.92774949999999
 21
170.150002
  0
LINE
  8
_0-0_0
  6
CONTINUOUS
 62
    7
 10
106.92774949999999
 20
170.150002
 11
116.17774949999999
 21
170.150002
  0
LINE
  8
_0-0_0
  6
CONTINUOUS
 62
    7
 10
106.67774949999999
 20
170.267754
 11
116.42774949999999
 21
170.267754
  0
LINE
  8
_0-0_0
  6
CONTINUOUS
 62
    7
 10
106.67774949999999
 20
170.032242
 11
106.92774949999999
 21
170.150002
  0
LINE
  8
_0-0_0
  6
CONTINUOUS
 62
    7
 10
106.67774949999999
 20
170.50197600000001
 11
106.92774949999999
 21
170.41132399999998
  0
LINE
  8
_0-0_0
  6
CONTINUOUS
 62
    7
 10
106.92774949999999
 20
170.41132399999998
 11
116.17774949999999
 21
170.41132399999998
  0
LINE
  8
_0-0_0
  6
CONTINUOUS
 62
    7
 10
106.67774949999999
 20
170.50197600000001
 11
116.42774949999999
 21
170.50197600000001
  0
LINE
  8
_0-0_0
  6
CONTINUOUS
 62
    7
 10
106.67774949999999
 20
170.267754
 11
106.92774949999999
 21
170.41132399999998
  0
LINE
  8
_0-0_0
  6
CONTINUOUS
 62
    7
 10
106.67774949999999
 20
170.73234600000001
 11
106.92774949999999
 21
170.66977700000001
  0
LINE
  8
_0-0_0
  6
CONTINUOUS
 62
    7
 10
106.92774949999999
 20
170.66977700000001
 11
116.17774949999999
 21
170.66977700000001
  0
LINE
  8
_0-0_0
  6
CONTINUOUS
 62
    7
 10
106.67774949999999
 20
170.73234600000001
 11
116.42774949999999
 21
170.73234600000001
  0
LINE
  8
_0-0_0
  6
CONTINUOUS
 62
    7
 10
106.67774949999999
 20
170.50197600000001
 11
106.92774949999999
 21
170.66977700000001
  0
LINE
  8
_0-0_0
  6
CONTINUOUS
 62
    7
 10
106.67774949999999
 20
170.95632899999998
 11
106.92774949999999
 21
170.922539
  0
LINE
  8
_0-0_0
  6
CONTINUOUS
 62
    7
 10
106.92774949999999
 20
170.922539
 11
116.17774949999999
 21
170.922539
  0
LINE
  8
_0-0_0
  6
CONTINUOUS
 62
    7
 10
106.67774949999999
 20
170.95632899999998
 11
116.42774949999999
 21
170.95632899999998
  0
LINE
  8
_0-0_0
  6
CONTINUOUS
 62
    7
 10
106.67774949999999
 20
170.73234600000001
 11
106.92774949999999
 21
170.922539
  0
LINE
  8
_0-0_0
  6
CONTINUOUS
 62
    7
 10
106.67774949999999
 20
171.17147799999998
 11
106.92774949999999
 21
171.16683999999998
  0
LINE
  8
_0-0_0
  6
CONTINUOUS
 62
    7
 10
106.92774949999999
 20
171.16683999999998
 11
116.17774949999999
 21
171.16683999999998
  0
LINE
  8
_0-0_0
  6
CONTINUOUS
 62
    7
 10
106.67774949999999
 20
171.17147799999998
 11
116.42774949999999
 21
171.17147799999998
  0
LINE
  8
_0-0_0
  6
CONTINUOUS
 62
    7
 10
106.67774949999999
 20
170.95632899999998
 11
106.92774949999999
 21
171.16683999999998
  0
LINE
  8
_0-0_0
  6
CONTINUOUS
 62
    7
 10
106.67774949999999
 20
171.37543499999998
 11
106.92774949999999
 21
171.400002
  0
LINE
  8
_0-0_0
  6
CONTINUOUS
 62
    7
 10
106.92774949999999
 20
171.400002
 11
116.17774949999999
 21
171.400002
  0
LINE
  8
_0-0_0
  6
CONTINUOUS
 62
    7
 10
106.67774949999999
 20
171.17147799999998
 11
106.92774949999999
 21
171.400002
  0
LINE
  8
_0-0_0
  6
CONTINUOUS
 62
    7
 10
116.42774949999999
 20
171.56597099999999
 11
116.17774949999999
 21
171.619461
  0
LINE
  8
_0-0_0
  6
CONTINUOUS
 62
    7
 10
116.42774949999999
 20
171.37543499999998
 11
116.17774949999999
 21
171.619461
  0
LINE
  8
_0-0_0
  6
CONTINUOUS
 62
    7
 10
116.42774949999999
 20
171.74099000000001
 11
116.17774949999999
 21
171.82283000000001
  0
LINE
  8
_0-0_0
  6
CONTINUOUS
 62
    7
 10
116.42774949999999
 20
171.56597099999999
 11
116.17774949999999
 21
171.82283000000001
  0
LINE
  8
_0-0_0
  6
CONTINUOUS
 62
    7
 10
116.42774949999999
 20
171.89857499999999
 11
116.17774949999999
 21
172.007858
  0
LINE
  8
_0-0_0
  6
CONTINUOUS
 62
    7
 10
116.42774949999999
 20
171.74099000000001
 11
116.17774949999999
 21
172.007858
  0
LINE
  8
_0-0_0
  6
CONTINUOUS
 62
    7
 10
116.42774949999999
 20
172.03701000000001
 11
116.17774949999999
 21
172.172539
  0
LINE
  8
_0-0_0
  6
CONTINUOUS
 62
    7
 10
116.42774949999999
 20
171.89857499999999
 11
116.17774949999999
 21
172.172539
  0
LINE
  8
_0-0_0
  6
CONTINUOUS
 62
    7
 10
116.42774949999999
 20
172.15476200000001
 11
116.17774949999999
 21
172.31506300000001
  0
LINE
  8
_0-0_0
  6
CONTINUOUS
 62
    7
 10
116.42774949999999
 20
172.03701000000001
 11
116.17774949999999
 21
172.31506300000001
  0
LINE
  8
_0-0_0
  6
CONTINUOUS
 62
    7
 10
116.42774949999999
 20
172.25055700000001
 11
116.17774949999999
 21
172.43386099999998
  0
LINE
  8
_0-0_0
  6
CONTINUOUS
 62
    7
 10
116.42774949999999
 20
172.15476200000001
 11
116.17774949999999
 21
172.43386099999998
  0
LINE
  8
_0-0_0
  6
CONTINUOUS
 62
    7
 10
116.42774949999999
 20
172.32333399999999
 11
116.17774949999999
 21
172.52764100000002
  0
LINE
  8
_0-0_0
  6
CONTINUOUS
 62
    7
 10
116.42774949999999
 20
172.25055700000001
 11
116.17774949999999
 21
172.52764100000002
  0
LINE
  8
_0-0_0
  6
CONTINUOUS
 62
    7
 10
116.42774949999999
 20
172.372299
 11
116.17774949999999
 21
172.59536700000001
  0
LINE
  8
_0-0_0
  6
CONTINUOUS
 62
    7
 10
116.42774949999999
 20
172.32333399999999
 11
116.17774949999999
 21
172.59536700000001
  0
LINE
  8
_0-0_0
  6
CONTINUOUS
 62
    7
 10
116.42774949999999
 20
172.396919
 11
116.17774949999999
 21
172.63630699999999
  0
LINE
  8
_0-0_0
  6
CONTINUOUS
 62
    7
 10
116.42774949999999
 20
172.372299
 11
116.17774949999999
 21
172.63630699999999
  0
LINE
  8
_0-0_0
  6
CONTINUOUS
 62
    7
 10
116.42774949999999
 20
172.396919
 11
116.42469849999999
 21
172.400002
  0
LINE
  8
_0-0_0
  6
CONTINUOUS
 62
    7
 10
106.42774949999999
 20
168.394836
 11
106.42774949999999
 21
168.150002
  0
LINE
  8
_0-0_0
  6
CONTINUOUS
 62
    7
 10
106.67774949999999
 20
171.37543499999998
 11
106.92774949999999
 21
171.619461
  0
LINE
  8
_0-0_0
  6
CONTINUOUS
 62
    7
 10
106.67774949999999
 20
171.56597099999999
 11
106.92774949999999
 21
171.619461
  0
LINE
  8
_0-0_0
  6
CONTINUOUS
 62
    7
 10
106.67774949999999
 20
171.56597099999999
 11
106.92774949999999
 21
171.82283000000001
  0
LINE
  8
_0-0_0
  6
CONTINUOUS
 62
    7
 10
106.67774949999999
 20
171.74099000000001
 11
106.92774949999999
 21
171.82283000000001
  0
LINE
  8
_0-0_0
  6
CONTINUOUS
 62
    7
 10
106.67774949999999
 20
171.74099000000001
 11
106.92774949999999
 21
172.007858
  0
LINE
  8
_0-0_0
  6
CONTINUOUS
 62
    7
 10
106.67774949999999
 20
171.89857499999999
 11
106.92774949999999
 21
172.007858
  0
LINE
  8
_0-0_0
  6
CONTINUOUS
 62
    7
 10
106.67774949999999
 20
171.89857499999999
 11
106.92774949999999
 21
172.172539
  0
LINE
  8
_0-0_0
  6
CONTINUOUS
 62
    7
 10
106.67774949999999
 20
172.03701000000001
 11
106.92774949999999
 21
172.172539
  0
LINE
  8
_0-0_0
  6
CONTINUOUS
 62
    7
 10
106.67774949999999
 20
172.03701000000001
 11
106.92774949999999
 21
172.31506300000001
  0
LINE
  8
_0-0_0
  6
CONTINUOUS
 62
    7
 10
106.67774949999999
 20
172.15476200000001
 11
106.92774949999999
 21
172.31506300000001
  0
LINE
  8
_0-0_0
  6
CONTINUOUS
 62
    7
 10
106.67774949999999
 20
172.15476200000001
 11
106.92774949999999
 21
172.43386099999998
  0
LINE
  8
_0-0_0
  6
CONTINUOUS
 62
    7
 10
106.67774949999999
 20
172.25055700000001
 11
106.92774949999999
 21
172.43386099999998
  0
LINE
  8
_0-0_0
  6
CONTINUOUS
 62
    7
 10
106.67774949999999
 20
172.25055700000001
 11
106.92774949999999
 21
172.52764100000002
  0
LINE
  8
_0-0_0
  6
CONTINUOUS
 62
    7
 10
106.67774949999999
 20
172.32333399999999
 11
106.92774949999999
 21
172.52764100000002
  0
LINE
  8
_0-0_0
  6
CONTINUOUS
 62
    7
 10
106.67774949999999
 20
172.32333399999999
 11
106.92774949999999
 21
172.59536700000001
  0
LINE
  8
_0-0_0
  6
CONTINUOUS
 62
    7
 10
106.67774949999999
 20
172.372299
 11
106.92774949999999
 21
172.59536700000001
  0
LINE
  8
_0-0_0
  6
CONTINUOUS
 62
    7
 10
106.67774949999999
 20
172.372299
 11
106.92774949999999
 21
172.63630699999999
  0
LINE
  8
_0-0_0
  6
CONTINUOUS
 62
    7
 10
106.67774949999999
 20
172.396919
 11
106.92774949999999
 21
172.63630699999999
  0
LINE
  8
_0-0_0
  6
CONTINUOUS
 62
    7
 10
106.67774949999999
 20
172.396919
 11
106.92774949999999
 21
172.650002
  0
LINE
  8
_0-0_0
  6
CONTINUOUS
 62
    7
 10
106.42774949999999
 20
172.150002
 11
106.42774949999999
 21
168.394836
  0
LINE
  8
_0-0_0
  6
CONTINUOUS
 62
    7
 10
106.92774949999999
 20
171.619461
 11
116.17774949999999
 21
171.619461
  0
LINE
  8
_0-0_0
  6
CONTINUOUS
 62
    7
 10
106.92774949999999
 20
171.82283000000001
 11
116.17774949999999
 21
171.82283000000001
  0
LINE
  8
_0-0_0
  6
CONTINUOUS
 62
    7
 10
106.92774949999999
 20
172.007858
 11
116.17774949999999
 21
172.007858
  0
LINE
  8
_0-0_0
  6
CONTINUOUS
 62
    7
 10
106.92774949999999
 20
172.172539
 11
116.17774949999999
 21
172.172539
  0
LINE
  8
_0-0_0
  6
CONTINUOUS
 62
    7
 10
106.92774949999999
 20
172.31506300000001
 11
116.17774949999999
 21
172.31506300000001
  0
LINE
  8
_0-0_0
  6
CONTINUOUS
 62
    7
 10
106.92774949999999
 20
172.43386099999998
 11
116.17774949999999
 21
172.43386099999998
  0
LINE
  8
_0-0_0
  6
CONTINUOUS
 62
    7
 10
106.92774949999999
 20
172.52764100000002
 11
116.17774949999999
 21
172.52764100000002
  0
LINE
  8
_0-0_0
  6
CONTINUOUS
 62
    7
 10
106.92774949999999
 20
172.59536700000001
 11
116.17774949999999
 21
172.59536700000001
  0
LINE
  8
_0-0_0
  6
CONTINUOUS
 62
    7
 10
106.92774949999999
 20
172.63630699999999
 11
116.17774949999999
 21
172.63630699999999
  0
LINE
  8
_0-0_0
  6
CONTINUOUS
 62
    7
 10
106.92774949999999
 20
172.650002
 11
116.17774949999999
 21
172.650002
  0
LINE
  8
_0-0_0
  6
CONTINUOUS
 62
    7
 10
142.4277495
 20
189
 11
116.42774949999999
 21
189
  0
LINE
  8
_0-0_0
  6
CONTINUOUS
 62
    7
 10
142.4277495
 20
184.5
 11
116.42774949999999
 21
184.5
  0
LINE
  8
_0-0_0
  6
CONTINUOUS
 62
    7
 10
243.4277495
 20
172.400002
 11
245.88342249999999
 21
172.400002
  0
LINE
  8
_0-0_0
  6
CONTINUOUS
 62
    7
 10
245.3823395
 20
167.900002
 11
245.88342249999999
 21
167.900002
  0
LINE
  8
_0-0_0
  6
CONTINUOUS
 62
    7
 10
116.42774949999999
 20
189
 11
116.17774949999999
 21
189.25
  0
LINE
  8
_0-0_0
  6
CONTINUOUS
 62
    7
 10
116.42774949999999
 20
184.5
 11
116.17774949999999
 21
184.25
  0
LINE
  8
_0-0_0
  6
CONTINUOUS
 62
    7
 10
246.02775549999998
 20
172.150002
 11
245.88342249999999
 21
172.400002
  0
LINE
  8
_0-0_0
  6
CONTINUOUS
 62
    7
 10
246.02775549999998
 20
168.150002
 11
245.88342249999999
 21
167.900002
  0
LINE
  8
_0-0_0
  6
CONTINUOUS
 62
    7
 10
120.42774949999999
 20
173.199997
 11
121.67774949999999
 21
171.949997
  0
LINE
  8
_0-0_0
  6
CONTINUOUS
 62
    7
 10
120.42774949999999
 20
183.699997
 11
121.22773749999999
 21
184.5
  0
LINE
  8
_0-0_0
  6
CONTINUOUS
 62
    7
 10
106.42774949999999
 20
188.75
 11
106.92759749999999
 21
189.24984699999999
  0
LINE
  8
_0-0_0
  6
CONTINUOUS
 62
    7
 10
106.42774949999999
 20
184.75
 11
106.92759749999999
 21
184.25015300000001
  0
LINE
  8
_0-0_0
  6
CONTINUOUS
 62
    7
 10
120.42774949999999
 20
183.449997
 11
120.02774049999999
 21
183.449997
  0
LINE
  8
_0-0_0
  6
CONTINUOUS
 62
    7
 10
120.42774949999999
 20
173.449997
 11
120.02774049999999
 21
173.449997
  0
LINE
  8
_0-0_0
  6
CONTINUOUS
 62
    7
 10
119.22775249999999
 20
182.98812899999999
 11
120.02774049999999
 21
183.449997
  0
LINE
  8
_0-0_0
  6
CONTINUOUS
 62
    7
 10
119.22775249999999
 20
173.91188
 11
120.02774049999999
 21
173.449997
  0
LINE
  8
_0-0_0
  6
CONTINUOUS
 62
    7
 10
119.22775249999999
 20
182.449997
 11
61.227749499999987
 21
182.449997
  0
LINE
  8
_0-0_0
  6
CONTINUOUS
 62
    7
 10
119.22775249999999
 20
174.450005
 11
61.227749499999987
 21
174.450005
  0
LINE
  8
_0-0_0
  6
CONTINUOUS
 62
    7
 10
136.67771949999999
 20
167.900002
 11
116.42774949999999
 21
167.900002
  0
LINE
  8
_0-0_0
  6
CONTINUOUS
 62
    7
 10
116.42774949999999
 20
167.900002
 11
116.17774949999999
 21
167.650002
  0
LINE
  8
_0-0_0
  6
CONTINUOUS
 62
    7
 10
121.22773749999999
 20
172.400002
 11
116.42469849999999
 21
172.400002
  0
LINE
  8
_0-0_0
  6
CONTINUOUS
 62
    7
 10
116.42774949999999
 20
172.400002
 11
116.17774949999999
 21
172.650002
  0
LINE
  8
_0-0_0
  6
CONTINUOUS
 62
    7
 10
106.42774949999999
 20
168.150002
 11
106.92759749999999
 21
167.65015399999999
  0
LINE
  8
_0-0_0
  6
CONTINUOUS
 62
    7
 10
106.42774949999999
 20
172.150002
 11
106.92759749999999
 21
172.64984099999998
  0
LINE
  8
_0-0_0
  6
CONTINUOUS
 62
    7
 10
32.916748499999983
 20
220.64999399999999
 11
32.916748499999983
 21
207.64999399999999
  0
LINE
  8
_0-0_0
  6
CONTINUOUS
 62
    7
 10
33.116745500000007
 20
220.64999399999999
 11
32.916748499999983
 21
220.64999399999999
  0
LINE
  8
_0-0_0
  6
CONTINUOUS
 62
    7
 10
33.116745500000007
 20
207.64999399999999
 11
32.916748499999983
 21
207.64999399999999
  0
LINE
  8
_0-0_0
  6
CONTINUOUS
 62
    7
 10
33.116745500000007
 20
220.64999399999999
 11
33.116745500000007
 21
239.25
  0
LINE
  8
_0-0_0
  6
CONTINUOUS
 62
    7
 10
33.216747499999997
 20
239.25
 11
33.116745500000007
 21
239.25
  0
LINE
  8
_0-0_0
  6
CONTINUOUS
 62
    7
 10
33.216747499999997
 20
241.75
 11
33.216747499999997
 21
239.25
  0
ARC
  8
_0-0_0
  6
CONTINUOUS
 62
    7
 10
32.716747499999997
 20
241.75
 40
0.5
 50
0
 51
90.000003000000007
  0
LINE
  8
_0-0_0
  6
CONTINUOUS
 62
    7
 10
32.716747499999997
 20
242.25
 11
29.716747499999997
 21
242.25
  0
ARC
  8
_0-0_0
  6
CONTINUOUS
 62
    7
 10
29.716747499999997
 20
241.75
 40
0.5
 50
90.000003000000007
 51
179.99999099999999
  0
ARC
  8
_0-0_0
  6
CONTINUOUS
 62
    7
 10
25.216747499999997
 20
194.25
 40
0.5
 50
179.99999099999999
 51
269.99999700000001
  0
LINE
  8
_0-0_0
  6
CONTINUOUS
 62
    7
 10
27.716747499999997
 20
193.75
 11
25.216747499999997
 21
193.75
  0
ARC
  8
_0-0_0
  6
CONTINUOUS
 62
    7
 10
27.716747499999997
 20
194.25
 40
0.5
 50
269.99999700000001
 51
0
  0
LINE
  8
_0-0_0
  6
CONTINUOUS
 62
    7
 10
28.216747499999997
 20
199.25
 11
28.216747499999997
 21
194.25
  0
ARC
  8
_0-0_0
  6
CONTINUOUS
 62
    7
 10
28.716747499999997
 20
199.25
 40
0.5
 50
90.000003000000007
 51
179.99999099999999
  0
LINE
  8
_0-0_0
  6
CONTINUOUS
 62
    7
 10
32.716747499999997
 20
199.75
 11
28.716747499999997
 21
199.75
  0
ARC
  8
_0-0_0
  6
CONTINUOUS
 62
    7
 10
32.716747499999997
 20
200.25
 40
0.5
 50
269.99999700000001
 51
0
  0
LINE
  8
_0-0_0
  6
CONTINUOUS
 62
    7
 10
33.216747499999997
 20
203.449997
 11
33.216747499999997
 21
200.25
  0
LINE
  8
_0-0_0
  6
CONTINUOUS
 62
    7
 10
33.116745500000007
 20
203.449997
 11
33.216747499999997
 21
203.449997
  0
LINE
  8
_0-0_0
  6
CONTINUOUS
 62
    7
 10
33.116745500000007
 20
203.449997
 11
33.116745500000007
 21
207.64999399999999
  0
LINE
  8
_0-0_0
  6
CONTINUOUS
 62
    7
 10
32.216747499999997
 20
241.75
 11
14.416747499999985
 21
241.75
  0
ARC
  8
_0-0_0
  6
CONTINUOUS
 62
    7
 10
32.216747499999997
 20
241.25
 40
0.5
 50
0
 51
90.000003000000007
  0
LINE
  8
_0-0_0
  6
CONTINUOUS
 62
    7
 10
32.716747499999997
 20
241.25
 11
32.716747499999997
 21
200.75
  0
ARC
  8
_0-0_0
  6
CONTINUOUS
 62
    7
 10
32.216747499999997
 20
200.75
 40
0.5
 50
269.99999700000001
 51
0
  0
LINE
  8
_0-0_0
  6
CONTINUOUS
 62
    7
 10
28.716747499999997
 20
200.25
 11
32.216747499999997
 21
200.25
  0
ARC
  8
_0-0_0
  6
CONTINUOUS
 62
    7
 10
28.716747499999997
 20
199.25
 40
1
 50
90.000003000000007
 51
179.99999099999999
  0
LINE
  8
_0-0_0
  6
CONTINUOUS
 62
    7
 10
27.716747499999997
 20
199.25
 11
27.716747499999997
 21
194.75
  0
ARC
  8
_0-0_0
  6
CONTINUOUS
 62
    7
 10
27.216747499999997
 20
194.75
 40
0.5
 50
269.99999700000001
 51
0
  0
LINE
  8
_0-0_0
  6
CONTINUOUS
 62
    7
 10
10.216747499999997
 20
194.25
 11
27.216747499999997
 21
194.25
  0
LINE
  8
_0-0_0
  6
CONTINUOUS
 62
    7
 10
28.716747499999997
 20
241.949997
 11
28.716747499999997
 21
241.75
  0
ARC
  8
_0-0_0
  6
CONTINUOUS
 62
    7
 10
28.416748499999983
 20
241.949997
 40
0.2999999999999999
 50
0
 51
90.000003000000007
  0
LINE
  8
_0-0_0
  6
CONTINUOUS
 62
    7
 10
28.416748499999983
 20
242.25
 11
13.716747499999997
 21
242.25
  0
ARC
  8
_0-0_0
  6
CONTINUOUS
 62
    7
 10
13.716747499999997
 20
241.949997
 40
0.2999999999999999
 50
90.000003000000007
 51
179.99999099999999
  0
LINE
  8
_0-0_0
  6
CONTINUOUS
 62
    7
 10
13.416747499999985
 20
241.949997
 11
13.416747499999985
 21
238.75
  0
LINE
  8
_0-0_0
  6
CONTINUOUS
 62
    7
 10
13.416747499999985
 20
238.75
 11
7.7167474999999968
 21
238.75
  0
LINE
  8
_0-0_0
  6
CONTINUOUS
 62
    7
 10
7.7167474999999968
 20
238.75
 11
6.9167474999999854
 21
237.949997
  0
ARC
  8
_0-0_0
  6
CONTINUOUS
 62
    7
 10
14.416747499999985
 20
241.25
 40
0.5
 50
90.000003000000007
 51
179.99999099999999
  0
LINE
  8
_0-0_0
  6
CONTINUOUS
 62
    7
 10
13.916747499999985
 20
241.25
 11
13.916747499999985
 21
238.449997
  0
ARC
  8
_0-0_0
  6
CONTINUOUS
 62
    7
 10
13.416747499999985
 20
238.449997
 40
0.5
 50
269.99999700000001
 51
0
  0
LINE
  8
_0-0_0
  6
CONTINUOUS
 62
    7
 10
13.416747499999985
 20
237.949997
 11
5.2167474999999968
 21
237.949997
  0
ARC
  8
_0-0_0
  6
CONTINUOUS
 62
    7
 10
5.2167474999999968
 20
237.449997
 40
0.5
 50
90.000003000000007
 51
179.99999099999999
  0
LINE
  8
_0-0_0
  6
CONTINUOUS
 62
    7
 10
4.7167474999999968
 20
200.75
 11
4.7167474999999968
 21
237.449997
  0
ARC
  8
_0-0_0
  6
CONTINUOUS
 62
    7
 10
5.2167474999999968
 20
200.75
 40
0.5
 50
179.99999099999999
 51
269.99999700000001
  0
LINE
  8
_0-0_0
  6
CONTINUOUS
 62
    7
 10
5.2167474999999968
 20
200.25
 11
8.7167474999999968
 21
200.25
  0
ARC
  8
_0-0_0
  6
CONTINUOUS
 62
    7
 10
8.7167474999999968
 20
199.25
 40
1
 50
0
 51
90.000003000000007
  0
LINE
  8
_0-0_0
  6
CONTINUOUS
 62
    7
 10
9.7167474999999968
 20
194.75
 11
9.7167474999999968
 21
199.25
  0
ARC
  8
_0-0_0
  6
CONTINUOUS
 62
    7
 10
10.216747499999997
 20
194.75
 40
0.5
 50
179.99999099999999
 51
269.99999700000001
  0
CIRCLE
  8
_0-0_0
  6
CONTINUOUS
 62
    7
 10
18.716747499999997
 20
203.25
 40
2.0670000000000002
  0
LINE
  8
_0-0_0
  6
CONTINUOUS
 62
    7
 10
6.7167474999999968
 20
238.25
 11
6.7167474999999968
 21
237.949997
  0
LINE
  8
_0-0_0
  6
CONTINUOUS
 62
    7
 10
6.7167474999999968
 20
238.25
 11
4.7167474999999968
 21
238.25
  0
ARC
  8
_0-0_0
  6
CONTINUOUS
 62
    7
 10
4.7167474999999968
 20
237.75
 40
0.5
 50
90.000003000000007
 51
179.99999099999999
  0
LINE
  8
_0-0_0
  6
CONTINUOUS
 62
    7
 10
4.2167474999999968
 20
237.75
 11
4.2167474999999968
 21
200.25
  0
ARC
  8
_0-0_0
  6
CONTINUOUS
 62
    7
 10
4.7167474999999968
 20
200.25
 40
0.5
 50
179.99999099999999
 51
269.99999700000001
  0
LINE
  8
_0-0_0
  6
CONTINUOUS
 62
    7
 10
8.7167474999999968
 20
199.75
 11
4.7167474999999968
 21
199.75
  0
ARC
  8
_0-0_0
  6
CONTINUOUS
 62
    7
 10
8.7167474999999968
 20
199.25
 40
0.5
 50
0
 51
90.000003000000007
  0
LINE
  8
_0-0_0
  6
CONTINUOUS
 62
    7
 10
9.2167474999999968
 20
194.25
 11
9.2167474999999968
 21
199.25
  0
ARC
  8
_0-0_0
  6
CONTINUOUS
 62
    7
 10
9.7167474999999968
 20
194.25
 40
0.5
 50
179.99999099999999
 51
269.99999700000001
  0
LINE
  8
_0-0_0
  6
CONTINUOUS
 62
    7
 10
9.7167474999999968
 20
193.75
 11
12.216747499999997
 21
193.75
  0
ARC
  8
_0-0_0
  6
CONTINUOUS
 62
    7
 10
12.216747499999997
 20
194.25
 40
0.5
 50
269.99999700000001
 51
0
  0
LINE
  8
_0-0_0
  6
CONTINUOUS
 62
    7
 10
28.216747499999997
 20
194.25
 11
28.316747499999991
 21
194.25
  0
LINE
  8
_0-0_0
  6
CONTINUOUS
 62
    7
 10
28.316747499999991
 20
194.25
 11
28.316747499999991
 21
194.75
  0
LINE
  8
_0-0_0
  6
CONTINUOUS
 62
    7
 10
28.316747499999991
 20
198.75
 11
28.316747499999991
 21
194.75
  0
LINE
  8
_0-0_0
  6
CONTINUOUS
 62
    7
 10
28.216747499999997
 20
199.25
 11
28.316747499999991
 21
199.25
  0
LINE
  8
_0-0_0
  6
CONTINUOUS
 62
    7
 10
28.316747499999991
 20
198.75
 11
28.316747499999991
 21
199.25
  0
LINE
  8
_0-0_0
  6
CONTINUOUS
 62
    7
 10
28.416748499999983
 20
194.75
 11
28.416748499999983
 21
194.880371
  0
LINE
  8
_0-0_0
  6
CONTINUOUS
 62
    7
 10
28.416748499999983
 20
198.380371
 11
28.416748499999983
 21
194.880371
  0
LINE
  8
_0-0_0
  6
CONTINUOUS
 62
    7
 10
28.316747499999991
 20
198.64999399999999
 11
28.416748499999983
 21
198.64999399999999
  0
LINE
  8
_0-0_0
  6
CONTINUOUS
 62
    7
 10
28.416748499999983
 20
198.380371
 11
28.416748499999983
 21
198.64999399999999
  0
LINE
  8
_0-0_0
  6
CONTINUOUS
 62
    7
 10
28.316747499999991
 20
194.75
 11
28.416748499999983
 21
194.75
  0
LINE
  8
_0-0_0
  6
CONTINUOUS
 62
    7
 10
28.316747499999991
 20
194.75
 11
28.416748499999983
 21
194.75
  0
LINE
  8
_0-0_0
  6
CONTINUOUS
 62
    7
 10
9.9167474999999854
 20
191.75
 11
14.116747500000002
 21
191.75
  0
LINE
  8
_0-0_0
  6
CONTINUOUS
 62
    7
 10
25.716747499999997
 20
191.75
 11
23.316747499999991
 21
191.75
  0
LINE
  8
_0-0_0
  6
CONTINUOUS
 62
    7
 10
25.716747499999997
 20
191.75
 11
26.916748499999983
 21
191.75
  0
ARC
  8
_0-0_0
  6
CONTINUOUS
 62
    7
 10
26.916748499999983
 20
191.25
 40
0.5
 50
0
 51
90.000003000000007
  0
ARC
  8
_0-0_0
  6
CONTINUOUS
 62
    7
 10
25.716747499999997
 20
191.25
 40
0.5
 50
90.000003000000007
 51
179.99999099999999
  0
ARC
  8
_0-0_0
  6
CONTINUOUS
 62
    7
 10
23.316747499999991
 20
192.25
 40
0.5
 50
179.99999099999999
 51
269.99999700000001
  0
ARC
  8
_0-0_0
  6
CONTINUOUS
 62
    7
 10
14.116747500000002
 20
192.25
 40
0.5
 50
269.99999700000001
 51
0
  0
ARC
  8
_0-0_0
  6
CONTINUOUS
 62
    7
 10
9.9167474999999854
 20
191.25
 40
0.5
 50
90.000003000000007
 51
179.99999099999999
  0
LINE
  8
_0-0_0
  6
CONTINUOUS
 62
    7
 10
10.916747499999985
 20
192.25
 11
10.916747499999985
 21
191.75
  0
ARC
  8
_0-0_0
  6
CONTINUOUS
 62
    7
 10
11.416747499999985
 20
192.25
 40
0.5
 50
90.000003000000007
 51
179.99999099999999
  0
LINE
  8
_0-0_0
  6
CONTINUOUS
 62
    7
 10
12.916747499999985
 20
192.75
 11
11.416747499999985
 21
192.75
  0
ARC
  8
_0-0_0
  6
CONTINUOUS
 62
    7
 10
12.916747499999985
 20
193.75
 40
1
 50
269.99999700000001
 51
0
  0
LINE
  8
_0-0_0
  6
CONTINUOUS
 62
    7
 10
13.916747499999985
 20
194.25
 11
13.916747499999985
 21
193.75
  0
LINE
  8
_0-0_0
  6
CONTINUOUS
 62
    7
 10
14.416747499999985
 20
194.25
 11
14.416747499999985
 21
193.25
  0
ARC
  8
_0-0_0
  6
CONTINUOUS
 62
    7
 10
12.916747499999985
 20
193.25
 40
1.5
 50
269.99999700000001
 51
0
  0
ARC
  8
_0-0_0
  6
CONTINUOUS
 62
    7
 10
24.516746500000011
 20
193.25
 40
1.5
 50
179.99999099999999
 51
269.99999700000001
  0
LINE
  8
_0-0_0
  6
CONTINUOUS
 62
    7
 10
26.516746500000011
 20
192.25
 11
26.516746500000011
 21
191.75
  0
ARC
  8
_0-0_0
  6
CONTINUOUS
 62
    7
 10
26.016746500000011
 20
192.25
 40
0.5
 50
0
 51
90.000003000000007
  0
LINE
  8
_0-0_0
  6
CONTINUOUS
 62
    7
 10
24.516746500000011
 20
192.75
 11
26.016746500000011
 21
192.75
  0
ARC
  8
_0-0_0
  6
CONTINUOUS
 62
    7
 10
24.516746500000011
 20
193.75
 40
1
 50
179.99999099999999
 51
269.99999700000001
  0
LINE
  8
_0-0_0
  6
CONTINUOUS
 62
    7
 10
23.516746500000011
 20
194.25
 11
23.516746500000011
 21
193.75
  0
LINE
  8
_0-0_0
  6
CONTINUOUS
 62
    7
 10
23.016746500000011
 20
194.25
 11
23.016746500000011
 21
193.25
  0
LINE
  8
_0-0_0
  6
CONTINUOUS
 62
    7
 10
27.416748499999983
 20
164.75
 11
27.416748499999983
 21
165.650002
  0
LINE
  8
_0-0_0
  6
CONTINUOUS
 62
    7
 10
27.416748499999983
 20
165.650002
 11
27.416748499999983
 21
168.150002
  0
LINE
  8
_0-0_0
  6
CONTINUOUS
 62
    7
 10
27.416748499999983
 20
168.150002
 11
27.416748499999983
 21
188.75
  0
LINE
  8
_0-0_0
  6
CONTINUOUS
 62
    7
 10
27.416748499999983
 20
188.75
 11
27.416748499999983
 21
191.25
  0
LINE
  8
_0-0_0
  6
CONTINUOUS
 62
    7
 10
25.216747499999997
 20
191.25
 11
25.216747499999997
 21
190.00500500000001
  0
LINE
  8
_0-0_0
  6
CONTINUOUS
 62
    7
 10
22.816747499999991
 20
192.25
 11
22.816747499999991
 21
194.050003
  0
ARC
  8
_0-0_0
  6
CONTINUOUS
 62
    7
 10
22.316747499999991
 20
194.050003
 40
0.5
 50
0
 51
23.579369
  0
LINE
  8
_0-0_0
  6
CONTINUOUS
 62
    7
 10
14.616747500000002
 20
192.25
 11
14.616747500000002
 21
194.050003
  0
ARC
  8
_0-0_0
  6
CONTINUOUS
 62
    7
 10
15.116747500000002
 20
194.050003
 40
0.5
 50
156.420635
 51
179.99999099999999
  0
LINE
  8
_0-0_0
  6
CONTINUOUS
 62
    7
 10
9.4167474999999854
 20
164.75
 11
9.4167474999999854
 21
174.950005
  0
LINE
  8
_0-0_0
  6
CONTINUOUS
 62
    7
 10
9.4167474999999854
 20
174.950005
 11
9.4167474999999854
 21
175.950005
  0
LINE
  8
_0-0_0
  6
CONTINUOUS
 62
    7
 10
9.4167474999999854
 20
175.950005
 11
9.4167474999999854
 21
180.949997
  0
LINE
  8
_0-0_0
  6
CONTINUOUS
 62
    7
 10
9.4167474999999854
 20
180.949997
 11
9.4167474999999854
 21
181.949997
  0
LINE
  8
_0-0_0
  6
CONTINUOUS
 62
    7
 10
9.4167474999999854
 20
191.25
 11
9.4167474999999854
 21
181.949997
  0
LINE
  8
_0-0_0
  6
CONTINUOUS
 62
    7
 10
28.216747499999997
 20
190.25
 11
27.416748499999983
 21
190.25
  0
LINE
  8
_0-0_0
  6
CONTINUOUS
 62
    7
 10
28.216747499999997
 20
191.050003
 11
27.416748499999983
 21
191.050003
  0
LINE
  8
_0-0_0
  6
CONTINUOUS
 62
    7
 10
28.216747499999997
 20
190.050003
 11
28.216747499999997
 21
191.050003
  0
LINE
  8
_0-0_0
  6
CONTINUOUS
 62
    7
 10
28.216747499999997
 20
171.449997
 11
27.416748499999983
 21
171.449997
  0
LINE
  8
_0-0_0
  6
CONTINUOUS
 62
    7
 10
28.216747499999997
 20
171.449997
 11
28.216747499999997
 21
174.450005
  0
LINE
  8
_0-0_0
  6
CONTINUOUS
 62
    7
 10
28.216747499999997
 20
186.68769800000001
 11
28.216747499999997
 21
174.450005
  0
LINE
  8
_0-0_0
  6
CONTINUOUS
 62
    7
 10
28.216747499999997
 20
186.68769800000001
 11
28.216747499999997
 21
187.65048200000001
  0
LINE
  8
_0-0_0
  6
CONTINUOUS
 62
    7
 10
27.416748499999983
 20
187.65048200000001
 11
27.416748499999983
 21
190.25
  0
ARC
  8
_0-0_0
  6
CONTINUOUS
 62
    7
 10
21.801822499999986
 20
186.93203700000001
 40
5.7120379999999997
 50
18.558475999999999
 51
26.433648000000002
  0
ARC
  8
_0-0_0
  6
CONTINUOUS
 62
    7
 10
27.216747499999997
 20
188.75
 40
0.2
 50
269.99999700000001
 51
0
  0
ARC
  8
_0-0_0
  6
CONTINUOUS
 62
    7
 10
27.216747499999997
 20
168.150002
 40
0.2
 50
0
 51
90.000003000000007
  0
ARC
  8
_0-0_0
  6
CONTINUOUS
 62
    7
 10
21.801939500000003
 20
169.96804800000001
 40
5.711964
 50
333.565022
 51
341.44031000000001
  0
ARC
  8
_0-0_0
  6
CONTINUOUS
 62
    7
 10
26.916748499999983
 20
165.650002
 40
0.5
 50
269.99999700000001
 51
0
  0
LINE
  8
_0-0_0
  6
CONTINUOUS
 62
    7
 10
26.916748499999983
 20
164.75
 11
27.416748499999983
 21
164.75
  0
LINE
  8
_0-0_0
  6
CONTINUOUS
 62
    7
 10
27.416748499999983
 20
164.75
 11
26.916748499999983
 21
164.25
  0
ARC
  8
_0-0_0
  6
CONTINUOUS
 62
    7
 10
25.216747499999997
 20
187.25
 40
2.2999999999999998
 50
34.417387999999995
 51
79.713437000000013
  0
LINE
  8
_0-0_0
  6
CONTINUOUS
 62
    7
 10
27.155429499999997
 20
188.550003
 11
27.114114499999999
 21
188.550003
  0
LINE
  8
_0-0_0
  6
CONTINUOUS
 62
    7
 10
27.155429499999997
 20
188.550003
 11
27.16498949999999
 21
188.55102500000001
  0
LINE
  8
_0-0_0
  6
CONTINUOUS
 62
    7
 10
27.16498949999999
 20
188.55102500000001
 11
27.174480499999987
 21
188.55422999999999
  0
LINE
  8
_0-0_0
  6
CONTINUOUS
 62
    7
 10
27.174480499999987
 20
188.55422999999999
 11
27.183735499999983
 21
188.55961600000001
  0
LINE
  8
_0-0_0
  6
CONTINUOUS
 62
    7
 10
27.183735499999983
 20
188.55961600000001
 11
27.192531500000001
 21
188.56712300000001
  0
LINE
  8
_0-0_0
  6
CONTINUOUS
 62
    7
 10
27.192531500000001
 20
188.56712300000001
 11
27.207931500000001
 21
188.58776900000001
  0
LINE
  8
_0-0_0
  6
CONTINUOUS
 62
    7
 10
27.207931500000001
 20
188.58776900000001
 11
27.219707499999998
 21
188.61505099999999
  0
LINE
  8
_0-0_0
  6
CONTINUOUS
 62
    7
 10
27.219707499999998
 20
188.61505099999999
 11
27.226888500000001
 21
188.647186
  0
LINE
  8
_0-0_0
  6
CONTINUOUS
 62
    7
 10
27.226888500000001
 20
188.647186
 11
27.228780499999999
 21
188.68223599999999
  0
LINE
  8
_0-0_0
  6
CONTINUOUS
 62
    7
 10
27.228780499999999
 20
188.68223599999999
 11
27.224931499999997
 21
188.71839900000001
  0
LINE
  8
_0-0_0
  6
CONTINUOUS
 62
    7
 10
27.224931499999997
 20
188.71839900000001
 11
27.216745500000002
 21
188.75
  0
ARC
  8
_0-0_0
  6
CONTINUOUS
 62
    7
 10
25.716747499999997
 20
190.00500500000001
 40
0.5
 50
179.99999099999999
 51
259.71343899999994
  0
LINE
  8
_0-0_0
  6
CONTINUOUS
 62
    7
 10
10.216747499999997
 20
187.25
 11
10.216747499999997
 21
173.650002
  0
LINE
  8
_0-0_0
  6
CONTINUOUS
 62
    7
 10
10.216747499999997
 20
173.150002
 11
10.216747499999997
 21
173.650002
  0
LINE
  8
_0-0_0
  6
CONTINUOUS
 62
    7
 10
10.216747499999997
 20
170.150002
 11
10.216747499999997
 21
173.150002
  0
LINE
  8
_0-0_0
  6
CONTINUOUS
 62
    7
 10
10.216747499999997
 20
169.650002
 11
10.216747499999997
 21
170.150002
  0
ARC
  8
_0-0_0
  6
CONTINUOUS
 62
    7
 10
12.216747499999997
 20
187.25
 40
2
 50
93.840255999999997
 51
179.99999099999999
  0
LINE
  8
_0-0_0
  6
CONTINUOUS
 62
    7
 10
12.216747499999997
 20
189.25
 11
21.216747499999997
 21
189.25
  0
LINE
  8
_0-0_0
  6
CONTINUOUS
 62
    7
 10
25.216747499999997
 20
189.25
 11
24.716747499999997
 21
189.25
  0
LINE
  8
_0-0_0
  6
CONTINUOUS
 62
    7
 10
24.716747499999997
 20
189.25
 11
21.716747499999997
 21
189.25
  0
LINE
  8
_0-0_0
  6
CONTINUOUS
 62
    7
 10
21.216747499999997
 20
189.25
 11
21.716747499999997
 21
189.25
  0
ARC
  8
_0-0_0
  6
CONTINUOUS
 62
    7
 10
25.216747499999997
 20
187.25
 40
2
 50
0
 51
90.000003000000007
  0
LINE
  8
_0-0_0
  6
CONTINUOUS
 62
    7
 10
9.2167474999999968
 20
190.25
 11
9.4167474999999854
 21
190.25
  0
LINE
  8
_0-0_0
  6
CONTINUOUS
 62
    7
 10
9.2167474999999968
 20
191.050003
 11
9.4167474999999854
 21
191.050003
  0
LINE
  8
_0-0_0
  6
CONTINUOUS
 62
    7
 10
9.2167474999999968
 20
191.050003
 11
9.2167474999999968
 21
190.250122
  0
LINE
  8
_0-0_0
  6
CONTINUOUS
 62
    7
 10
9.2167474999999968
 20
171.449997
 11
9.4167474999999854
 21
171.449997
  0
LINE
  8
_0-0_0
  6
CONTINUOUS
 62
    7
 10
9.2167474999999968
 20
174.450005
 11
9.2167474999999968
 21
171.449997
  0
LINE
  8
_0-0_0
  6
CONTINUOUS
 62
    7
 10
9.2167474999999968
 20
186.68769800000001
 11
9.2167474999999968
 21
174.450005
  0
LINE
  8
_0-0_0
  6
CONTINUOUS
 62
    7
 10
9.2167474999999968
 20
187.65048200000001
 11
9.2167474999999968
 21
186.68769800000001
  0
ARC
  8
_0-0_0
  6
CONTINUOUS
 62
    7
 10
9.9167474999999854
 20
180.949997
 40
0.5
 50
90.000003000000007
 51
179.99999099999999
  0
ARC
  8
_0-0_0
  6
CONTINUOUS
 62
    7
 10
9.9167474999999854
 20
175.950005
 40
0.5
 50
179.99999099999999
 51
269.99999700000001
  0
LINE
  8
_0-0_0
  6
CONTINUOUS
 62
    7
 10
9.4167474999999854
 20
164.75
 11
9.9167474999999854
 21
164.75
  0
LINE
  8
_0-0_0
  6
CONTINUOUS
 62
    7
 10
9.4167474999999854
 20
164.75
 11
9.9167474999999854
 21
164.25
  0
LINE
  8
_0-0_0
  6
CONTINUOUS
 62
    7
 10
27.416748499999983
 20
171.45001200000002
 11
27.416748499999983
 21
170.300003
  0
ARC
  8
_0-0_0
  6
CONTINUOUS
 62
    7
 10
25.016746500000011
 20
170.300003
 40
2.3999999999999999
 50
359.58604600000001
 51
0.0000099999999787
  0
LINE
  8
_0-0_0
  6
CONTINUOUS
 62
    7
 10
28.216747499999997
 20
187.65048200000001
 11
28.216747499999997
 21
190.25
  0
LINE
  8
_0-0_0
  6
CONTINUOUS
 62
    7
 10
27.216747499999997
 20
188.550003
 11
27.155429499999997
 21
188.550003
  0
LINE
  8
_0-0_0
  6
CONTINUOUS
 62
    7
 10
27.114114499999999
 20
188.550003
 11
27.111890499999987
 21
188.550003
  0
LINE
  8
_0-0_0
  6
CONTINUOUS
 62
    7
 10
26.916748499999983
 20
164.75
 11
9.9167474999999854
 21
164.75
  0
LINE
  8
_0-0_0
  6
CONTINUOUS
 62
    7
 10
26.980215499999986
 20
168.550003
 11
27.017139499999985
 21
168.47976699999998
  0
LINE
  8
_0-0_0
  6
CONTINUOUS
 62
    7
 10
27.017139499999985
 20
168.47976699999998
 11
27.0367435
 21
168.44529
  0
LINE
  8
_0-0_0
  6
CONTINUOUS
 62
    7
 10
27.0367435
 20
168.44529
 11
27.062828499999995
 21
168.40345000000002
  0
LINE
  8
_0-0_0
  6
CONTINUOUS
 62
    7
 10
27.062828499999995
 20
168.40345000000002
 11
27.076137499999987
 21
168.38440700000001
  0
LINE
  8
_0-0_0
  6
CONTINUOUS
 62
    7
 10
27.076137499999987
 20
168.38440700000001
 11
27.094495499999994
 21
168.362022
  0
LINE
  8
_0-0_0
  6
CONTINUOUS
 62
    7
 10
27.094495499999994
 20
168.362022
 11
27.107288499999981
 21
168.351395
  0
LINE
  8
_0-0_0
  6
CONTINUOUS
 62
    7
 10
27.107288499999981
 20
168.351395
 11
27.111890499999987
 21
168.349998
  0
LINE
  8
_0-0_0
  6
CONTINUOUS
 62
    7
 10
27.114114499999999
 20
168.349998
 11
27.111890499999987
 21
168.349998
  0
LINE
  8
_0-0_0
  6
CONTINUOUS
 62
    7
 10
26.980215499999986
 20
188.35000600000001
 11
27.017139499999985
 21
188.42022700000001
  0
LINE
  8
_0-0_0
  6
CONTINUOUS
 62
    7
 10
27.017139499999985
 20
188.42022700000001
 11
27.036745499999995
 21
188.454712
  0
LINE
  8
_0-0_0
  6
CONTINUOUS
 62
    7
 10
27.036745499999995
 20
188.454712
 11
27.062828499999995
 21
188.49655200000001
  0
LINE
  8
_0-0_0
  6
CONTINUOUS
 62
    7
 10
27.062828499999995
 20
188.49655200000001
 11
27.076135499999992
 21
188.51559399999999
  0
LINE
  8
_0-0_0
  6
CONTINUOUS
 62
    7
 10
27.076135499999992
 20
188.51559399999999
 11
27.094495499999994
 21
188.53797900000001
  0
LINE
  8
_0-0_0
  6
CONTINUOUS
 62
    7
 10
27.094495499999994
 20
188.53797900000001
 11
27.107288499999981
 21
188.548599
  0
LINE
  8
_0-0_0
  6
CONTINUOUS
 62
    7
 10
27.107288499999981
 20
188.548599
 11
27.111890499999987
 21
188.550003
  0
LINE
  8
_0-0_0
  6
CONTINUOUS
 62
    7
 10
27.114114499999999
 20
168.349998
 11
27.155429499999997
 21
168.349998
  0
LINE
  8
_0-0_0
  6
CONTINUOUS
 62
    7
 10
27.216747499999997
 20
168.349998
 11
27.155429499999997
 21
168.349998
  0
LINE
  8
_0-0_0
  6
CONTINUOUS
 62
    7
 10
27.155429499999997
 20
168.349998
 11
27.164991499999985
 21
168.34896900000001
  0
LINE
  8
_0-0_0
  6
CONTINUOUS
 62
    7
 10
27.164991499999985
 20
168.34896900000001
 11
27.174482500000011
 21
168.34577200000001
  0
LINE
  8
_0-0_0
  6
CONTINUOUS
 62
    7
 10
27.174482500000011
 20
168.34577200000001
 11
27.183735499999983
 21
168.34037799999999
  0
LINE
  8
_0-0_0
  6
CONTINUOUS
 62
    7
 10
27.183735499999983
 20
168.34037799999999
 11
27.192531500000001
 21
168.33287799999999
  0
LINE
  8
_0-0_0
  6
CONTINUOUS
 62
    7
 10
27.192531500000001
 20
168.33287799999999
 11
27.207931500000001
 21
168.31223299999999
  0
LINE
  8
_0-0_0
  6
CONTINUOUS
 62
    7
 10
27.207931500000001
 20
168.31223299999999
 11
27.219707499999998
 21
168.28494999999998
  0
LINE
  8
_0-0_0
  6
CONTINUOUS
 62
    7
 10
27.219707499999998
 20
168.28494999999998
 11
27.226888500000001
 21
168.25282300000001
  0
LINE
  8
_0-0_0
  6
CONTINUOUS
 62
    7
 10
27.226888500000001
 20
168.25282300000001
 11
27.228780499999999
 21
168.21776599999998
  0
LINE
  8
_0-0_0
  6
CONTINUOUS
 62
    7
 10
27.228780499999999
 20
168.21776599999998
 11
27.224931499999997
 21
168.18159500000002
  0
LINE
  8
_0-0_0
  6
CONTINUOUS
 62
    7
 10
27.224931499999997
 20
168.18159500000002
 11
27.216745500000002
 21
168.150002
  0
ARC
  8
_0-0_0
  6
CONTINUOUS
 62
    7
 10
25.216747499999997
 20
169.650002
 40
2.2999999999999998
 50
280.28656300000006
 51
325.58260500000006
  0
LINE
  8
_0-0_0
  6
CONTINUOUS
 62
    7
 10
26.916748499999983
 20
165.150002
 11
25.716747499999997
 21
165.150002
  0
LINE
  8
_0-0_0
  6
CONTINUOUS
 62
    7
 10
26.916748499999983
 20
164.25
 11
9.9167474999999854
 21
164.25
  0
LINE
  8
_0-0_0
  6
CONTINUOUS
 62
    7
 10
10.216737499999994
 20
181.449997
 11
9.9167474999999854
 21
181.449997
  0
ARC
  8
_0-0_0
  6
CONTINUOUS
 62
    7
 10
10.716747499999997
 20
173.650002
 40
0.5
 50
179.99999099999999
 51
269.99999700000001
  0
CIRCLE
  8
_0-0_0
  6
CONTINUOUS
 62
    7
 10
12.716747499999997
 20
170.150002
 40
2.5
  0
LINE
  8
_0-0_0
  6
CONTINUOUS
 62
    7
 10
15.716747499999997
 20
167.650002
 11
12.716747499999997
 21
167.650002
  0
LINE
  8
_0-0_0
  6
CONTINUOUS
 62
    7
 10
16.216747499999997
 20
167.650002
 11
15.716747499999997
 21
167.650002
  0
ARC
  8
_0-0_0
  6
CONTINUOUS
 62
    7
 10
12.216747499999997
 20
169.650002
 40
2
 50
179.99999099999999
 51
269.99999700000001
  0
LINE
  8
_0-0_0
  6
CONTINUOUS
 62
    7
 10
12.716747499999997
 20
167.650002
 11
12.216747499999997
 21
167.650002
  0
LINE
  8
_0-0_0
  6
CONTINUOUS
 62
    7
 10
12.216747499999997
 20
189.147369
 11
12.200867499999987
 21
189.174622
  0
LINE
  8
_0-0_0
  6
CONTINUOUS
 62
    7
 10
12.200867499999987
 20
189.174622
 11
12.185020500000007
 21
189.19760099999999
  0
LINE
  8
_0-0_0
  6
CONTINUOUS
 62
    7
 10
12.185020500000007
 20
189.19760099999999
 11
12.171041500000001
 21
189.21435500000001
  0
LINE
  8
_0-0_0
  6
CONTINUOUS
 62
    7
 10
12.171041500000001
 20
189.21435500000001
 11
12.157142499999992
 21
189.227676
  0
LINE
  8
_0-0_0
  6
CONTINUOUS
 62
    7
 10
12.157142499999992
 20
189.227676
 11
12.144924500000002
 21
189.236603
  0
LINE
  8
_0-0_0
  6
CONTINUOUS
 62
    7
 10
12.144924500000002
 20
189.236603
 11
12.132805499999989
 21
189.242828
  0
LINE
  8
_0-0_0
  6
CONTINUOUS
 62
    7
 10
12.132805499999989
 20
189.242828
 11
12.121940499999994
 21
189.246094
  0
LINE
  8
_0-0_0
  6
CONTINUOUS
 62
    7
 10
12.121940499999994
 20
189.246094
 11
12.111180499999989
 21
189.24714700000001
  0
LINE
  8
_0-0_0
  6
CONTINUOUS
 62
    7
 10
12.111180499999989
 20
189.24714700000001
 11
12.108719500000007
 21
189.24707000000001
  0
LINE
  8
_0-0_0
  6
CONTINUOUS
 62
    7
 10
27.216747499999997
 20
186.75
 11
27.216747499999997
 21
187.25
  0
CIRCLE
  8
_0-0_0
  6
CONTINUOUS
 62
    7
 10
24.716747499999997
 20
186.75
 40
2.5
  0
LINE
  8
_0-0_0
  6
CONTINUOUS
 62
    7
 10
27.216747499999997
 20
183.75
 11
27.216747499999997
 21
183.25
  0
LINE
  8
_0-0_0
  6
CONTINUOUS
 62
    7
 10
27.216747499999997
 20
183.75
 11
27.216747499999997
 21
186.75
  0
ARC
  8
_0-0_0
  6
CONTINUOUS
 62
    7
 10
21.216747499999997
 20
188.75
 40
0.5
 50
0
 51
90.000003000000007
  0
LINE
  8
_0-0_0
  6
CONTINUOUS
 62
    7
 10
27.216747499999997
 20
169.650002
 11
27.216747499999997
 21
183.25
  0
LINE
  8
_0-0_0
  6
CONTINUOUS
 62
    7
 10
9.2167474999999968
 20
190.25
 11
9.2167474999999968
 21
187.65048200000001
  0
LINE
  8
_0-0_0
  6
CONTINUOUS
 62
    7
 10
9.9167474999999854
 20
175.450005
 11
10.216737499999994
 21
175.450005
  0
LINE
  8
_0-0_0
  6
CONTINUOUS
 62
    7
 10
27.416748499999983
 20
191.050049
 11
27.416748499999983
 21
191.25
  0
ARC
  8
_0-0_0
  6
CONTINUOUS
 62
    7
 10
25.216747499999997
 20
169.650002
 40
2
 50
273.84026500000004
 51
0.000010000000014
  0
LINE
  8
_0-0_0
  6
CONTINUOUS
 62
    7
 10
25.216747499999997
 20
167.650002
 11
16.216747499999997
 21
167.650002
  0
ARC
  8
_0-0_0
  6
CONTINUOUS
 62
    7
 10
25.716747499999997
 20
166.895004
 40
0.5
 50
100.28656100000001
 51
179.99999099999999
  0
LINE
  8
_0-0_0
  6
CONTINUOUS
 62
    7
 10
25.216747499999997
 20
165.650002
 11
25.216747499999997
 21
166.895004
  0
ARC
  8
_0-0_0
  6
CONTINUOUS
 62
    7
 10
25.716747499999997
 20
165.650002
 40
0.5
 50
179.99999099999999
 51
269.99999700000001
  0
LINE
  8
_0-0_0
  6
CONTINUOUS
 62
    7
 10
10.793722500000001
 20
173.150002
 11
10.716747499999997
 21
173.150002
  0
LINE
  8
_0-0_0
  6
CONTINUOUS
 62
    7
 10
12.716747499999997
 20
173.150002
 11
12.235245499999991
 21
173.150002
  0
LINE
  8
_0-0_0
  6
CONTINUOUS
 62
    7
 10
12.235245499999991
 20
173.150002
 11
10.793722500000001
 21
173.150002
  0
LINE
  8
_0-0_0
  6
CONTINUOUS
 62
    7
 10
15.716747499999997
 20
168.150002
 11
15.716747499999997
 21
168.22697399999998
  0
LINE
  8
_0-0_0
  6
CONTINUOUS
 62
    7
 10
15.716747499999997
 20
169.66849500000001
 11
15.716747499999997
 21
168.22697399999998
  0
LINE
  8
_0-0_0
  6
CONTINUOUS
 62
    7
 10
15.716747499999997
 20
169.66849500000001
 11
15.716747499999997
 21
170.150002
  0
ARC
  8
_0-0_0
  6
CONTINUOUS
 62
    7
 10
12.716747499999997
 20
170.150002
 40
3
 50
0
 51
89.999995999999996
  0
ARC
  8
_0-0_0
  6
CONTINUOUS
 62
    7
 10
16.216747499999997
 20
168.150002
 40
0.5
 50
179.99999099999999
 51
269.99999700000001
  0
LINE
  8
_0-0_0
  6
CONTINUOUS
 62
    7
 10
21.716747499999997
 20
188.67301900000001
 11
21.716747499999997
 21
188.75
  0
LINE
  8
_0-0_0
  6
CONTINUOUS
 62
    7
 10
21.716747499999997
 20
187.231506
 11
21.716747499999997
 21
188.67301900000001
  0
LINE
  8
_0-0_0
  6
CONTINUOUS
 62
    7
 10
21.716747499999997
 20
186.75
 11
21.716747499999997
 21
187.231506
  0
ARC
  8
_0-0_0
  6
CONTINUOUS
 62
    7
 10
24.716747499999997
 20
186.75
 40
3
 50
179.99999099999999
 51
269.99999700000001
  0
LINE
  8
_0-0_0
  6
CONTINUOUS
 62
    7
 10
25.198248500000005
 20
183.75
 11
24.716747499999997
 21
183.75
  0
LINE
  8
_0-0_0
  6
CONTINUOUS
 62
    7
 10
25.198248500000005
 20
183.75
 11
26.639772499999992
 21
183.75
  0
LINE
  8
_0-0_0
  6
CONTINUOUS
 62
    7
 10
26.716747499999997
 20
183.75
 11
26.639772499999992
 21
183.75
  0
ARC
  8
_0-0_0
  6
CONTINUOUS
 62
    7
 10
26.716747499999997
 20
183.25
 40
0.5
 50
0
 51
90.000003000000007
  0
LINE
  8
_0-0_0
  6
CONTINUOUS
 62
    7
 10
25.216747499999997
 20
167.75263999999999
 11
25.232628500000004
 21
167.72538800000001
  0
LINE
  8
_0-0_0
  6
CONTINUOUS
 62
    7
 10
25.232628500000004
 20
167.72538800000001
 11
25.248474499999986
 21
167.70240000000001
  0
LINE
  8
_0-0_0
  6
CONTINUOUS
 62
    7
 10
25.248474499999986
 20
167.70240000000001
 11
25.262453499999992
 21
167.685654
  0
LINE
  8
_0-0_0
  6
CONTINUOUS
 62
    7
 10
25.262453499999992
 20
167.685654
 11
25.276352500000002
 21
167.67231800000002
  0
LINE
  8
_0-0_0
  6
CONTINUOUS
 62
    7
 10
25.276352500000002
 20
167.67231800000002
 11
25.288568499999997
 21
167.663399
  0
LINE
  8
_0-0_0
  6
CONTINUOUS
 62
    7
 10
25.288568499999997
 20
167.663399
 11
25.300687499999981
 21
167.65718099999998
  0
LINE
  8
_0-0_0
  6
CONTINUOUS
 62
    7
 10
25.300687499999981
 20
167.65718099999998
 11
25.3115545
 21
167.65389999999999
  0
LINE
  8
_0-0_0
  6
CONTINUOUS
 62
    7
 10
25.3115545
 20
167.65389999999999
 11
25.322313500000007
 21
167.65284700000001
  0
LINE
  8
_0-0_0
  6
CONTINUOUS
 62
    7
 10
25.322313500000007
 20
167.65284700000001
 11
25.324773499999992
 21
167.65292399999998
  0
ARC
  8
_0-0_0
  6
CONTINUOUS
 62
    7
 10
15.486633499999982
 20
177.27676400000001
 40
3.063399
 50
199.82113599999997
 51
205.28948099999999
  0
ARC
  8
_0-0_0
  6
CONTINUOUS
 62
    7
 10
15.486313499999994
 20
179.62337500000001
 40
3.0630549999999999
 50
154.710137
 51
160.17869999999999
  0
ARC
  8
_0-0_0
  6
CONTINUOUS
 62
    7
 10
18.716747499999997
 20
178.450005
 40
6.5
 50
160.10415599999999
 51
199.895612
  0
ARC
  8
_0-0_0
  6
CONTINUOUS
 62
    7
 10
21.946865500000001
 20
179.623245
 40
3.0633949999999999
 50
19.82113
 51
25.289566000000001
  0
ARC
  8
_0-0_0
  6
CONTINUOUS
 62
    7
 10
21.947183499999994
 20
177.27662700000002
 40
3.0630519999999999
 50
334.71006
 51
340.17869200000001
  0
LINE
  8
_0-0_0
  6
CONTINUOUS
 62
    7
 10
19.458416499999998
 20
171.949997
 11
23.9750765
 21
174.557693
  0
LINE
  8
_0-0_0
  6
CONTINUOUS
 62
    7
 10
17.9750765
 20
171.949997
 11
19.458416499999998
 21
171.949997
  0
LINE
  8
_0-0_0
  6
CONTINUOUS
 62
    7
 10
13.458417499999996
 20
174.557693
 11
17.9750765
 21
171.949997
  0
LINE
  8
_0-0_0
  6
CONTINUOUS
 62
    7
 10
12.716747499999997
 20
181.057693
 11
12.716747499999997
 21
175.84229999999999
  0
LINE
  8
_0-0_0
  6
CONTINUOUS
 62
    7
 10
13.458417499999996
 20
174.557693
 11
12.716747499999997
 21
175.84229999999999
  0
LINE
  8
_0-0_0
  6
CONTINUOUS
 62
    7
 10
17.9750765
 20
184.949997
 11
13.458417499999996
 21
182.34229999999999
  0
LINE
  8
_0-0_0
  6
CONTINUOUS
 62
    7
 10
13.164292499999988
 20
181.83287000000001
 11
12.716747499999997
 21
181.057693
  0
LINE
  8
_0-0_0
  6
CONTINUOUS
 62
    7
 10
13.164292499999988
 20
181.83287000000001
 11
13.458417499999996
 21
182.34229999999999
  0
LINE
  8
_0-0_0
  6
CONTINUOUS
 62
    7
 10
19.458416499999998
 20
184.949997
 11
17.9750765
 21
184.949997
  0
LINE
  8
_0-0_0
  6
CONTINUOUS
 62
    7
 10
23.9750765
 20
182.34229999999999
 11
19.458416499999998
 21
184.949997
  0
ARC
  8
_0-0_0
  6
CONTINUOUS
 62
    7
 10
18.716747499999997
 20
178.450005
 40
6.5
 50
340.10416099999998
 51
19.895609999999952
  0
LINE
  8
_0-0_0
  6
CONTINUOUS
 62
    7
 10
24.269201500000008
 20
175.067139
 11
24.716747499999997
 21
175.84229999999999
  0
LINE
  8
_0-0_0
  6
CONTINUOUS
 62
    7
 10
24.269201500000008
 20
175.067139
 11
23.9750765
 21
174.557693
  0
CIRCLE
  8
_0-0_0
  6
CONTINUOUS
 62
    7
 10
18.716747499999997
 20
178.450005
 40
5.25
  0
LINE
  8
_0-0_0
  6
CONTINUOUS
 62
    7
 10
24.716747499999997
 20
181.057693
 11
24.716747499999997
 21
175.84229999999999
  0
LINE
  8
_0-0_0
  6
CONTINUOUS
 62
    7
 10
23.9750765
 20
182.34229999999999
 11
24.716747499999997
 21
181.057693
  0
LINE
  8
_0-0_0
  6
CONTINUOUS
 62
    7
 10
26.603756500000003
 20
187.97543300000001
 11
26.881811499999998
 21
188
  0
LINE
  8
_0-0_0
  6
CONTINUOUS
 62
    7
 10
26.721511499999991
 20
187.77148399999999
 11
26.881811499999998
 21
188
  0
LINE
  8
_0-0_0
  6
CONTINUOUS
 62
    7
 10
26.465326500000003
 20
188.16596999999999
 11
26.739290499999981
 21
188.21946700000001
  0
LINE
  8
_0-0_0
  6
CONTINUOUS
 62
    7
 10
26.603756500000003
 20
187.97543300000001
 11
26.739290499999981
 21
188.21946700000001
  0
LINE
  8
_0-0_0
  6
CONTINUOUS
 62
    7
 10
26.307737500000002
 20
188.34098800000001
 11
26.574609500000008
 21
188.422821
  0
LINE
  8
_0-0_0
  6
CONTINUOUS
 62
    7
 10
26.465326500000003
 20
188.16596999999999
 11
26.574609500000008
 21
188.422821
  0
LINE
  8
_0-0_0
  6
CONTINUOUS
 62
    7
 10
26.132719500000007
 20
188.498581
 11
26.389574499999981
 21
188.60786400000001
  0
LINE
  8
_0-0_0
  6
CONTINUOUS
 62
    7
 10
26.307737500000002
 20
188.34098800000001
 11
26.389574499999981
 21
188.60786400000001
  0
LINE
  8
_0-0_0
  6
CONTINUOUS
 62
    7
 10
25.942184499999996
 20
188.63700900000001
 11
26.186210499999987
 21
188.772537
  0
LINE
  8
_0-0_0
  6
CONTINUOUS
 62
    7
 10
26.132719500000007
 20
188.498581
 11
26.186210499999987
 21
188.772537
  0
LINE
  8
_0-0_0
  6
CONTINUOUS
 62
    7
 10
25.738226499999996
 20
188.754761
 11
25.966747499999997
 21
188.91506999999999
  0
LINE
  8
_0-0_0
  6
CONTINUOUS
 62
    7
 10
25.942184499999996
 20
188.63700900000001
 11
25.966747499999997
 21
188.91506999999999
  0
LINE
  8
_0-0_0
  6
CONTINUOUS
 62
    7
 10
25.523075500000004
 20
188.85055500000001
 11
25.733589499999994
 21
189.03385900000001
  0
LINE
  8
_0-0_0
  6
CONTINUOUS
 62
    7
 10
25.738226499999996
 20
188.754761
 11
25.733589499999994
 21
189.03385900000001
  0
LINE
  8
_0-0_0
  6
CONTINUOUS
 62
    7
 10
25.29908949999998
 20
188.92334
 11
25.489290499999981
 21
189.12764000000001
  0
LINE
  8
_0-0_0
  6
CONTINUOUS
 62
    7
 10
25.523075500000004
 20
188.85055500000001
 11
25.489290499999981
 21
189.12764000000001
  0
LINE
  8
_0-0_0
  6
CONTINUOUS
 62
    7
 10
25.068725499999999
 20
188.97228999999999
 11
25.236526499999997
 21
189.19537399999999
  0
LINE
  8
_0-0_0
  6
CONTINUOUS
 62
    7
 10
25.29908949999998
 20
188.92334
 11
25.236526499999997
 21
189.19537399999999
  0
LINE
  8
_0-0_0
  6
CONTINUOUS
 62
    7
 10
24.834503499999983
 20
188.99691799999999
 11
24.978069500000004
 21
189.23629800000001
  0
LINE
  8
_0-0_0
  6
CONTINUOUS
 62
    7
 10
25.068725499999999
 20
188.97228999999999
 11
24.978069500000004
 21
189.23629800000001
  0
LINE
  8
_0-0_0
  6
CONTINUOUS
 62
    7
 10
24.598991500000011
 20
188.99691799999999
 11
24.716747499999997
 21
189.25
  0
LINE
  8
_0-0_0
  6
CONTINUOUS
 62
    7
 10
24.834503499999983
 20
188.99691799999999
 11
24.716747499999997
 21
189.25
  0
LINE
  8
_0-0_0
  6
CONTINUOUS
 62
    7
 10
24.364769499999994
 20
188.97228999999999
 11
24.45542549999999
 21
189.23629800000001
  0
LINE
  8
_0-0_0
  6
CONTINUOUS
 62
    7
 10
24.598991500000011
 20
188.99691799999999
 11
24.45542549999999
 21
189.23629800000001
  0
LINE
  8
_0-0_0
  6
CONTINUOUS
 62
    7
 10
24.134405499999986
 20
188.92334
 11
24.196968499999997
 21
189.19537399999999
  0
LINE
  8
_0-0_0
  6
CONTINUOUS
 62
    7
 10
24.364769499999994
 20
188.97228999999999
 11
24.196968499999997
 21
189.19537399999999
  0
LINE
  8
_0-0_0
  6
CONTINUOUS
 62
    7
 10
23.910419499999989
 20
188.85055500000001
 11
23.944204499999984
 21
189.12764000000001
  0
LINE
  8
_0-0_0
  6
CONTINUOUS
 62
    7
 10
24.134405499999986
 20
188.92334
 11
23.944204499999984
 21
189.12764000000001
  0
LINE
  8
_0-0_0
  6
CONTINUOUS
 62
    7
 10
23.695268499999997
 20
188.754761
 11
23.6999055
 21
189.03385900000001
  0
LINE
  8
_0-0_0
  6
CONTINUOUS
 62
    7
 10
23.910419499999989
 20
188.85055500000001
 11
23.6999055
 21
189.03385900000001
  0
LINE
  8
_0-0_0
  6
CONTINUOUS
 62
    7
 10
23.575731499999989
 20
188.83862300000001
 11
23.466747499999997
 21
188.91506999999999
  0
LINE
  8
_0-0_0
  6
CONTINUOUS
 62
    7
 10
23.695268499999997
 20
188.754761
 11
23.575731499999989
 21
188.83862300000001
  0
LINE
  8
_0-0_0
  6
CONTINUOUS
 62
    7
 10
23.491310499999997
 20
188.63700900000001
 11
23.466747499999997
 21
188.91506999999999
  0
LINE
  8
_0-0_0
  6
CONTINUOUS
 62
    7
 10
23.300775499999986
 20
188.498581
 11
23.247284500000006
 21
188.772537
  0
LINE
  8
_0-0_0
  6
CONTINUOUS
 62
    7
 10
23.491310499999997
 20
188.63700900000001
 11
23.247284500000006
 21
188.772537
  0
LINE
  8
_0-0_0
  6
CONTINUOUS
 62
    7
 10
23.125757499999992
 20
188.34098800000001
 11
23.043920499999984
 21
188.60786400000001
  0
LINE
  8
_0-0_0
  6
CONTINUOUS
 62
    7
 10
23.300775499999986
 20
188.498581
 11
23.043920499999984
 21
188.60786400000001
  0
LINE
  8
_0-0_0
  6
CONTINUOUS
 62
    7
 10
22.96816849999999
 20
188.16596999999999
 11
22.858884499999988
 21
188.422821
  0
LINE
  8
_0-0_0
  6
CONTINUOUS
 62
    7
 10
23.125757499999992
 20
188.34098800000001
 11
22.858884499999988
 21
188.422821
  0
LINE
  8
_0-0_0
  6
CONTINUOUS
 62
    7
 10
22.829738499999991
 20
187.97543300000001
 11
22.694204499999984
 21
188.21946700000001
  0
LINE
  8
_0-0_0
  6
CONTINUOUS
 62
    7
 10
22.96816849999999
 20
188.16596999999999
 11
22.694204499999984
 21
188.21946700000001
  0
LINE
  8
_0-0_0
  6
CONTINUOUS
 62
    7
 10
22.711982500000005
 20
187.77148399999999
 11
22.551683499999996
 21
188
  0
LINE
  8
_0-0_0
  6
CONTINUOUS
 62
    7
 10
22.829738499999991
 20
187.97543300000001
 11
22.551683499999996
 21
188
  0
LINE
  8
_0-0_0
  6
CONTINUOUS
 62
    7
 10
22.616191499999985
 20
187.55633499999999
 11
22.4328845
 21
187.76684599999999
  0
LINE
  8
_0-0_0
  6
CONTINUOUS
 62
    7
 10
22.711982500000005
 20
187.77148399999999
 11
22.4328845
 21
187.76684599999999
  0
LINE
  8
_0-0_0
  6
CONTINUOUS
 62
    7
 10
22.543415499999981
 20
187.332336
 11
22.339105499999988
 21
187.522537
  0
LINE
  8
_0-0_0
  6
CONTINUOUS
 62
    7
 10
22.616191499999985
 20
187.55633499999999
 11
22.339105499999988
 21
187.522537
  0
LINE
  8
_0-0_0
  6
CONTINUOUS
 62
    7
 10
22.494447500000007
 20
187.10197400000001
 11
22.2713775
 21
187.26977500000001
  0
LINE
  8
_0-0_0
  6
CONTINUOUS
 62
    7
 10
22.543415499999981
 20
187.332336
 11
22.2713775
 21
187.26977500000001
  0
LINE
  8
_0-0_0
  6
CONTINUOUS
 62
    7
 10
22.494447500000007
 20
187.10197400000001
 11
22.230442499999981
 21
187.01132200000001
  0
LINE
  8
_0-0_0
  6
CONTINUOUS
 62
    7
 10
22.469831499999998
 20
186.867752
 11
22.230442499999981
 21
187.01132200000001
  0
LINE
  8
_0-0_0
  6
CONTINUOUS
 62
    7
 10
22.469831499999998
 20
186.632248
 11
22.216747499999997
 21
186.75
  0
LINE
  8
_0-0_0
  6
CONTINUOUS
 62
    7
 10
22.469831499999998
 20
186.867752
 11
22.216747499999997
 21
186.75
  0
LINE
  8
_0-0_0
  6
CONTINUOUS
 62
    7
 10
22.494447500000007
 20
186.39802599999999
 11
22.230442499999981
 21
186.48867799999999
  0
LINE
  8
_0-0_0
  6
CONTINUOUS
 62
    7
 10
22.469831499999998
 20
186.632248
 11
22.230442499999981
 21
186.48867799999999
  0
LINE
  8
_0-0_0
  6
CONTINUOUS
 62
    7
 10
22.543415499999981
 20
186.167664
 11
22.2713775
 21
186.23022499999999
  0
LINE
  8
_0-0_0
  6
CONTINUOUS
 62
    7
 10
22.494447500000007
 20
186.39802599999999
 11
22.2713775
 21
186.23022499999999
  0
LINE
  8
_0-0_0
  6
CONTINUOUS
 62
    7
 10
22.616191499999985
 20
185.94366500000001
 11
22.339105499999988
 21
185.977463
  0
LINE
  8
_0-0_0
  6
CONTINUOUS
 62
    7
 10
22.543415499999981
 20
186.167664
 11
22.339105499999988
 21
185.977463
  0
LINE
  8
_0-0_0
  6
CONTINUOUS
 62
    7
 10
22.711982500000005
 20
185.72851600000001
 11
22.4328845
 21
185.73315400000001
  0
LINE
  8
_0-0_0
  6
CONTINUOUS
 62
    7
 10
22.616191499999985
 20
185.94366500000001
 11
22.4328845
 21
185.73315400000001
  0
LINE
  8
_0-0_0
  6
CONTINUOUS
 62
    7
 10
22.829738499999991
 20
185.52456699999999
 11
22.551683499999996
 21
185.5
  0
LINE
  8
_0-0_0
  6
CONTINUOUS
 62
    7
 10
22.711982500000005
 20
185.72851600000001
 11
22.551683499999996
 21
185.5
  0
LINE
  8
_0-0_0
  6
CONTINUOUS
 62
    7
 10
22.96816849999999
 20
185.33403000000001
 11
22.694204499999984
 21
185.28053299999999
  0
LINE
  8
_0-0_0
  6
CONTINUOUS
 62
    7
 10
22.829738499999991
 20
185.52456699999999
 11
22.694204499999984
 21
185.28053299999999
  0
LINE
  8
_0-0_0
  6
CONTINUOUS
 62
    7
 10
23.125757499999992
 20
185.15901199999999
 11
22.858884499999988
 21
185.077179
  0
LINE
  8
_0-0_0
  6
CONTINUOUS
 62
    7
 10
22.96816849999999
 20
185.33403000000001
 11
22.858884499999988
 21
185.077179
  0
LINE
  8
_0-0_0
  6
CONTINUOUS
 62
    7
 10
23.300775499999986
 20
185.001419
 11
23.043920499999984
 21
184.89213599999999
  0
LINE
  8
_0-0_0
  6
CONTINUOUS
 62
    7
 10
23.125757499999992
 20
185.15901199999999
 11
23.043920499999984
 21
184.89213599999999
  0
LINE
  8
_0-0_0
  6
CONTINUOUS
 62
    7
 10
23.491310499999997
 20
184.86299099999999
 11
23.247284500000006
 21
184.727463
  0
LINE
  8
_0-0_0
  6
CONTINUOUS
 62
    7
 10
23.300775499999986
 20
185.001419
 11
23.247284500000006
 21
184.727463
  0
LINE
  8
_0-0_0
  6
CONTINUOUS
 62
    7
 10
23.695268499999997
 20
184.745239
 11
23.466747499999997
 21
184.58493000000001
  0
LINE
  8
_0-0_0
  6
CONTINUOUS
 62
    7
 10
23.491310499999997
 20
184.86299099999999
 11
23.466747499999997
 21
184.58493000000001
  0
LINE
  8
_0-0_0
  6
CONTINUOUS
 62
    7
 10
23.910419499999989
 20
184.64944499999999
 11
23.6999055
 21
184.46614099999999
  0
LINE
  8
_0-0_0
  6
CONTINUOUS
 62
    7
 10
23.695268499999997
 20
184.745239
 11
23.6999055
 21
184.46614099999999
  0
LINE
  8
_0-0_0
  6
CONTINUOUS
 62
    7
 10
24.134405499999986
 20
184.57666
 11
23.944204499999984
 21
184.37235999999999
  0
LINE
  8
_0-0_0
  6
CONTINUOUS
 62
    7
 10
23.910419499999989
 20
184.64944499999999
 11
23.944204499999984
 21
184.37235999999999
  0
LINE
  8
_0-0_0
  6
CONTINUOUS
 62
    7
 10
24.364769499999994
 20
184.52771000000001
 11
24.196968499999997
 21
184.30462600000001
  0
LINE
  8
_0-0_0
  6
CONTINUOUS
 62
    7
 10
24.134405499999986
 20
184.57666
 11
24.196968499999997
 21
184.30462600000001
  0
LINE
  8
_0-0_0
  6
CONTINUOUS
 62
    7
 10
24.598991500000011
 20
184.50308200000001
 11
24.45542549999999
 21
184.26370199999999
  0
LINE
  8
_0-0_0
  6
CONTINUOUS
 62
    7
 10
24.364769499999994
 20
184.52771000000001
 11
24.45542549999999
 21
184.26370199999999
  0
LINE
  8
_0-0_0
  6
CONTINUOUS
 62
    7
 10
24.834503499999983
 20
184.50308200000001
 11
24.716747499999997
 21
184.25
  0
LINE
  8
_0-0_0
  6
CONTINUOUS
 62
    7
 10
24.598991500000011
 20
184.50308200000001
 11
24.716747499999997
 21
184.25
  0
LINE
  8
_0-0_0
  6
CONTINUOUS
 62
    7
 10
25.068725499999999
 20
184.52771000000001
 11
24.978069500000004
 21
184.26370199999999
  0
LINE
  8
_0-0_0
  6
CONTINUOUS
 62
    7
 10
24.834503499999983
 20
184.50308200000001
 11
24.978069500000004
 21
184.26370199999999
  0
LINE
  8
_0-0_0
  6
CONTINUOUS
 62
    7
 10
25.29908949999998
 20
184.57666
 11
25.236526499999997
 21
184.30462600000001
  0
LINE
  8
_0-0_0
  6
CONTINUOUS
 62
    7
 10
25.068725499999999
 20
184.52771000000001
 11
25.236526499999997
 21
184.30462600000001
  0
LINE
  8
_0-0_0
  6
CONTINUOUS
 62
    7
 10
25.523075500000004
 20
184.64944499999999
 11
25.489290499999981
 21
184.37235999999999
  0
LINE
  8
_0-0_0
  6
CONTINUOUS
 62
    7
 10
25.29908949999998
 20
184.57666
 11
25.489290499999981
 21
184.37235999999999
  0
LINE
  8
_0-0_0
  6
CONTINUOUS
 62
    7
 10
25.738226499999996
 20
184.745239
 11
25.733589499999994
 21
184.46614099999999
  0
LINE
  8
_0-0_0
  6
CONTINUOUS
 62
    7
 10
25.523075500000004
 20
184.64944499999999
 11
25.733589499999994
 21
184.46614099999999
  0
LINE
  8
_0-0_0
  6
CONTINUOUS
 62
    7
 10
25.857763500000004
 20
184.66137699999999
 11
25.966747499999997
 21
184.58493000000001
  0
LINE
  8
_0-0_0
  6
CONTINUOUS
 62
    7
 10
25.738226499999996
 20
184.745239
 11
25.857763500000004
 21
184.66137699999999
  0
LINE
  8
_0-0_0
  6
CONTINUOUS
 62
    7
 10
25.942184499999996
 20
184.86299099999999
 11
25.966747499999997
 21
184.58493000000001
  0
LINE
  8
_0-0_0
  6
CONTINUOUS
 62
    7
 10
26.132719500000007
 20
185.001419
 11
26.186210499999987
 21
184.727463
  0
LINE
  8
_0-0_0
  6
CONTINUOUS
 62
    7
 10
25.942184499999996
 20
184.86299099999999
 11
26.186210499999987
 21
184.727463
  0
LINE
  8
_0-0_0
  6
CONTINUOUS
 62
    7
 10
26.307737500000002
 20
185.15901199999999
 11
26.389574499999981
 21
184.89213599999999
  0
LINE
  8
_0-0_0
  6
CONTINUOUS
 62
    7
 10
26.132719500000007
 20
185.001419
 11
26.389574499999981
 21
184.89213599999999
  0
LINE
  8
_0-0_0
  6
CONTINUOUS
 62
    7
 10
26.465326500000003
 20
185.33403000000001
 11
26.574609500000008
 21
185.077179
  0
LINE
  8
_0-0_0
  6
CONTINUOUS
 62
    7
 10
26.307737500000002
 20
185.15901199999999
 11
26.574609500000008
 21
185.077179
  0
LINE
  8
_0-0_0
  6
CONTINUOUS
 62
    7
 10
26.603756500000003
 20
185.52456699999999
 11
26.739290499999981
 21
185.28053299999999
  0
LINE
  8
_0-0_0
  6
CONTINUOUS
 62
    7
 10
26.465326500000003
 20
185.33403000000001
 11
26.739290499999981
 21
185.28053299999999
  0
LINE
  8
_0-0_0
  6
CONTINUOUS
 62
    7
 10
26.721511499999991
 20
185.72851600000001
 11
26.881811499999998
 21
185.5
  0
LINE
  8
_0-0_0
  6
CONTINUOUS
 62
    7
 10
26.603756500000003
 20
185.52456699999999
 11
26.881811499999998
 21
185.5
  0
LINE
  8
_0-0_0
  6
CONTINUOUS
 62
    7
 10
26.817302499999983
 20
185.94366500000001
 11
27.000610499999993
 21
185.73315400000001
  0
LINE
  8
_0-0_0
  6
CONTINUOUS
 62
    7
 10
26.721511499999991
 20
185.72851600000001
 11
27.000610499999993
 21
185.73315400000001
  0
LINE
  8
_0-0_0
  6
CONTINUOUS
 62
    7
 10
26.890079499999985
 20
186.167664
 11
27.094389500000005
 21
185.977463
  0
LINE
  8
_0-0_0
  6
CONTINUOUS
 62
    7
 10
26.817302499999983
 20
185.94366500000001
 11
27.094389500000005
 21
185.977463
  0
LINE
  8
_0-0_0
  6
CONTINUOUS
 62
    7
 10
26.939046499999989
 20
186.39802599999999
 11
27.162117499999994
 21
186.23022499999999
  0
LINE
  8
_0-0_0
  6
CONTINUOUS
 62
    7
 10
26.890079499999985
 20
186.167664
 11
27.162117499999994
 21
186.23022499999999
  0
LINE
  8
_0-0_0
  6
CONTINUOUS
 62
    7
 10
26.963663499999996
 20
186.632248
 11
27.203052499999984
 21
186.48867799999999
  0
LINE
  8
_0-0_0
  6
CONTINUOUS
 62
    7
 10
26.939046499999989
 20
186.39802599999999
 11
27.203052499999984
 21
186.48867799999999
  0
LINE
  8
_0-0_0
  6
CONTINUOUS
 62
    7
 10
26.963663499999996
 20
186.867752
 11
27.216747499999997
 21
186.75
  0
LINE
  8
_0-0_0
  6
CONTINUOUS
 62
    7
 10
26.963663499999996
 20
186.632248
 11
27.216747499999997
 21
186.75
  0
LINE
  8
_0-0_0
  6
CONTINUOUS
 62
    7
 10
26.939046499999989
 20
187.10197400000001
 11
27.203052499999984
 21
187.01132200000001
  0
LINE
  8
_0-0_0
  6
CONTINUOUS
 62
    7
 10
26.963663499999996
 20
186.867752
 11
27.203052499999984
 21
187.01132200000001
  0
LINE
  8
_0-0_0
  6
CONTINUOUS
 62
    7
 10
26.890079499999985
 20
187.332336
 11
27.162117499999994
 21
187.26977500000001
  0
LINE
  8
_0-0_0
  6
CONTINUOUS
 62
    7
 10
26.939046499999989
 20
187.10197400000001
 11
27.162117499999994
 21
187.26977500000001
  0
LINE
  8
_0-0_0
  6
CONTINUOUS
 62
    7
 10
26.817302499999983
 20
187.55633499999999
 11
27.094389500000005
 21
187.522537
  0
LINE
  8
_0-0_0
  6
CONTINUOUS
 62
    7
 10
26.890079499999985
 20
187.332336
 11
27.094389500000005
 21
187.522537
  0
LINE
  8
_0-0_0
  6
CONTINUOUS
 62
    7
 10
26.721511499999991
 20
187.77148399999999
 11
27.000610499999993
 21
187.76684599999999
  0
LINE
  8
_0-0_0
  6
CONTINUOUS
 62
    7
 10
26.817302499999983
 20
187.55633499999999
 11
27.000610499999993
 21
187.76684599999999
  0
CIRCLE
  8
_0-0_0
  6
CONTINUOUS
 62
    7
 10
24.716747499999997
 20
186.75
 40
2
  0
CIRCLE
  8
_0-0_0
  6
CONTINUOUS
 62
    7
 10
18.716747499999997
 20
178.450005
 40
5
  0
LINE
  8
_0-0_0
  6
CONTINUOUS
 62
    7
 10
25.298856499999999
 20
185.75
 11
24.134637499999997
 21
185.75
  0
LINE
  8
_0-0_0
  6
CONTINUOUS
 62
    7
 10
24.134637499999997
 20
185.75
 11
23.566747499999991
 21
186.75
  0
LINE
  8
_0-0_0
  6
CONTINUOUS
 62
    7
 10
23.566747499999991
 20
186.75
 11
24.134637499999997
 21
187.75
  0
LINE
  8
_0-0_0
  6
CONTINUOUS
 62
    7
 10
24.134637499999997
 20
187.75
 11
25.298856499999999
 21
187.75
  0
LINE
  8
_0-0_0
  6
CONTINUOUS
 62
    7
 10
25.298856499999999
 20
187.75
 11
25.866747500000002
 21
186.75
  0
LINE
  8
_0-0_0
  6
CONTINUOUS
 62
    7
 10
25.866747500000002
 20
186.75
 11
25.298856499999999
 21
185.75
  0
CIRCLE
  8
_0-0_0
  6
CONTINUOUS
 62
    7
 10
18.716747499999997
 20
178.450005
 40
4.5381200000000002
  0
CIRCLE
  8
_0-0_0
  6
CONTINUOUS
 62
    7
 10
18.716747499999997
 20
178.450005
 40
4
  0
LINE
  8
_0-0_0
  6
CONTINUOUS
 62
    7
 10
10.829738499999991
 20
168.92456099999998
 11
10.551683499999996
 21
168.900002
  0
LINE
  8
_0-0_0
  6
CONTINUOUS
 62
    7
 10
10.711982500000005
 20
169.128525
 11
10.551683499999996
 21
168.900002
  0
LINE
  8
_0-0_0
  6
CONTINUOUS
 62
    7
 10
10.96816849999999
 20
168.73403200000001
 11
10.694204499999984
 21
168.68053399999999
  0
LINE
  8
_0-0_0
  6
CONTINUOUS
 62
    7
 10
10.829738499999991
 20
168.92456099999998
 11
10.694204499999984
 21
168.68053399999999
  0
LINE
  8
_0-0_0
  6
CONTINUOUS
 62
    7
 10
11.125757499999992
 20
168.55901299999999
 11
10.858884499999988
 21
168.47717299999999
  0
LINE
  8
_0-0_0
  6
CONTINUOUS
 62
    7
 10
10.96816849999999
 20
168.73403200000001
 11
10.858884499999988
 21
168.47717299999999
  0
LINE
  8
_0-0_0
  6
CONTINUOUS
 62
    7
 10
11.300777499999981
 20
168.401421
 11
11.043920499999984
 21
168.292137
  0
LINE
  8
_0-0_0
  6
CONTINUOUS
 62
    7
 10
11.125757499999992
 20
168.55901299999999
 11
11.043920499999984
 21
168.292137
  0
LINE
  8
_0-0_0
  6
CONTINUOUS
 62
    7
 10
11.4913095
 20
168.26299299999999
 11
11.247284500000006
 21
168.12745699999999
  0
LINE
  8
_0-0_0
  6
CONTINUOUS
 62
    7
 10
11.300777499999981
 20
168.401421
 11
11.247284500000006
 21
168.12745699999999
  0
LINE
  8
_0-0_0
  6
CONTINUOUS
 62
    7
 10
11.695268499999997
 20
168.14523300000002
 11
11.466747499999997
 21
167.98493999999999
  0
LINE
  8
_0-0_0
  6
CONTINUOUS
 62
    7
 10
11.4913095
 20
168.26299299999999
 11
11.466747499999997
 21
167.98493999999999
  0
LINE
  8
_0-0_0
  6
CONTINUOUS
 62
    7
 10
11.910420499999987
 20
168.04944599999999
 11
11.6999055
 21
167.86613499999999
  0
LINE
  8
_0-0_0
  6
CONTINUOUS
 62
    7
 10
11.695268499999997
 20
168.14523300000002
 11
11.6999055
 21
167.86613499999999
  0
LINE
  8
_0-0_0
  6
CONTINUOUS
 62
    7
 10
12.134404499999988
 20
167.97666900000002
 11
11.944204499999984
 21
167.77236199999999
  0
LINE
  8
_0-0_0
  6
CONTINUOUS
 62
    7
 10
11.910420499999987
 20
168.04944599999999
 11
11.944204499999984
 21
167.77236199999999
  0
LINE
  8
_0-0_0
  6
CONTINUOUS
 62
    7
 10
12.364770499999992
 20
167.92770400000001
 11
12.196968499999997
 21
167.70462800000001
  0
LINE
  8
_0-0_0
  6
CONTINUOUS
 62
    7
 10
12.134404499999988
 20
167.97666900000002
 11
12.196968499999997
 21
167.70462800000001
  0
LINE
  8
_0-0_0
  6
CONTINUOUS
 62
    7
 10
12.598991499999983
 20
167.90308400000001
 11
12.455426499999987
 21
167.66369600000002
  0
LINE
  8
_0-0_0
  6
CONTINUOUS
 62
    7
 10
12.364770499999992
 20
167.92770400000001
 11
12.455426499999987
 21
167.66369600000002
  0
LINE
  8
_0-0_0
  6
CONTINUOUS
 62
    7
 10
12.834503499999983
 20
167.90308400000001
 11
12.716747499999997
 21
167.650002
  0
LINE
  8
_0-0_0
  6
CONTINUOUS
 62
    7
 10
12.598991499999983
 20
167.90308400000001
 11
12.716747499999997
 21
167.650002
  0
LINE
  8
_0-0_0
  6
CONTINUOUS
 62
    7
 10
13.068724500000002
 20
167.92770400000001
 11
12.978068500000006
 21
167.66369600000002
  0
LINE
  8
_0-0_0
  6
CONTINUOUS
 62
    7
 10
12.834503499999983
 20
167.90308400000001
 11
12.978068500000006
 21
167.66369600000002
  0
LINE
  8
_0-0_0
  6
CONTINUOUS
 62
    7
 10
13.299090500000005
 20
167.97666900000002
 11
13.236526499999997
 21
167.70462800000001
  0
LINE
  8
_0-0_0
  6
CONTINUOUS
 62
    7
 10
13.068724500000002
 20
167.92770400000001
 11
13.236526499999997
 21
167.70462800000001
  0
LINE
  8
_0-0_0
  6
CONTINUOUS
 62
    7
 10
13.523075500000004
 20
168.04944599999999
 11
13.489290499999981
 21
167.77236199999999
  0
LINE
  8
_0-0_0
  6
CONTINUOUS
 62
    7
 10
13.299090500000005
 20
167.97666900000002
 11
13.489290499999981
 21
167.77236199999999
  0
LINE
  8
_0-0_0
  6
CONTINUOUS
 62
    7
 10
13.738226499999996
 20
168.14523300000002
 11
13.733589499999994
 21
167.86613499999999
  0
LINE
  8
_0-0_0
  6
CONTINUOUS
 62
    7
 10
13.523075500000004
 20
168.04944599999999
 11
13.733589499999994
 21
167.86613499999999
  0
LINE
  8
_0-0_0
  6
CONTINUOUS
 62
    7
 10
13.857763500000004
 20
168.061386
 11
13.966747499999997
 21
167.98493999999999
  0
LINE
  8
_0-0_0
  6
CONTINUOUS
 62
    7
 10
13.738226499999996
 20
168.14523300000002
 11
13.857763500000004
 21
168.061386
  0
LINE
  8
_0-0_0
  6
CONTINUOUS
 62
    7
 10
13.942185499999994
 20
168.26299299999999
 11
13.966747499999997
 21
167.98493999999999
  0
LINE
  8
_0-0_0
  6
CONTINUOUS
 62
    7
 10
14.13271850000001
 20
168.401421
 11
14.186210499999987
 21
168.12745699999999
  0
LINE
  8
_0-0_0
  6
CONTINUOUS
 62
    7
 10
13.942185499999994
 20
168.26299299999999
 11
14.186210499999987
 21
168.12745699999999
  0
LINE
  8
_0-0_0
  6
CONTINUOUS
 62
    7
 10
14.307737500000002
 20
168.55901299999999
 11
14.389574499999981
 21
168.292137
  0
LINE
  8
_0-0_0
  6
CONTINUOUS
 62
    7
 10
14.13271850000001
 20
168.401421
 11
14.389574499999981
 21
168.292137
  0
LINE
  8
_0-0_0
  6
CONTINUOUS
 62
    7
 10
14.465325500000006
 20
168.73403200000001
 11
14.574609500000008
 21
168.47717299999999
  0
LINE
  8
_0-0_0
  6
CONTINUOUS
 62
    7
 10
14.307737500000002
 20
168.55901299999999
 11
14.574609500000008
 21
168.47717299999999
  0
LINE
  8
_0-0_0
  6
CONTINUOUS
 62
    7
 10
14.603756500000003
 20
168.92456099999998
 11
14.739290499999981
 21
168.68053399999999
  0
LINE
  8
_0-0_0
  6
CONTINUOUS
 62
    7
 10
14.465325500000006
 20
168.73403200000001
 11
14.739290499999981
 21
168.68053399999999
  0
LINE
  8
_0-0_0
  6
CONTINUOUS
 62
    7
 10
14.721511499999991
 20
169.128525
 11
14.881811499999998
 21
168.900002
  0
LINE
  8
_0-0_0
  6
CONTINUOUS
 62
    7
 10
14.603756500000003
 20
168.92456099999998
 11
14.881811499999998
 21
168.900002
  0
LINE
  8
_0-0_0
  6
CONTINUOUS
 62
    7
 10
14.817303500000008
 20
169.34367399999999
 11
15.000611499999991
 21
169.13315599999999
  0
LINE
  8
_0-0_0
  6
CONTINUOUS
 62
    7
 10
14.721511499999991
 20
169.128525
 11
15.000611499999991
 21
169.13315599999999
  0
LINE
  8
_0-0_0
  6
CONTINUOUS
 62
    7
 10
14.890079499999985
 20
169.567657
 11
15.094389500000005
 21
169.37745699999999
  0
LINE
  8
_0-0_0
  6
CONTINUOUS
 62
    7
 10
14.817303500000008
 20
169.34367399999999
 11
15.094389500000005
 21
169.37745699999999
  0
LINE
  8
_0-0_0
  6
CONTINUOUS
 62
    7
 10
14.939046499999989
 20
169.79801900000001
 11
15.162116499999996
 21
169.63021900000001
  0
LINE
  8
_0-0_0
  6
CONTINUOUS
 62
    7
 10
14.890079499999985
 20
169.567657
 11
15.162116499999996
 21
169.63021900000001
  0
LINE
  8
_0-0_0
  6
CONTINUOUS
 62
    7
 10
14.963664499999993
 20
170.032242
 11
15.203051499999987
 21
169.88867999999999
  0
LINE
  8
_0-0_0
  6
CONTINUOUS
 62
    7
 10
14.939046499999989
 20
169.79801900000001
 11
15.203051499999987
 21
169.88867999999999
  0
LINE
  8
_0-0_0
  6
CONTINUOUS
 62
    7
 10
14.963664499999993
 20
170.267754
 11
15.216747499999997
 21
170.150002
  0
LINE
  8
_0-0_0
  6
CONTINUOUS
 62
    7
 10
14.963664499999993
 20
170.032242
 11
15.216747499999997
 21
170.150002
  0
LINE
  8
_0-0_0
  6
CONTINUOUS
 62
    7
 10
14.939046499999989
 20
170.50197600000001
 11
15.203051499999987
 21
170.41132399999998
  0
LINE
  8
_0-0_0
  6
CONTINUOUS
 62
    7
 10
14.963664499999993
 20
170.267754
 11
15.203051499999987
 21
170.41132399999998
  0
LINE
  8
_0-0_0
  6
CONTINUOUS
 62
    7
 10
14.890079499999985
 20
170.73234600000001
 11
15.162116499999996
 21
170.66977700000001
  0
LINE
  8
_0-0_0
  6
CONTINUOUS
 62
    7
 10
14.939046499999989
 20
170.50197600000001
 11
15.162116499999996
 21
170.66977700000001
  0
LINE
  8
_0-0_0
  6
CONTINUOUS
 62
    7
 10
14.817303500000008
 20
170.95632899999998
 11
15.094389500000005
 21
170.922539
  0
LINE
  8
_0-0_0
  6
CONTINUOUS
 62
    7
 10
14.890079499999985
 20
170.73234600000001
 11
15.094389500000005
 21
170.922539
  0
LINE
  8
_0-0_0
  6
CONTINUOUS
 62
    7
 10
14.721511499999991
 20
171.17147799999998
 11
15.000611499999991
 21
171.16683999999998
  0
LINE
  8
_0-0_0
  6
CONTINUOUS
 62
    7
 10
14.817303500000008
 20
170.95632899999998
 11
15.000611499999991
 21
171.16683999999998
  0
LINE
  8
_0-0_0
  6
CONTINUOUS
 62
    7
 10
14.603756500000003
 20
171.37543499999998
 11
14.881811499999998
 21
171.400002
  0
LINE
  8
_0-0_0
  6
CONTINUOUS
 62
    7
 10
14.721511499999991
 20
171.17147799999998
 11
14.881811499999998
 21
171.400002
  0
LINE
  8
_0-0_0
  6
CONTINUOUS
 62
    7
 10
11.300777499999981
 20
171.89857499999999
 11
11.247284500000006
 21
172.172539
  0
LINE
  8
_0-0_0
  6
CONTINUOUS
 62
    7
 10
11.300777499999981
 20
171.89857499999999
 11
11.043920499999984
 21
172.007858
  0
LINE
  8
_0-0_0
  6
CONTINUOUS
 62
    7
 10
11.125757499999992
 20
171.74099000000001
 11
11.043920499999984
 21
172.007858
  0
LINE
  8
_0-0_0
  6
CONTINUOUS
 62
    7
 10
11.125757499999992
 20
171.74099000000001
 11
10.858884499999988
 21
171.82283000000001
  0
LINE
  8
_0-0_0
  6
CONTINUOUS
 62
    7
 10
10.96816849999999
 20
171.56597099999999
 11
10.858884499999988
 21
171.82283000000001
  0
LINE
  8
_0-0_0
  6
CONTINUOUS
 62
    7
 10
10.96816849999999
 20
171.56597099999999
 11
10.694204499999984
 21
171.619461
  0
LINE
  8
_0-0_0
  6
CONTINUOUS
 62
    7
 10
10.829738499999991
 20
171.37543499999998
 11
10.694204499999984
 21
171.619461
  0
LINE
  8
_0-0_0
  6
CONTINUOUS
 62
    7
 10
10.829738499999991
 20
171.37543499999998
 11
10.551683499999996
 21
171.400002
  0
LINE
  8
_0-0_0
  6
CONTINUOUS
 62
    7
 10
10.711982500000005
 20
171.17147799999998
 11
10.551683499999996
 21
171.400002
  0
LINE
  8
_0-0_0
  6
CONTINUOUS
 62
    7
 10
10.711982500000005
 20
171.17147799999998
 11
10.432883500000003
 21
171.16683999999998
  0
LINE
  8
_0-0_0
  6
CONTINUOUS
 62
    7
 10
10.616191499999985
 20
170.95632899999998
 11
10.432883500000003
 21
171.16683999999998
  0
LINE
  8
_0-0_0
  6
CONTINUOUS
 62
    7
 10
10.616191499999985
 20
170.95632899999998
 11
10.339105499999988
 21
170.922539
  0
LINE
  8
_0-0_0
  6
CONTINUOUS
 62
    7
 10
10.543414499999983
 20
170.73234600000001
 11
10.339105499999988
 21
170.922539
  0
LINE
  8
_0-0_0
  6
CONTINUOUS
 62
    7
 10
10.543414499999983
 20
170.73234600000001
 11
10.271378499999997
 21
170.66977700000001
  0
LINE
  8
_0-0_0
  6
CONTINUOUS
 62
    7
 10
10.494447500000007
 20
170.50197600000001
 11
10.271378499999997
 21
170.66977700000001
  0
LINE
  8
_0-0_0
  6
CONTINUOUS
 62
    7
 10
10.494447500000007
 20
170.50197600000001
 11
10.230442499999981
 21
170.41132399999998
  0
LINE
  8
_0-0_0
  6
CONTINUOUS
 62
    7
 10
10.4698305
 20
170.267754
 11
10.230442499999981
 21
170.41132399999998
  0
LINE
  8
_0-0_0
  6
CONTINUOUS
 62
    7
 10
10.4698305
 20
170.267754
 11
10.216747499999997
 21
170.150002
  0
LINE
  8
_0-0_0
  6
CONTINUOUS
 62
    7
 10
10.4698305
 20
170.032242
 11
10.216747499999997
 21
170.150002
  0
LINE
  8
_0-0_0
  6
CONTINUOUS
 62
    7
 10
10.4698305
 20
170.032242
 11
10.230442499999981
 21
169.88867999999999
  0
LINE
  8
_0-0_0
  6
CONTINUOUS
 62
    7
 10
10.494447500000007
 20
169.79801900000001
 11
10.230442499999981
 21
169.88867999999999
  0
LINE
  8
_0-0_0
  6
CONTINUOUS
 62
    7
 10
10.494447500000007
 20
169.79801900000001
 11
10.271378499999997
 21
169.63021900000001
  0
LINE
  8
_0-0_0
  6
CONTINUOUS
 62
    7
 10
10.543414499999983
 20
169.567657
 11
10.271378499999997
 21
169.63021900000001
  0
LINE
  8
_0-0_0
  6
CONTINUOUS
 62
    7
 10
10.543414499999983
 20
169.567657
 11
10.339105499999988
 21
169.37745699999999
  0
LINE
  8
_0-0_0
  6
CONTINUOUS
 62
    7
 10
10.616191499999985
 20
169.34367399999999
 11
10.339105499999988
 21
169.37745699999999
  0
LINE
  8
_0-0_0
  6
CONTINUOUS
 62
    7
 10
10.616191499999985
 20
169.34367399999999
 11
10.432883500000003
 21
169.13315599999999
  0
LINE
  8
_0-0_0
  6
CONTINUOUS
 62
    7
 10
10.711982500000005
 20
169.128525
 11
10.432883500000003
 21
169.13315599999999
  0
CIRCLE
  8
_0-0_0
  6
CONTINUOUS
 62
    7
 10
12.716747499999997
 20
170.150002
 40
2
  0
LINE
  8
_0-0_0
  6
CONTINUOUS
 62
    7
 10
11.575731499999989
 20
172.238617
 11
11.466747499999997
 21
172.31506300000001
  0
LINE
  8
_0-0_0
  6
CONTINUOUS
 62
    7
 10
11.4913095
 20
172.03701000000001
 11
11.466747499999997
 21
172.31506300000001
  0
LINE
  8
_0-0_0
  6
CONTINUOUS
 62
    7
 10
11.4913095
 20
172.03701000000001
 11
11.247284500000006
 21
172.172539
  0
LINE
  8
_0-0_0
  6
CONTINUOUS
 62
    7
 10
14.603756500000003
 20
171.37543499999998
 11
14.739290499999981
 21
171.619461
  0
LINE
  8
_0-0_0
  6
CONTINUOUS
 62
    7
 10
14.465325500000006
 20
171.56597099999999
 11
14.739290499999981
 21
171.619461
  0
LINE
  8
_0-0_0
  6
CONTINUOUS
 62
    7
 10
14.465325500000006
 20
171.56597099999999
 11
14.574609500000008
 21
171.82283000000001
  0
LINE
  8
_0-0_0
  6
CONTINUOUS
 62
    7
 10
14.307737500000002
 20
171.74099000000001
 11
14.574609500000008
 21
171.82283000000001
  0
LINE
  8
_0-0_0
  6
CONTINUOUS
 62
    7
 10
14.307737500000002
 20
171.74099000000001
 11
14.389574499999981
 21
172.007858
  0
LINE
  8
_0-0_0
  6
CONTINUOUS
 62
    7
 10
14.13271850000001
 20
171.89857499999999
 11
14.389574499999981
 21
172.007858
  0
LINE
  8
_0-0_0
  6
CONTINUOUS
 62
    7
 10
14.13271850000001
 20
171.89857499999999
 11
14.186210499999987
 21
172.172539
  0
LINE
  8
_0-0_0
  6
CONTINUOUS
 62
    7
 10
13.942185499999994
 20
172.03701000000001
 11
14.186210499999987
 21
172.172539
  0
LINE
  8
_0-0_0
  6
CONTINUOUS
 62
    7
 10
13.942185499999994
 20
172.03701000000001
 11
13.966747499999997
 21
172.31506300000001
  0
LINE
  8
_0-0_0
  6
CONTINUOUS
 62
    7
 10
13.738226499999996
 20
172.15476200000001
 11
13.966747499999997
 21
172.31506300000001
  0
LINE
  8
_0-0_0
  6
CONTINUOUS
 62
    7
 10
13.738226499999996
 20
172.15476200000001
 11
13.733589499999994
 21
172.43386099999998
  0
LINE
  8
_0-0_0
  6
CONTINUOUS
 62
    7
 10
13.523075500000004
 20
172.25055700000001
 11
13.733589499999994
 21
172.43386099999998
  0
LINE
  8
_0-0_0
  6
CONTINUOUS
 62
    7
 10
13.523075500000004
 20
172.25055700000001
 11
13.489290499999981
 21
172.52764100000002
  0
LINE
  8
_0-0_0
  6
CONTINUOUS
 62
    7
 10
13.299090500000005
 20
172.32333399999999
 11
13.489290499999981
 21
172.52764100000002
  0
LINE
  8
_0-0_0
  6
CONTINUOUS
 62
    7
 10
13.299090500000005
 20
172.32333399999999
 11
13.236526499999997
 21
172.59536700000001
  0
LINE
  8
_0-0_0
  6
CONTINUOUS
 62
    7
 10
13.068724500000002
 20
172.372299
 11
13.236526499999997
 21
172.59536700000001
  0
LINE
  8
_0-0_0
  6
CONTINUOUS
 62
    7
 10
13.068724500000002
 20
172.372299
 11
12.978068500000006
 21
172.63630699999999
  0
LINE
  8
_0-0_0
  6
CONTINUOUS
 62
    7
 10
12.834503499999983
 20
172.396919
 11
12.978068500000006
 21
172.63630699999999
  0
LINE
  8
_0-0_0
  6
CONTINUOUS
 62
    7
 10
12.834503499999983
 20
172.396919
 11
12.716747499999997
 21
172.650002
  0
LINE
  8
_0-0_0
  6
CONTINUOUS
 62
    7
 10
12.598991499999983
 20
172.396919
 11
12.716747499999997
 21
172.650002
  0
LINE
  8
_0-0_0
  6
CONTINUOUS
 62
    7
 10
12.598991499999983
 20
172.396919
 11
12.455426499999987
 21
172.63630699999999
  0
LINE
  8
_0-0_0
  6
CONTINUOUS
 62
    7
 10
12.364770499999992
 20
172.372299
 11
12.455426499999987
 21
172.63630699999999
  0
LINE
  8
_0-0_0
  6
CONTINUOUS
 62
    7
 10
12.364770499999992
 20
172.372299
 11
12.196968499999997
 21
172.59536700000001
  0
LINE
  8
_0-0_0
  6
CONTINUOUS
 62
    7
 10
12.134404499999988
 20
172.32333399999999
 11
12.196968499999997
 21
172.59536700000001
  0
LINE
  8
_0-0_0
  6
CONTINUOUS
 62
    7
 10
12.134404499999988
 20
172.32333399999999
 11
11.944204499999984
 21
172.52764100000002
  0
LINE
  8
_0-0_0
  6
CONTINUOUS
 62
    7
 10
11.910420499999987
 20
172.25055700000001
 11
11.944204499999984
 21
172.52764100000002
  0
LINE
  8
_0-0_0
  6
CONTINUOUS
 62
    7
 10
11.910420499999987
 20
172.25055700000001
 11
11.6999055
 21
172.43386099999998
  0
LINE
  8
_0-0_0
  6
CONTINUOUS
 62
    7
 10
11.695268499999997
 20
172.15476200000001
 11
11.6999055
 21
172.43386099999998
  0
LINE
  8
_0-0_0
  6
CONTINUOUS
 62
    7
 10
11.695268499999997
 20
172.15476200000001
 11
11.575731499999989
 21
172.238617
  0
LINE
  8
_0-0_0
  6
CONTINUOUS
 62
    7
 10
13.298856499999999
 20
169.150002
 11
12.134637499999997
 21
169.150002
  0
LINE
  8
_0-0_0
  6
CONTINUOUS
 62
    7
 10
12.134637499999997
 20
169.150002
 11
11.566746499999994
 21
170.150002
  0
LINE
  8
_0-0_0
  6
CONTINUOUS
 62
    7
 10
11.566746499999994
 20
170.150002
 11
12.134637499999997
 21
171.150002
  0
LINE
  8
_0-0_0
  6
CONTINUOUS
 62
    7
 10
12.134637499999997
 20
171.150002
 11
13.298856499999999
 21
171.150002
  0
LINE
  8
_0-0_0
  6
CONTINUOUS
 62
    7
 10
13.298856499999999
 20
171.150002
 11
13.866747500000002
 21
170.150002
  0
LINE
  8
_0-0_0
  6
CONTINUOUS
 62
    7
 10
13.866747500000002
 20
170.150002
 11
13.298856499999999
 21
169.150002
  0
LINE
  8
_0-0_0
  6
CONTINUOUS
 62
    7
 10
27.416746499999988
 20
187.550308
 11
27.416748499999983
 21
187.55628999999999
  0
LINE
  8
_0-0_0
  6
CONTINUOUS
 62
    7
 10
27.416748499999983
 20
188.75
 11
27.416380500000002
 21
188.73788500000001
  0
LINE
  8
_0-0_0
  6
CONTINUOUS
 62
    7
 10
27.416380500000002
 20
168.16210899999999
 11
27.416748499999983
 21
168.150002
  0
ARC
  8
_0-0_0
  6
CONTINUOUS
 62
    7
 10
12.216747499999997
 20
187.25
 40
2
 50
90.000003000000007
 51
93.840255999999997
  0
ARC
  8
_0-0_0
  6
CONTINUOUS
 62
    7
 10
25.216747499999997
 20
169.650002
 40
2
 50
269.99999700000001
 51
273.84026499999999
  0
ENDSEC
  0
EOF
