  0
SECTION
  2
HEADER
  9
$ACADVER
  1
AC1009
  9
$INSBASE
 10
0
 20
0
 30
0
  9
$EXTMIN
 10
0
 20
0
  9
$EXTMAX
 10
1682
 20
1188
  9
$LIMMIN
 10
0
 20
0
  9
$LIMMAX
 10
1682
 20
1188
  9
$LTSCALE
 40
2
  0
ENDSEC
  0
SECTION
  2
TABLES
  0
TABLE
  2
LTYPE
 70
     9
  0
LTYPE
  2
CONTINUOUS
 70
    64
  3
実線
 72
    65
 73
     0
 40
0.0
  0
LTYPE
  2
DASHED1
 70
    64
  3
--  --  --  --  --  --  --  --  
 72
    65
 73
     2
 40
2.5
 49
1.25
 49
-1.25
  0
LTYPE
  2
DASHED2
 70
    64
  3
----    ----    ----    ----    
 72
    65
 73
     2
 40
5.0
 49
2.5
 49
-2.5
  0
LTYPE
  2
DASHED3
 70
    64
  3
------  ------  ------  ------  
 72
    65
 73
     2
 40
5.0
 49
3.75
 49
-1.25
  0
LTYPE
  2
CENTER1
 70
    64
  3
----- - ----- - ----- - ----- - 
 72
    65
 73
     4
 40
10.0
 49
6.25
 49
-1.25
 49
1.25
 49
-1.25
  0
LTYPE
  2
CENTER2
 70
    64
  3
----------  --  ----------  --  
 72
    65
 73
     4
 40
20.0
 49
12.5
 49
-2.5
 49
2.5
 49
-2.5
  0
LTYPE
  2
PHANTOM1
 70
    64
  3
--- - - --- - - --- - - --- - - 
 72
    65
 73
     6
 40
10.0
 49
3.25
 49
-1.25
 49
1.25
 49
-1.25
 49
1.25
 49
-1.25
  0
LTYPE
  2
PHANTOM2
 70
    64
  3
--------  -  -  --------  -  -  
 72
    65
 73
     6
 40
20.0
 49
10.0
 49
-2.5
 49
1.25
 49
-2.5
 49
1.25
 49
-2.5
  0
LTYPE
  2
DOT
 70
    64
  3
-   -   -   -   -   -   -   -   
 72
    65
 73
     2
 40
2.5
 49
0.625
 49
-1.875
  0
LTYPE
  2
DUMMY
 70
    64
  3
ダミー
 72
    65
 73
     0
 40
0.0
  0
LTYPE
  2
RAND1
 70
    64
  3
ランダム線1
 72
    65
 73
     4
 40
10.0
 49
1.0
 49
-2.0
 49
3.0
 49
-4.0
  0
LTYPE
  2
RAND2
 70
    64
  3
ランダム線2
 72
    65
 73
     4
 40
14.0
 49
2.0
 49
-3.0
 49
4.0
 49
-5.0
  0
LTYPE
  2
RAND3
 70
    64
  3
ランダム線3
 72
    65
 73
     4
 40
18.0
 49
3.0
 49
-4.0
 49
5.0
 49
-6.0
  0
LTYPE
  2
RAND4
 70
    64
  3
ランダム線4
 72
    65
 73
     4
 40
22.0
 49
4.0
 49
-5.0
 49
6.0
 49
-7.0
  0
LTYPE
  2
RAND5
 70
    64
  3
ランダム線5
 72
    65
 73
     4
 40
26.0
 49
5.0
 49
-6.0
 49
7.0
 49
-8.0
  0
LTYPE
  2
LONG1
 70
    64
  3
----------  --  ----------  --  
 72
    65
 73
     4
 40
40.0
 49
32.5
 49
-2.5
 49
2.5
 49
-2.5
  0
LTYPE
  2
LONG2
 70
    64
  3
--------  -  -  --------  -  -  
 72
    65
 73
     6
 40
40.0
 49
30.0
 49
-2.5
 49
1.25
 49
-2.5
 49
1.25
 49
-2.5
  0
LTYPE
  2
LONG3
 70
    64
  3
+++++++++++++++..+++++++++++++++
 72
    65
 73
     2
 40
40.0
 49
37.5
 49
-2.5
  0
LTYPE
  2
LONG4
 70
    64
  3
+++++++++++++++..+++++++++++++++
 72
    65
 73
     2
 40
80.0
 49
75.0
 49
-5.0
  0
LTYPE
  2
LONG5
 70
    64
  3
----------  --  ----------  --  
 72
    65
 73
     4
 40
60.0
 49
37.5
 49
-7.5
 49
7.5
 49
-7.5
  0
LTYPE
  2
dashed
 70
   64
  3
-------   -------------   ------
 72
   65
 73
    2
 40
7.5
 49
6
 49
-1.5
  0
LTYPE
  2
dashed_spaced
 70
   64
  3
----        --------        ----
 72
   65
 73
    2
 40
12
 49
6
 49
-6
  0
LTYPE
  2
long_dashed_dotted
 70
   64
  3
------------- --- --------------
 72
   65
 73
    4
 40
15.25
 49
12
 49
-1.5
 49
0.25
 49
-1.5
  0
LTYPE
  2
long_dashed_double-dotted
 70
   64
  3
----------- --- --- ------------
 72
   65
 73
    6
 40
17
 49
12
 49
-1.5
 49
0.25
 49
-1.5
 49
0.25
 49
-1.5
  0
LTYPE
  2
long_dashed_triplicate-dotted
 70
   64
  3
--------- --- --- --- ----------
 72
   65
 73
    8
 40
18.75
 49
12
 49
-1.5
 49
0.25
 49
-1.5
 49
0.25
 49
-1.5
 49
0.25
 49
-1.5
  0
LTYPE
  2
dotted
 70
   64
  3
   -       -       -       -    
 72
   65
 73
    2
 40
1.75
 49
0.25
 49
-1.5
  0
LTYPE
  2
chain
 70
   64
  3
-------------- -- --------------
 72
   65
 73
    4
 40
18.5
 49
12
 49
-1.5
 49
3.5
 49
-1.5
  0
LTYPE
  2
chain_double_dash
 70
   64
  3
------------ -- -- -------------
 72
   65
 73
    6
 40
23.5
 49
12
 49
-1.5
 49
3.5
 49
-1.5
 49
3.5
 49
-1.5
  0
LTYPE
  2
dashed_dotted
 70
   64
  3
-----------     -     ----------
 72
   65
 73
    4
 40
9.25
 49
6
 49
-1.5
 49
0.25
 49
-1.5
  0
LTYPE
  2
double-dashed_dotted
 70
   64
  3
------   -----------   -   -----
 72
   65
 73
    6
 40
16.75
 49
6
 49
-1.5
 49
6
 49
-1.5
 49
0.25
 49
-1.5
  0
LTYPE
  2
dashed_double-dotted
 70
   64
  3
---------    -    -    ---------
 72
   65
 73
    6
 40
11
 49
6
 49
-1.5
 49
0.25
 49
-1.5
 49
0.25
 49
-1.5
  0
LTYPE
  2
double-dashed_double-dotted
 70
   64
  3
-----   ---------   -   -   ----
 72
   65
 73
    8
 40
18.5
 49
6
 49
-1.5
 49
6
 49
-1.5
 49
0.25
 49
-1.5
 49
0.25
 49
-1.5
  0
LTYPE
  2
dashed_triplicate-dotted
 70
   64
  3
-------    -    -    -    ------
 72
   65
 73
    8
 40
12.75
 49
6
 49
-1.5
 49
0.25
 49
-1.5
 49
0.25
 49
-1.5
 49
0.25
 49
-1.5
  0
LTYPE
  2
double-dashed_triplicate-dotted
 70
   64
  3
-----  ---------  -  -  -  -----
 72
   65
 73
   10
 40
20.25
 49
6
 49
-1.5
 49
6
 49
-1.5
 49
0.25
 49
-1.5
 49
0.25
 49
-1.5
 49
0.25
 49
-1.5
  0
LTYPE
  2
undefined
 70
   64
  3
--------------------------------
 72
   65
 73
    0
 40
0
  0
ENDTAB
  0
TABLE
  2
STYLE
  5
3
100
AcDbSymbolTable
 70
     1
  0
STYLE
  5
10
100
AcDbSymbolTableRecord
100
AcDbTextStyleTableRecord
  2
STANDARD
 70
     0
 40
0.0
 41
1.0
 50
0.0
 71
     0
 42
0.2
  3
txt
  4
bigfont.shx
  0
STYLE
  5
26
100
AcDbSymbolTableRecord
100
AcDbTextStyleTableRecord
  2
TATEGAKI
 70
    68
 40
0.0
 41
1.0
 50
0.0
 71
     0
 42
1.0
  3
txt
  4
bigfont.shx
  0
ENDTAB
  0
TABLE
  2
LAYER
 70
    2
  0
LAYER
  2
_0-0_0
 70
   64
 62
    7
  6
CONTINUOUS
  0
LAYER
  2
ADD_LINE
 70
   64
 62
    7
  6
CONTINUOUS
  0
ENDTAB
  0
ENDSEC
  0
SECTION
  2
BLOCKS
  0
ENDSEC
  0
SECTION
  2
ENTITIES
  0
POINT
  8
_0-0_0
 62
    7
 10
137.00240350000001
 20
768.89999399999999
  0
LINE
  8
_0-0_0
  6
CONTINUOUS
 62
    7
 10
30.002410499999996
 20
809.90048200000001
 11
30.002410499999996
 21
809.89947499999994
  0
LINE
  8
_0-0_0
  6
CONTINUOUS
 62
    7
 10
56.502403500000014
 20
775.55499299999997
 11
56.502403500000014
 21
777.79998799999998
  0
LINE
  8
_0-0_0
  6
CONTINUOUS
 62
    7
 10
56.502403500000014
 20
777.79998799999998
 11
56.502403500000014
 21
779.79998799999998
  0
LINE
  8
_0-0_0
  6
CONTINUOUS
 62
    7
 10
56.502403500000014
 20
779.79998799999998
 11
56.502403500000014
 21
780.29998799999998
  0
LINE
  8
_0-0_0
  6
CONTINUOUS
 62
    7
 10
56.502403500000014
 20
780.29998799999998
 11
56.502403500000014
 21
781.29998799999998
  0
LINE
  8
_0-0_0
  6
CONTINUOUS
 62
    7
 10
56.502403500000014
 20
757.19998199999998
 11
56.502403500000014
 21
775.55499299999997
  0
LINE
  8
_0-0_0
  6
CONTINUOUS
 62
    7
 10
153.00240350000001
 20
779.29998799999998
 11
153.00240350000001
 21
779.79998799999998
  0
LINE
  8
_0-0_0
  6
CONTINUOUS
 62
    7
 10
153.00240350000001
 20
780.29998799999998
 11
153.00240350000001
 21
781.29998799999998
  0
LINE
  8
_0-0_0
  6
CONTINUOUS
 62
    7
 10
153.00240350000001
 20
779.79998799999998
 11
153.00240350000001
 21
780.29998799999998
  0
ARC
  8
_0-0_0
  6
CONTINUOUS
 62
    7
 10
139.00240350000001
 20
775.55499299999997
 40
0.5
 50
0
 51
123.74898500000002
  0
ARC
  8
_0-0_0
  6
CONTINUOUS
 62
    7
 10
137.50240350000001
 20
777.79998799999998
 40
2.2000000000000002
 50
180.00000900000003
 51
303.74900400000001
  0
LINE
  8
_0-0_0
  6
CONTINUOUS
 62
    7
 10
135.30240649999996
 20
777.79998799999998
 11
135.30240649999996
 21
779.29998799999998
  0
LINE
  8
_0-0_0
  6
CONTINUOUS
 62
    7
 10
60.702400500000067
 20
779.29998799999998
 11
135.30240649999996
 21
779.29998799999998
  0
LINE
  8
_0-0_0
  6
CONTINUOUS
 62
    7
 10
60.702400500000067
 20
779.29998799999998
 11
60.702400500000067
 21
777.79998799999998
  0
ARC
  8
_0-0_0
  6
CONTINUOUS
 62
    7
 10
58.502403500000014
 20
777.79998799999998
 40
2.2000000000000002
 50
236.25102899999999
 51
0
  0
ARC
  8
_0-0_0
  6
CONTINUOUS
 62
    7
 10
57.002403500000014
 20
775.55499299999997
 40
0.5
 50
56.251010000000008
 51
180.00000900000001
  0
ARC
  8
_0-0_0
  6
CONTINUOUS
 62
    7
 10
58.502403500000014
 20
757.19998199999998
 40
2
 50
180.00000900000003
 51
269.99999700000001
  0
LINE
  8
_0-0_0
  6
CONTINUOUS
 62
    7
 10
58.502403500000014
 20
755.19998199999998
 11
59.502403500000014
 21
755.19998199999998
  0
LINE
  8
_0-0_0
  6
CONTINUOUS
 62
    7
 10
59.502403500000014
 20
755.19998199999998
 11
59.502403500000014
 21
756.79998799999998
  0
ARC
  8
_0-0_0
  6
CONTINUOUS
 62
    7
 10
60.002403500000014
 20
756.79998799999998
 40
0.5
 50
90.000003000000007
 51
180.00000900000001
  0
LINE
  8
_0-0_0
  6
CONTINUOUS
 62
    7
 10
60.202400500000067
 20
757.29998799999998
 11
60.002403500000014
 21
757.29998799999998
  0
ARC
  8
_0-0_0
  6
CONTINUOUS
 62
    7
 10
60.202400500000067
 20
756.79998799999998
 40
0.5
 50
90.000003000000007
 51
180.00000900000001
  0
LINE
  8
_0-0_0
  6
CONTINUOUS
 62
    7
 10
59.702400500000067
 20
755.29998799999998
 11
59.702400500000067
 21
756.79998799999998
  0
LINE
  8
_0-0_0
  6
CONTINUOUS
 62
    7
 10
129.30240649999996
 20
755.29998799999998
 11
59.702400500000067
 21
755.29998799999998
  0
LINE
  8
_0-0_0
  6
CONTINUOUS
 62
    7
 10
129.30240649999996
 20
755.29998799999998
 11
129.30240649999996
 21
756.79998799999998
  0
ARC
  8
_0-0_0
  6
CONTINUOUS
 62
    7
 10
128.80240649999996
 20
756.79998799999998
 40
0.5
 50
0
 51
90.000003000000007
  0
LINE
  8
_0-0_0
  6
CONTINUOUS
 62
    7
 10
129.00240350000001
 20
757.29998799999998
 11
128.80240649999996
 21
757.29998799999998
  0
ARC
  8
_0-0_0
  6
CONTINUOUS
 62
    7
 10
129.00240350000001
 20
756.79998799999998
 40
0.5
 50
0
 51
90.000003000000007
  0
LINE
  8
_0-0_0
  6
CONTINUOUS
 62
    7
 10
129.50240350000001
 20
756.79998799999998
 11
129.50240350000001
 21
755.19998199999998
  0
LINE
  8
_0-0_0
  6
CONTINUOUS
 62
    7
 10
129.50240350000001
 20
755.19998199999998
 11
139.50240350000001
 21
755.19998199999998
  0
LINE
  8
_0-0_0
  6
CONTINUOUS
 62
    7
 10
139.50240350000001
 20
755.19998199999998
 11
139.50240350000001
 21
756.09997599999997
  0
LINE
  8
_0-0_0
  6
CONTINUOUS
 62
    7
 10
75.502395500000034
 20
758.704071
 11
116.90239750000001
 21
758.704071
  0
LINE
  8
_0-0_0
  6
CONTINUOUS
 62
    7
 10
75.502395500000034
 20
778.29998799999998
 11
116.90239750000001
 21
778.29998799999998
  0
ARC
  8
_0-0_0
  6
CONTINUOUS
 62
    7
 10
128.20240050000007
 20
757.49997000000008
 40
0.2
 50
180.00000900000003
 51
269.99999700000001
  0
LINE
  8
_0-0_0
  6
CONTINUOUS
 62
    7
 10
128.20240050000007
 20
757.29998799999998
 11
60.802398499999981
 21
757.29998799999998
  0
ARC
  8
_0-0_0
  6
CONTINUOUS
 62
    7
 10
60.802398499999981
 20
757.49997000000008
 40
0.2
 50
269.99999700000001
 51
0
  0
ARC
  8
_0-0_0
  6
CONTINUOUS
 62
    7
 10
61.202400500000067
 20
757.49997000000008
 40
0.2
 50
90.000003000000007
 51
180.00000900000001
  0
LINE
  8
_0-0_0
  6
CONTINUOUS
 62
    7
 10
61.202400500000067
 20
757.69998199999998
 11
127.80240649999996
 21
757.69998199999998
  0
ARC
  8
_0-0_0
  6
CONTINUOUS
 62
    7
 10
127.80240649999996
 20
757.49997000000008
 40
0.2
 50
0
 51
90.000003000000007
  0
LINE
  8
_0-0_0
  6
CONTINUOUS
 62
    7
 10
56.502403500000014
 20
780.29998799999998
 11
153.00240350000001
 21
780.29998799999998
  0
LINE
  8
_0-0_0
  6
CONTINUOUS
 62
    7
 10
152.50240350000001
 20
779.29998799999998
 11
153.00240350000001
 21
779.29998799999998
  0
LINE
  8
_0-0_0
  6
CONTINUOUS
 62
    7
 10
139.50240350000001
 20
757.29998799999998
 11
139.50240350000001
 21
756.09997599999997
  0
LINE
  8
_0-0_0
  6
CONTINUOUS
 62
    7
 10
139.50240350000001
 20
757.29998799999998
 11
139.50240350000001
 21
774.89999399999999
  0
LINE
  8
_0-0_0
  6
CONTINUOUS
 62
    7
 10
139.50240350000001
 20
776.87734999999998
 11
139.50240350000001
 21
774.89999399999999
  0
LINE
  8
_0-0_0
  6
CONTINUOUS
 62
    7
 10
58.502403500000014
 20
763.78967299999999
 11
58.502403500000014
 21
774.23767099999998
  0
ARC
  8
_0-0_0
  6
CONTINUOUS
 62
    7
 10
58.502403500000014
 20
777.79998799999998
 40
2.7000000000000002
 50
285.68033600000007
 51
352.23356600000005
  0
LINE
  8
_0-0_0
  6
CONTINUOUS
 62
    7
 10
135.50240350000001
 20
775.29998799999998
 11
135.50240350000001
 21
761.69998199999998
  0
LINE
  8
_0-0_0
  6
CONTINUOUS
 62
    7
 10
60.502403500000014
 20
779.29998799999998
 11
60.702400500000067
 21
779.29998799999998
  0
LINE
  8
_0-0_0
  6
CONTINUOUS
 62
    7
 10
60.502403500000014
 20
779.29998799999998
 11
60.502403500000014
 21
777.79998799999998
  0
ARC
  8
_0-0_0
  6
CONTINUOUS
 62
    7
 10
58.502403500000014
 20
777.79998799999998
 40
2
 50
180.00000900000003
 51
0.0000000000000254
  0
LINE
  8
_0-0_0
  6
CONTINUOUS
 62
    7
 10
152.50240350000001
 20
779.29998799999998
 11
152.50240350000001
 21
777.59997599999997
  0
LINE
  8
_0-0_0
  6
CONTINUOUS
 62
    7
 10
139.50240350000001
 20
755.29998799999998
 11
151.50240350000001
 21
755.29998799999998
  0
LINE
  8
_0-0_0
  6
CONTINUOUS
 62
    7
 10
151.50240350000001
 20
755.29998799999998
 11
156.17784849999998
 21
755.29998799999998
  0
LINE
  8
_0-0_0
  6
CONTINUOUS
 62
    7
 10
151.50240350000001
 20
760.79998799999998
 11
151.50240350000001
 21
757.79998799999998
  0
LINE
  8
_0-0_0
  6
CONTINUOUS
 62
    7
 10
151.50240350000001
 20
757.79998799999998
 11
151.50240350000001
 21
757.29998799999998
  0
LINE
  8
_0-0_0
  6
CONTINUOUS
 62
    7
 10
151.50240350000001
 20
760.79998799999998
 11
151.50240350000001
 21
761.29998799999998
  0
ARC
  8
_0-0_0
  6
CONTINUOUS
 62
    7
 10
145.50238750000005
 20
760.60000600000001
 40
0.500016
 50
180.00117
 51
359.995611
  0
LINE
  8
_0-0_0
  6
CONTINUOUS
 62
    7
 10
146.00240350000001
 20
760.59997599999997
 11
146.00240350000001
 21
772.59997599999997
  0
ARC
  8
_0-0_0
  6
CONTINUOUS
 62
    7
 10
145.50238750000005
 20
772.59997599999997
 40
0.500016
 50
0.001164
 51
179.99560600000004
  0
LINE
  8
_0-0_0
  6
CONTINUOUS
 62
    7
 10
145.00240350000001
 20
760.59997599999997
 11
145.00240350000001
 21
772.59997599999997
  0
ARC
  8
_0-0_0
  6
CONTINUOUS
 62
    7
 10
147.00238750000005
 20
760.60000600000001
 40
0.500016
 50
180.00117
 51
359.995611
  0
LINE
  8
_0-0_0
  6
CONTINUOUS
 62
    7
 10
147.50240350000001
 20
760.59997599999997
 11
147.50240350000001
 21
772.59997599999997
  0
ARC
  8
_0-0_0
  6
CONTINUOUS
 62
    7
 10
147.00238750000005
 20
772.59997599999997
 40
0.500016
 50
0.001164
 51
179.99560600000004
  0
LINE
  8
_0-0_0
  6
CONTINUOUS
 62
    7
 10
146.50240350000001
 20
760.59997599999997
 11
146.50240350000001
 21
772.59997599999997
  0
ARC
  8
_0-0_0
  6
CONTINUOUS
 62
    7
 10
148.50238750000005
 20
760.60000600000001
 40
0.500016
 50
180.00117
 51
359.995611
  0
LINE
  8
_0-0_0
  6
CONTINUOUS
 62
    7
 10
149.00240350000001
 20
760.59997599999997
 11
149.00240350000001
 21
772.59997599999997
  0
ARC
  8
_0-0_0
  6
CONTINUOUS
 62
    7
 10
148.50238750000005
 20
772.59997599999997
 40
0.500016
 50
0.001164
 51
179.99560600000004
  0
LINE
  8
_0-0_0
  6
CONTINUOUS
 62
    7
 10
148.00240350000001
 20
760.59997599999997
 11
148.00240350000001
 21
772.59997599999997
  0
ARC
  8
_0-0_0
  6
CONTINUOUS
 62
    7
 10
150.00238750000005
 20
760.60000600000001
 40
0.500016
 50
180.00117
 51
359.995611
  0
LINE
  8
_0-0_0
  6
CONTINUOUS
 62
    7
 10
150.50240350000001
 20
760.59997599999997
 11
150.50240350000001
 21
772.59997599999997
  0
ARC
  8
_0-0_0
  6
CONTINUOUS
 62
    7
 10
150.00238750000005
 20
772.59997599999997
 40
0.500016
 50
0.001164
 51
179.99560600000004
  0
LINE
  8
_0-0_0
  6
CONTINUOUS
 62
    7
 10
149.50240350000001
 20
760.59997599999997
 11
149.50240350000001
 21
772.59997599999997
  0
LINE
  8
_0-0_0
  6
CONTINUOUS
 62
    7
 10
139.50240350000001
 20
777.59997599999997
 11
139.50240350000001
 21
776.87734999999998
  0
LINE
  8
_0-0_0
  6
CONTINUOUS
 62
    7
 10
152.50240350000001
 20
777.59997599999997
 11
139.50240350000001
 21
777.59997599999997
  0
LINE
  8
_0-0_0
  6
CONTINUOUS
 62
    7
 10
139.50240350000001
 20
779.29998799999998
 11
152.50240350000001
 21
779.29998799999998
  0
LINE
  8
_0-0_0
  6
CONTINUOUS
 62
    7
 10
139.50240350000001
 20
779.29998799999998
 11
139.50240350000001
 21
777.59997599999997
  0
LINE
  8
_0-0_0
  6
CONTINUOUS
 62
    7
 10
128.95240050000007
 20
757.27694700000006
 11
128.95240050000007
 21
757.29998799999998
  0
ARC
  8
_0-0_0
  6
CONTINUOUS
 62
    7
 10
156.17784849999998
 20
757.29998799999998
 40
2
 50
269.99999700000001
 51
288.43501300000003
  0
LINE
  8
_0-0_0
  6
CONTINUOUS
 62
    7
 10
135.30240649999996
 20
779.29998799999998
 11
135.50240350000001
 21
779.29998799999998
  0
ARC
  8
_0-0_0
  6
CONTINUOUS
 62
    7
 10
137.50240350000001
 20
777.79998799999998
 40
2
 50
180.00000900000003
 51
0.0000000000000254
  0
LINE
  8
_0-0_0
  6
CONTINUOUS
 62
    7
 10
135.50240350000001
 20
777.79998799999998
 11
135.50240350000001
 21
779.29998799999998
  0
LINE
  8
_0-0_0
  6
CONTINUOUS
 62
    7
 10
157.25238750000005
 20
755.54998799999998
 11
156.81029450000005
 21
755.40261899999996
  0
ARC
  8
_0-0_0
  6
CONTINUOUS
 62
    7
 10
126.50240350000001
 20
770.89999399999999
 40
2.25
 50
269.99999700000001
 51
90.000002999999992
  0
LINE
  8
_0-0_0
  6
CONTINUOUS
 62
    7
 10
122.50239550000003
 20
768.64999399999999
 11
126.50240350000001
 21
768.64999399999999
  0
ARC
  8
_0-0_0
  6
CONTINUOUS
 62
    7
 10
122.50239550000003
 20
770.89999399999999
 40
2.25
 50
90.000003000000007
 51
269.99999700000006
  0
ARC
  8
_0-0_0
  6
CONTINUOUS
 62
    7
 10
70.502395500000034
 20
770.89999399999999
 40
2.25
 50
269.99999700000001
 51
90.000002999999992
  0
LINE
  8
_0-0_0
  6
CONTINUOUS
 62
    7
 10
66.502395500000034
 20
768.64999399999999
 11
70.502395500000034
 21
768.64999399999999
  0
ARC
  8
_0-0_0
  6
CONTINUOUS
 62
    7
 10
66.502395500000034
 20
770.89999399999999
 40
2.25
 50
90.000003000000007
 51
269.99999700000006
  0
LINE
  8
_0-0_0
  6
CONTINUOUS
 62
    7
 10
122.50239550000003
 20
773.14999399999999
 11
126.50240350000001
 21
773.14999399999999
  0
LINE
  8
_0-0_0
  6
CONTINUOUS
 62
    7
 10
66.502395500000034
 20
773.14999399999999
 11
70.502395500000034
 21
773.14999399999999
  0
LINE
  8
_0-0_0
  6
CONTINUOUS
 62
    7
 10
128.74300349999999
 20
766.89999399999999
 11
120.26179449999995
 21
766.89999399999999
  0
LINE
  8
_0-0_0
  6
CONTINUOUS
 62
    7
 10
128.74300349999999
 20
766.89999399999999
 11
131.05240649999996
 21
770.89999399999999
  0
LINE
  8
_0-0_0
  6
CONTINUOUS
 62
    7
 10
131.05240649999996
 20
770.89999399999999
 11
128.74300349999999
 21
774.89999399999999
  0
LINE
  8
_0-0_0
  6
CONTINUOUS
 62
    7
 10
120.26179449999995
 20
774.89999399999999
 11
128.74300349999999
 21
774.89999399999999
  0
LINE
  8
_0-0_0
  6
CONTINUOUS
 62
    7
 10
117.95239249999997
 20
770.89999399999999
 11
120.26179449999995
 21
774.89999399999999
  0
LINE
  8
_0-0_0
  6
CONTINUOUS
 62
    7
 10
120.26179449999995
 20
766.89999399999999
 11
117.95239249999997
 21
770.89999399999999
  0
LINE
  8
_0-0_0
  6
CONTINUOUS
 62
    7
 10
72.742996500000004
 20
766.89999399999999
 11
64.261802500000044
 21
766.89999399999999
  0
LINE
  8
_0-0_0
  6
CONTINUOUS
 62
    7
 10
75.052398499999981
 20
770.89999399999999
 11
72.742996500000004
 21
766.89999399999999
  0
LINE
  8
_0-0_0
  6
CONTINUOUS
 62
    7
 10
75.052398499999981
 20
770.89999399999999
 11
72.742996500000004
 21
774.89999399999999
  0
LINE
  8
_0-0_0
  6
CONTINUOUS
 62
    7
 10
64.261802500000044
 20
774.89999399999999
 11
72.742996500000004
 21
774.89999399999999
  0
LINE
  8
_0-0_0
  6
CONTINUOUS
 62
    7
 10
61.952400500000067
 20
770.89999399999999
 11
64.261802500000044
 21
774.89999399999999
  0
LINE
  8
_0-0_0
  6
CONTINUOUS
 62
    7
 10
61.952400500000067
 20
770.89999399999999
 11
64.261802500000044
 21
766.89999399999999
  0
CIRCLE
  8
_0-0_0
  6
CONTINUOUS
 62
    7
 10
137.50240350000001
 20
777.79998799999998
 40
1.4750000000000001
  0
CIRCLE
  8
_0-0_0
  6
CONTINUOUS
 62
    7
 10
58.502403500000014
 20
777.79998799999998
 40
1.4750000000000001
  0
LINE
  8
_0-0_0
  6
CONTINUOUS
 62
    7
 10
137.95240050000007
 20
777.59997599999997
 11
138.60239450000006
 21
777.59997599999997
  0
ARC
  8
_0-0_0
  6
CONTINUOUS
 62
    7
 10
137.95240050000007
 20
777.34997599999997
 40
0.25
 50
90.000003000000007
 51
180.00000900000001
  0
LINE
  8
_0-0_0
  6
CONTINUOUS
 62
    7
 10
137.70240050000007
 20
777.34997599999997
 11
137.70240050000007
 21
776.69998199999998
  0
LINE
  8
_0-0_0
  6
CONTINUOUS
 62
    7
 10
137.30240649999996
 20
776.69998199999998
 11
137.70240050000007
 21
776.69998199999998
  0
LINE
  8
_0-0_0
  6
CONTINUOUS
 62
    7
 10
137.30240649999996
 20
776.69998199999998
 11
137.30240649999996
 21
777.34997599999997
  0
ARC
  8
_0-0_0
  6
CONTINUOUS
 62
    7
 10
137.05240649999996
 20
777.34997599999997
 40
0.25
 50
0
 51
90.000003000000007
  0
LINE
  8
_0-0_0
  6
CONTINUOUS
 62
    7
 10
136.40239750000001
 20
777.59997599999997
 11
137.05240649999996
 21
777.59997599999997
  0
LINE
  8
_0-0_0
  6
CONTINUOUS
 62
    7
 10
136.40239750000001
 20
777.59997599999997
 11
136.40239750000001
 21
778
  0
LINE
  8
_0-0_0
  6
CONTINUOUS
 62
    7
 10
137.05240649999996
 20
778
 11
136.40239750000001
 21
778
  0
ARC
  8
_0-0_0
  6
CONTINUOUS
 62
    7
 10
137.05240649999996
 20
778.25
 40
0.25
 50
269.99999700000001
 51
0
  0
LINE
  8
_0-0_0
  6
CONTINUOUS
 62
    7
 10
137.30240649999996
 20
778.25
 11
137.30240649999996
 21
778.89999399999999
  0
LINE
  8
_0-0_0
  6
CONTINUOUS
 62
    7
 10
137.70240050000007
 20
778.89999399999999
 11
137.30240649999996
 21
778.89999399999999
  0
LINE
  8
_0-0_0
  6
CONTINUOUS
 62
    7
 10
137.70240050000007
 20
778.89999399999999
 11
137.70240050000007
 21
778.25
  0
ARC
  8
_0-0_0
  6
CONTINUOUS
 62
    7
 10
137.95240050000007
 20
778.25
 40
0.25
 50
180.00000900000003
 51
269.99999700000001
  0
LINE
  8
_0-0_0
  6
CONTINUOUS
 62
    7
 10
138.60239450000006
 20
778
 11
137.95240050000007
 21
778
  0
LINE
  8
_0-0_0
  6
CONTINUOUS
 62
    7
 10
138.60239450000006
 20
778
 11
138.60239450000006
 21
777.59997599999997
  0
LINE
  8
_0-0_0
  6
CONTINUOUS
 62
    7
 10
58.952400500000067
 20
777.59997599999997
 11
59.602394499999946
 21
777.59997599999997
  0
ARC
  8
_0-0_0
  6
CONTINUOUS
 62
    7
 10
58.952400500000067
 20
777.34997599999997
 40
0.25
 50
90.000003000000007
 51
180.00000900000001
  0
LINE
  8
_0-0_0
  6
CONTINUOUS
 62
    7
 10
58.702400500000067
 20
777.34997599999997
 11
58.702400500000067
 21
776.69998199999998
  0
LINE
  8
_0-0_0
  6
CONTINUOUS
 62
    7
 10
58.302398499999981
 20
776.69998199999998
 11
58.702400500000067
 21
776.69998199999998
  0
LINE
  8
_0-0_0
  6
CONTINUOUS
 62
    7
 10
58.302398499999981
 20
776.69998199999998
 11
58.302398499999981
 21
777.34997599999997
  0
ARC
  8
_0-0_0
  6
CONTINUOUS
 62
    7
 10
58.052398499999981
 20
777.34997599999997
 40
0.25
 50
0
 51
90.000003000000007
  0
LINE
  8
_0-0_0
  6
CONTINUOUS
 62
    7
 10
57.402397500000006
 20
777.59997599999997
 11
58.052398499999981
 21
777.59997599999997
  0
LINE
  8
_0-0_0
  6
CONTINUOUS
 62
    7
 10
57.402397500000006
 20
777.59997599999997
 11
57.402397500000006
 21
778
  0
LINE
  8
_0-0_0
  6
CONTINUOUS
 62
    7
 10
58.052398499999981
 20
778
 11
57.402397500000006
 21
778
  0
ARC
  8
_0-0_0
  6
CONTINUOUS
 62
    7
 10
58.052398499999981
 20
778.25
 40
0.25
 50
269.99999700000001
 51
0
  0
LINE
  8
_0-0_0
  6
CONTINUOUS
 62
    7
 10
58.302398499999981
 20
778.25
 11
58.302398499999981
 21
778.89999399999999
  0
LINE
  8
_0-0_0
  6
CONTINUOUS
 62
    7
 10
58.702400500000067
 20
778.89999399999999
 11
58.302398499999981
 21
778.89999399999999
  0
LINE
  8
_0-0_0
  6
CONTINUOUS
 62
    7
 10
58.702400500000067
 20
778.89999399999999
 11
58.702400500000067
 21
778.25
  0
ARC
  8
_0-0_0
  6
CONTINUOUS
 62
    7
 10
58.952400500000067
 20
778.25
 40
0.25
 50
180.00000900000003
 51
269.99999700000001
  0
LINE
  8
_0-0_0
  6
CONTINUOUS
 62
    7
 10
59.602394499999946
 20
778
 11
58.952400500000067
 21
778
  0
LINE
  8
_0-0_0
  6
CONTINUOUS
 62
    7
 10
59.602394499999946
 20
778
 11
59.602394499999946
 21
777.59997599999997
  0
LINE
  8
_0-0_0
  6
CONTINUOUS
 62
    7
 10
60.052398499999981
 20
757.27694700000006
 11
60.052398499999981
 21
757.29998799999998
  0
LINE
  8
_0-0_0
  6
CONTINUOUS
 62
    7
 10
78.502395500000034
 20
775.29998799999998
 11
78.502395500000034
 21
762.34298699999999
  0
ARC
  8
_0-0_0
  6
CONTINUOUS
 62
    7
 10
75.502395500000034
 20
775.29998799999998
 40
3
 50
0
 51
90.000003000000007
  0
LINE
  8
_0-0_0
  6
CONTINUOUS
 62
    7
 10
114.50239550000003
 20
761.69998199999998
 11
114.50239550000003
 21
775.29998799999998
  0
LINE
  8
_0-0_0
  6
CONTINUOUS
 62
    7
 10
97.989883500000019
 20
771.46963499999993
 11
96.689880500000072
 21
774.96963499999993
  0
ARC
  8
_0-0_0
  6
CONTINUOUS
 62
    7
 10
95.202400500000067
 20
771.39999399999999
 40
0.2
 50
159.62357
 51
269.99999700000001
  0
LINE
  8
_0-0_0
  6
CONTINUOUS
 62
    7
 10
139.50240350000001
 20
776.89999399999999
 11
156.17784849999998
 21
776.89999399999999
  0
ARC
  8
_0-0_0
  6
CONTINUOUS
 62
    7
 10
156.17784849999998
 20
774.89999399999999
 40
2
 50
71.565000999999995
 51
90.000003000000007
  0
LINE
  8
_0-0_0
  6
CONTINUOUS
 62
    7
 10
156.81031050000001
 20
776.79736300000002
 11
156.69080350000002
 21
776.83297700000003
  0
LINE
  8
_0-0_0
  6
CONTINUOUS
 62
    7
 10
156.69080350000002
 20
776.83297700000003
 11
156.56925150000006
 21
776.86084000000005
  0
LINE
  8
_0-0_0
  6
CONTINUOUS
 62
    7
 10
156.56925150000006
 20
776.86084000000005
 11
156.44612849999999
 21
776.88088999999991
  0
LINE
  8
_0-0_0
  6
CONTINUOUS
 62
    7
 10
156.44612849999999
 20
776.88088999999991
 11
156.32190649999995
 21
776.89300500000002
  0
LINE
  8
_0-0_0
  6
CONTINUOUS
 62
    7
 10
156.32190649999995
 20
776.89300500000002
 11
156.19707449999999
 21
776.89712499999996
  0
LINE
  8
_0-0_0
  6
CONTINUOUS
 62
    7
 10
156.19707449999999
 20
776.89712499999996
 11
156.17784849999998
 21
776.897064
  0
LINE
  8
_0-0_0
  6
CONTINUOUS
 62
    7
 10
161.13484949999997
 20
775.35583500000007
 11
156.81029450000005
 21
776.79736300000002
  0
LINE
  8
_0-0_0
  6
CONTINUOUS
 62
    7
 10
160.97673750000001
 20
760.79998799999998
 11
161.6700975
 21
760.79998799999998
  0
LINE
  8
_0-0_0
  6
CONTINUOUS
 62
    7
 10
160.97673750000001
 20
760.79998799999998
 11
156.65218349999998
 21
760.79998799999998
  0
LINE
  8
_0-0_0
  6
CONTINUOUS
 62
    7
 10
156.17784849999998
 20
760.79998799999998
 11
156.65218349999998
 21
760.79998799999998
  0
LINE
  8
_0-0_0
  6
CONTINUOUS
 62
    7
 10
151.50240350000001
 20
760.79998799999998
 11
156.17784849999998
 21
760.79998799999998
  0
LINE
  8
_0-0_0
  6
CONTINUOUS
 62
    7
 10
162.50240350000001
 20
760.04995699999995
 11
162.50240350000001
 21
761.17095999999992
  0
LINE
  8
_0-0_0
  6
CONTINUOUS
 62
    7
 10
162.50240350000001
 20
762.09228499999995
 11
162.50240350000001
 21
761.17095999999992
  0
LINE
  8
_0-0_0
  6
CONTINUOUS
 62
    7
 10
173.50240350000001
 20
760.84997599999997
 11
173.50240350000001
 21
768.83154300000001
  0
ARC
  8
_0-0_0
  6
CONTINUOUS
 62
    7
 10
167.32851349999999
 20
769.35086100000001
 40
4.9238749999999998
 50
352.49423299999995
 51
1.5359699999999901
  0
LINE
  8
_0-0_0
  6
CONTINUOUS
 62
    7
 10
172.21022749999997
 20
763.49227900000005
 11
172.30455749999999
 21
763.738922
  0
LINE
  8
_0-0_0
  6
CONTINUOUS
 62
    7
 10
172.30455749999999
 20
763.738922
 11
172.38851150000005
 21
763.978882
  0
LINE
  8
_0-0_0
  6
CONTINUOUS
 62
    7
 10
172.38851150000005
 20
763.978882
 11
172.46266950000006
 21
764.21301300000005
  0
LINE
  8
_0-0_0
  6
CONTINUOUS
 62
    7
 10
172.46266950000006
 20
764.21301300000005
 11
172.52754949999996
 21
764.442047
  0
LINE
  8
_0-0_0
  6
CONTINUOUS
 62
    7
 10
172.52754949999996
 20
764.442047
 11
172.5835955
 21
764.66671799999995
  0
LINE
  8
_0-0_0
  6
CONTINUOUS
 62
    7
 10
172.5835955
 20
764.66671799999995
 11
172.63115649999997
 21
764.88769500000001
  0
LINE
  8
_0-0_0
  6
CONTINUOUS
 62
    7
 10
172.63115649999997
 20
764.88769500000001
 11
172.67055549999998
 21
765.10562099999993
  0
LINE
  8
_0-0_0
  6
CONTINUOUS
 62
    7
 10
172.67055549999998
 20
765.10562099999993
 11
172.70204950000004
 21
765.32104499999991
  0
LINE
  8
_0-0_0
  6
CONTINUOUS
 62
    7
 10
172.70204950000004
 20
765.32104499999991
 11
172.72582250000005
 21
765.53457700000001
  0
LINE
  8
_0-0_0
  6
CONTINUOUS
 62
    7
 10
172.72582250000005
 20
765.53457700000001
 11
172.74175249999996
 21
765.74230999999997
  0
LINE
  8
_0-0_0
  6
CONTINUOUS
 62
    7
 10
172.74175249999996
 20
765.74230999999997
 11
172.75051050000002
 21
765.94915800000001
  0
LINE
  8
_0-0_0
  6
CONTINUOUS
 62
    7
 10
172.75051050000002
 20
765.94915800000001
 11
172.75214349999999
 21
766.15560899999991
  0
LINE
  8
_0-0_0
  6
CONTINUOUS
 62
    7
 10
172.75214349999999
 20
766.15560899999991
 11
172.74668150000002
 21
766.362213
  0
LINE
  8
_0-0_0
  6
CONTINUOUS
 62
    7
 10
172.74668150000002
 20
766.362213
 11
172.73406250000005
 21
766.56939699999998
  0
LINE
  8
_0-0_0
  6
CONTINUOUS
 62
    7
 10
172.73406250000005
 20
766.56939699999998
 11
172.71425650000003
 21
766.77767999999992
  0
LINE
  8
_0-0_0
  6
CONTINUOUS
 62
    7
 10
172.71425650000003
 20
766.77767999999992
 11
172.68711050000002
 21
766.98761000000002
  0
LINE
  8
_0-0_0
  6
CONTINUOUS
 62
    7
 10
172.68711050000002
 20
766.98761000000002
 11
172.65245949999996
 21
767.19967700000007
  0
LINE
  8
_0-0_0
  6
CONTINUOUS
 62
    7
 10
172.65245949999996
 20
767.19967700000007
 11
172.61011450000001
 21
767.41442899999993
  0
LINE
  8
_0-0_0
  6
CONTINUOUS
 62
    7
 10
172.61011450000001
 20
767.41442899999993
 11
172.55979149999996
 21
767.63241599999992
  0
LINE
  8
_0-0_0
  6
CONTINUOUS
 62
    7
 10
172.55979149999996
 20
767.63241599999992
 11
172.50554650000004
 21
767.83871499999998
  0
LINE
  8
_0-0_0
  6
CONTINUOUS
 62
    7
 10
172.50554650000004
 20
767.83871499999998
 11
172.44383949999997
 21
768.04882799999996
  0
LINE
  8
_0-0_0
  6
CONTINUOUS
 62
    7
 10
172.44383949999997
 20
768.04882799999996
 11
172.37432049999995
 21
768.26327500000002
  0
LINE
  8
_0-0_0
  6
CONTINUOUS
 62
    7
 10
172.37432049999995
 20
768.26327500000002
 11
172.29660750000005
 21
768.48269699999992
  0
LINE
  8
_0-0_0
  6
CONTINUOUS
 62
    7
 10
172.29660750000005
 20
768.48269699999992
 11
172.21022749999997
 21
768.707672
  0
ARC
  8
_0-0_0
  6
CONTINUOUS
 62
    7
 10
167.33867650000002
 20
762.84997599999997
 40
4.9136889999999998
 50
352.48898799999995
 51
7.5110139999999577
  0
LINE
  8
_0-0_0
  6
CONTINUOUS
 62
    7
 10
172.21022749999997
 20
762.207672
 11
172.26471749999996
 21
762.13775599999997
  0
LINE
  8
_0-0_0
  6
CONTINUOUS
 62
    7
 10
172.26471749999996
 20
762.13775599999997
 11
172.31581849999998
 21
762.06890900000008
  0
LINE
  8
_0-0_0
  6
CONTINUOUS
 62
    7
 10
172.31581849999998
 20
762.06890900000008
 11
172.36345649999998
 21
762.00140399999998
  0
LINE
  8
_0-0_0
  6
CONTINUOUS
 62
    7
 10
172.36345649999998
 20
762.00140399999998
 11
172.40795149999997
 21
761.93487600000003
  0
LINE
  8
_0-0_0
  6
CONTINUOUS
 62
    7
 10
172.40795149999997
 20
761.93487600000003
 11
172.46266950000006
 21
761.84732099999997
  0
LINE
  8
_0-0_0
  6
CONTINUOUS
 62
    7
 10
172.46266950000006
 20
761.84732099999997
 11
172.51218449999999
 21
761.76123099999995
  0
LINE
  8
_0-0_0
  6
CONTINUOUS
 62
    7
 10
172.51218449999999
 20
761.76123099999995
 11
172.55664850000005
 21
761.67639199999996
  0
LINE
  8
_0-0_0
  6
CONTINUOUS
 62
    7
 10
172.55664850000005
 20
761.67639199999996
 11
172.60361450000005
 21
761.57608000000005
  0
LINE
  8
_0-0_0
  6
CONTINUOUS
 62
    7
 10
172.60361450000005
 20
761.57608000000005
 11
172.64382150000006
 21
761.47714199999996
  0
LINE
  8
_0-0_0
  6
CONTINUOUS
 62
    7
 10
172.64382150000006
 20
761.47714199999996
 11
172.6774825
 21
761.37939499999993
  0
LINE
  8
_0-0_0
  6
CONTINUOUS
 62
    7
 10
172.6774825
 20
761.37939499999993
 11
172.70478049999997
 21
761.28259300000002
  0
LINE
  8
_0-0_0
  6
CONTINUOUS
 62
    7
 10
172.70478049999997
 20
761.28259300000002
 11
172.72582250000005
 21
761.18652399999996
  0
LINE
  8
_0-0_0
  6
CONTINUOUS
 62
    7
 10
172.72582250000005
 20
761.18652399999996
 11
172.74175249999996
 21
761.082672
  0
LINE
  8
_0-0_0
  6
CONTINUOUS
 62
    7
 10
172.74175249999996
 20
761.082672
 11
172.75051050000002
 21
760.97924799999998
  0
LINE
  8
_0-0_0
  6
CONTINUOUS
 62
    7
 10
172.75051050000002
 20
760.97924799999998
 11
172.75214349999999
 21
760.87600700000007
  0
LINE
  8
_0-0_0
  6
CONTINUOUS
 62
    7
 10
172.75214349999999
 20
760.87600700000007
 11
172.74668150000002
 21
760.77273600000001
  0
LINE
  8
_0-0_0
  6
CONTINUOUS
 62
    7
 10
172.74668150000002
 20
760.77273600000001
 11
172.73406250000005
 21
760.669129
  0
LINE
  8
_0-0_0
  6
CONTINUOUS
 62
    7
 10
172.73406250000005
 20
760.669129
 11
172.71425650000003
 21
760.56497200000001
  0
LINE
  8
_0-0_0
  6
CONTINUOUS
 62
    7
 10
172.71425650000003
 20
760.56497200000001
 11
172.68711050000002
 21
760.46002199999998
  0
LINE
  8
_0-0_0
  6
CONTINUOUS
 62
    7
 10
172.68711050000002
 20
760.46002199999998
 11
172.65245949999996
 21
760.35400400000003
  0
LINE
  8
_0-0_0
  6
CONTINUOUS
 62
    7
 10
172.65245949999996
 20
760.35400400000003
 11
172.61011450000001
 21
760.24661300000002
  0
LINE
  8
_0-0_0
  6
CONTINUOUS
 62
    7
 10
172.61011450000001
 20
760.24661300000002
 11
172.55979149999996
 21
760.13760400000001
  0
LINE
  8
_0-0_0
  6
CONTINUOUS
 62
    7
 10
172.55979149999996
 20
760.13760400000001
 11
172.51410650000003
 21
760.04995699999995
  0
LINE
  8
_0-0_0
  6
CONTINUOUS
 62
    7
 10
162.50240350000001
 20
769.99227900000005
 11
172.21022749999997
 21
769.99227900000005
  0
LINE
  8
_0-0_0
  6
CONTINUOUS
 62
    7
 10
162.50240350000001
 20
768.707672
 11
162.50240350000001
 21
769.99227900000005
  0
LINE
  8
_0-0_0
  6
CONTINUOUS
 62
    7
 10
162.50240350000001
 20
768.707672
 11
172.21022749999997
 21
768.707672
  0
ARC
  8
_0-0_0
  6
CONTINUOUS
 62
    7
 10
167.29048950000004
 20
769.34591699999999
 40
4.9620009999999999
 50
1.5813010000000001
 51
7.4847919999999997
  0
LINE
  8
_0-0_0
  6
CONTINUOUS
 62
    7
 10
162.20240049999995
 20
763.88797
 11
162.11893450000002
 21
764.26663200000007
  0
LINE
  8
_0-0_0
  6
CONTINUOUS
 62
    7
 10
162.11893450000002
 20
764.26663200000007
 11
162.07884950000005
 21
764.45816100000002
  0
LINE
  8
_0-0_0
  6
CONTINUOUS
 62
    7
 10
162.07884950000005
 20
764.45816100000002
 11
162.02275850000001
 21
764.7482
  0
LINE
  8
_0-0_0
  6
CONTINUOUS
 62
    7
 10
162.02275850000001
 20
764.7482
 11
161.98516050000001
 21
764.96777399999996
  0
LINE
  8
_0-0_0
  6
CONTINUOUS
 62
    7
 10
161.98516050000001
 20
764.96777399999996
 11
161.95252249999999
 21
765.18902600000001
  0
LINE
  8
_0-0_0
  6
CONTINUOUS
 62
    7
 10
161.95252249999999
 20
765.18902600000001
 11
161.92536150000001
 21
765.41583300000002
  0
LINE
  8
_0-0_0
  6
CONTINUOUS
 62
    7
 10
161.92536150000001
 20
765.41583300000002
 11
161.90529649999996
 21
765.64321900000004
  0
LINE
  8
_0-0_0
  6
CONTINUOUS
 62
    7
 10
161.90529649999996
 20
765.64321900000004
 11
161.89813949999996
 21
765.75695799999994
  0
LINE
  8
_0-0_0
  6
CONTINUOUS
 62
    7
 10
161.89813949999996
 20
765.75695799999994
 11
161.89298250000002
 21
765.87063599999999
  0
LINE
  8
_0-0_0
  6
CONTINUOUS
 62
    7
 10
161.89298250000002
 20
765.87063599999999
 11
161.88925949999998
 21
766.022064
  0
LINE
  8
_0-0_0
  6
CONTINUOUS
 62
    7
 10
161.88925949999998
 20
766.022064
 11
161.88919850000002
 21
766.17334000000005
  0
LINE
  8
_0-0_0
  6
CONTINUOUS
 62
    7
 10
161.88919850000002
 20
766.17334000000005
 11
161.89278350000006
 21
766.32437099999993
  0
LINE
  8
_0-0_0
  6
CONTINUOUS
 62
    7
 10
161.89278350000006
 20
766.32437099999993
 11
161.90229050000005
 21
766.51294000000007
  0
LINE
  8
_0-0_0
  6
CONTINUOUS
 62
    7
 10
161.90229050000005
 20
766.51294000000007
 11
161.91715250000004
 21
766.70117200000004
  0
LINE
  8
_0-0_0
  6
CONTINUOUS
 62
    7
 10
161.91715250000004
 20
766.70117200000004
 11
161.93708049999998
 21
766.88913000000002
  0
LINE
  8
_0-0_0
  6
CONTINUOUS
 62
    7
 10
161.93708049999998
 20
766.88913000000002
 11
161.95346849999999
 21
767.01800500000002
  0
LINE
  8
_0-0_0
  6
CONTINUOUS
 62
    7
 10
161.95346849999999
 20
767.01800500000002
 11
161.97187050000002
 21
767.14663700000006
  0
LINE
  8
_0-0_0
  6
CONTINUOUS
 62
    7
 10
161.97187050000002
 20
767.14663700000006
 11
161.99604050000005
 21
767.29858400000001
  0
LINE
  8
_0-0_0
  6
CONTINUOUS
 62
    7
 10
161.99604050000005
 20
767.29858400000001
 11
162.02243750000002
 21
767.44992100000002
  0
LINE
  8
_0-0_0
  6
CONTINUOUS
 62
    7
 10
162.02243750000002
 20
767.44992100000002
 11
162.07860549999998
 21
767.74054000000001
  0
LINE
  8
_0-0_0
  6
CONTINUOUS
 62
    7
 10
162.07860549999998
 20
767.74054000000001
 11
162.11876649999999
 21
767.93249500000002
  0
LINE
  8
_0-0_0
  6
CONTINUOUS
 62
    7
 10
162.11876649999999
 20
767.93249500000002
 11
162.20240049999995
 21
768.31198100000006
  0
LINE
  8
_0-0_0
  6
CONTINUOUS
 62
    7
 10
162.50240350000001
 20
764.53793300000007
 11
162.50240350000001
 21
767.66204799999991
  0
LINE
  8
_0-0_0
  6
CONTINUOUS
 62
    7
 10
187.25239750000003
 20
756.57455499999992
 11
187.00239750000003
 21
756.54998799999998
  0
LINE
  8
_0-0_0
  6
CONTINUOUS
 62
    7
 10
187.00239750000003
 20
756.54998799999998
 11
177.75239650000003
 21
756.54998799999998
  0
LINE
  8
_0-0_0
  6
CONTINUOUS
 62
    7
 10
177.50239650000003
 20
756.57455499999992
 11
177.75239650000003
 21
756.54998799999998
  0
LINE
  8
_0-0_0
  6
CONTINUOUS
 62
    7
 10
187.25239750000003
 20
759.54855399999997
 11
187.00239750000003
 21
759.82254
  0
LINE
  8
_0-0_0
  6
CONTINUOUS
 62
    7
 10
187.25239750000003
 20
759.54855399999997
 11
187.00239750000003
 21
759.65783699999997
  0
LINE
  8
_0-0_0
  6
CONTINUOUS
 62
    7
 10
187.25239750000003
 20
759.39096100000006
 11
187.00239750000003
 21
759.65783699999997
  0
LINE
  8
_0-0_0
  6
CONTINUOUS
 62
    7
 10
187.25239750000003
 20
759.39096100000006
 11
187.00239750000003
 21
759.47280899999998
  0
LINE
  8
_0-0_0
  6
CONTINUOUS
 62
    7
 10
187.25239750000003
 20
759.21597300000008
 11
187.00239750000003
 21
759.47280899999998
  0
LINE
  8
_0-0_0
  6
CONTINUOUS
 62
    7
 10
187.25239750000003
 20
759.21597300000008
 11
187.00239750000003
 21
759.26944000000003
  0
LINE
  8
_0-0_0
  6
CONTINUOUS
 62
    7
 10
187.25239750000003
 20
759.02542100000005
 11
187.00239750000003
 21
759.26944000000003
  0
LINE
  8
_0-0_0
  6
CONTINUOUS
 62
    7
 10
187.25239750000003
 20
759.02542100000005
 11
187.00239750000003
 21
759.04998799999998
  0
LINE
  8
_0-0_0
  6
CONTINUOUS
 62
    7
 10
187.25239750000003
 20
758.82147199999997
 11
187.00239750000003
 21
759.04998799999998
  0
LINE
  8
_0-0_0
  6
CONTINUOUS
 62
    7
 10
187.25239750000003
 20
758.82147199999997
 11
187.00239750000003
 21
758.81683399999997
  0
LINE
  8
_0-0_0
  6
CONTINUOUS
 62
    7
 10
187.25239750000003
 20
758.60632299999997
 11
187.00239750000003
 21
758.81683399999997
  0
LINE
  8
_0-0_0
  6
CONTINUOUS
 62
    7
 10
187.25239750000003
 20
758.60632299999997
 11
187.00239750000003
 21
758.57254
  0
LINE
  8
_0-0_0
  6
CONTINUOUS
 62
    7
 10
187.25239750000003
 20
758.38232399999993
 11
187.00239750000003
 21
758.57254
  0
LINE
  8
_0-0_0
  6
CONTINUOUS
 62
    7
 10
187.25239750000003
 20
758.38232399999993
 11
187.00239750000003
 21
758.31976299999997
  0
LINE
  8
_0-0_0
  6
CONTINUOUS
 62
    7
 10
187.25239750000003
 20
758.15197799999999
 11
187.00239750000003
 21
758.31976299999997
  0
LINE
  8
_0-0_0
  6
CONTINUOUS
 62
    7
 10
187.25239750000003
 20
758.15197799999999
 11
187.00239750000003
 21
758.06131000000005
  0
LINE
  8
_0-0_0
  6
CONTINUOUS
 62
    7
 10
187.25239750000003
 20
757.91775499999994
 11
187.00239750000003
 21
758.06131000000005
  0
LINE
  8
_0-0_0
  6
CONTINUOUS
 62
    7
 10
187.25239750000003
 20
757.91775499999994
 11
187.00239750000003
 21
757.79998799999998
  0
LINE
  8
_0-0_0
  6
CONTINUOUS
 62
    7
 10
187.25239750000003
 20
757.68222100000003
 11
187.00239750000003
 21
757.79998799999998
  0
LINE
  8
_0-0_0
  6
CONTINUOUS
 62
    7
 10
187.25239750000003
 20
757.68222100000003
 11
187.00239750000003
 21
757.53866599999992
  0
LINE
  8
_0-0_0
  6
CONTINUOUS
 62
    7
 10
187.25239750000003
 20
757.44799799999998
 11
187.00239750000003
 21
757.53866599999992
  0
LINE
  8
_0-0_0
  6
CONTINUOUS
 62
    7
 10
187.25239750000003
 20
757.44799799999998
 11
187.00239750000003
 21
757.280213
  0
LINE
  8
_0-0_0
  6
CONTINUOUS
 62
    7
 10
187.25239750000003
 20
757.21765099999993
 11
187.00239750000003
 21
757.280213
  0
LINE
  8
_0-0_0
  6
CONTINUOUS
 62
    7
 10
187.25239750000003
 20
757.21765099999993
 11
187.00239750000003
 21
757.02743499999997
  0
LINE
  8
_0-0_0
  6
CONTINUOUS
 62
    7
 10
187.25239750000003
 20
756.993652
 11
187.00239750000003
 21
757.02743499999997
  0
LINE
  8
_0-0_0
  6
CONTINUOUS
 62
    7
 10
187.25239750000003
 20
756.993652
 11
187.00239750000003
 21
756.783142
  0
LINE
  8
_0-0_0
  6
CONTINUOUS
 62
    7
 10
187.25239750000003
 20
756.778504
 11
187.00239750000003
 21
756.783142
  0
LINE
  8
_0-0_0
  6
CONTINUOUS
 62
    7
 10
187.25239750000003
 20
756.778504
 11
187.00239750000003
 21
756.54998799999998
  0
LINE
  8
_0-0_0
  6
CONTINUOUS
 62
    7
 10
187.25239750000003
 20
756.57455499999992
 11
187.00239750000003
 21
756.33053599999994
  0
LINE
  8
_0-0_0
  6
CONTINUOUS
 62
    7
 10
187.25239750000003
 20
756.38400300000001
 11
187.00239750000003
 21
756.33053599999994
  0
LINE
  8
_0-0_0
  6
CONTINUOUS
 62
    7
 10
187.25239750000003
 20
756.38400300000001
 11
187.00239750000003
 21
756.12716699999999
  0
LINE
  8
_0-0_0
  6
CONTINUOUS
 62
    7
 10
187.25239750000003
 20
756.20898399999999
 11
187.00239750000003
 21
756.12716699999999
  0
LINE
  8
_0-0_0
  6
CONTINUOUS
 62
    7
 10
187.25239750000003
 20
756.20898399999999
 11
187.00239750000003
 21
755.94210799999996
  0
LINE
  8
_0-0_0
  6
CONTINUOUS
 62
    7
 10
187.25239750000003
 20
756.051422
 11
187.00239750000003
 21
755.94210799999996
  0
LINE
  8
_0-0_0
  6
CONTINUOUS
 62
    7
 10
187.25239750000003
 20
756.051422
 11
187.00239750000003
 21
755.77743499999997
  0
LINE
  8
_0-0_0
  6
CONTINUOUS
 62
    7
 10
187.25239750000003
 20
755.91299400000003
 11
187.00239750000003
 21
755.77743499999997
  0
LINE
  8
_0-0_0
  6
CONTINUOUS
 62
    7
 10
187.25239750000003
 20
755.91299400000003
 11
187.00239750000003
 21
755.63491799999997
  0
LINE
  8
_0-0_0
  6
CONTINUOUS
 62
    7
 10
187.25239750000003
 20
755.79522700000007
 11
187.00239750000003
 21
755.63491799999997
  0
LINE
  8
_0-0_0
  6
CONTINUOUS
 62
    7
 10
187.25239750000003
 20
755.79522700000007
 11
187.00239750000003
 21
755.51611300000002
  0
LINE
  8
_0-0_0
  6
CONTINUOUS
 62
    7
 10
187.25239750000003
 20
755.699432
 11
187.00239750000003
 21
755.51611300000002
  0
LINE
  8
_0-0_0
  6
CONTINUOUS
 62
    7
 10
187.25239750000003
 20
755.699432
 11
187.00239750000003
 21
755.42233299999998
  0
LINE
  8
_0-0_0
  6
CONTINUOUS
 62
    7
 10
187.25239750000003
 20
755.62664799999993
 11
187.00239750000003
 21
755.42233299999998
  0
LINE
  8
_0-0_0
  6
CONTINUOUS
 62
    7
 10
187.25239750000003
 20
755.62664799999993
 11
187.00239750000003
 21
755.35461399999997
  0
LINE
  8
_0-0_0
  6
CONTINUOUS
 62
    7
 10
187.25239750000003
 20
755.57769800000005
 11
187.00239750000003
 21
755.35461399999997
  0
LINE
  8
_0-0_0
  6
CONTINUOUS
 62
    7
 10
187.25239750000003
 20
755.57769800000005
 11
187.00239750000003
 21
755.31368999999995
  0
LINE
  8
_0-0_0
  6
CONTINUOUS
 62
    7
 10
187.25239750000003
 20
755.55306999999993
 11
187.00239750000003
 21
755.31368999999995
  0
LINE
  8
_0-0_0
  6
CONTINUOUS
 62
    7
 10
187.25239750000003
 20
755.55306999999993
 11
187.00239750000003
 21
755.29998799999998
  0
LINE
  8
_0-0_0
  6
CONTINUOUS
 62
    7
 10
187.50239750000003
 20
755.79998799999998
 11
187.50239750000003
 21
759.55514500000004
  0
LINE
  8
_0-0_0
  6
CONTINUOUS
 62
    7
 10
187.12243850000004
 20
759.88861099999997
 11
187.00239750000003
 21
759.965057
  0
LINE
  8
_0-0_0
  6
CONTINUOUS
 62
    7
 10
187.25239750000003
 20
759.68698100000006
 11
187.00239750000003
 21
759.965057
  0
LINE
  8
_0-0_0
  6
CONTINUOUS
 62
    7
 10
187.25239750000003
 20
759.68698100000006
 11
187.00239750000003
 21
759.82254
  0
LINE
  8
_0-0_0
  6
CONTINUOUS
 62
    7
 10
187.00239750000003
 20
759.65783699999997
 11
177.75239650000003
 21
759.65783699999997
  0
LINE
  8
_0-0_0
  6
CONTINUOUS
 62
    7
 10
177.50239650000003
 20
759.54855399999997
 11
177.75239650000003
 21
759.65783699999997
  0
LINE
  8
_0-0_0
  6
CONTINUOUS
 62
    7
 10
187.00239750000003
 20
759.47280899999998
 11
177.75239650000003
 21
759.47280899999998
  0
LINE
  8
_0-0_0
  6
CONTINUOUS
 62
    7
 10
177.50239650000003
 20
759.39096100000006
 11
177.75239650000003
 21
759.47280899999998
  0
LINE
  8
_0-0_0
  6
CONTINUOUS
 62
    7
 10
187.00239750000003
 20
759.26944000000003
 11
177.75239650000003
 21
759.26944000000003
  0
LINE
  8
_0-0_0
  6
CONTINUOUS
 62
    7
 10
177.50239650000003
 20
759.21597300000008
 11
177.75239650000003
 21
759.26944000000003
  0
LINE
  8
_0-0_0
  6
CONTINUOUS
 62
    7
 10
187.00239750000003
 20
759.04998799999998
 11
177.75239650000003
 21
759.04998799999998
  0
LINE
  8
_0-0_0
  6
CONTINUOUS
 62
    7
 10
177.50239650000003
 20
759.02542100000005
 11
177.75239650000003
 21
759.04998799999998
  0
LINE
  8
_0-0_0
  6
CONTINUOUS
 62
    7
 10
187.00239750000003
 20
758.81683399999997
 11
177.75239650000003
 21
758.81683399999997
  0
LINE
  8
_0-0_0
  6
CONTINUOUS
 62
    7
 10
187.25239750000003
 20
758.82147199999997
 11
177.50239650000003
 21
758.82147199999997
  0
LINE
  8
_0-0_0
  6
CONTINUOUS
 62
    7
 10
177.50239650000003
 20
758.82147199999997
 11
177.75239650000003
 21
758.81683399999997
  0
LINE
  8
_0-0_0
  6
CONTINUOUS
 62
    7
 10
187.00239750000003
 20
758.57254
 11
177.75239650000003
 21
758.57254
  0
LINE
  8
_0-0_0
  6
CONTINUOUS
 62
    7
 10
187.25239750000003
 20
758.60632299999997
 11
177.50239650000003
 21
758.60632299999997
  0
LINE
  8
_0-0_0
  6
CONTINUOUS
 62
    7
 10
177.50239650000003
 20
758.60632299999997
 11
177.75239650000003
 21
758.57254
  0
LINE
  8
_0-0_0
  6
CONTINUOUS
 62
    7
 10
187.00239750000003
 20
758.31976299999997
 11
177.75239650000003
 21
758.31976299999997
  0
LINE
  8
_0-0_0
  6
CONTINUOUS
 62
    7
 10
187.25239750000003
 20
758.38232399999993
 11
177.50239650000003
 21
758.38232399999993
  0
LINE
  8
_0-0_0
  6
CONTINUOUS
 62
    7
 10
177.50239650000003
 20
758.38232399999993
 11
177.75239650000003
 21
758.31976299999997
  0
LINE
  8
_0-0_0
  6
CONTINUOUS
 62
    7
 10
187.00239750000003
 20
758.06131000000005
 11
177.75239650000003
 21
758.06131000000005
  0
LINE
  8
_0-0_0
  6
CONTINUOUS
 62
    7
 10
187.25239750000003
 20
758.15197799999999
 11
177.50239650000003
 21
758.15197799999999
  0
LINE
  8
_0-0_0
  6
CONTINUOUS
 62
    7
 10
177.50239650000003
 20
758.15197799999999
 11
177.75239650000003
 21
758.06131000000005
  0
LINE
  8
_0-0_0
  6
CONTINUOUS
 62
    7
 10
187.00239750000003
 20
757.79998799999998
 11
177.75239650000003
 21
757.79998799999998
  0
LINE
  8
_0-0_0
  6
CONTINUOUS
 62
    7
 10
187.25239750000003
 20
757.91775499999994
 11
177.50239650000003
 21
757.91775499999994
  0
LINE
  8
_0-0_0
  6
CONTINUOUS
 62
    7
 10
177.50239650000003
 20
757.91775499999994
 11
177.75239650000003
 21
757.79998799999998
  0
LINE
  8
_0-0_0
  6
CONTINUOUS
 62
    7
 10
187.00239750000003
 20
757.53866599999992
 11
177.75239650000003
 21
757.53866599999992
  0
LINE
  8
_0-0_0
  6
CONTINUOUS
 62
    7
 10
187.25239750000003
 20
757.68222100000003
 11
177.50239650000003
 21
757.68222100000003
  0
LINE
  8
_0-0_0
  6
CONTINUOUS
 62
    7
 10
177.50239650000003
 20
757.68222100000003
 11
177.75239650000003
 21
757.53866599999992
  0
LINE
  8
_0-0_0
  6
CONTINUOUS
 62
    7
 10
187.00239750000003
 20
757.280213
 11
177.75239650000003
 21
757.280213
  0
LINE
  8
_0-0_0
  6
CONTINUOUS
 62
    7
 10
187.25239750000003
 20
757.44799799999998
 11
177.50239650000003
 21
757.44799799999998
  0
LINE
  8
_0-0_0
  6
CONTINUOUS
 62
    7
 10
177.50239650000003
 20
757.44799799999998
 11
177.75239650000003
 21
757.280213
  0
LINE
  8
_0-0_0
  6
CONTINUOUS
 62
    7
 10
187.00239750000003
 20
757.02743499999997
 11
177.75239650000003
 21
757.02743499999997
  0
LINE
  8
_0-0_0
  6
CONTINUOUS
 62
    7
 10
187.25239750000003
 20
757.21765099999993
 11
177.50239650000003
 21
757.21765099999993
  0
LINE
  8
_0-0_0
  6
CONTINUOUS
 62
    7
 10
177.50239650000003
 20
757.21765099999993
 11
177.75239650000003
 21
757.02743499999997
  0
LINE
  8
_0-0_0
  6
CONTINUOUS
 62
    7
 10
187.00239750000003
 20
756.783142
 11
177.75239650000003
 21
756.783142
  0
LINE
  8
_0-0_0
  6
CONTINUOUS
 62
    7
 10
187.25239750000003
 20
756.993652
 11
177.50239650000003
 21
756.993652
  0
LINE
  8
_0-0_0
  6
CONTINUOUS
 62
    7
 10
177.50239650000003
 20
756.993652
 11
177.75239650000003
 21
756.783142
  0
LINE
  8
_0-0_0
  6
CONTINUOUS
 62
    7
 10
187.00239750000003
 20
756.12716699999999
 11
177.75239650000003
 21
756.12716699999999
  0
LINE
  8
_0-0_0
  6
CONTINUOUS
 62
    7
 10
177.50239650000003
 20
756.38400300000001
 11
177.75239650000003
 21
756.12716699999999
  0
LINE
  8
_0-0_0
  6
CONTINUOUS
 62
    7
 10
187.00239750000003
 20
755.94210799999996
 11
177.75239650000003
 21
755.94210799999996
  0
LINE
  8
_0-0_0
  6
CONTINUOUS
 62
    7
 10
177.50239650000003
 20
756.20898399999999
 11
177.75239650000003
 21
755.94210799999996
  0
LINE
  8
_0-0_0
  6
CONTINUOUS
 62
    7
 10
187.00239750000003
 20
755.77743499999997
 11
177.75239650000003
 21
755.77743499999997
  0
LINE
  8
_0-0_0
  6
CONTINUOUS
 62
    7
 10
177.50239650000003
 20
756.051422
 11
177.75239650000003
 21
755.77743499999997
  0
LINE
  8
_0-0_0
  6
CONTINUOUS
 62
    7
 10
187.00239750000003
 20
755.63491799999997
 11
177.75239650000003
 21
755.63491799999997
  0
LINE
  8
_0-0_0
  6
CONTINUOUS
 62
    7
 10
177.50239650000003
 20
755.91299400000003
 11
177.75239650000003
 21
755.63491799999997
  0
LINE
  8
_0-0_0
  6
CONTINUOUS
 62
    7
 10
187.00239750000003
 20
755.51611300000002
 11
177.75239650000003
 21
755.51611300000002
  0
LINE
  8
_0-0_0
  6
CONTINUOUS
 62
    7
 10
177.50239650000003
 20
755.79522700000007
 11
177.75239650000003
 21
755.51611300000002
  0
LINE
  8
_0-0_0
  6
CONTINUOUS
 62
    7
 10
187.00239750000003
 20
755.42233299999998
 11
177.75239650000003
 21
755.42233299999998
  0
LINE
  8
_0-0_0
  6
CONTINUOUS
 62
    7
 10
177.50239650000003
 20
755.699432
 11
177.75239650000003
 21
755.42233299999998
  0
LINE
  8
_0-0_0
  6
CONTINUOUS
 62
    7
 10
187.00239750000003
 20
755.35461399999997
 11
177.75239650000003
 21
755.35461399999997
  0
LINE
  8
_0-0_0
  6
CONTINUOUS
 62
    7
 10
177.50239650000003
 20
755.62664799999993
 11
177.75239650000003
 21
755.35461399999997
  0
LINE
  8
_0-0_0
  6
CONTINUOUS
 62
    7
 10
187.00239750000003
 20
755.31368999999995
 11
177.75239650000003
 21
755.31368999999995
  0
LINE
  8
_0-0_0
  6
CONTINUOUS
 62
    7
 10
177.50239650000003
 20
755.57769800000005
 11
177.75239650000003
 21
755.31368999999995
  0
LINE
  8
_0-0_0
  6
CONTINUOUS
 62
    7
 10
187.00239750000003
 20
755.29998799999998
 11
177.75239650000003
 21
755.29998799999998
  0
LINE
  8
_0-0_0
  6
CONTINUOUS
 62
    7
 10
177.50239650000003
 20
755.55306999999993
 11
177.75239650000003
 21
755.29998799999998
  0
LINE
  8
_0-0_0
  6
CONTINUOUS
 62
    7
 10
187.00239750000003
 20
759.965057
 11
177.75239650000003
 21
759.965057
  0
LINE
  8
_0-0_0
  6
CONTINUOUS
 62
    7
 10
187.25239750000003
 20
759.80474900000002
 11
187.12243850000004
 21
759.88861099999997
  0
LINE
  8
_0-0_0
  6
CONTINUOUS
 62
    7
 10
177.50239650000003
 20
759.80474900000002
 11
177.63237149999998
 21
759.88861099999997
  0
LINE
  8
_0-0_0
  6
CONTINUOUS
 62
    7
 10
177.63237149999998
 20
759.88861099999997
 11
177.75239650000003
 21
759.965057
  0
LINE
  8
_0-0_0
  6
CONTINUOUS
 62
    7
 10
187.00239750000003
 20
759.82254
 11
177.75239650000003
 21
759.82254
  0
LINE
  8
_0-0_0
  6
CONTINUOUS
 62
    7
 10
177.50239650000003
 20
759.68698100000006
 11
177.75239650000003
 21
759.82254
  0
LINE
  8
_0-0_0
  6
CONTINUOUS
 62
    7
 10
187.25239750000003
 20
759.80474900000002
 11
187.00239750000003
 21
760.08386199999995
  0
LINE
  8
_0-0_0
  6
CONTINUOUS
 62
    7
 10
187.00239750000003
 20
760.08386199999995
 11
177.75239650000003
 21
760.08386199999995
  0
LINE
  8
_0-0_0
  6
CONTINUOUS
 62
    7
 10
177.50239650000003
 20
759.80474900000002
 11
177.75239650000003
 21
760.08386199999995
  0
LINE
  8
_0-0_0
  6
CONTINUOUS
 62
    7
 10
187.25239750000003
 20
759.90054299999997
 11
187.00239750000003
 21
760.08386199999995
  0
LINE
  8
_0-0_0
  6
CONTINUOUS
 62
    7
 10
177.50239650000003
 20
759.90054299999997
 11
177.75239650000003
 21
760.08386199999995
  0
LINE
  8
_0-0_0
  6
CONTINUOUS
 62
    7
 10
187.25239750000003
 20
759.90054299999997
 11
187.00239750000003
 21
760.17764299999999
  0
LINE
  8
_0-0_0
  6
CONTINUOUS
 62
    7
 10
187.00239750000003
 20
760.17764299999999
 11
177.75239650000003
 21
760.17764299999999
  0
LINE
  8
_0-0_0
  6
CONTINUOUS
 62
    7
 10
177.50239650000003
 20
759.90054299999997
 11
177.75239650000003
 21
760.17764299999999
  0
LINE
  8
_0-0_0
  6
CONTINUOUS
 62
    7
 10
187.25239750000003
 20
759.97332800000004
 11
187.00239750000003
 21
760.17764299999999
  0
LINE
  8
_0-0_0
  6
CONTINUOUS
 62
    7
 10
177.50239650000003
 20
759.97332800000004
 11
177.75239650000003
 21
760.17764299999999
  0
LINE
  8
_0-0_0
  6
CONTINUOUS
 62
    7
 10
187.25239750000003
 20
759.97332800000004
 11
187.00239750000003
 21
760.245361
  0
LINE
  8
_0-0_0
  6
CONTINUOUS
 62
    7
 10
187.00239750000003
 20
760.245361
 11
177.75239650000003
 21
760.245361
  0
LINE
  8
_0-0_0
  6
CONTINUOUS
 62
    7
 10
177.50239650000003
 20
759.97332800000004
 11
177.75239650000003
 21
760.245361
  0
LINE
  8
_0-0_0
  6
CONTINUOUS
 62
    7
 10
187.25239750000003
 20
760.02227799999991
 11
187.00239750000003
 21
760.245361
  0
LINE
  8
_0-0_0
  6
CONTINUOUS
 62
    7
 10
177.50239650000003
 20
760.02227799999991
 11
177.75239650000003
 21
760.245361
  0
LINE
  8
_0-0_0
  6
CONTINUOUS
 62
    7
 10
187.25239750000003
 20
760.02227799999991
 11
187.00239750000003
 21
760.28628600000002
  0
LINE
  8
_0-0_0
  6
CONTINUOUS
 62
    7
 10
187.00239750000003
 20
760.28628600000002
 11
177.75239650000003
 21
760.28628600000002
  0
LINE
  8
_0-0_0
  6
CONTINUOUS
 62
    7
 10
177.50239650000003
 20
760.02227799999991
 11
177.75239650000003
 21
760.28628600000002
  0
LINE
  8
_0-0_0
  6
CONTINUOUS
 62
    7
 10
187.25239750000003
 20
760.04690600000004
 11
187.00239750000003
 21
760.28628600000002
  0
LINE
  8
_0-0_0
  6
CONTINUOUS
 62
    7
 10
177.50239650000003
 20
760.04690600000004
 11
177.75239650000003
 21
760.28628600000002
  0
LINE
  8
_0-0_0
  6
CONTINUOUS
 62
    7
 10
187.25239750000003
 20
760.04690600000004
 11
187.00239750000003
 21
760.29998799999998
  0
LINE
  8
_0-0_0
  6
CONTINUOUS
 62
    7
 10
187.00239750000003
 20
760.29998799999998
 11
177.75239650000003
 21
760.29998799999998
  0
LINE
  8
_0-0_0
  6
CONTINUOUS
 62
    7
 10
177.50239650000003
 20
760.04690600000004
 11
177.75239650000003
 21
760.29998799999998
  0
LINE
  8
_0-0_0
  6
CONTINUOUS
 62
    7
 10
187.25239750000003
 20
773.17456100000004
 11
187.00239750000003
 21
773.14999399999999
  0
LINE
  8
_0-0_0
  6
CONTINUOUS
 62
    7
 10
187.00239750000003
 20
773.14999399999999
 11
177.75239650000003
 21
773.14999399999999
  0
LINE
  8
_0-0_0
  6
CONTINUOUS
 62
    7
 10
177.50239650000003
 20
773.17456100000004
 11
177.75239650000003
 21
773.14999399999999
  0
LINE
  8
_0-0_0
  6
CONTINUOUS
 62
    7
 10
187.25239750000003
 20
776.14855999999997
 11
187.00239750000003
 21
776.42251599999997
  0
LINE
  8
_0-0_0
  6
CONTINUOUS
 62
    7
 10
187.25239750000003
 20
776.14855999999997
 11
187.00239750000003
 21
776.25784299999998
  0
LINE
  8
_0-0_0
  6
CONTINUOUS
 62
    7
 10
187.25239750000003
 20
775.99096699999996
 11
187.00239750000003
 21
776.25784299999998
  0
LINE
  8
_0-0_0
  6
CONTINUOUS
 62
    7
 10
187.25239750000003
 20
775.99096699999996
 11
187.00239750000003
 21
776.07281499999999
  0
LINE
  8
_0-0_0
  6
CONTINUOUS
 62
    7
 10
187.25239750000003
 20
775.81594900000005
 11
187.00239750000003
 21
776.07281499999999
  0
LINE
  8
_0-0_0
  6
CONTINUOUS
 62
    7
 10
187.25239750000003
 20
775.81594900000005
 11
187.00239750000003
 21
775.86944599999993
  0
LINE
  8
_0-0_0
  6
CONTINUOUS
 62
    7
 10
187.25239750000003
 20
775.62542699999995
 11
187.00239750000003
 21
775.86944599999993
  0
LINE
  8
_0-0_0
  6
CONTINUOUS
 62
    7
 10
187.25239750000003
 20
775.62542699999995
 11
187.00239750000003
 21
775.64999399999999
  0
LINE
  8
_0-0_0
  6
CONTINUOUS
 62
    7
 10
187.25239750000003
 20
775.42147799999998
 11
187.00239750000003
 21
775.64999399999999
  0
LINE
  8
_0-0_0
  6
CONTINUOUS
 62
    7
 10
187.25239750000003
 20
775.42147799999998
 11
187.00239750000003
 21
775.41683999999998
  0
LINE
  8
_0-0_0
  6
CONTINUOUS
 62
    7
 10
187.25239750000003
 20
775.20632899999998
 11
187.00239750000003
 21
775.41683999999998
  0
LINE
  8
_0-0_0
  6
CONTINUOUS
 62
    7
 10
187.25239750000003
 20
775.20632899999998
 11
187.00239750000003
 21
775.17251599999997
  0
LINE
  8
_0-0_0
  6
CONTINUOUS
 62
    7
 10
187.25239750000003
 20
774.98233000000005
 11
187.00239750000003
 21
775.17251599999997
  0
LINE
  8
_0-0_0
  6
CONTINUOUS
 62
    7
 10
187.25239750000003
 20
774.98233000000005
 11
187.00239750000003
 21
774.91976899999997
  0
LINE
  8
_0-0_0
  6
CONTINUOUS
 62
    7
 10
187.25239750000003
 20
774.75195299999996
 11
187.00239750000003
 21
774.91976899999997
  0
LINE
  8
_0-0_0
  6
CONTINUOUS
 62
    7
 10
187.25239750000003
 20
774.75195299999996
 11
187.00239750000003
 21
774.66131599999994
  0
LINE
  8
_0-0_0
  6
CONTINUOUS
 62
    7
 10
187.25239750000003
 20
774.51773099999991
 11
187.00239750000003
 21
774.66131599999994
  0
LINE
  8
_0-0_0
  6
CONTINUOUS
 62
    7
 10
187.25239750000003
 20
774.51773099999991
 11
187.00239750000003
 21
774.39999399999999
  0
LINE
  8
_0-0_0
  6
CONTINUOUS
 62
    7
 10
187.25239750000003
 20
774.28222699999992
 11
187.00239750000003
 21
774.39999399999999
  0
LINE
  8
_0-0_0
  6
CONTINUOUS
 62
    7
 10
187.25239750000003
 20
774.28222699999992
 11
187.00239750000003
 21
774.13867200000004
  0
LINE
  8
_0-0_0
  6
CONTINUOUS
 62
    7
 10
187.25239750000003
 20
774.04800399999999
 11
187.00239750000003
 21
774.13867200000004
  0
LINE
  8
_0-0_0
  6
CONTINUOUS
 62
    7
 10
187.25239750000003
 20
774.04800399999999
 11
187.00239750000003
 21
773.88021900000001
  0
LINE
  8
_0-0_0
  6
CONTINUOUS
 62
    7
 10
187.25239750000003
 20
773.81765799999994
 11
187.00239750000003
 21
773.88021900000001
  0
LINE
  8
_0-0_0
  6
CONTINUOUS
 62
    7
 10
187.25239750000003
 20
773.81765799999994
 11
187.00239750000003
 21
773.62744199999997
  0
LINE
  8
_0-0_0
  6
CONTINUOUS
 62
    7
 10
187.25239750000003
 20
773.593659
 11
187.00239750000003
 21
773.62744199999997
  0
LINE
  8
_0-0_0
  6
CONTINUOUS
 62
    7
 10
187.25239750000003
 20
773.593659
 11
187.00239750000003
 21
773.38314800000001
  0
LINE
  8
_0-0_0
  6
CONTINUOUS
 62
    7
 10
187.25239750000003
 20
773.37851000000001
 11
187.00239750000003
 21
773.38314800000001
  0
LINE
  8
_0-0_0
  6
CONTINUOUS
 62
    7
 10
187.25239750000003
 20
773.37851000000001
 11
187.00239750000003
 21
773.14999399999999
  0
LINE
  8
_0-0_0
  6
CONTINUOUS
 62
    7
 10
187.25239750000003
 20
773.17456100000004
 11
187.00239750000003
 21
772.93051199999991
  0
LINE
  8
_0-0_0
  6
CONTINUOUS
 62
    7
 10
187.25239750000003
 20
772.98400900000001
 11
187.00239750000003
 21
772.93051199999991
  0
LINE
  8
_0-0_0
  6
CONTINUOUS
 62
    7
 10
187.25239750000003
 20
772.98400900000001
 11
187.00239750000003
 21
772.72717299999999
  0
LINE
  8
_0-0_0
  6
CONTINUOUS
 62
    7
 10
187.25239750000003
 20
772.80899099999999
 11
187.00239750000003
 21
772.72717299999999
  0
LINE
  8
_0-0_0
  6
CONTINUOUS
 62
    7
 10
187.25239750000003
 20
772.80899099999999
 11
187.00239750000003
 21
772.54211399999997
  0
LINE
  8
_0-0_0
  6
CONTINUOUS
 62
    7
 10
187.25239750000003
 20
772.65139799999997
 11
187.00239750000003
 21
772.54211399999997
  0
LINE
  8
_0-0_0
  6
CONTINUOUS
 62
    7
 10
187.25239750000003
 20
772.65139799999997
 11
187.00239750000003
 21
772.37744199999997
  0
LINE
  8
_0-0_0
  6
CONTINUOUS
 62
    7
 10
187.25239750000003
 20
772.51297
 11
187.00239750000003
 21
772.37744199999997
  0
LINE
  8
_0-0_0
  6
CONTINUOUS
 62
    7
 10
187.25239750000003
 20
772.51297
 11
187.00239750000003
 21
772.23492399999998
  0
LINE
  8
_0-0_0
  6
CONTINUOUS
 62
    7
 10
187.25239750000003
 20
772.39523299999996
 11
187.00239750000003
 21
772.23492399999998
  0
LINE
  8
_0-0_0
  6
CONTINUOUS
 62
    7
 10
187.25239750000003
 20
772.39523299999996
 11
187.00239750000003
 21
772.11611900000003
  0
LINE
  8
_0-0_0
  6
CONTINUOUS
 62
    7
 10
187.25239750000003
 20
772.29943900000001
 11
187.00239750000003
 21
772.11611900000003
  0
LINE
  8
_0-0_0
  6
CONTINUOUS
 62
    7
 10
187.25239750000003
 20
772.29943900000001
 11
187.00239750000003
 21
772.02233899999999
  0
LINE
  8
_0-0_0
  6
CONTINUOUS
 62
    7
 10
187.25239750000003
 20
772.22665400000005
 11
187.00239750000003
 21
772.02233899999999
  0
LINE
  8
_0-0_0
  6
CONTINUOUS
 62
    7
 10
187.25239750000003
 20
772.22665400000005
 11
187.00239750000003
 21
771.95461999999998
  0
LINE
  8
_0-0_0
  6
CONTINUOUS
 62
    7
 10
187.25239750000003
 20
772.17767299999991
 11
187.00239750000003
 21
771.95461999999998
  0
LINE
  8
_0-0_0
  6
CONTINUOUS
 62
    7
 10
187.25239750000003
 20
772.17767299999991
 11
187.00239750000003
 21
771.91366599999992
  0
LINE
  8
_0-0_0
  6
CONTINUOUS
 62
    7
 10
187.25239750000003
 20
772.15307600000006
 11
187.00239750000003
 21
771.91366599999992
  0
LINE
  8
_0-0_0
  6
CONTINUOUS
 62
    7
 10
187.25239750000003
 20
772.15307600000006
 11
187.00239750000003
 21
771.89999399999999
  0
LINE
  8
_0-0_0
  6
CONTINUOUS
 62
    7
 10
187.50239750000003
 20
772.39999399999999
 11
187.50239750000003
 21
776.15515099999993
  0
LINE
  8
_0-0_0
  6
CONTINUOUS
 62
    7
 10
187.12243850000004
 20
776.48861699999998
 11
187.00239750000003
 21
776.56506400000001
  0
LINE
  8
_0-0_0
  6
CONTINUOUS
 62
    7
 10
187.25239750000003
 20
776.28698699999995
 11
187.00239750000003
 21
776.56506400000001
  0
LINE
  8
_0-0_0
  6
CONTINUOUS
 62
    7
 10
187.25239750000003
 20
776.28698699999995
 11
187.00239750000003
 21
776.42251599999997
  0
LINE
  8
_0-0_0
  6
CONTINUOUS
 62
    7
 10
187.00239750000003
 20
776.25784299999998
 11
177.75239650000003
 21
776.25784299999998
  0
LINE
  8
_0-0_0
  6
CONTINUOUS
 62
    7
 10
177.50239650000003
 20
776.14855999999997
 11
177.75239650000003
 21
776.25784299999998
  0
LINE
  8
_0-0_0
  6
CONTINUOUS
 62
    7
 10
187.00239750000003
 20
776.07281499999999
 11
177.75239650000003
 21
776.07281499999999
  0
LINE
  8
_0-0_0
  6
CONTINUOUS
 62
    7
 10
177.50239650000003
 20
775.99096699999996
 11
177.75239650000003
 21
776.07281499999999
  0
LINE
  8
_0-0_0
  6
CONTINUOUS
 62
    7
 10
187.00239750000003
 20
775.86944599999993
 11
177.75239650000003
 21
775.86944599999993
  0
LINE
  8
_0-0_0
  6
CONTINUOUS
 62
    7
 10
177.50239650000003
 20
775.81594900000005
 11
177.75239650000003
 21
775.86944599999993
  0
LINE
  8
_0-0_0
  6
CONTINUOUS
 62
    7
 10
187.00239750000003
 20
775.64999399999999
 11
177.75239650000003
 21
775.64999399999999
  0
LINE
  8
_0-0_0
  6
CONTINUOUS
 62
    7
 10
177.50239650000003
 20
775.62542699999995
 11
177.75239650000003
 21
775.64999399999999
  0
LINE
  8
_0-0_0
  6
CONTINUOUS
 62
    7
 10
187.00239750000003
 20
775.41683999999998
 11
177.75239650000003
 21
775.41683999999998
  0
LINE
  8
_0-0_0
  6
CONTINUOUS
 62
    7
 10
187.25239750000003
 20
775.42147799999998
 11
177.50239650000003
 21
775.42147799999998
  0
LINE
  8
_0-0_0
  6
CONTINUOUS
 62
    7
 10
177.50239650000003
 20
775.42147799999998
 11
177.75239650000003
 21
775.41683999999998
  0
LINE
  8
_0-0_0
  6
CONTINUOUS
 62
    7
 10
187.00239750000003
 20
775.17251599999997
 11
177.75239650000003
 21
775.17251599999997
  0
LINE
  8
_0-0_0
  6
CONTINUOUS
 62
    7
 10
187.25239750000003
 20
775.20632899999998
 11
177.50239650000003
 21
775.20632899999998
  0
LINE
  8
_0-0_0
  6
CONTINUOUS
 62
    7
 10
177.50239650000003
 20
775.20632899999998
 11
177.75239650000003
 21
775.17251599999997
  0
LINE
  8
_0-0_0
  6
CONTINUOUS
 62
    7
 10
187.00239750000003
 20
774.91976899999997
 11
177.75239650000003
 21
774.91976899999997
  0
LINE
  8
_0-0_0
  6
CONTINUOUS
 62
    7
 10
187.25239750000003
 20
774.98233000000005
 11
177.50239650000003
 21
774.98233000000005
  0
LINE
  8
_0-0_0
  6
CONTINUOUS
 62
    7
 10
177.50239650000003
 20
774.98233000000005
 11
177.75239650000003
 21
774.91976899999997
  0
LINE
  8
_0-0_0
  6
CONTINUOUS
 62
    7
 10
187.00239750000003
 20
774.66131599999994
 11
177.75239650000003
 21
774.66131599999994
  0
LINE
  8
_0-0_0
  6
CONTINUOUS
 62
    7
 10
187.25239750000003
 20
774.75195299999996
 11
177.50239650000003
 21
774.75195299999996
  0
LINE
  8
_0-0_0
  6
CONTINUOUS
 62
    7
 10
177.50239650000003
 20
774.75195299999996
 11
177.75239650000003
 21
774.66131599999994
  0
LINE
  8
_0-0_0
  6
CONTINUOUS
 62
    7
 10
187.00239750000003
 20
774.39999399999999
 11
177.75239650000003
 21
774.39999399999999
  0
LINE
  8
_0-0_0
  6
CONTINUOUS
 62
    7
 10
187.25239750000003
 20
774.51773099999991
 11
177.50239650000003
 21
774.51773099999991
  0
LINE
  8
_0-0_0
  6
CONTINUOUS
 62
    7
 10
177.50239650000003
 20
774.51773099999991
 11
177.75239650000003
 21
774.39999399999999
  0
LINE
  8
_0-0_0
  6
CONTINUOUS
 62
    7
 10
187.00239750000003
 20
774.13867200000004
 11
177.75239650000003
 21
774.13867200000004
  0
LINE
  8
_0-0_0
  6
CONTINUOUS
 62
    7
 10
187.25239750000003
 20
774.28222699999992
 11
177.50239650000003
 21
774.28222699999992
  0
LINE
  8
_0-0_0
  6
CONTINUOUS
 62
    7
 10
177.50239650000003
 20
774.28222699999992
 11
177.75239650000003
 21
774.13867200000004
  0
LINE
  8
_0-0_0
  6
CONTINUOUS
 62
    7
 10
187.00239750000003
 20
773.88021900000001
 11
177.75239650000003
 21
773.88021900000001
  0
LINE
  8
_0-0_0
  6
CONTINUOUS
 62
    7
 10
187.25239750000003
 20
774.04800399999999
 11
177.50239650000003
 21
774.04800399999999
  0
LINE
  8
_0-0_0
  6
CONTINUOUS
 62
    7
 10
177.50239650000003
 20
774.04800399999999
 11
177.75239650000003
 21
773.88021900000001
  0
LINE
  8
_0-0_0
  6
CONTINUOUS
 62
    7
 10
187.00239750000003
 20
773.62744199999997
 11
177.75239650000003
 21
773.62744199999997
  0
LINE
  8
_0-0_0
  6
CONTINUOUS
 62
    7
 10
187.25239750000003
 20
773.81765799999994
 11
177.50239650000003
 21
773.81765799999994
  0
LINE
  8
_0-0_0
  6
CONTINUOUS
 62
    7
 10
177.50239650000003
 20
773.81765799999994
 11
177.75239650000003
 21
773.62744199999997
  0
LINE
  8
_0-0_0
  6
CONTINUOUS
 62
    7
 10
187.00239750000003
 20
773.38314800000001
 11
177.75239650000003
 21
773.38314800000001
  0
LINE
  8
_0-0_0
  6
CONTINUOUS
 62
    7
 10
187.25239750000003
 20
773.593659
 11
177.50239650000003
 21
773.593659
  0
LINE
  8
_0-0_0
  6
CONTINUOUS
 62
    7
 10
177.50239650000003
 20
773.593659
 11
177.75239650000003
 21
773.38314800000001
  0
LINE
  8
_0-0_0
  6
CONTINUOUS
 62
    7
 10
187.00239750000003
 20
772.72717299999999
 11
177.75239650000003
 21
772.72717299999999
  0
LINE
  8
_0-0_0
  6
CONTINUOUS
 62
    7
 10
177.50239650000003
 20
772.98400900000001
 11
177.75239650000003
 21
772.72717299999999
  0
LINE
  8
_0-0_0
  6
CONTINUOUS
 62
    7
 10
187.00239750000003
 20
772.54211399999997
 11
177.75239650000003
 21
772.54211399999997
  0
LINE
  8
_0-0_0
  6
CONTINUOUS
 62
    7
 10
177.50239650000003
 20
772.80899099999999
 11
177.75239650000003
 21
772.54211399999997
  0
LINE
  8
_0-0_0
  6
CONTINUOUS
 62
    7
 10
187.00239750000003
 20
772.37744199999997
 11
177.75239650000003
 21
772.37744199999997
  0
LINE
  8
_0-0_0
  6
CONTINUOUS
 62
    7
 10
177.50239650000003
 20
772.65139799999997
 11
177.75239650000003
 21
772.37744199999997
  0
LINE
  8
_0-0_0
  6
CONTINUOUS
 62
    7
 10
187.00239750000003
 20
772.23492399999998
 11
177.75239650000003
 21
772.23492399999998
  0
LINE
  8
_0-0_0
  6
CONTINUOUS
 62
    7
 10
177.50239650000003
 20
772.51297
 11
177.75239650000003
 21
772.23492399999998
  0
LINE
  8
_0-0_0
  6
CONTINUOUS
 62
    7
 10
187.00239750000003
 20
772.11611900000003
 11
177.75239650000003
 21
772.11611900000003
  0
LINE
  8
_0-0_0
  6
CONTINUOUS
 62
    7
 10
177.50239650000003
 20
772.39523299999996
 11
177.75239650000003
 21
772.11611900000003
  0
LINE
  8
_0-0_0
  6
CONTINUOUS
 62
    7
 10
187.00239750000003
 20
772.02233899999999
 11
177.75239650000003
 21
772.02233899999999
  0
LINE
  8
_0-0_0
  6
CONTINUOUS
 62
    7
 10
177.50239650000003
 20
772.29943900000001
 11
177.75239650000003
 21
772.02233899999999
  0
LINE
  8
_0-0_0
  6
CONTINUOUS
 62
    7
 10
187.00239750000003
 20
771.95461999999998
 11
177.75239650000003
 21
771.95461999999998
  0
LINE
  8
_0-0_0
  6
CONTINUOUS
 62
    7
 10
177.50239650000003
 20
772.22665400000005
 11
177.75239650000003
 21
771.95461999999998
  0
LINE
  8
_0-0_0
  6
CONTINUOUS
 62
    7
 10
187.00239750000003
 20
771.91366599999992
 11
177.75239650000003
 21
771.91366599999992
  0
LINE
  8
_0-0_0
  6
CONTINUOUS
 62
    7
 10
177.50239650000003
 20
772.17767299999991
 11
177.75239650000003
 21
771.91366599999992
  0
LINE
  8
_0-0_0
  6
CONTINUOUS
 62
    7
 10
187.00239750000003
 20
771.89999399999999
 11
177.75239650000003
 21
771.89999399999999
  0
LINE
  8
_0-0_0
  6
CONTINUOUS
 62
    7
 10
177.50239650000003
 20
772.15307600000006
 11
177.75239650000003
 21
771.89999399999999
  0
LINE
  8
_0-0_0
  6
CONTINUOUS
 62
    7
 10
187.00239750000003
 20
776.56506400000001
 11
177.75239650000003
 21
776.56506400000001
  0
LINE
  8
_0-0_0
  6
CONTINUOUS
 62
    7
 10
187.25239750000003
 20
776.40475500000002
 11
187.12243850000004
 21
776.48861699999998
  0
LINE
  8
_0-0_0
  6
CONTINUOUS
 62
    7
 10
177.50239650000003
 20
776.40475500000002
 11
177.63237149999998
 21
776.48861699999998
  0
LINE
  8
_0-0_0
  6
CONTINUOUS
 62
    7
 10
177.63237149999998
 20
776.48861699999998
 11
177.75239650000003
 21
776.56506400000001
  0
LINE
  8
_0-0_0
  6
CONTINUOUS
 62
    7
 10
187.00239750000003
 20
776.42251599999997
 11
177.75239650000003
 21
776.42251599999997
  0
LINE
  8
_0-0_0
  6
CONTINUOUS
 62
    7
 10
177.50239650000003
 20
776.28698699999995
 11
177.75239650000003
 21
776.42251599999997
  0
LINE
  8
_0-0_0
  6
CONTINUOUS
 62
    7
 10
187.25239750000003
 20
776.40475500000002
 11
187.00239750000003
 21
776.68383799999992
  0
LINE
  8
_0-0_0
  6
CONTINUOUS
 62
    7
 10
187.00239750000003
 20
776.68383799999992
 11
177.75239650000003
 21
776.68383799999992
  0
LINE
  8
_0-0_0
  6
CONTINUOUS
 62
    7
 10
177.50239650000003
 20
776.40475500000002
 11
177.75239650000003
 21
776.68383799999992
  0
LINE
  8
_0-0_0
  6
CONTINUOUS
 62
    7
 10
187.25239750000003
 20
776.50054899999998
 11
187.00239750000003
 21
776.68383799999992
  0
LINE
  8
_0-0_0
  6
CONTINUOUS
 62
    7
 10
177.50239650000003
 20
776.50054899999998
 11
177.75239650000003
 21
776.68383799999992
  0
LINE
  8
_0-0_0
  6
CONTINUOUS
 62
    7
 10
187.25239750000003
 20
776.50054899999998
 11
187.00239750000003
 21
776.77761899999996
  0
LINE
  8
_0-0_0
  6
CONTINUOUS
 62
    7
 10
187.00239750000003
 20
776.77761899999996
 11
177.75239650000003
 21
776.77761899999996
  0
LINE
  8
_0-0_0
  6
CONTINUOUS
 62
    7
 10
177.50239650000003
 20
776.50054899999998
 11
177.75239650000003
 21
776.77761899999996
  0
LINE
  8
_0-0_0
  6
CONTINUOUS
 62
    7
 10
187.25239750000003
 20
776.57333399999993
 11
187.00239750000003
 21
776.77761899999996
  0
LINE
  8
_0-0_0
  6
CONTINUOUS
 62
    7
 10
177.50239650000003
 20
776.57333399999993
 11
177.75239650000003
 21
776.77761899999996
  0
LINE
  8
_0-0_0
  6
CONTINUOUS
 62
    7
 10
187.25239750000003
 20
776.57333399999993
 11
187.00239750000003
 21
776.84536800000001
  0
LINE
  8
_0-0_0
  6
CONTINUOUS
 62
    7
 10
187.00239750000003
 20
776.84536800000001
 11
177.75239650000003
 21
776.84536800000001
  0
LINE
  8
_0-0_0
  6
CONTINUOUS
 62
    7
 10
177.50239650000003
 20
776.57333399999993
 11
177.75239650000003
 21
776.84536800000001
  0
LINE
  8
_0-0_0
  6
CONTINUOUS
 62
    7
 10
187.25239750000003
 20
776.62228400000004
 11
187.00239750000003
 21
776.84536800000001
  0
LINE
  8
_0-0_0
  6
CONTINUOUS
 62
    7
 10
177.50239650000003
 20
776.62228400000004
 11
177.75239650000003
 21
776.84536800000001
  0
LINE
  8
_0-0_0
  6
CONTINUOUS
 62
    7
 10
187.25239750000003
 20
776.62228400000004
 11
187.00239750000003
 21
776.88629199999991
  0
LINE
  8
_0-0_0
  6
CONTINUOUS
 62
    7
 10
187.00239750000003
 20
776.88629199999991
 11
177.75239650000003
 21
776.88629199999991
  0
LINE
  8
_0-0_0
  6
CONTINUOUS
 62
    7
 10
177.50239650000003
 20
776.62228400000004
 11
177.75239650000003
 21
776.88629199999991
  0
LINE
  8
_0-0_0
  6
CONTINUOUS
 62
    7
 10
187.25239750000003
 20
776.64691199999993
 11
187.00239750000003
 21
776.88629199999991
  0
LINE
  8
_0-0_0
  6
CONTINUOUS
 62
    7
 10
177.50239650000003
 20
776.64691199999993
 11
177.75239650000003
 21
776.88629199999991
  0
LINE
  8
_0-0_0
  6
CONTINUOUS
 62
    7
 10
187.25239750000003
 20
776.64691199999993
 11
187.00239750000003
 21
776.89999399999999
  0
LINE
  8
_0-0_0
  6
CONTINUOUS
 62
    7
 10
187.00239750000003
 20
776.89999399999999
 11
177.75239650000003
 21
776.89999399999999
  0
LINE
  8
_0-0_0
  6
CONTINUOUS
 62
    7
 10
177.50239650000003
 20
776.64691199999993
 11
177.75239650000003
 21
776.89999399999999
  0
LINE
  8
_0-0_0
  6
CONTINUOUS
 62
    7
 10
232.70240050000007
 20
762.09997599999997
 11
232.70240050000007
 21
762.10134900000003
  0
LINE
  8
_0-0_0
  6
CONTINUOUS
 62
    7
 10
232.70240050000007
 20
762.10134900000003
 11
232.70240050000007
 21
770.09997599999997
  0
LINE
  8
_0-0_0
  6
CONTINUOUS
 62
    7
 10
177.50239650000003
 20
776.28698699999995
 11
177.75239650000003
 21
776.56506400000001
  0
LINE
  8
_0-0_0
  6
CONTINUOUS
 62
    7
 10
187.50239750000003
 20
776.15515099999993
 11
187.50239750000003
 21
776.39999399999999
  0
LINE
  8
_0-0_0
  6
CONTINUOUS
 62
    7
 10
177.50239650000003
 20
772.15307600000006
 11
177.75239650000003
 21
771.91366599999992
  0
LINE
  8
_0-0_0
  6
CONTINUOUS
 62
    7
 10
177.50239650000003
 20
772.17767299999991
 11
177.75239650000003
 21
771.95461999999998
  0
LINE
  8
_0-0_0
  6
CONTINUOUS
 62
    7
 10
177.50239650000003
 20
772.22665400000005
 11
177.75239650000003
 21
772.02233899999999
  0
LINE
  8
_0-0_0
  6
CONTINUOUS
 62
    7
 10
177.50239650000003
 20
772.29943900000001
 11
177.75239650000003
 21
772.11611900000003
  0
LINE
  8
_0-0_0
  6
CONTINUOUS
 62
    7
 10
177.50239650000003
 20
772.39523299999996
 11
177.75239650000003
 21
772.23492399999998
  0
LINE
  8
_0-0_0
  6
CONTINUOUS
 62
    7
 10
177.50239650000003
 20
772.51297
 11
177.75239650000003
 21
772.37744199999997
  0
LINE
  8
_0-0_0
  6
CONTINUOUS
 62
    7
 10
177.50239650000003
 20
772.65139799999997
 11
177.75239650000003
 21
772.54211399999997
  0
LINE
  8
_0-0_0
  6
CONTINUOUS
 62
    7
 10
177.50239650000003
 20
772.80899099999999
 11
177.75239650000003
 21
772.72717299999999
  0
LINE
  8
_0-0_0
  6
CONTINUOUS
 62
    7
 10
187.00239750000003
 20
772.93051199999991
 11
177.75239650000003
 21
772.93051199999991
  0
LINE
  8
_0-0_0
  6
CONTINUOUS
 62
    7
 10
177.50239650000003
 20
772.98400900000001
 11
177.75239650000003
 21
772.93051199999991
  0
LINE
  8
_0-0_0
  6
CONTINUOUS
 62
    7
 10
177.50239650000003
 20
773.37851000000001
 11
177.75239650000003
 21
773.38314800000001
  0
LINE
  8
_0-0_0
  6
CONTINUOUS
 62
    7
 10
187.25239750000003
 20
773.37851000000001
 11
177.50239650000003
 21
773.37851000000001
  0
LINE
  8
_0-0_0
  6
CONTINUOUS
 62
    7
 10
177.50239650000003
 20
773.593659
 11
177.75239650000003
 21
773.62744199999997
  0
LINE
  8
_0-0_0
  6
CONTINUOUS
 62
    7
 10
177.50239650000003
 20
773.81765799999994
 11
177.75239650000003
 21
773.88021900000001
  0
LINE
  8
_0-0_0
  6
CONTINUOUS
 62
    7
 10
177.50239650000003
 20
774.04800399999999
 11
177.75239650000003
 21
774.13867200000004
  0
LINE
  8
_0-0_0
  6
CONTINUOUS
 62
    7
 10
177.50239650000003
 20
774.28222699999992
 11
177.75239650000003
 21
774.39999399999999
  0
LINE
  8
_0-0_0
  6
CONTINUOUS
 62
    7
 10
177.50239650000003
 20
774.51773099999991
 11
177.75239650000003
 21
774.66131599999994
  0
LINE
  8
_0-0_0
  6
CONTINUOUS
 62
    7
 10
177.50239650000003
 20
774.75195299999996
 11
177.75239650000003
 21
774.91976899999997
  0
LINE
  8
_0-0_0
  6
CONTINUOUS
 62
    7
 10
177.50239650000003
 20
774.98233000000005
 11
177.75239650000003
 21
775.17251599999997
  0
LINE
  8
_0-0_0
  6
CONTINUOUS
 62
    7
 10
177.50239650000003
 20
775.20632899999998
 11
177.75239650000003
 21
775.41683999999998
  0
LINE
  8
_0-0_0
  6
CONTINUOUS
 62
    7
 10
177.50239650000003
 20
775.42147799999998
 11
177.75239650000003
 21
775.64999399999999
  0
LINE
  8
_0-0_0
  6
CONTINUOUS
 62
    7
 10
177.50239650000003
 20
775.62542699999995
 11
177.75239650000003
 21
775.86944599999993
  0
LINE
  8
_0-0_0
  6
CONTINUOUS
 62
    7
 10
177.50239650000003
 20
775.81594900000005
 11
177.75239650000003
 21
776.07281499999999
  0
LINE
  8
_0-0_0
  6
CONTINUOUS
 62
    7
 10
177.50239650000003
 20
775.99096699999996
 11
177.75239650000003
 21
776.25784299999998
  0
LINE
  8
_0-0_0
  6
CONTINUOUS
 62
    7
 10
177.50239650000003
 20
776.14855999999997
 11
177.75239650000003
 21
776.42251599999997
  0
LINE
  8
_0-0_0
  6
CONTINUOUS
 62
    7
 10
177.50239650000003
 20
773.17456100000004
 11
177.75239650000003
 21
772.93051199999991
  0
LINE
  8
_0-0_0
  6
CONTINUOUS
 62
    7
 10
177.50239650000003
 20
773.37851000000001
 11
177.75239650000003
 21
773.14999399999999
  0
LINE
  8
_0-0_0
  6
CONTINUOUS
 62
    7
 10
177.50239650000003
 20
759.68698100000006
 11
177.75239650000003
 21
759.965057
  0
LINE
  8
_0-0_0
  6
CONTINUOUS
 62
    7
 10
187.50239750000003
 20
759.55514500000004
 11
187.50239750000003
 21
759.79998799999998
  0
LINE
  8
_0-0_0
  6
CONTINUOUS
 62
    7
 10
177.50239650000003
 20
755.55306999999993
 11
177.75239650000003
 21
755.31368999999995
  0
LINE
  8
_0-0_0
  6
CONTINUOUS
 62
    7
 10
177.50239650000003
 20
755.57769800000005
 11
177.75239650000003
 21
755.35461399999997
  0
LINE
  8
_0-0_0
  6
CONTINUOUS
 62
    7
 10
177.50239650000003
 20
755.62664799999993
 11
177.75239650000003
 21
755.42233299999998
  0
LINE
  8
_0-0_0
  6
CONTINUOUS
 62
    7
 10
177.50239650000003
 20
755.699432
 11
177.75239650000003
 21
755.51611300000002
  0
LINE
  8
_0-0_0
  6
CONTINUOUS
 62
    7
 10
177.50239650000003
 20
755.79522700000007
 11
177.75239650000003
 21
755.63491799999997
  0
LINE
  8
_0-0_0
  6
CONTINUOUS
 62
    7
 10
177.50239650000003
 20
755.91299400000003
 11
177.75239650000003
 21
755.77743499999997
  0
LINE
  8
_0-0_0
  6
CONTINUOUS
 62
    7
 10
177.50239650000003
 20
756.051422
 11
177.75239650000003
 21
755.94210799999996
  0
LINE
  8
_0-0_0
  6
CONTINUOUS
 62
    7
 10
177.50239650000003
 20
756.20898399999999
 11
177.75239650000003
 21
756.12716699999999
  0
LINE
  8
_0-0_0
  6
CONTINUOUS
 62
    7
 10
187.00239750000003
 20
756.33053599999994
 11
177.75239650000003
 21
756.33053599999994
  0
LINE
  8
_0-0_0
  6
CONTINUOUS
 62
    7
 10
177.50239650000003
 20
756.38400300000001
 11
177.75239650000003
 21
756.33053599999994
  0
LINE
  8
_0-0_0
  6
CONTINUOUS
 62
    7
 10
177.50239650000003
 20
756.778504
 11
177.75239650000003
 21
756.783142
  0
LINE
  8
_0-0_0
  6
CONTINUOUS
 62
    7
 10
187.25239750000003
 20
756.778504
 11
177.50239650000003
 21
756.778504
  0
LINE
  8
_0-0_0
  6
CONTINUOUS
 62
    7
 10
177.50239650000003
 20
756.993652
 11
177.75239650000003
 21
757.02743499999997
  0
LINE
  8
_0-0_0
  6
CONTINUOUS
 62
    7
 10
177.50239650000003
 20
757.21765099999993
 11
177.75239650000003
 21
757.280213
  0
LINE
  8
_0-0_0
  6
CONTINUOUS
 62
    7
 10
177.50239650000003
 20
757.44799799999998
 11
177.75239650000003
 21
757.53866599999992
  0
LINE
  8
_0-0_0
  6
CONTINUOUS
 62
    7
 10
177.50239650000003
 20
757.68222100000003
 11
177.75239650000003
 21
757.79998799999998
  0
LINE
  8
_0-0_0
  6
CONTINUOUS
 62
    7
 10
177.50239650000003
 20
757.91775499999994
 11
177.75239650000003
 21
758.06131000000005
  0
LINE
  8
_0-0_0
  6
CONTINUOUS
 62
    7
 10
177.50239650000003
 20
758.15197799999999
 11
177.75239650000003
 21
758.31976299999997
  0
LINE
  8
_0-0_0
  6
CONTINUOUS
 62
    7
 10
177.50239650000003
 20
758.38232399999993
 11
177.75239650000003
 21
758.57254
  0
LINE
  8
_0-0_0
  6
CONTINUOUS
 62
    7
 10
177.50239650000003
 20
758.60632299999997
 11
177.75239650000003
 21
758.81683399999997
  0
LINE
  8
_0-0_0
  6
CONTINUOUS
 62
    7
 10
177.50239650000003
 20
758.82147199999997
 11
177.75239650000003
 21
759.04998799999998
  0
LINE
  8
_0-0_0
  6
CONTINUOUS
 62
    7
 10
177.50239650000003
 20
759.02542100000005
 11
177.75239650000003
 21
759.26944000000003
  0
LINE
  8
_0-0_0
  6
CONTINUOUS
 62
    7
 10
177.50239650000003
 20
759.21597300000008
 11
177.75239650000003
 21
759.47280899999998
  0
LINE
  8
_0-0_0
  6
CONTINUOUS
 62
    7
 10
177.50239650000003
 20
759.39096100000006
 11
177.75239650000003
 21
759.65783699999997
  0
LINE
  8
_0-0_0
  6
CONTINUOUS
 62
    7
 10
177.50239650000003
 20
759.54855399999997
 11
177.75239650000003
 21
759.82254
  0
LINE
  8
_0-0_0
  6
CONTINUOUS
 62
    7
 10
177.50239650000003
 20
756.57455499999992
 11
177.75239650000003
 21
756.33053599999994
  0
LINE
  8
_0-0_0
  6
CONTINUOUS
 62
    7
 10
177.50239650000003
 20
756.778504
 11
177.75239650000003
 21
756.54998799999998
  0
LINE
  8
_0-0_0
  6
CONTINUOUS
 62
    7
 10
174.70240049999995
 20
761.56185899999991
 11
174.70240049999995
 21
763.83093299999996
  0
LINE
  8
_0-0_0
  6
CONTINUOUS
 62
    7
 10
174.70240049999995
 20
763.83093299999996
 11
174.70240049999995
 21
770.63809199999992
  0
LINE
  8
_0-0_0
  6
CONTINUOUS
 62
    7
 10
177.50239650000003
 20
773.37851000000001
 11
177.50239650000003
 21
773.593659
  0
LINE
  8
_0-0_0
  6
CONTINUOUS
 62
    7
 10
177.50239650000003
 20
773.593659
 11
177.50239650000003
 21
773.81765799999994
  0
LINE
  8
_0-0_0
  6
CONTINUOUS
 62
    7
 10
177.50239650000003
 20
773.81765799999994
 11
177.50239650000003
 21
774.04800399999999
  0
LINE
  8
_0-0_0
  6
CONTINUOUS
 62
    7
 10
177.50239650000003
 20
774.04800399999999
 11
177.50239650000003
 21
774.28222699999992
  0
LINE
  8
_0-0_0
  6
CONTINUOUS
 62
    7
 10
177.50239650000003
 20
774.28222699999992
 11
177.50239650000003
 21
774.51773099999991
  0
LINE
  8
_0-0_0
  6
CONTINUOUS
 62
    7
 10
177.50239650000003
 20
774.51773099999991
 11
177.50239650000003
 21
774.75195299999996
  0
LINE
  8
_0-0_0
  6
CONTINUOUS
 62
    7
 10
177.50239650000003
 20
774.75195299999996
 11
177.50239650000003
 21
774.98233000000005
  0
LINE
  8
_0-0_0
  6
CONTINUOUS
 62
    7
 10
177.50239650000003
 20
774.98233000000005
 11
177.50239650000003
 21
775.20632899999998
  0
LINE
  8
_0-0_0
  6
CONTINUOUS
 62
    7
 10
177.50239650000003
 20
775.20632899999998
 11
177.50239650000003
 21
775.42147799999998
  0
LINE
  8
_0-0_0
  6
CONTINUOUS
 62
    7
 10
177.50239650000003
 20
775.42147799999998
 11
177.50239650000003
 21
775.62542699999995
  0
LINE
  8
_0-0_0
  6
CONTINUOUS
 62
    7
 10
177.50239650000003
 20
775.62542699999995
 11
177.50239650000003
 21
775.81594900000005
  0
LINE
  8
_0-0_0
  6
CONTINUOUS
 62
    7
 10
177.50239650000003
 20
775.81594900000005
 11
177.50239650000003
 21
775.99096699999996
  0
LINE
  8
_0-0_0
  6
CONTINUOUS
 62
    7
 10
177.50239650000003
 20
775.99096699999996
 11
177.50239650000003
 21
776.14855999999997
  0
LINE
  8
_0-0_0
  6
CONTINUOUS
 62
    7
 10
177.50239650000003
 20
776.14855999999997
 11
177.50239650000003
 21
776.28698699999995
  0
LINE
  8
_0-0_0
  6
CONTINUOUS
 62
    7
 10
177.50239650000003
 20
776.28698699999995
 11
177.50239650000003
 21
776.37454200000002
  0
LINE
  8
_0-0_0
  6
CONTINUOUS
 62
    7
 10
177.50239650000003
 20
776.37454200000002
 11
177.50239650000003
 21
776.40475500000002
  0
LINE
  8
_0-0_0
  6
CONTINUOUS
 62
    7
 10
177.50239650000003
 20
776.40475500000002
 11
177.50239650000003
 21
776.50054899999998
  0
LINE
  8
_0-0_0
  6
CONTINUOUS
 62
    7
 10
177.50239650000003
 20
776.50054899999998
 11
177.50239650000003
 21
776.57333399999993
  0
LINE
  8
_0-0_0
  6
CONTINUOUS
 62
    7
 10
177.50239650000003
 20
776.57333399999993
 11
177.50239650000003
 21
776.64999399999999
  0
LINE
  8
_0-0_0
  6
CONTINUOUS
 62
    7
 10
177.50239650000003
 20
776.62228400000004
 11
177.50239650000003
 21
776.64691199999993
  0
LINE
  8
_0-0_0
  6
CONTINUOUS
 62
    7
 10
177.50239650000003
 20
776.64691199999993
 11
177.50239650000003
 21
776.64999399999999
  0
LINE
  8
_0-0_0
  6
CONTINUOUS
 62
    7
 10
177.50239650000003
 20
772.14999399999999
 11
177.50239650000003
 21
772.15307600000006
  0
LINE
  8
_0-0_0
  6
CONTINUOUS
 62
    7
 10
177.50239650000003
 20
772.15307600000006
 11
177.50239650000003
 21
772.17767299999991
  0
LINE
  8
_0-0_0
  6
CONTINUOUS
 62
    7
 10
177.50239650000003
 20
772.17767299999991
 11
177.50239650000003
 21
772.22665400000005
  0
LINE
  8
_0-0_0
  6
CONTINUOUS
 62
    7
 10
177.50239650000003
 20
772.22665400000005
 11
177.50239650000003
 21
772.29943900000001
  0
LINE
  8
_0-0_0
  6
CONTINUOUS
 62
    7
 10
177.50239650000003
 20
772.14999399999999
 11
177.50239650000003
 21
772.39523299999996
  0
LINE
  8
_0-0_0
  6
CONTINUOUS
 62
    7
 10
177.50239650000003
 20
772.39523299999996
 11
177.50239650000003
 21
772.51297
  0
LINE
  8
_0-0_0
  6
CONTINUOUS
 62
    7
 10
177.50239650000003
 20
772.51297
 11
177.50239650000003
 21
772.65139799999997
  0
LINE
  8
_0-0_0
  6
CONTINUOUS
 62
    7
 10
177.50239650000003
 20
772.65139799999997
 11
177.50239650000003
 21
772.80899099999999
  0
LINE
  8
_0-0_0
  6
CONTINUOUS
 62
    7
 10
177.50239650000003
 20
772.80899099999999
 11
177.50239650000003
 21
772.98400900000001
  0
LINE
  8
_0-0_0
  6
CONTINUOUS
 62
    7
 10
177.50239650000003
 20
772.98400900000001
 11
177.50239650000003
 21
773.17456100000004
  0
LINE
  8
_0-0_0
  6
CONTINUOUS
 62
    7
 10
177.50239650000003
 20
773.32128899999998
 11
177.50239650000003
 21
773.37851000000001
  0
LINE
  8
_0-0_0
  6
CONTINUOUS
 62
    7
 10
177.50239650000003
 20
773.17456100000004
 11
177.50239650000003
 21
773.32128899999998
  0
LINE
  8
_0-0_0
  6
CONTINUOUS
 62
    7
 10
177.50239650000003
 20
756.778504
 11
177.50239650000003
 21
756.993652
  0
LINE
  8
_0-0_0
  6
CONTINUOUS
 62
    7
 10
177.50239650000003
 20
756.993652
 11
177.50239650000003
 21
757.21765099999993
  0
LINE
  8
_0-0_0
  6
CONTINUOUS
 62
    7
 10
177.50239650000003
 20
757.21765099999993
 11
177.50239650000003
 21
757.44799799999998
  0
LINE
  8
_0-0_0
  6
CONTINUOUS
 62
    7
 10
177.50239650000003
 20
757.44799799999998
 11
177.50239650000003
 21
757.68222100000003
  0
LINE
  8
_0-0_0
  6
CONTINUOUS
 62
    7
 10
177.50239650000003
 20
757.68222100000003
 11
177.50239650000003
 21
757.91775499999994
  0
LINE
  8
_0-0_0
  6
CONTINUOUS
 62
    7
 10
177.50239650000003
 20
757.91775499999994
 11
177.50239650000003
 21
758.15197799999999
  0
LINE
  8
_0-0_0
  6
CONTINUOUS
 62
    7
 10
177.50239650000003
 20
758.15197799999999
 11
177.50239650000003
 21
758.38232399999993
  0
LINE
  8
_0-0_0
  6
CONTINUOUS
 62
    7
 10
177.50239650000003
 20
758.38232399999993
 11
177.50239650000003
 21
758.60632299999997
  0
LINE
  8
_0-0_0
  6
CONTINUOUS
 62
    7
 10
177.50239650000003
 20
758.60632299999997
 11
177.50239650000003
 21
758.82147199999997
  0
LINE
  8
_0-0_0
  6
CONTINUOUS
 62
    7
 10
177.50239650000003
 20
758.82147199999997
 11
177.50239650000003
 21
759.02542100000005
  0
LINE
  8
_0-0_0
  6
CONTINUOUS
 62
    7
 10
177.50239650000003
 20
759.02542100000005
 11
177.50239650000003
 21
759.21597300000008
  0
LINE
  8
_0-0_0
  6
CONTINUOUS
 62
    7
 10
177.50239650000003
 20
759.21597300000008
 11
177.50239650000003
 21
759.39096100000006
  0
LINE
  8
_0-0_0
  6
CONTINUOUS
 62
    7
 10
177.50239650000003
 20
759.39096100000006
 11
177.50239650000003
 21
759.54855399999997
  0
LINE
  8
_0-0_0
  6
CONTINUOUS
 62
    7
 10
177.50239650000003
 20
759.54855399999997
 11
177.50239650000003
 21
759.68698100000006
  0
LINE
  8
_0-0_0
  6
CONTINUOUS
 62
    7
 10
177.50239650000003
 20
759.68698100000006
 11
177.50239650000003
 21
759.77453600000001
  0
LINE
  8
_0-0_0
  6
CONTINUOUS
 62
    7
 10
177.50239650000003
 20
759.77453600000001
 11
177.50239650000003
 21
759.80474900000002
  0
LINE
  8
_0-0_0
  6
CONTINUOUS
 62
    7
 10
177.50239650000003
 20
759.80474900000002
 11
177.50239650000003
 21
759.90054299999997
  0
LINE
  8
_0-0_0
  6
CONTINUOUS
 62
    7
 10
177.50239650000003
 20
759.90054299999997
 11
177.50239650000003
 21
759.97332800000004
  0
LINE
  8
_0-0_0
  6
CONTINUOUS
 62
    7
 10
177.50239650000003
 20
759.97332800000004
 11
177.50239650000003
 21
760.02227799999991
  0
LINE
  8
_0-0_0
  6
CONTINUOUS
 62
    7
 10
177.50239650000003
 20
760.02227799999991
 11
177.50239650000003
 21
760.04998799999998
  0
LINE
  8
_0-0_0
  6
CONTINUOUS
 62
    7
 10
177.50239650000003
 20
760.04690600000004
 11
177.50239650000003
 21
760.04998799999998
  0
LINE
  8
_0-0_0
  6
CONTINUOUS
 62
    7
 10
177.50239650000003
 20
755.54998799999998
 11
177.50239650000003
 21
755.55306999999993
  0
LINE
  8
_0-0_0
  6
CONTINUOUS
 62
    7
 10
177.50239650000003
 20
755.55306999999993
 11
177.50239650000003
 21
755.57769800000005
  0
LINE
  8
_0-0_0
  6
CONTINUOUS
 62
    7
 10
177.50239650000003
 20
755.57769800000005
 11
177.50239650000003
 21
755.62664799999993
  0
LINE
  8
_0-0_0
  6
CONTINUOUS
 62
    7
 10
177.50239650000003
 20
755.54998799999998
 11
177.50239650000003
 21
755.699432
  0
LINE
  8
_0-0_0
  6
CONTINUOUS
 62
    7
 10
177.50239650000003
 20
755.699432
 11
177.50239650000003
 21
755.79522700000007
  0
LINE
  8
_0-0_0
  6
CONTINUOUS
 62
    7
 10
177.50239650000003
 20
755.79522700000007
 11
177.50239650000003
 21
755.91299400000003
  0
LINE
  8
_0-0_0
  6
CONTINUOUS
 62
    7
 10
177.50239650000003
 20
755.91299400000003
 11
177.50239650000003
 21
756.051422
  0
LINE
  8
_0-0_0
  6
CONTINUOUS
 62
    7
 10
177.50239650000003
 20
756.051422
 11
177.50239650000003
 21
756.20898399999999
  0
LINE
  8
_0-0_0
  6
CONTINUOUS
 62
    7
 10
177.50239650000003
 20
756.20898399999999
 11
177.50239650000003
 21
756.38400300000001
  0
LINE
  8
_0-0_0
  6
CONTINUOUS
 62
    7
 10
177.50239650000003
 20
756.38400300000001
 11
177.50239650000003
 21
756.57455499999992
  0
LINE
  8
_0-0_0
  6
CONTINUOUS
 62
    7
 10
177.50239650000003
 20
756.72128299999997
 11
177.50239650000003
 21
756.778504
  0
LINE
  8
_0-0_0
  6
CONTINUOUS
 62
    7
 10
177.50239650000003
 20
756.57455499999992
 11
177.50239650000003
 21
756.72128299999997
  0
LINE
  8
_0-0_0
  6
CONTINUOUS
 62
    7
 10
173.90239650000001
 20
763.59997599999997
 11
173.90239650000001
 21
771.09997599999997
  0
LINE
  8
_0-0_0
  6
CONTINUOUS
 62
    7
 10
173.90239650000001
 20
761.09997599999997
 11
173.90239650000001
 21
763.59997599999997
  0
LINE
  8
_0-0_0
  6
CONTINUOUS
 62
    7
 10
162.50240350000001
 20
772.59997599999997
 11
172.21022749999997
 21
772.59997599999997
  0
LINE
  8
_0-0_0
  6
CONTINUOUS
 62
    7
 10
172.25240350000001
 20
772.59997599999997
 11
172.21022749999997
 21
772.59997599999997
  0
LINE
  8
_0-0_0
  6
CONTINUOUS
 62
    7
 10
162.20240049999995
 20
763.88797
 11
162.26120749999995
 21
763.64111300000002
  0
LINE
  8
_0-0_0
  6
CONTINUOUS
 62
    7
 10
162.26120749999995
 20
763.64111300000002
 11
162.31096650000006
 21
763.44879199999991
  0
LINE
  8
_0-0_0
  6
CONTINUOUS
 62
    7
 10
162.31096650000006
 20
763.44879199999991
 11
162.38208750000001
 21
763.18304499999999
  0
LINE
  8
_0-0_0
  6
CONTINUOUS
 62
    7
 10
162.38208750000001
 20
763.18304499999999
 11
162.41504650000002
 21
763.05633599999999
  0
LINE
  8
_0-0_0
  6
CONTINUOUS
 62
    7
 10
162.41504650000002
 20
763.05633599999999
 11
162.44029950000004
 21
762.95291099999997
  0
LINE
  8
_0-0_0
  6
CONTINUOUS
 62
    7
 10
162.44029950000004
 20
762.95291099999997
 11
162.4623335
 21
762.852936
  0
LINE
  8
_0-0_0
  6
CONTINUOUS
 62
    7
 10
162.4623335
 20
762.852936
 11
162.48372649999999
 21
762.73523
  0
LINE
  8
_0-0_0
  6
CONTINUOUS
 62
    7
 10
162.48372649999999
 20
762.73523
 11
162.49228649999998
 21
762.67309599999999
  0
LINE
  8
_0-0_0
  6
CONTINUOUS
 62
    7
 10
162.49228649999998
 20
762.67309599999999
 11
162.49837449999995
 21
762.61248799999998
  0
LINE
  8
_0-0_0
  6
CONTINUOUS
 62
    7
 10
162.49837449999995
 20
762.61248799999998
 11
162.50138049999998
 21
762.56326300000001
  0
LINE
  8
_0-0_0
  6
CONTINUOUS
 62
    7
 10
162.50138049999998
 20
762.56326300000001
 11
162.50240350000001
 21
762.51504499999999
  0
LINE
  8
_0-0_0
  6
CONTINUOUS
 62
    7
 10
162.20240049999995
 20
768.31198100000006
 11
162.26119249999999
 21
768.558807
  0
LINE
  8
_0-0_0
  6
CONTINUOUS
 62
    7
 10
162.26119249999999
 20
768.558807
 11
162.31096650000006
 21
768.75116000000003
  0
LINE
  8
_0-0_0
  6
CONTINUOUS
 62
    7
 10
162.31096650000006
 20
768.75116000000003
 11
162.38208750000001
 21
769.01693699999998
  0
LINE
  8
_0-0_0
  6
CONTINUOUS
 62
    7
 10
162.38208750000001
 20
769.01693699999998
 11
162.41504650000002
 21
769.14367700000003
  0
LINE
  8
_0-0_0
  6
CONTINUOUS
 62
    7
 10
162.41504650000002
 20
769.14367700000003
 11
162.4403155
 21
769.24707000000001
  0
LINE
  8
_0-0_0
  6
CONTINUOUS
 62
    7
 10
162.4403155
 20
769.24707000000001
 11
162.4623335
 21
769.34701500000006
  0
LINE
  8
_0-0_0
  6
CONTINUOUS
 62
    7
 10
162.4623335
 20
769.34701500000006
 11
162.48371150000003
 21
769.46472199999994
  0
LINE
  8
_0-0_0
  6
CONTINUOUS
 62
    7
 10
162.48371150000003
 20
769.46472199999994
 11
162.49228649999998
 21
769.52685599999995
  0
LINE
  8
_0-0_0
  6
CONTINUOUS
 62
    7
 10
162.49228649999998
 20
769.52685599999995
 11
162.49837449999995
 21
769.58746300000007
  0
LINE
  8
_0-0_0
  6
CONTINUOUS
 62
    7
 10
162.49837449999995
 20
769.58746300000007
 11
162.50138049999998
 21
769.63671899999997
  0
LINE
  8
_0-0_0
  6
CONTINUOUS
 62
    7
 10
162.50138049999998
 20
769.63671899999997
 11
162.50240350000001
 21
769.68493699999999
  0
LINE
  8
_0-0_0
  6
CONTINUOUS
 62
    7
 10
162.50240350000001
 20
764.53793300000007
 11
162.50240350000001
 21
763.49227900000005
  0
LINE
  8
_0-0_0
  6
CONTINUOUS
 62
    7
 10
162.50240350000001
 20
762.207672
 11
162.50240350000001
 21
763.49227900000005
  0
LINE
  8
_0-0_0
  6
CONTINUOUS
 62
    7
 10
162.50240350000001
 20
762.09228499999995
 11
162.50240350000001
 21
762.207672
  0
ARC
  8
_0-0_0
  6
CONTINUOUS
 62
    7
 10
160.50240350000001
 20
773.45846600000004
 40
2
 50
0
 51
71.565000999999995
  0
LINE
  8
_0-0_0
  6
CONTINUOUS
 62
    7
 10
172.21022749999997
 20
772.59997599999997
 11
172.26471749999996
 21
772.53006000000005
  0
LINE
  8
_0-0_0
  6
CONTINUOUS
 62
    7
 10
172.26471749999996
 20
772.53006000000005
 11
172.31581849999998
 21
772.46121199999993
  0
LINE
  8
_0-0_0
  6
CONTINUOUS
 62
    7
 10
172.31581849999998
 20
772.46121199999993
 11
172.36345649999998
 21
772.39370699999995
  0
LINE
  8
_0-0_0
  6
CONTINUOUS
 62
    7
 10
172.36345649999998
 20
772.39370699999995
 11
172.40795149999997
 21
772.327179
  0
LINE
  8
_0-0_0
  6
CONTINUOUS
 62
    7
 10
172.40795149999997
 20
772.327179
 11
172.46266950000006
 21
772.23962400000005
  0
LINE
  8
_0-0_0
  6
CONTINUOUS
 62
    7
 10
172.46266950000006
 20
772.23962400000005
 11
172.51218449999999
 21
772.15353400000004
  0
LINE
  8
_0-0_0
  6
CONTINUOUS
 62
    7
 10
172.51218449999999
 20
772.15353400000004
 11
172.55664850000005
 21
772.06869499999993
  0
LINE
  8
_0-0_0
  6
CONTINUOUS
 62
    7
 10
172.55664850000005
 20
772.06869499999993
 11
172.60361450000005
 21
771.96838400000001
  0
LINE
  8
_0-0_0
  6
CONTINUOUS
 62
    7
 10
172.60361450000005
 20
771.96838400000001
 11
172.64382150000006
 21
771.86944599999993
  0
LINE
  8
_0-0_0
  6
CONTINUOUS
 62
    7
 10
172.64382150000006
 20
771.86944599999993
 11
172.6774825
 21
771.77169800000001
  0
LINE
  8
_0-0_0
  6
CONTINUOUS
 62
    7
 10
172.6774825
 20
771.77169800000001
 11
172.70478049999997
 21
771.67489599999999
  0
LINE
  8
_0-0_0
  6
CONTINUOUS
 62
    7
 10
172.70478049999997
 20
771.67489599999999
 11
172.72582250000005
 21
771.57882700000005
  0
LINE
  8
_0-0_0
  6
CONTINUOUS
 62
    7
 10
172.72582250000005
 20
771.57882700000005
 11
172.74175249999996
 21
771.47497599999997
  0
LINE
  8
_0-0_0
  6
CONTINUOUS
 62
    7
 10
172.74175249999996
 20
771.47497599999997
 11
172.75051050000002
 21
771.37155200000007
  0
LINE
  8
_0-0_0
  6
CONTINUOUS
 62
    7
 10
172.75051050000002
 20
771.37155200000007
 11
172.75214349999999
 21
771.26831100000004
  0
LINE
  8
_0-0_0
  6
CONTINUOUS
 62
    7
 10
172.75214349999999
 20
771.26831100000004
 11
172.74668150000002
 21
771.16503899999998
  0
LINE
  8
_0-0_0
  6
CONTINUOUS
 62
    7
 10
172.74668150000002
 20
771.16503899999998
 11
172.73406250000005
 21
771.06143199999997
  0
LINE
  8
_0-0_0
  6
CONTINUOUS
 62
    7
 10
172.73406250000005
 20
771.06143199999997
 11
172.71425650000003
 21
770.95727499999998
  0
LINE
  8
_0-0_0
  6
CONTINUOUS
 62
    7
 10
172.71425650000003
 20
770.95727499999998
 11
172.68711050000002
 21
770.85232599999995
  0
LINE
  8
_0-0_0
  6
CONTINUOUS
 62
    7
 10
172.68711050000002
 20
770.85232599999995
 11
172.65245949999996
 21
770.746307
  0
LINE
  8
_0-0_0
  6
CONTINUOUS
 62
    7
 10
172.65245949999996
 20
770.746307
 11
172.61011450000001
 21
770.63891599999999
  0
LINE
  8
_0-0_0
  6
CONTINUOUS
 62
    7
 10
172.61011450000001
 20
770.63891599999999
 11
172.55979149999996
 21
770.52990699999998
  0
LINE
  8
_0-0_0
  6
CONTINUOUS
 62
    7
 10
172.55979149999996
 20
770.52990699999998
 11
172.50554650000004
 21
770.42678799999999
  0
LINE
  8
_0-0_0
  6
CONTINUOUS
 62
    7
 10
172.50554650000004
 20
770.42678799999999
 11
172.44383949999997
 21
770.32171599999992
  0
LINE
  8
_0-0_0
  6
CONTINUOUS
 62
    7
 10
172.44383949999997
 20
770.32171599999992
 11
172.37432049999995
 21
770.21447799999999
  0
LINE
  8
_0-0_0
  6
CONTINUOUS
 62
    7
 10
172.37432049999995
 20
770.21447799999999
 11
172.29660750000005
 21
770.10476700000004
  0
LINE
  8
_0-0_0
  6
CONTINUOUS
 62
    7
 10
172.29660750000005
 20
770.10476700000004
 11
172.21022749999997
 21
769.99227900000005
  0
LINE
  8
_0-0_0
  6
CONTINUOUS
 62
    7
 10
162.50240350000001
 20
770.10766599999999
 11
162.50240350000001
 21
769.99227900000005
  0
LINE
  8
_0-0_0
  6
CONTINUOUS
 62
    7
 10
162.50240350000001
 20
768.707672
 11
162.50240350000001
 21
767.66204799999991
  0
LINE
  8
_0-0_0
  6
CONTINUOUS
 62
    7
 10
162.50240350000001
 20
763.49227900000005
 11
172.21022749999997
 21
763.49227900000005
  0
LINE
  8
_0-0_0
  6
CONTINUOUS
 62
    7
 10
162.50240350000001
 20
762.207672
 11
172.21022749999997
 21
762.207672
  0
LINE
  8
_0-0_0
  6
CONTINUOUS
 62
    7
 10
173.50240350000001
 20
768.83154300000001
 11
173.50240350000001
 21
771.34997599999997
  0
LINE
  8
_0-0_0
  6
CONTINUOUS
 62
    7
 10
162.50240350000001
 20
773.45846600000004
 11
162.50240350000001
 21
770.10766599999999
  0
LINE
  8
_0-0_0
  6
CONTINUOUS
 62
    7
 10
151.50240350000001
 20
755.29998799999998
 11
151.50240350000001
 21
755.55004899999994
  0
LINE
  8
_0-0_0
  6
CONTINUOUS
 62
    7
 10
127.00240350000001
 20
775.39999399999999
 11
122.00239550000003
 21
775.39999399999999
  0
ARC
  8
_0-0_0
  6
CONTINUOUS
 62
    7
 10
122.00239550000003
 20
770.89999399999999
 40
4.5
 50
90.000003000000007
 51
269.99999700000006
  0
LINE
  8
_0-0_0
  6
CONTINUOUS
 62
    7
 10
127.00240350000001
 20
766.39999399999999
 11
122.00239550000003
 21
766.39999399999999
  0
ARC
  8
_0-0_0
  6
CONTINUOUS
 62
    7
 10
127.00240350000001
 20
770.89999399999999
 40
4.5
 50
269.99999700000001
 51
90.000002999999992
  0
LINE
  8
_0-0_0
  6
CONTINUOUS
 62
    7
 10
71.002395500000034
 20
775.39999399999999
 11
66.002395500000034
 21
775.39999399999999
  0
ARC
  8
_0-0_0
  6
CONTINUOUS
 62
    7
 10
66.002395500000034
 20
770.89999399999999
 40
4.5
 50
90.000003000000007
 51
269.99999700000006
  0
LINE
  8
_0-0_0
  6
CONTINUOUS
 62
    7
 10
71.002395500000034
 20
766.39999399999999
 11
66.002395500000034
 21
766.39999399999999
  0
ARC
  8
_0-0_0
  6
CONTINUOUS
 62
    7
 10
71.002395500000034
 20
770.89999399999999
 40
4.5
 50
269.99999700000001
 51
90.000002999999992
  0
LINE
  8
_0-0_0
  6
CONTINUOUS
 62
    7
 10
96.314910499999996
 20
774.96963499999993
 11
95.014915500000029
 21
771.46963499999993
  0
LINE
  8
_0-0_0
  6
CONTINUOUS
 62
    7
 10
95.202400500000067
 20
771.19998199999998
 11
97.802398499999981
 21
771.19998199999998
  0
ARC
  8
_0-0_0
  6
CONTINUOUS
 62
    7
 10
97.802398499999981
 20
771.39999399999999
 40
0.2
 50
269.99999700000001
 51
20.376435000000019
  0
ARC
  8
_0-0_0
  6
CONTINUOUS
 62
    7
 10
96.502395500000034
 20
774.89999399999999
 40
0.2
 50
20.376434999999997
 51
159.62357000000003
  0
LINE
  8
_0-0_0
  6
CONTINUOUS
 62
    7
 10
151.50240350000001
 20
755.29998799999998
 11
151.50240350000001
 21
757.29998799999998
  0
ARC
  8
_0-0_0
  6
CONTINUOUS
 62
    7
 10
117.50239550000003
 20
761.69998199999998
 40
3
 50
180.00000900000003
 51
269.99999700000001
  0
LINE
  8
_0-0_0
  6
CONTINUOUS
 62
    7
 10
117.50239550000003
 20
758.69998199999998
 11
132.50240350000001
 21
758.69998199999998
  0
ARC
  8
_0-0_0
  6
CONTINUOUS
 62
    7
 10
132.50240350000001
 20
761.69998199999998
 40
3
 50
269.99999700000001
 51
0
  0
ARC
  8
_0-0_0
  6
CONTINUOUS
 62
    7
 10
132.50240350000001
 20
775.29998799999998
 40
3
 50
0
 51
90.000003000000007
  0
LINE
  8
_0-0_0
  6
CONTINUOUS
 62
    7
 10
132.50240350000001
 20
778.29998799999998
 11
117.50239550000003
 21
778.29998799999998
  0
ARC
  8
_0-0_0
  6
CONTINUOUS
 62
    7
 10
117.50239550000003
 20
775.29998799999998
 40
3
 50
90.000003000000007
 51
180.00000900000001
  0
ARC
  8
_0-0_0
  6
CONTINUOUS
 62
    7
 10
63.592079499999954
 20
763.78967299999999
 40
5.089683
 50
180.00000900000003
 51
269.99999700000001
  0
LINE
  8
_0-0_0
  6
CONTINUOUS
 62
    7
 10
63.592079499999954
 20
758.69998199999998
 11
74.85940549999998
 21
758.69998199999998
  0
ARC
  8
_0-0_0
  6
CONTINUOUS
 62
    7
 10
74.85940549999998
 20
762.34298699999999
 40
3.6429879999999999
 50
269.99999700000001
 51
0.0000099999999886
  0
LINE
  8
_0-0_0
  6
CONTINUOUS
 62
    7
 10
75.502395500000034
 20
778.29998799999998
 11
62.168456500000048
 21
778.29998799999998
  0
ARC
  8
_0-0_0
  6
CONTINUOUS
 62
    7
 10
62.168456500000048
 20
777.29998799999998
 40
1
 50
90.000003000000007
 51
172.23356100000001
  0
ARC
  8
_0-0_0
  6
CONTINUOUS
 62
    7
 10
59.502403500000014
 20
774.23767099999998
 40
1
 50
105.68034800000001
 51
180.00000900000001
  0
LINE
  8
_0-0_0
  6
CONTINUOUS
 62
    7
 10
116.90239750000001
 20
778.29998799999998
 11
116.90239750000001
 21
778.23937999999998
  0
LINE
  8
_0-0_0
  6
CONTINUOUS
 62
    7
 10
75.502395500000034
 20
758.75717199999997
 11
75.502395500000034
 21
758.704071
  0
LINE
  8
_0-0_0
  6
CONTINUOUS
 62
    7
 10
116.90239750000001
 20
758.76058999999998
 11
116.90239750000001
 21
758.704071
  0
LINE
  8
_0-0_0
  6
CONTINUOUS
 62
    7
 10
173.50240350000001
 20
760.84997599999997
 11
172.70240049999995
 21
760.04998799999998
  0
LINE
  8
_0-0_0
  6
CONTINUOUS
 62
    7
 10
187.50239750000003
 20
755.79998799999998
 11
187.00256550000006
 21
755.30014000000006
  0
LINE
  8
_0-0_0
  6
CONTINUOUS
 62
    7
 10
187.50239750000003
 20
772.39999399999999
 11
187.00256550000006
 21
771.90014700000006
  0
LINE
  8
_0-0_0
  6
CONTINUOUS
 62
    7
 10
174.70240049999995
 20
770.09997599999997
 11
232.70240050000007
 21
770.09997599999997
  0
LINE
  8
_0-0_0
  6
CONTINUOUS
 62
    7
 10
174.70240049999995
 20
762.09997599999997
 11
232.70240050000007
 21
762.09997599999997
  0
LINE
  8
_0-0_0
  6
CONTINUOUS
 62
    7
 10
187.50239750000003
 20
776.39999399999999
 11
187.00256550000006
 21
776.89984099999992
  0
LINE
  8
_0-0_0
  6
CONTINUOUS
 62
    7
 10
187.50239750000003
 20
759.79998799999998
 11
187.00256550000006
 21
760.29983500000003
  0
LINE
  8
_0-0_0
  6
CONTINUOUS
 62
    7
 10
177.50239650000003
 20
776.64999399999999
 11
177.75239650000003
 21
776.89999399999999
  0
LINE
  8
_0-0_0
  6
CONTINUOUS
 62
    7
 10
177.50239650000003
 20
772.14999399999999
 11
177.75239650000003
 21
771.89999399999999
  0
LINE
  8
_0-0_0
  6
CONTINUOUS
 62
    7
 10
177.50239650000003
 20
760.04998799999998
 11
177.75239650000003
 21
760.29998799999998
  0
LINE
  8
_0-0_0
  6
CONTINUOUS
 62
    7
 10
177.50239650000003
 20
755.54998799999998
 11
177.75239650000003
 21
755.29998799999998
  0
LINE
  8
_0-0_0
  6
CONTINUOUS
 62
    7
 10
174.70240049999995
 20
770.63809199999992
 11
173.90239650000001
 21
771.09997599999997
  0
LINE
  8
_0-0_0
  6
CONTINUOUS
 62
    7
 10
174.70240049999995
 20
761.56185899999991
 11
173.90239650000001
 21
761.09997599999997
  0
LINE
  8
_0-0_0
  6
CONTINUOUS
 62
    7
 10
157.25235750000002
 20
776.64999399999999
 11
177.50239650000003
 21
776.64999399999999
  0
LINE
  8
_0-0_0
  6
CONTINUOUS
 62
    7
 10
172.70240049999995
 20
772.14999399999999
 11
177.50239650000003
 21
772.14999399999999
  0
LINE
  8
_0-0_0
  6
CONTINUOUS
 62
    7
 10
151.50240350000001
 20
760.04998799999998
 11
177.50239650000003
 21
760.04998799999998
  0
LINE
  8
_0-0_0
  6
CONTINUOUS
 62
    7
 10
151.50240350000001
 20
755.54998799999998
 11
177.50239650000003
 21
755.54998799999998
  0
LINE
  8
_0-0_0
  6
CONTINUOUS
 62
    7
 10
173.50240350000001
 20
771.09997599999997
 11
173.90239650000001
 21
771.09997599999997
  0
LINE
  8
_0-0_0
  6
CONTINUOUS
 62
    7
 10
173.50240350000001
 20
761.09997599999997
 11
173.90239650000001
 21
761.09997599999997
  0
LINE
  8
_0-0_0
  6
CONTINUOUS
 62
    7
 10
173.50240350000001
 20
771.34997599999997
 11
172.25240350000001
 21
772.59997599999997
  0
ARC
  8
_0-0_0
  6
CONTINUOUS
 62
    7
 10
51.502403500000014
 20
799.59997599999997
 40
8
 50
215.099627
 51
324.90037799999999
  0
LINE
  8
_0-0_0
  6
CONTINUOUS
 62
    7
 10
42.502403500000014
 20
794.99997000000008
 11
44.95717650000006
 21
794.99997000000008
  0
LINE
  8
_0-0_0
  6
CONTINUOUS
 62
    7
 10
42.502403500000014
 20
781.79998799999998
 11
42.502403500000014
 21
794.99997000000008
  0
LINE
  8
_0-0_0
  6
CONTINUOUS
 62
    7
 10
1515.5025025
 20
781.79998799999998
 11
1515.5025025
 21
794.99997000000008
  0
LINE
  8
_0-0_0
  6
CONTINUOUS
 62
    7
 10
1513.0477905
 20
794.99997000000008
 11
1515.5025025
 21
794.99997000000008
  0
ARC
  8
_0-0_0
  6
CONTINUOUS
 62
    7
 10
1506.5025025
 20
799.59997599999997
 40
8
 50
215.099627
 51
324.90037799999999
  0
LINE
  8
_0-0_0
  6
CONTINUOUS
 62
    7
 10
58.047630499999968
 20
794.99997000000008
 11
1499.9572145
 21
794.99997000000008
  0
LINE
  8
_0-0_0
  6
CONTINUOUS
 62
    7
 10
58.047630499999968
 20
794.99997000000008
 11
58.136611500000072
 21
795.12927300000001
  0
LINE
  8
_0-0_0
  6
CONTINUOUS
 62
    7
 10
1499.9572145
 20
794.99997000000008
 11
1499.8683475
 21
795.12927300000001
  0
LINE
  8
_0-0_0
  6
CONTINUOUS
 62
    7
 10
1513.2297974999999
 20
795.27069099999994
 11
1513.3113404999999
 21
795.39999399999999
  0
ARC
  8
_0-0_0
  6
CONTINUOUS
 62
    7
 10
1506.5025025
 20
799.59997599999997
 40
8
 50
328.33175599999993
 51
334.05550899999992
  0
LINE
  8
_0-0_0
  6
CONTINUOUS
 62
    7
 10
1513.6962275000001
 20
796.09997599999997
 11
1513.7902225
 21
796.29998799999998
  0
LINE
  8
_0-0_0
  6
CONTINUOUS
 62
    7
 10
1513.7902225
 20
796.29998799999998
 11
1513.8775025
 21
796.49997000000008
  0
ARC
  8
_0-0_0
  6
CONTINUOUS
 62
    7
 10
1506.5025025
 20
799.59997599999997
 40
8
 50
337.20097500000003
 51
342.54240199999998
  0
LINE
  8
_0-0_0
  6
CONTINUOUS
 62
    7
 10
1514.1339725
 20
797.19998199999998
 11
1514.1940305000001
 21
797.39999399999999
  0
LINE
  8
_0-0_0
  6
CONTINUOUS
 62
    7
 10
1514.1940305000001
 20
797.39999399999999
 11
1514.2484744999999
 21
797.59997599999997
  0
ARC
  8
_0-0_0
  6
CONTINUOUS
 62
    7
 10
1506.5025025
 20
799.59997599999997
 40
8
 50
345.52249499999999
 51
350.64797900000002
  0
LINE
  8
_0-0_0
  6
CONTINUOUS
 62
    7
 10
1514.3961795
 20
798.29998799999998
 11
1514.4265745
 21
798.49997000000008
  0
LINE
  8
_0-0_0
  6
CONTINUOUS
 62
    7
 10
1514.4265745
 20
798.49997000000008
 11
1514.4517215000001
 21
798.69998199999998
  0
ARC
  8
_0-0_0
  6
CONTINUOUS
 62
    7
 10
1506.5025025
 20
799.59997599999997
 40
8
 50
353.54056400000002
 51
358.56744600000002
  0
LINE
  8
_0-0_0
  6
CONTINUOUS
 62
    7
 10
1514.5000605
 20
799.39999399999999
 11
1514.5025025
 21
799.59997599999997
  0
LINE
  8
_0-0_0
  6
CONTINUOUS
 62
    7
 10
1498.5049435000001
 20
799.39999399999999
 11
1498.5025025
 21
799.59997599999997
  0
ARC
  8
_0-0_0
  6
CONTINUOUS
 62
    7
 10
1506.5025025
 20
799.59997599999997
 40
8
 50
181.432545
 51
186.45945499999999
  0
LINE
  8
_0-0_0
  6
CONTINUOUS
 62
    7
 10
1498.5784305
 20
798.49997000000008
 11
1498.5532834999999
 21
798.69998199999998
  0
LINE
  8
_0-0_0
  6
CONTINUOUS
 62
    7
 10
1498.6088255
 20
798.29998799999998
 11
1498.5784305
 21
798.49997000000008
  0
ARC
  8
_0-0_0
  6
CONTINUOUS
 62
    7
 10
1506.5025025
 20
799.59997599999997
 40
8
 50
189.35203999999999
 51
194.47751
  0
LINE
  8
_0-0_0
  6
CONTINUOUS
 62
    7
 10
1498.8109744999999
 20
797.39999399999999
 11
1498.7565305000001
 21
797.59997599999997
  0
LINE
  8
_0-0_0
  6
CONTINUOUS
 62
    7
 10
1498.8710325
 20
797.19998199999998
 11
1498.8109744999999
 21
797.39999399999999
  0
ARC
  8
_0-0_0
  6
CONTINUOUS
 62
    7
 10
1506.5025025
 20
799.59997599999997
 40
8
 50
197.45760300000001
 51
202.79902999999999
  0
LINE
  8
_0-0_0
  6
CONTINUOUS
 62
    7
 10
1499.2147825
 20
796.29998799999998
 11
1499.1275025
 21
796.49997000000008
  0
LINE
  8
_0-0_0
  6
CONTINUOUS
 62
    7
 10
1499.3087765
 20
796.09997599999997
 11
1499.2147825
 21
796.29998799999998
  0
ARC
  8
_0-0_0
  6
CONTINUOUS
 62
    7
 10
1506.5025025
 20
799.59997599999997
 40
8
 50
205.94448199999999
 51
211.66823500000001
  0
LINE
  8
_0-0_0
  6
CONTINUOUS
 62
    7
 10
1499.7752075000001
 20
795.27069099999994
 11
1499.6936645000001
 21
795.39999399999999
  0
LINE
  8
_0-0_0
  6
CONTINUOUS
 62
    7
 10
1499.7752075000001
 20
795.27069099999994
 11
1499.8683475
 21
795.12927300000001
  0
LINE
  8
_0-0_0
  6
CONTINUOUS
 62
    7
 10
1513.0477905
 20
794.99997000000008
 11
1513.1366575
 21
795.12927300000001
  0
LINE
  8
_0-0_0
  6
CONTINUOUS
 62
    7
 10
1513.2297974999999
 20
795.27069099999994
 11
1513.1366575
 21
795.12927300000001
  0
LINE
  8
_0-0_0
  6
CONTINUOUS
 62
    7
 10
1515.5025025
 20
795.12927300000001
 11
1515.5025025
 21
794.99997000000008
  0
LINE
  8
_0-0_0
  6
CONTINUOUS
 62
    7
 10
1515.5025025
 20
803.92929099999992
 11
1515.5025025
 21
804.07070899999997
  0
LINE
  8
_0-0_0
  6
CONTINUOUS
 62
    7
 10
1515.5025025
 20
803.92929099999992
 11
1515.5025025
 21
803.79998799999998
  0
LINE
  8
_0-0_0
  6
CONTINUOUS
 62
    7
 10
1515.5025025
 20
803.09997599999997
 11
1515.5025025
 21
803.79998799999998
  0
LINE
  8
_0-0_0
  6
CONTINUOUS
 62
    7
 10
1515.5025025
 20
802.89999399999999
 11
1515.5025025
 21
803.09997599999997
  0
LINE
  8
_0-0_0
  6
CONTINUOUS
 62
    7
 10
1515.5025025
 20
802.89999399999999
 11
1515.5025025
 21
802.69998199999998
  0
LINE
  8
_0-0_0
  6
CONTINUOUS
 62
    7
 10
1515.5025025
 20
801.99997000000008
 11
1515.5025025
 21
802.69998199999998
  0
LINE
  8
_0-0_0
  6
CONTINUOUS
 62
    7
 10
1515.5025025
 20
801.79998799999998
 11
1515.5025025
 21
801.99997000000008
  0
LINE
  8
_0-0_0
  6
CONTINUOUS
 62
    7
 10
1515.5025025
 20
801.79998799999998
 11
1515.5025025
 21
801.59997599999997
  0
LINE
  8
_0-0_0
  6
CONTINUOUS
 62
    7
 10
1515.5025025
 20
800.89999399999999
 11
1515.5025025
 21
801.59997599999997
  0
LINE
  8
_0-0_0
  6
CONTINUOUS
 62
    7
 10
1515.5025025
 20
800.69998199999998
 11
1515.5025025
 21
800.89999399999999
  0
LINE
  8
_0-0_0
  6
CONTINUOUS
 62
    7
 10
1515.5025025
 20
800.69998199999998
 11
1515.5025025
 21
800.49997000000008
  0
LINE
  8
_0-0_0
  6
CONTINUOUS
 62
    7
 10
1515.5025025
 20
799.79998799999998
 11
1515.5025025
 21
800.49997000000008
  0
LINE
  8
_0-0_0
  6
CONTINUOUS
 62
    7
 10
1515.5025025
 20
799.59997599999997
 11
1515.5025025
 21
799.79998799999998
  0
LINE
  8
_0-0_0
  6
CONTINUOUS
 62
    7
 10
1515.5025025
 20
799.59997599999997
 11
1515.5025025
 21
799.39999399999999
  0
LINE
  8
_0-0_0
  6
CONTINUOUS
 62
    7
 10
1515.5025025
 20
798.69998199999998
 11
1515.5025025
 21
799.39999399999999
  0
LINE
  8
_0-0_0
  6
CONTINUOUS
 62
    7
 10
1515.5025025
 20
798.49997000000008
 11
1515.5025025
 21
798.69998199999998
  0
LINE
  8
_0-0_0
  6
CONTINUOUS
 62
    7
 10
1515.5025025
 20
798.49997000000008
 11
1515.5025025
 21
798.29998799999998
  0
LINE
  8
_0-0_0
  6
CONTINUOUS
 62
    7
 10
1515.5025025
 20
797.59997599999997
 11
1515.5025025
 21
798.29998799999998
  0
LINE
  8
_0-0_0
  6
CONTINUOUS
 62
    7
 10
1515.5025025
 20
797.39999399999999
 11
1515.5025025
 21
797.59997599999997
  0
LINE
  8
_0-0_0
  6
CONTINUOUS
 62
    7
 10
1515.5025025
 20
797.39999399999999
 11
1515.5025025
 21
797.19998199999998
  0
LINE
  8
_0-0_0
  6
CONTINUOUS
 62
    7
 10
1515.5025025
 20
796.49997000000008
 11
1515.5025025
 21
797.19998199999998
  0
LINE
  8
_0-0_0
  6
CONTINUOUS
 62
    7
 10
1515.5025025
 20
796.29998799999998
 11
1515.5025025
 21
796.49997000000008
  0
LINE
  8
_0-0_0
  6
CONTINUOUS
 62
    7
 10
1515.5025025
 20
796.29998799999998
 11
1515.5025025
 21
796.09997599999997
  0
LINE
  8
_0-0_0
  6
CONTINUOUS
 62
    7
 10
1515.5025025
 20
795.39999399999999
 11
1515.5025025
 21
796.09997599999997
  0
LINE
  8
_0-0_0
  6
CONTINUOUS
 62
    7
 10
1515.5025025
 20
795.27069099999994
 11
1515.5025025
 21
795.39999399999999
  0
LINE
  8
_0-0_0
  6
CONTINUOUS
 62
    7
 10
1515.5025025
 20
795.12927300000001
 11
1515.5025025
 21
795.27069099999994
  0
LINE
  8
_0-0_0
  6
CONTINUOUS
 62
    7
 10
1515.5025025
 20
781.29998799999998
 11
1515.5025025
 21
781.79998799999998
  0
LINE
  8
_0-0_0
  6
CONTINUOUS
 62
    7
 10
1515.5025025
 20
809.79998799999998
 11
1515.5025025
 21
809.20602400000007
  0
LINE
  8
_0-0_0
  6
CONTINUOUS
 62
    7
 10
1515.5025025
 20
804.19998199999998
 11
1515.5025025
 21
809.20602400000007
  0
LINE
  8
_0-0_0
  6
CONTINUOUS
 62
    7
 10
1515.5025025
 20
804.07070899999997
 11
1515.5025025
 21
804.19998199999998
  0
LINE
  8
_0-0_0
  6
CONTINUOUS
 62
    7
 10
42.502403500000014
 20
781.29998799999998
 11
42.502403500000014
 21
781.79998799999998
  0
LINE
  8
_0-0_0
  6
CONTINUOUS
 62
    7
 10
42.502403500000014
 20
781.29998799999998
 11
1515.5025025
 21
781.29998799999998
  0
LINE
  8
_0-0_0
  6
CONTINUOUS
 62
    7
 10
42.502403500000014
 20
795.12927300000001
 11
42.502403500000014
 21
795.27069099999994
  0
LINE
  8
_0-0_0
  6
CONTINUOUS
 62
    7
 10
42.502403500000014
 20
795.12927300000001
 11
42.502403500000014
 21
794.99997000000008
  0
LINE
  8
_0-0_0
  6
CONTINUOUS
 62
    7
 10
42.502403500000014
 20
809.79998799999998
 11
42.502403500000014
 21
809.20602400000007
  0
LINE
  8
_0-0_0
  6
CONTINUOUS
 62
    7
 10
42.502403500000014
 20
804.19998199999998
 11
42.502403500000014
 21
809.20602400000007
  0
LINE
  8
_0-0_0
  6
CONTINUOUS
 62
    7
 10
42.502403500000014
 20
804.07070899999997
 11
42.502403500000014
 21
804.19998199999998
  0
LINE
  8
_0-0_0
  6
CONTINUOUS
 62
    7
 10
42.502403500000014
 20
803.92929099999992
 11
42.502403500000014
 21
804.07070899999997
  0
LINE
  8
_0-0_0
  6
CONTINUOUS
 62
    7
 10
42.502403500000014
 20
803.92929099999992
 11
42.502403500000014
 21
803.79998799999998
  0
LINE
  8
_0-0_0
  6
CONTINUOUS
 62
    7
 10
42.502403500000014
 20
803.09997599999997
 11
42.502403500000014
 21
803.79998799999998
  0
LINE
  8
_0-0_0
  6
CONTINUOUS
 62
    7
 10
42.502403500000014
 20
802.97070299999996
 11
42.502403500000014
 21
803.09997599999997
  0
LINE
  8
_0-0_0
  6
CONTINUOUS
 62
    7
 10
42.502403500000014
 20
802.82928500000003
 11
42.502403500000014
 21
802.97070299999996
  0
LINE
  8
_0-0_0
  6
CONTINUOUS
 62
    7
 10
42.502403500000014
 20
802.82928500000003
 11
42.502403500000014
 21
802.69998199999998
  0
LINE
  8
_0-0_0
  6
CONTINUOUS
 62
    7
 10
42.502403500000014
 20
801.99997000000008
 11
42.502403500000014
 21
802.69998199999998
  0
LINE
  8
_0-0_0
  6
CONTINUOUS
 62
    7
 10
42.502403500000014
 20
801.87069700000006
 11
42.502403500000014
 21
801.99997000000008
  0
LINE
  8
_0-0_0
  6
CONTINUOUS
 62
    7
 10
42.502403500000014
 20
801.72927900000002
 11
42.502403500000014
 21
801.87069700000006
  0
LINE
  8
_0-0_0
  6
CONTINUOUS
 62
    7
 10
42.502403500000014
 20
801.72927900000002
 11
42.502403500000014
 21
801.59997599999997
  0
LINE
  8
_0-0_0
  6
CONTINUOUS
 62
    7
 10
42.502403500000014
 20
800.89999399999999
 11
42.502403500000014
 21
801.59997599999997
  0
LINE
  8
_0-0_0
  6
CONTINUOUS
 62
    7
 10
42.502403500000014
 20
800.77069099999994
 11
42.502403500000014
 21
800.89999399999999
  0
LINE
  8
_0-0_0
  6
CONTINUOUS
 62
    7
 10
42.502403500000014
 20
800.62927300000001
 11
42.502403500000014
 21
800.77069099999994
  0
LINE
  8
_0-0_0
  6
CONTINUOUS
 62
    7
 10
42.502403500000014
 20
800.62927300000001
 11
42.502403500000014
 21
800.49997000000008
  0
LINE
  8
_0-0_0
  6
CONTINUOUS
 62
    7
 10
42.502403500000014
 20
799.79998799999998
 11
42.502403500000014
 21
800.49997000000008
  0
LINE
  8
_0-0_0
  6
CONTINUOUS
 62
    7
 10
42.502403500000014
 20
799.67068500000005
 11
42.502403500000014
 21
799.79998799999998
  0
LINE
  8
_0-0_0
  6
CONTINUOUS
 62
    7
 10
42.502403500000014
 20
799.52926600000001
 11
42.502403500000014
 21
799.67068500000005
  0
LINE
  8
_0-0_0
  6
CONTINUOUS
 62
    7
 10
42.502403500000014
 20
799.52926600000001
 11
42.502403500000014
 21
799.39999399999999
  0
LINE
  8
_0-0_0
  6
CONTINUOUS
 62
    7
 10
42.502403500000014
 20
798.69998199999998
 11
42.502403500000014
 21
799.39999399999999
  0
LINE
  8
_0-0_0
  6
CONTINUOUS
 62
    7
 10
42.502403500000014
 20
798.57070899999997
 11
42.502403500000014
 21
798.69998199999998
  0
LINE
  8
_0-0_0
  6
CONTINUOUS
 62
    7
 10
42.502403500000014
 20
798.42929099999992
 11
42.502403500000014
 21
798.57070899999997
  0
LINE
  8
_0-0_0
  6
CONTINUOUS
 62
    7
 10
42.502403500000014
 20
798.42929099999992
 11
42.502403500000014
 21
798.29998799999998
  0
LINE
  8
_0-0_0
  6
CONTINUOUS
 62
    7
 10
42.502403500000014
 20
797.59997599999997
 11
42.502403500000014
 21
798.29998799999998
  0
LINE
  8
_0-0_0
  6
CONTINUOUS
 62
    7
 10
42.502403500000014
 20
797.47070299999996
 11
42.502403500000014
 21
797.59997599999997
  0
LINE
  8
_0-0_0
  6
CONTINUOUS
 62
    7
 10
42.502403500000014
 20
797.32928500000003
 11
42.502403500000014
 21
797.47070299999996
  0
LINE
  8
_0-0_0
  6
CONTINUOUS
 62
    7
 10
42.502403500000014
 20
797.32928500000003
 11
42.502403500000014
 21
797.19998199999998
  0
LINE
  8
_0-0_0
  6
CONTINUOUS
 62
    7
 10
42.502403500000014
 20
796.49997000000008
 11
42.502403500000014
 21
797.19998199999998
  0
LINE
  8
_0-0_0
  6
CONTINUOUS
 62
    7
 10
42.502403500000014
 20
796.37069700000006
 11
42.502403500000014
 21
796.49997000000008
  0
LINE
  8
_0-0_0
  6
CONTINUOUS
 62
    7
 10
42.502403500000014
 20
796.22927900000002
 11
42.502403500000014
 21
796.37069700000006
  0
LINE
  8
_0-0_0
  6
CONTINUOUS
 62
    7
 10
42.502403500000014
 20
796.22927900000002
 11
42.502403500000014
 21
796.09997599999997
  0
LINE
  8
_0-0_0
  6
CONTINUOUS
 62
    7
 10
42.502403500000014
 20
795.39999399999999
 11
42.502403500000014
 21
796.09997599999997
  0
LINE
  8
_0-0_0
  6
CONTINUOUS
 62
    7
 10
42.502403500000014
 20
795.27069099999994
 11
42.502403500000014
 21
795.39999399999999
  0
LINE
  8
_0-0_0
  6
CONTINUOUS
 62
    7
 10
44.95717650000006
 20
794.99997000000008
 11
44.868186499999979
 21
795.12927300000001
  0
LINE
  8
_0-0_0
  6
CONTINUOUS
 62
    7
 10
58.22975150000002
 20
795.27069099999994
 11
58.136611500000072
 21
795.12927300000001
  0
LINE
  8
_0-0_0
  6
CONTINUOUS
 62
    7
 10
58.22975150000002
 20
795.27069099999994
 11
58.311218499999995
 21
795.39999399999999
  0
ARC
  8
_0-0_0
  6
CONTINUOUS
 62
    7
 10
51.502403500000014
 20
799.59997599999997
 40
8
 50
328.33175599999993
 51
334.05550899999992
  0
LINE
  8
_0-0_0
  6
CONTINUOUS
 62
    7
 10
58.696144499999946
 20
796.09997599999997
 11
58.790061499999979
 21
796.29998799999998
  0
LINE
  8
_0-0_0
  6
CONTINUOUS
 62
    7
 10
58.790061499999979
 20
796.29998799999998
 11
58.877357500000016
 21
796.49997000000008
  0
ARC
  8
_0-0_0
  6
CONTINUOUS
 62
    7
 10
51.502403500000014
 20
799.59997599999997
 40
8
 50
337.20097500000003
 51
342.54240199999998
  0
LINE
  8
_0-0_0
  6
CONTINUOUS
 62
    7
 10
59.13391850000005
 20
797.19998199999998
 11
59.193954500000018
 21
797.39999399999999
  0
LINE
  8
_0-0_0
  6
CONTINUOUS
 62
    7
 10
59.193954500000018
 20
797.39999399999999
 11
59.248367499999972
 21
797.59997599999997
  0
ARC
  8
_0-0_0
  6
CONTINUOUS
 62
    7
 10
51.502403500000014
 20
799.59997599999997
 40
8
 50
345.52249499999999
 51
350.64797900000002
  0
LINE
  8
_0-0_0
  6
CONTINUOUS
 62
    7
 10
59.396064499999966
 20
798.29998799999998
 11
59.426414499999964
 21
798.49997000000008
  0
LINE
  8
_0-0_0
  6
CONTINUOUS
 62
    7
 10
59.426414499999964
 20
798.49997000000008
 11
59.451614500000005
 21
798.69998199999998
  0
ARC
  8
_0-0_0
  6
CONTINUOUS
 62
    7
 10
51.502403500000014
 20
799.59997599999997
 40
8
 50
353.54056400000002
 51
358.56744600000002
  0
LINE
  8
_0-0_0
  6
CONTINUOUS
 62
    7
 10
59.499900499999967
 20
799.39999399999999
 11
59.502403500000014
 21
799.59997599999997
  0
LINE
  8
_0-0_0
  6
CONTINUOUS
 62
    7
 10
43.50270850000004
 20
799.52926600000001
 11
43.502403500000014
 21
799.59997599999997
  0
LINE
  8
_0-0_0
  6
CONTINUOUS
 62
    7
 10
43.504898499999967
 20
799.39999399999999
 11
43.50270850000004
 21
799.52926600000001
  0
ARC
  8
_0-0_0
  6
CONTINUOUS
 62
    7
 10
51.502403500000014
 20
799.59997599999997
 40
8
 50
181.432545
 51
186.45945499999999
  0
LINE
  8
_0-0_0
  6
CONTINUOUS
 62
    7
 10
43.568885499999965
 20
798.57070899999997
 11
43.553184500000043
 21
798.69998199999998
  0
LINE
  8
_0-0_0
  6
CONTINUOUS
 62
    7
 10
43.568885499999965
 20
798.57070899999997
 11
43.588523500000065
 21
798.42929099999992
  0
LINE
  8
_0-0_0
  6
CONTINUOUS
 62
    7
 10
43.608726499999989
 20
798.29998799999998
 11
43.588523500000065
 21
798.42929099999992
  0
ARC
  8
_0-0_0
  6
CONTINUOUS
 62
    7
 10
51.502403500000014
 20
799.59997599999997
 40
8
 50
189.35203999999999
 51
194.47751
  0
LINE
  8
_0-0_0
  6
CONTINUOUS
 62
    7
 10
43.79096949999996
 20
797.47070299999996
 11
43.756431499999962
 21
797.59997599999997
  0
LINE
  8
_0-0_0
  6
CONTINUOUS
 62
    7
 10
43.79096949999996
 20
797.47070299999996
 11
43.831428500000015
 21
797.32928500000003
  0
LINE
  8
_0-0_0
  6
CONTINUOUS
 62
    7
 10
43.870887499999981
 20
797.19998199999998
 11
43.831428500000015
 21
797.32928500000003
  0
ARC
  8
_0-0_0
  6
CONTINUOUS
 62
    7
 10
51.502403500000014
 20
799.59997599999997
 40
8
 50
197.45760300000001
 51
202.79902999999999
  0
LINE
  8
_0-0_0
  6
CONTINUOUS
 62
    7
 10
44.183128500000066
 20
796.37069700000006
 11
44.127441500000032
 21
796.49997000000008
  0
LINE
  8
_0-0_0
  6
CONTINUOUS
 62
    7
 10
44.183128500000066
 20
796.37069700000006
 11
44.247169500000041
 21
796.22927900000002
  0
LINE
  8
_0-0_0
  6
CONTINUOUS
 62
    7
 10
44.308647500000006
 20
796.09997599999997
 11
44.247169500000041
 21
796.22927900000002
  0
ARC
  8
_0-0_0
  6
CONTINUOUS
 62
    7
 10
51.502403500000014
 20
799.59997599999997
 40
8
 50
205.94448199999999
 51
211.66823500000001
  0
LINE
  8
_0-0_0
  6
CONTINUOUS
 62
    7
 10
44.775047500000028
 20
795.27069099999994
 11
44.693580500000053
 21
795.39999399999999
  0
LINE
  8
_0-0_0
  6
CONTINUOUS
 62
    7
 10
44.775047500000028
 20
795.27069099999994
 11
44.868186499999979
 21
795.12927300000001
  0
LINE
  8
_0-0_0
  6
CONTINUOUS
 62
    7
 10
1433.0025025
 20
787.29998799999998
 11
1440.0025025
 21
787.29998799999998
  0
ARC
  8
_0-0_0
  6
CONTINUOUS
 62
    7
 10
1433.0025025
 20
786.79998799999998
 40
0.5
 50
90.000003000000007
 51
180.00000900000001
  0
LINE
  8
_0-0_0
  6
CONTINUOUS
 62
    7
 10
1432.5025025
 20
786.79998799999998
 11
1432.5025025
 21
782.79998799999998
  0
ARC
  8
_0-0_0
  6
CONTINUOUS
 62
    7
 10
1433.0025025
 20
782.79998799999998
 40
0.5
 50
180.00000900000003
 51
269.99999700000001
  0
LINE
  8
_0-0_0
  6
CONTINUOUS
 62
    7
 10
1440.0025025
 20
782.29998799999998
 11
1433.0025025
 21
782.29998799999998
  0
ARC
  8
_0-0_0
  6
CONTINUOUS
 62
    7
 10
1440.0025025
 20
782.79998799999998
 40
0.5
 50
269.99999700000001
 51
0
  0
LINE
  8
_0-0_0
  6
CONTINUOUS
 62
    7
 10
1440.5025025
 20
782.79998799999998
 11
1440.5025025
 21
786.79998799999998
  0
ARC
  8
_0-0_0
  6
CONTINUOUS
 62
    7
 10
1440.0025025
 20
786.79998799999998
 40
0.5
 50
0
 51
90.000003000000007
  0
ARC
  8
_0-0_0
  6
CONTINUOUS
 62
    7
 10
93.002395500000034
 20
786.79998799999998
 40
0.5
 50
90.000003000000007
 51
180.00000900000001
  0
LINE
  8
_0-0_0
  6
CONTINUOUS
 62
    7
 10
92.502395500000034
 20
786.79998799999998
 11
92.502395500000034
 21
782.79998799999998
  0
ARC
  8
_0-0_0
  6
CONTINUOUS
 62
    7
 10
93.002395500000034
 20
782.79998799999998
 40
0.5
 50
180.00000900000003
 51
269.99999700000001
  0
LINE
  8
_0-0_0
  6
CONTINUOUS
 62
    7
 10
100.00239550000003
 20
782.29998799999998
 11
93.002395500000034
 21
782.29998799999998
  0
ARC
  8
_0-0_0
  6
CONTINUOUS
 62
    7
 10
100.00239550000003
 20
782.79998799999998
 40
0.5
 50
269.99999700000001
 51
0
  0
LINE
  8
_0-0_0
  6
CONTINUOUS
 62
    7
 10
100.50239550000003
 20
782.79998799999998
 11
100.50239550000003
 21
786.79998799999998
  0
ARC
  8
_0-0_0
  6
CONTINUOUS
 62
    7
 10
100.00239550000003
 20
786.79998799999998
 40
0.5
 50
0
 51
90.000003000000007
  0
LINE
  8
_0-0_0
  6
CONTINUOUS
 62
    7
 10
93.002395500000034
 20
787.29998799999998
 11
100.00239550000003
 21
787.29998799999998
  0
LINE
  8
_0-0_0
  6
CONTINUOUS
 62
    7
 10
58.311218499999995
 20
795.39999399999999
 11
1499.6936645000001
 21
795.39999399999999
  0
LINE
  8
_0-0_0
  6
CONTINUOUS
 62
    7
 10
58.696144499999946
 20
796.09997599999997
 11
1499.3087765
 21
796.09997599999997
  0
LINE
  8
_0-0_0
  6
CONTINUOUS
 62
    7
 10
58.790061499999979
 20
796.29998799999998
 11
1499.2147825
 21
796.29998799999998
  0
LINE
  8
_0-0_0
  6
CONTINUOUS
 62
    7
 10
58.877357500000016
 20
796.49997000000008
 11
1499.1275025
 21
796.49997000000008
  0
LINE
  8
_0-0_0
  6
CONTINUOUS
 62
    7
 10
59.13391850000005
 20
797.19998199999998
 11
1498.8710325
 21
797.19998199999998
  0
LINE
  8
_0-0_0
  6
CONTINUOUS
 62
    7
 10
59.193954500000018
 20
797.39999399999999
 11
1498.8109744999999
 21
797.39999399999999
  0
LINE
  8
_0-0_0
  6
CONTINUOUS
 62
    7
 10
59.248367499999972
 20
797.59997599999997
 11
1498.7565305000001
 21
797.59997599999997
  0
LINE
  8
_0-0_0
  6
CONTINUOUS
 62
    7
 10
59.396064499999966
 20
798.29998799999998
 11
1498.6088255
 21
798.29998799999998
  0
LINE
  8
_0-0_0
  6
CONTINUOUS
 62
    7
 10
59.426414499999964
 20
798.49997000000008
 11
1498.5784305
 21
798.49997000000008
  0
LINE
  8
_0-0_0
  6
CONTINUOUS
 62
    7
 10
59.451614500000005
 20
798.69998199999998
 11
1498.5532834999999
 21
798.69998199999998
  0
LINE
  8
_0-0_0
  6
CONTINUOUS
 62
    7
 10
59.499900499999967
 20
799.39999399999999
 11
1498.5049435000001
 21
799.39999399999999
  0
LINE
  8
_0-0_0
  6
CONTINUOUS
 62
    7
 10
59.502403500000014
 20
799.59997599999997
 11
1498.5025025
 21
799.59997599999997
  0
LINE
  8
_0-0_0
  6
CONTINUOUS
 62
    7
 10
1513.0477905
 20
804.19998199999998
 11
1513.1366575
 21
804.07070899999997
  0
ARC
  8
_0-0_0
  6
CONTINUOUS
 62
    7
 10
1506.5025025
 20
799.59997599999997
 40
8
 50
35.099632
 51
144.900373
  0
LINE
  8
_0-0_0
  6
CONTINUOUS
 62
    7
 10
1499.9572145
 20
804.19998199999998
 11
1499.8683475
 21
804.07070899999997
  0
LINE
  8
_0-0_0
  6
CONTINUOUS
 62
    7
 10
1499.7752075000001
 20
803.92929099999992
 11
1499.8683475
 21
804.07070899999997
  0
LINE
  8
_0-0_0
  6
CONTINUOUS
 62
    7
 10
1499.7752075000001
 20
803.92929099999992
 11
1499.6936645000001
 21
803.79998799999998
  0
ARC
  8
_0-0_0
  6
CONTINUOUS
 62
    7
 10
1506.5025025
 20
799.59997599999997
 40
8
 50
148.33176499999999
 51
154.05551800000001
  0
LINE
  8
_0-0_0
  6
CONTINUOUS
 62
    7
 10
1499.3087765
 20
803.09997599999997
 11
1499.2147825
 21
802.89999399999999
  0
LINE
  8
_0-0_0
  6
CONTINUOUS
 62
    7
 10
1499.2147825
 20
802.89999399999999
 11
1499.1275025
 21
802.69998199999998
  0
ARC
  8
_0-0_0
  6
CONTINUOUS
 62
    7
 10
1506.5025025
 20
799.59997599999997
 40
8
 50
157.20097000000001
 51
162.54239699999999
  0
LINE
  8
_0-0_0
  6
CONTINUOUS
 62
    7
 10
1498.8710325
 20
801.99997000000008
 11
1498.8109744999999
 21
801.79998799999998
  0
LINE
  8
_0-0_0
  6
CONTINUOUS
 62
    7
 10
1498.8109744999999
 20
801.79998799999998
 11
1498.7565305000001
 21
801.59997599999997
  0
ARC
  8
_0-0_0
  6
CONTINUOUS
 62
    7
 10
1506.5025025
 20
799.59997599999997
 40
8
 50
165.52249
 51
170.64796000000001
  0
LINE
  8
_0-0_0
  6
CONTINUOUS
 62
    7
 10
1498.6088255
 20
800.89999399999999
 11
1498.5784305
 21
800.69998199999998
  0
LINE
  8
_0-0_0
  6
CONTINUOUS
 62
    7
 10
1498.5784305
 20
800.69998199999998
 11
1498.5532834999999
 21
800.49997000000008
  0
ARC
  8
_0-0_0
  6
CONTINUOUS
 62
    7
 10
1506.5025025
 20
799.59997599999997
 40
8
 50
173.54054500000001
 51
178.567455
  0
LINE
  8
_0-0_0
  6
CONTINUOUS
 62
    7
 10
1498.5049435000001
 20
799.79998799999998
 11
1498.5025025
 21
799.59997599999997
  0
LINE
  8
_0-0_0
  6
CONTINUOUS
 62
    7
 10
1514.5000605
 20
799.79998799999998
 11
1514.5025025
 21
799.59997599999997
  0
ARC
  8
_0-0_0
  6
CONTINUOUS
 62
    7
 10
1506.5025025
 20
799.59997599999997
 40
8
 50
1.432544
 51
6.4594489999999993
  0
LINE
  8
_0-0_0
  6
CONTINUOUS
 62
    7
 10
1514.4265745
 20
800.69998199999998
 11
1514.4517215000001
 21
800.49997000000008
  0
LINE
  8
_0-0_0
  6
CONTINUOUS
 62
    7
 10
1514.3961795
 20
800.89999399999999
 11
1514.4265745
 21
800.69998199999998
  0
ARC
  8
_0-0_0
  6
CONTINUOUS
 62
    7
 10
1506.5025025
 20
799.59997599999997
 40
8
 50
9.3520350000000008
 51
14.477510999999998
  0
LINE
  8
_0-0_0
  6
CONTINUOUS
 62
    7
 10
1514.1940305000001
 20
801.79998799999998
 11
1514.2484744999999
 21
801.59997599999997
  0
LINE
  8
_0-0_0
  6
CONTINUOUS
 62
    7
 10
1514.1339725
 20
801.99997000000008
 11
1514.1940305000001
 21
801.79998799999998
  0
ARC
  8
_0-0_0
  6
CONTINUOUS
 62
    7
 10
1506.5025025
 20
799.59997599999997
 40
8
 50
17.457602999999999
 51
22.799030999999999
  0
LINE
  8
_0-0_0
  6
CONTINUOUS
 62
    7
 10
1513.7902225
 20
802.89999399999999
 11
1513.8775025
 21
802.69998199999998
  0
LINE
  8
_0-0_0
  6
CONTINUOUS
 62
    7
 10
1513.6962275000001
 20
803.09997599999997
 11
1513.7902225
 21
802.89999399999999
  0
ARC
  8
_0-0_0
  6
CONTINUOUS
 62
    7
 10
1506.5025025
 20
799.59997599999997
 40
8
 50
25.944476999999999
 51
31.668240000000001
  0
LINE
  8
_0-0_0
  6
CONTINUOUS
 62
    7
 10
1513.2297974999999
 20
803.92929099999992
 11
1513.3113404999999
 21
803.79998799999998
  0
LINE
  8
_0-0_0
  6
CONTINUOUS
 62
    7
 10
1513.2297974999999
 20
803.92929099999992
 11
1513.1366575
 21
804.07070899999997
  0
CIRCLE
  8
_0-0_0
  6
CONTINUOUS
 62
    7
 10
1506.5025025
 20
799.59997599999997
 40
7.5
  0
LINE
  8
_0-0_0
  6
CONTINUOUS
 62
    7
 10
1514.5000605
 20
799.39999399999999
 11
1515.5025025
 21
799.39999399999999
  0
LINE
  8
_0-0_0
  6
CONTINUOUS
 62
    7
 10
1514.5025025
 20
799.59997599999997
 11
1515.5025025
 21
799.59997599999997
  0
LINE
  8
_0-0_0
  6
CONTINUOUS
 62
    7
 10
1514.4517215000001
 20
798.69998199999998
 11
1515.5025025
 21
798.69998199999998
  0
LINE
  8
_0-0_0
  6
CONTINUOUS
 62
    7
 10
1514.4265745
 20
798.49997000000008
 11
1515.5025025
 21
798.49997000000008
  0
LINE
  8
_0-0_0
  6
CONTINUOUS
 62
    7
 10
1514.3961795
 20
798.29998799999998
 11
1515.5025025
 21
798.29998799999998
  0
LINE
  8
_0-0_0
  6
CONTINUOUS
 62
    7
 10
1514.2484744999999
 20
797.59997599999997
 11
1515.5025025
 21
797.59997599999997
  0
LINE
  8
_0-0_0
  6
CONTINUOUS
 62
    7
 10
1514.1940305000001
 20
797.39999399999999
 11
1515.5025025
 21
797.39999399999999
  0
LINE
  8
_0-0_0
  6
CONTINUOUS
 62
    7
 10
1514.1339725
 20
797.19998199999998
 11
1515.5025025
 21
797.19998199999998
  0
LINE
  8
_0-0_0
  6
CONTINUOUS
 62
    7
 10
1513.8775025
 20
796.49997000000008
 11
1515.5025025
 21
796.49997000000008
  0
LINE
  8
_0-0_0
  6
CONTINUOUS
 62
    7
 10
1513.7902225
 20
796.29998799999998
 11
1515.5025025
 21
796.29998799999998
  0
LINE
  8
_0-0_0
  6
CONTINUOUS
 62
    7
 10
1513.6962275000001
 20
796.09997599999997
 11
1515.5025025
 21
796.09997599999997
  0
LINE
  8
_0-0_0
  6
CONTINUOUS
 62
    7
 10
1513.3113404999999
 20
795.39999399999999
 11
1515.5025025
 21
795.39999399999999
  0
LINE
  8
_0-0_0
  6
CONTINUOUS
 62
    7
 10
1513.3113404999999
 20
803.79998799999998
 11
1515.5025025
 21
803.79998799999998
  0
LINE
  8
_0-0_0
  6
CONTINUOUS
 62
    7
 10
1513.6962275000001
 20
803.09997599999997
 11
1515.5025025
 21
803.09997599999997
  0
LINE
  8
_0-0_0
  6
CONTINUOUS
 62
    7
 10
1513.7902225
 20
802.89999399999999
 11
1515.5025025
 21
802.89999399999999
  0
LINE
  8
_0-0_0
  6
CONTINUOUS
 62
    7
 10
1513.8775025
 20
802.69998199999998
 11
1515.5025025
 21
802.69998199999998
  0
LINE
  8
_0-0_0
  6
CONTINUOUS
 62
    7
 10
1514.1339725
 20
801.99997000000008
 11
1515.5025025
 21
801.99997000000008
  0
LINE
  8
_0-0_0
  6
CONTINUOUS
 62
    7
 10
1514.1940305000001
 20
801.79998799999998
 11
1515.5025025
 21
801.79998799999998
  0
LINE
  8
_0-0_0
  6
CONTINUOUS
 62
    7
 10
1514.2484744999999
 20
801.59997599999997
 11
1515.5025025
 21
801.59997599999997
  0
LINE
  8
_0-0_0
  6
CONTINUOUS
 62
    7
 10
1514.3961795
 20
800.89999399999999
 11
1515.5025025
 21
800.89999399999999
  0
LINE
  8
_0-0_0
  6
CONTINUOUS
 62
    7
 10
1514.4265745
 20
800.69998199999998
 11
1515.5025025
 21
800.69998199999998
  0
LINE
  8
_0-0_0
  6
CONTINUOUS
 62
    7
 10
1514.4517215000001
 20
800.49997000000008
 11
1515.5025025
 21
800.49997000000008
  0
LINE
  8
_0-0_0
  6
CONTINUOUS
 62
    7
 10
1514.5000605
 20
799.79998799999998
 11
1515.5025025
 21
799.79998799999998
  0
LINE
  8
_0-0_0
  6
CONTINUOUS
 62
    7
 10
1516.0025025
 20
783.09997599999997
 11
1515.5025025
 21
783.09997599999997
  0
LINE
  8
_0-0_0
  6
CONTINUOUS
 62
    7
 10
1516.0025025
 20
785.29998799999998
 11
1515.5025025
 21
785.29998799999998
  0
LINE
  8
_0-0_0
  6
CONTINUOUS
 62
    7
 10
1516.0025025
 20
787.59997599999997
 11
1515.5025025
 21
787.59997599999997
  0
LINE
  8
_0-0_0
  6
CONTINUOUS
 62
    7
 10
42.502403500000014
 20
787.59997599999997
 11
42.002403500000014
 21
787.59997599999997
  0
LINE
  8
_0-0_0
  6
CONTINUOUS
 62
    7
 10
1515.5025025
 20
789.89999399999999
 11
1516.0025025
 21
789.89999399999999
  0
LINE
  8
_0-0_0
  6
CONTINUOUS
 62
    7
 10
1516.0025025
 20
810.09997599999997
 11
1516.0025025
 21
809.99997000000008
  0
LINE
  8
_0-0_0
  6
CONTINUOUS
 62
    7
 10
42.002403500000014
 20
810.09997599999997
 11
42.002403500000014
 21
809.99997000000008
  0
LINE
  8
_0-0_0
  6
CONTINUOUS
 62
    7
 10
42.002403500000014
 20
789.89999399999999
 11
42.502403500000014
 21
789.89999399999999
  0
LINE
  8
_0-0_0
  6
CONTINUOUS
 62
    7
 10
42.502403500000014
 20
809.79998799999998
 11
1515.5025025
 21
809.79998799999998
  0
LINE
  8
_0-0_0
  6
CONTINUOUS
 62
    7
 10
42.502403500000014
 20
809.20602400000007
 11
1515.5025025
 21
809.20602400000007
  0
LINE
  8
_0-0_0
  6
CONTINUOUS
 62
    7
 10
1513.0477905
 20
804.19998199999998
 11
1515.5025025
 21
804.19998199999998
  0
LINE
  8
_0-0_0
  6
CONTINUOUS
 62
    7
 10
42.502403500000014
 20
804.19998199999998
 11
44.95717650000006
 21
804.19998199999998
  0
ARC
  8
_0-0_0
  6
CONTINUOUS
 62
    7
 10
51.502403500000014
 20
799.59997599999997
 40
8
 50
35.099632
 51
144.900373
  0
LINE
  8
_0-0_0
  6
CONTINUOUS
 62
    7
 10
58.047630499999968
 20
804.19998199999998
 11
1499.9572145
 21
804.19998199999998
  0
LINE
  8
_0-0_0
  6
CONTINUOUS
 62
    7
 10
42.002403500000014
 20
783.09997599999997
 11
42.502395500000034
 21
783.09997599999997
  0
LINE
  8
_0-0_0
  6
CONTINUOUS
 62
    7
 10
42.502403500000014
 20
785.29998799999998
 11
42.002403500000014
 21
785.29998799999998
  0
LINE
  8
_0-0_0
  6
CONTINUOUS
 62
    7
 10
44.95717650000006
 20
804.19998199999998
 11
44.868186499999979
 21
804.07070899999997
  0
LINE
  8
_0-0_0
  6
CONTINUOUS
 62
    7
 10
44.775047500000028
 20
803.92929099999992
 11
44.868186499999979
 21
804.07070899999997
  0
LINE
  8
_0-0_0
  6
CONTINUOUS
 62
    7
 10
42.502403500000014
 20
803.79998799999998
 11
44.693580500000053
 21
803.79998799999998
  0
LINE
  8
_0-0_0
  6
CONTINUOUS
 62
    7
 10
44.775047500000028
 20
803.92929099999992
 11
44.693580500000053
 21
803.79998799999998
  0
ARC
  8
_0-0_0
  6
CONTINUOUS
 62
    7
 10
51.502403500000014
 20
799.59997599999997
 40
8
 50
148.33176499999999
 51
154.05551800000001
  0
LINE
  8
_0-0_0
  6
CONTINUOUS
 62
    7
 10
42.502403500000014
 20
803.09997599999997
 11
44.308647500000006
 21
803.09997599999997
  0
LINE
  8
_0-0_0
  6
CONTINUOUS
 62
    7
 10
44.308647500000006
 20
803.09997599999997
 11
44.247169500000041
 21
802.97070299999996
  0
LINE
  8
_0-0_0
  6
CONTINUOUS
 62
    7
 10
44.183128500000066
 20
802.82928500000003
 11
44.247169500000041
 21
802.97070299999996
  0
LINE
  8
_0-0_0
  6
CONTINUOUS
 62
    7
 10
42.502403500000014
 20
802.69998199999998
 11
44.127441500000032
 21
802.69998199999998
  0
LINE
  8
_0-0_0
  6
CONTINUOUS
 62
    7
 10
44.183128500000066
 20
802.82928500000003
 11
44.127441500000032
 21
802.69998199999998
  0
ARC
  8
_0-0_0
  6
CONTINUOUS
 62
    7
 10
51.502403500000014
 20
799.59997599999997
 40
8
 50
157.20097000000001
 51
162.54239699999999
  0
LINE
  8
_0-0_0
  6
CONTINUOUS
 62
    7
 10
42.502403500000014
 20
801.99997000000008
 11
43.870887499999981
 21
801.99997000000008
  0
LINE
  8
_0-0_0
  6
CONTINUOUS
 62
    7
 10
43.870887499999981
 20
801.99997000000008
 11
43.831428500000015
 21
801.87069700000006
  0
LINE
  8
_0-0_0
  6
CONTINUOUS
 62
    7
 10
43.79096949999996
 20
801.72927900000002
 11
43.831428500000015
 21
801.87069700000006
  0
LINE
  8
_0-0_0
  6
CONTINUOUS
 62
    7
 10
42.502403500000014
 20
801.59997599999997
 11
43.756431499999962
 21
801.59997599999997
  0
LINE
  8
_0-0_0
  6
CONTINUOUS
 62
    7
 10
43.79096949999996
 20
801.72927900000002
 11
43.756431499999962
 21
801.59997599999997
  0
ARC
  8
_0-0_0
  6
CONTINUOUS
 62
    7
 10
51.502403500000014
 20
799.59997599999997
 40
8
 50
165.52249
 51
170.64796000000001
  0
LINE
  8
_0-0_0
  6
CONTINUOUS
 62
    7
 10
42.502403500000014
 20
800.89999399999999
 11
43.608726499999989
 21
800.89999399999999
  0
LINE
  8
_0-0_0
  6
CONTINUOUS
 62
    7
 10
43.608726499999989
 20
800.89999399999999
 11
43.588523500000065
 21
800.77069099999994
  0
LINE
  8
_0-0_0
  6
CONTINUOUS
 62
    7
 10
43.568885499999965
 20
800.62927300000001
 11
43.588523500000065
 21
800.77069099999994
  0
LINE
  8
_0-0_0
  6
CONTINUOUS
 62
    7
 10
42.502403500000014
 20
800.49997000000008
 11
43.553184500000043
 21
800.49997000000008
  0
LINE
  8
_0-0_0
  6
CONTINUOUS
 62
    7
 10
43.568885499999965
 20
800.62927300000001
 11
43.553184500000043
 21
800.49997000000008
  0
ARC
  8
_0-0_0
  6
CONTINUOUS
 62
    7
 10
51.502403500000014
 20
799.59997599999997
 40
8
 50
173.54054500000001
 51
178.567455
  0
LINE
  8
_0-0_0
  6
CONTINUOUS
 62
    7
 10
42.502403500000014
 20
799.79998799999998
 11
43.504898499999967
 21
799.79998799999998
  0
LINE
  8
_0-0_0
  6
CONTINUOUS
 62
    7
 10
43.504898499999967
 20
799.79998799999998
 11
43.50270850000004
 21
799.67068500000005
  0
LINE
  8
_0-0_0
  6
CONTINUOUS
 62
    7
 10
43.502403500000014
 20
799.59997599999997
 11
43.50270850000004
 21
799.67068500000005
  0
LINE
  8
_0-0_0
  6
CONTINUOUS
 62
    7
 10
42.502403500000014
 20
799.39999399999999
 11
43.504898499999967
 21
799.39999399999999
  0
LINE
  8
_0-0_0
  6
CONTINUOUS
 62
    7
 10
42.502403500000014
 20
798.69998199999998
 11
43.553184500000043
 21
798.69998199999998
  0
LINE
  8
_0-0_0
  6
CONTINUOUS
 62
    7
 10
42.502403500000014
 20
798.29998799999998
 11
43.608726499999989
 21
798.29998799999998
  0
LINE
  8
_0-0_0
  6
CONTINUOUS
 62
    7
 10
42.502403500000014
 20
797.59997599999997
 11
43.756431499999962
 21
797.59997599999997
  0
LINE
  8
_0-0_0
  6
CONTINUOUS
 62
    7
 10
42.502403500000014
 20
797.19998199999998
 11
43.870887499999981
 21
797.19998199999998
  0
LINE
  8
_0-0_0
  6
CONTINUOUS
 62
    7
 10
42.502403500000014
 20
796.49997000000008
 11
44.127441500000032
 21
796.49997000000008
  0
LINE
  8
_0-0_0
  6
CONTINUOUS
 62
    7
 10
42.502403500000014
 20
796.09997599999997
 11
44.308647500000006
 21
796.09997599999997
  0
LINE
  8
_0-0_0
  6
CONTINUOUS
 62
    7
 10
42.502403500000014
 20
795.39999399999999
 11
44.693580500000053
 21
795.39999399999999
  0
LINE
  8
_0-0_0
  6
CONTINUOUS
 62
    7
 10
59.499900499999967
 20
799.79998799999998
 11
59.502403500000014
 21
799.59997599999997
  0
ARC
  8
_0-0_0
  6
CONTINUOUS
 62
    7
 10
51.502403500000014
 20
799.59997599999997
 40
8
 50
1.432544
 51
6.4594489999999993
  0
LINE
  8
_0-0_0
  6
CONTINUOUS
 62
    7
 10
59.426414499999964
 20
800.69998199999998
 11
59.451614500000005
 21
800.49997000000008
  0
LINE
  8
_0-0_0
  6
CONTINUOUS
 62
    7
 10
59.396064499999966
 20
800.89999399999999
 11
59.426414499999964
 21
800.69998199999998
  0
ARC
  8
_0-0_0
  6
CONTINUOUS
 62
    7
 10
51.502403500000014
 20
799.59997599999997
 40
8
 50
9.3520350000000008
 51
14.477510999999998
  0
LINE
  8
_0-0_0
  6
CONTINUOUS
 62
    7
 10
59.193954500000018
 20
801.79998799999998
 11
59.248367499999972
 21
801.59997599999997
  0
LINE
  8
_0-0_0
  6
CONTINUOUS
 62
    7
 10
59.13391850000005
 20
801.99997000000008
 11
59.193954500000018
 21
801.79998799999998
  0
ARC
  8
_0-0_0
  6
CONTINUOUS
 62
    7
 10
51.502403500000014
 20
799.59997599999997
 40
8
 50
17.457602999999999
 51
22.799030999999999
  0
LINE
  8
_0-0_0
  6
CONTINUOUS
 62
    7
 10
58.790061499999979
 20
802.89999399999999
 11
58.877357500000016
 21
802.69998199999998
  0
LINE
  8
_0-0_0
  6
CONTINUOUS
 62
    7
 10
58.696144499999946
 20
803.09997599999997
 11
58.790061499999979
 21
802.89999399999999
  0
ARC
  8
_0-0_0
  6
CONTINUOUS
 62
    7
 10
51.502403500000014
 20
799.59997599999997
 40
8
 50
25.944476999999999
 51
31.668240000000001
  0
LINE
  8
_0-0_0
  6
CONTINUOUS
 62
    7
 10
58.22975150000002
 20
803.92929099999992
 11
58.311218499999995
 21
803.79998799999998
  0
LINE
  8
_0-0_0
  6
CONTINUOUS
 62
    7
 10
58.22975150000002
 20
803.92929099999992
 11
58.136611500000072
 21
804.07070899999997
  0
LINE
  8
_0-0_0
  6
CONTINUOUS
 62
    7
 10
58.047630499999968
 20
804.19998199999998
 11
58.136611500000072
 21
804.07070899999997
  0
CIRCLE
  8
_0-0_0
  6
CONTINUOUS
 62
    7
 10
51.502403500000014
 20
799.59997599999997
 40
7.5
  0
LINE
  8
_0-0_0
  6
CONTINUOUS
 62
    7
 10
59.499900499999967
 20
799.79998799999998
 11
1498.5049435000001
 21
799.79998799999998
  0
LINE
  8
_0-0_0
  6
CONTINUOUS
 62
    7
 10
59.451614500000005
 20
800.49997000000008
 11
1498.5532834999999
 21
800.49997000000008
  0
LINE
  8
_0-0_0
  6
CONTINUOUS
 62
    7
 10
59.426414499999964
 20
800.69998199999998
 11
1498.5784305
 21
800.69998199999998
  0
LINE
  8
_0-0_0
  6
CONTINUOUS
 62
    7
 10
59.396064499999966
 20
800.89999399999999
 11
1498.6088255
 21
800.89999399999999
  0
LINE
  8
_0-0_0
  6
CONTINUOUS
 62
    7
 10
59.248367499999972
 20
801.59997599999997
 11
1498.7565305000001
 21
801.59997599999997
  0
LINE
  8
_0-0_0
  6
CONTINUOUS
 62
    7
 10
59.193954500000018
 20
801.79998799999998
 11
1498.8109744999999
 21
801.79998799999998
  0
LINE
  8
_0-0_0
  6
CONTINUOUS
 62
    7
 10
59.13391850000005
 20
801.99997000000008
 11
1498.8710325
 21
801.99997000000008
  0
LINE
  8
_0-0_0
  6
CONTINUOUS
 62
    7
 10
58.877357500000016
 20
802.69998199999998
 11
1499.1275025
 21
802.69998199999998
  0
LINE
  8
_0-0_0
  6
CONTINUOUS
 62
    7
 10
58.790061499999979
 20
802.89999399999999
 11
1499.2147825
 21
802.89999399999999
  0
LINE
  8
_0-0_0
  6
CONTINUOUS
 62
    7
 10
58.696144499999946
 20
803.09997599999997
 11
1499.3087765
 21
803.09997599999997
  0
LINE
  8
_0-0_0
  6
CONTINUOUS
 62
    7
 10
58.311218499999995
 20
803.79998799999998
 11
1499.6936645000001
 21
803.79998799999998
  0
LINE
  8
_0-0_0
  6
CONTINUOUS
 62
    7
 10
1516.0025025
 20
781.59997599999997
 11
1515.5025025
 21
781.59997599999997
  0
LINE
  8
_0-0_0
  6
CONTINUOUS
 62
    7
 10
1516.0025025
 20
809.19998199999998
 11
1516.0025025
 21
809.99997000000008
  0
LINE
  8
_0-0_0
  6
CONTINUOUS
 62
    7
 10
1516.0025025
 20
781.39999399999999
 11
1516.0025025
 21
809.19998199999998
  0
ARC
  8
_0-0_0
  6
CONTINUOUS
 62
    7
 10
1506.5025025
 20
800.29998799999998
 40
12.800000000000001
 50
73.932597000000001
 51
106.06740099999999
  0
LINE
  8
_0-0_0
  6
CONTINUOUS
 62
    7
 10
42.002403500000014
 20
809.19998199999998
 11
42.002403500000014
 21
809.99997000000008
  0
LINE
  8
_0-0_0
  6
CONTINUOUS
 62
    7
 10
42.002403500000014
 20
781.39999399999999
 11
42.002403500000014
 21
809.19998199999998
  0
ARC
  8
_0-0_0
  6
CONTINUOUS
 62
    7
 10
51.502403500000014
 20
800.29998799999998
 40
12.800000000000001
 50
73.932597000000001
 51
106.06740099999999
  0
LINE
  8
_0-0_0
  6
CONTINUOUS
 62
    7
 10
769.50238049999996
 20
812.59997599999997
 11
769.50238049999996
 21
818.23989899999992
  0
LINE
  8
_0-0_0
  6
CONTINUOUS
 62
    7
 10
788.50238049999996
 20
818.23989899999992
 11
788.50238049999996
 21
812.59997599999997
  0
LINE
  8
_0-0_0
  6
CONTINUOUS
 62
    7
 10
1516.0025025
 20
810.09997599999997
 11
1516.0025025
 21
812.59997599999997
  0
LINE
  8
_0-0_0
  6
CONTINUOUS
 62
    7
 10
42.002403500000014
 20
812.59997599999997
 11
1516.0025025
 21
812.59997599999997
  0
LINE
  8
_0-0_0
  6
CONTINUOUS
 62
    7
 10
42.002403500000014
 20
810.09997599999997
 11
42.002403500000014
 21
812.59997599999997
  0
LINE
  8
_0-0_0
  6
CONTINUOUS
 62
    7
 10
42.002403500000014
 20
781.59997599999997
 11
42.502395500000034
 21
781.59997599999997
  0
ARC
  8
_0-0_0
  6
CONTINUOUS
 62
    7
 10
1437.8025514999999
 20
786.49997000000008
 40
0.2
 50
339.62356199999999
 51
90.000002999999978
  0
LINE
  8
_0-0_0
  6
CONTINUOUS
 62
    7
 10
1437.9899295
 20
786.43035899999995
 11
1436.6900025
 21
782.93035899999995
  0
ARC
  8
_0-0_0
  6
CONTINUOUS
 62
    7
 10
1436.5025025
 20
782.99997000000008
 40
0.2
 50
200.37643
 51
339.62356199999999
  0
LINE
  8
_0-0_0
  6
CONTINUOUS
 62
    7
 10
1435.0150755
 20
786.43035899999995
 11
1436.3150025
 21
782.93035899999995
  0
ARC
  8
_0-0_0
  6
CONTINUOUS
 62
    7
 10
1435.2024535
 20
786.49997000000008
 40
0.2
 50
90.000003000000007
 51
200.37643
  0
LINE
  8
_0-0_0
  6
CONTINUOUS
 62
    7
 10
1435.2024535
 20
786.69998199999998
 11
1437.8025514999999
 21
786.69998199999998
  0
ARC
  8
_0-0_0
  6
CONTINUOUS
 62
    7
 10
97.802398499999981
 20
786.49997000000008
 40
0.2
 50
339.62356199999999
 51
90.000002999999978
  0
LINE
  8
_0-0_0
  6
CONTINUOUS
 62
    7
 10
97.989883500000019
 20
786.43035899999995
 11
96.689880500000072
 21
782.93035899999995
  0
ARC
  8
_0-0_0
  6
CONTINUOUS
 62
    7
 10
96.502395500000034
 20
782.99997000000008
 40
0.2
 50
200.37643
 51
339.62356199999999
  0
LINE
  8
_0-0_0
  6
CONTINUOUS
 62
    7
 10
95.014915500000029
 20
786.43035899999995
 11
96.314910499999996
 21
782.93035899999995
  0
ARC
  8
_0-0_0
  6
CONTINUOUS
 62
    7
 10
95.202400500000067
 20
786.49997000000008
 40
0.2
 50
90.000003000000007
 51
200.37643
  0
LINE
  8
_0-0_0
  6
CONTINUOUS
 62
    7
 10
95.202400500000067
 20
786.69998199999998
 11
97.802398499999981
 21
786.69998199999998
  0
LINE
  8
_0-0_0
  6
CONTINUOUS
 62
    7
 10
1517.0025025
 20
809.19998199999998
 11
1516.0025025
 21
809.19998199999998
  0
LINE
  8
_0-0_0
  6
CONTINUOUS
 62
    7
 10
1517.0025025
 20
810.23696900000004
 11
1516.0025025
 21
810.23696900000004
  0
LINE
  8
_0-0_0
  6
CONTINUOUS
 62
    7
 10
1517.0025025
 20
781.39999399999999
 11
1516.0025025
 21
781.39999399999999
  0
ARC
  8
_0-0_0
  6
CONTINUOUS
 62
    7
 10
779.00238049999996
 20
800.29998799999998
 40
20.299999
 50
62.096725999999997
 51
117.903272
  0
CIRCLE
  8
_0-0_0
  6
CONTINUOUS
 62
    7
 10
779.00238049999996
 20
816.59997599999997
 40
2.5
  0
LINE
  8
_0-0_0
  6
CONTINUOUS
 62
    7
 10
41.002403500000014
 20
809.19998199999998
 11
42.002403500000014
 21
809.19998199999998
  0
LINE
  8
_0-0_0
  6
CONTINUOUS
 62
    7
 10
41.002403500000014
 20
810.19998199999998
 11
42.002403500000014
 21
810.19998199999998
  0
LINE
  8
_0-0_0
  6
CONTINUOUS
 62
    7
 10
41.002403500000014
 20
781.39999399999999
 11
42.002403500000014
 21
781.39999399999999
  0
LINE
  8
_0-0_0
  6
CONTINUOUS
 62
    7
 10
1517.0025025
 20
812.39999399999999
 11
1516.0025025
 21
812.39999399999999
  0
LINE
  8
_0-0_0
  6
CONTINUOUS
 62
    7
 10
41.002403500000014
 20
812.39999399999999
 11
42.002403500000014
 21
812.39999399999999
  0
LINE
  8
_0-0_0
  6
CONTINUOUS
 62
    7
 10
1518.0025025
 20
808.78576699999996
 11
1518.0015255000001
 21
808.80429099999992
  0
LINE
  8
_0-0_0
  6
CONTINUOUS
 62
    7
 10
1518.0015255000001
 20
808.80429099999992
 11
1517.9984744999999
 21
808.822723
  0
LINE
  8
_0-0_0
  6
CONTINUOUS
 62
    7
 10
1517.9984744999999
 20
808.822723
 11
1517.9932255000001
 21
808.841858
  0
LINE
  8
_0-0_0
  6
CONTINUOUS
 62
    7
 10
1517.9932255000001
 20
808.841858
 11
1517.9859005000001
 21
808.86086999999998
  0
LINE
  8
_0-0_0
  6
CONTINUOUS
 62
    7
 10
1517.9859005000001
 20
808.86086999999998
 11
1517.9653935000001
 21
808.89758299999994
  0
LINE
  8
_0-0_0
  6
CONTINUOUS
 62
    7
 10
1517.9653935000001
 20
808.89758299999994
 11
1517.9369505
 21
808.93325800000002
  0
LINE
  8
_0-0_0
  6
CONTINUOUS
 62
    7
 10
1517.9369505
 20
808.93325800000002
 11
1517.9010615
 21
808.96756000000005
  0
LINE
  8
_0-0_0
  6
CONTINUOUS
 62
    7
 10
1517.9010615
 20
808.96756000000005
 11
1517.8524775000001
 21
809.00402800000006
  0
LINE
  8
_0-0_0
  6
CONTINUOUS
 62
    7
 10
1517.8524775000001
 20
809.00402800000006
 11
1517.7957154999999
 21
809.03802500000006
  0
LINE
  8
_0-0_0
  6
CONTINUOUS
 62
    7
 10
1517.7957154999999
 20
809.03802500000006
 11
1517.7315065
 21
809.06927500000006
  0
LINE
  8
_0-0_0
  6
CONTINUOUS
 62
    7
 10
1517.7315065
 20
809.06927500000006
 11
1517.6608275000001
 21
809.097534
  0
LINE
  8
_0-0_0
  6
CONTINUOUS
 62
    7
 10
1517.6608275000001
 20
809.097534
 11
1517.6127315000001
 21
809.11389199999996
  0
LINE
  8
_0-0_0
  6
CONTINUOUS
 62
    7
 10
1517.6127315000001
 20
809.11389199999996
 11
1517.5626835
 21
809.12887599999999
  0
LINE
  8
_0-0_0
  6
CONTINUOUS
 62
    7
 10
1517.5626835
 20
809.12887599999999
 11
1517.5059205
 21
809.14364599999999
  0
LINE
  8
_0-0_0
  6
CONTINUOUS
 62
    7
 10
1517.5059205
 20
809.14364599999999
 11
1517.4473264999999
 21
809.15673800000002
  0
LINE
  8
_0-0_0
  6
CONTINUOUS
 62
    7
 10
1517.4473264999999
 20
809.15673800000002
 11
1517.3305055000001
 21
809.17706299999998
  0
LINE
  8
_0-0_0
  6
CONTINUOUS
 62
    7
 10
1517.3305055000001
 20
809.17706299999998
 11
1517.2232054999999
 21
809.18978900000002
  0
LINE
  8
_0-0_0
  6
CONTINUOUS
 62
    7
 10
1517.2232054999999
 20
809.18978900000002
 11
1517.1133425
 21
809.19741799999997
  0
LINE
  8
_0-0_0
  6
CONTINUOUS
 62
    7
 10
1517.1133425
 20
809.19741799999997
 11
1517.0025025
 21
809.19998199999998
  0
LINE
  8
_0-0_0
  6
CONTINUOUS
 62
    7
 10
1518.0025025
 20
808.78576699999996
 11
1518.0025025
 21
809.78582800000004
  0
LINE
  8
_0-0_0
  6
CONTINUOUS
 62
    7
 10
1518.0025025
 20
809.78582800000004
 11
1517.9995725000001
 21
809.81741299999999
  0
LINE
  8
_0-0_0
  6
CONTINUOUS
 62
    7
 10
1517.9995725000001
 20
809.81741299999999
 11
1517.9909055000001
 21
809.84948699999995
  0
LINE
  8
_0-0_0
  6
CONTINUOUS
 62
    7
 10
1517.9909055000001
 20
809.84948699999995
 11
1517.9763795000001
 21
809.88174400000003
  0
LINE
  8
_0-0_0
  6
CONTINUOUS
 62
    7
 10
1517.9763795000001
 20
809.88174400000003
 11
1517.9561154999999
 21
809.91390999999999
  0
LINE
  8
_0-0_0
  6
CONTINUOUS
 62
    7
 10
1517.9561154999999
 20
809.91390999999999
 11
1517.9395145000001
 21
809.93515000000002
  0
LINE
  8
_0-0_0
  6
CONTINUOUS
 62
    7
 10
1517.9395145000001
 20
809.93515000000002
 11
1517.9205935
 21
809.95608500000003
  0
LINE
  8
_0-0_0
  6
CONTINUOUS
 62
    7
 10
1517.9205935
 20
809.95608500000003
 11
1517.8757935000001
 21
809.99688700000002
  0
LINE
  8
_0-0_0
  6
CONTINUOUS
 62
    7
 10
1517.8757935000001
 20
809.99688700000002
 11
1517.8225705
 21
810.03561400000001
  0
LINE
  8
_0-0_0
  6
CONTINUOUS
 62
    7
 10
1517.8225705
 20
810.03561400000001
 11
1517.7726435
 21
810.06582700000001
  0
LINE
  8
_0-0_0
  6
CONTINUOUS
 62
    7
 10
1517.7726435
 20
810.06582700000001
 11
1517.7179564999999
 21
810.09405500000003
  0
LINE
  8
_0-0_0
  6
CONTINUOUS
 62
    7
 10
1517.7179564999999
 20
810.09405500000003
 11
1517.6589965000001
 21
810.12008700000001
  0
LINE
  8
_0-0_0
  6
CONTINUOUS
 62
    7
 10
1517.6589965000001
 20
810.12008700000001
 11
1517.6122435
 21
810.13809199999992
  0
LINE
  8
_0-0_0
  6
CONTINUOUS
 62
    7
 10
1517.6122435
 20
810.13809199999992
 11
1517.5635374999999
 21
810.15469400000006
  0
LINE
  8
_0-0_0
  6
CONTINUOUS
 62
    7
 10
1517.5635374999999
 20
810.15469400000006
 11
1517.4611205000001
 21
810.18356300000005
  0
LINE
  8
_0-0_0
  6
CONTINUOUS
 62
    7
 10
1517.4611205000001
 20
810.18356300000005
 11
1517.3534545
 21
810.20639000000006
  0
LINE
  8
_0-0_0
  6
CONTINUOUS
 62
    7
 10
1517.3534545
 20
810.20639000000006
 11
1517.2417605000001
 21
810.22299199999998
  0
LINE
  8
_0-0_0
  6
CONTINUOUS
 62
    7
 10
1517.2417605000001
 20
810.22299199999998
 11
1517.1277465000001
 21
810.23318500000005
  0
LINE
  8
_0-0_0
  6
CONTINUOUS
 62
    7
 10
1517.1277465000001
 20
810.23318500000005
 11
1517.0025025
 21
810.23696900000004
  0
ARC
  8
_0-0_0
  6
CONTINUOUS
 62
    7
 10
1517.0025025
 20
782.39999399999999
 40
1
 50
269.99999700000001
 51
0
  0
LINE
  8
_0-0_0
  6
CONTINUOUS
 62
    7
 10
1518.0025025
 20
782.39999399999999
 11
1518.0025025
 21
808.78576699999996
  0
CIRCLE
  8
_0-0_0
  6
CONTINUOUS
 62
    7
 10
1506.5025025
 20
799.59997599999997
 40
5
  0
LINE
  8
_0-0_0
  6
CONTINUOUS
 62
    7
 10
40.002403500000014
 20
808.78576699999996
 11
40.003395500000011
 21
808.80429099999992
  0
LINE
  8
_0-0_0
  6
CONTINUOUS
 62
    7
 10
40.003395500000011
 20
808.80429099999992
 11
40.006401500000038
 21
808.822723
  0
LINE
  8
_0-0_0
  6
CONTINUOUS
 62
    7
 10
40.006401500000038
 20
808.822723
 11
40.011634500000014
 21
808.841858
  0
LINE
  8
_0-0_0
  6
CONTINUOUS
 62
    7
 10
40.011634500000014
 20
808.841858
 11
40.019012500000031
 21
808.86086999999998
  0
LINE
  8
_0-0_0
  6
CONTINUOUS
 62
    7
 10
40.019012500000031
 20
808.86086999999998
 11
40.039558499999998
 21
808.89758299999994
  0
LINE
  8
_0-0_0
  6
CONTINUOUS
 62
    7
 10
40.039558499999998
 20
808.89758299999994
 11
40.067954500000042
 21
808.93325800000002
  0
LINE
  8
_0-0_0
  6
CONTINUOUS
 62
    7
 10
40.067954500000042
 20
808.93325800000002
 11
40.103843500000039
 21
808.96756000000005
  0
LINE
  8
_0-0_0
  6
CONTINUOUS
 62
    7
 10
40.103843500000039
 20
808.96756000000005
 11
40.152458499999966
 21
809.00402800000006
  0
LINE
  8
_0-0_0
  6
CONTINUOUS
 62
    7
 10
40.152458499999966
 20
809.00402800000006
 11
40.209243499999957
 21
809.03802500000006
  0
LINE
  8
_0-0_0
  6
CONTINUOUS
 62
    7
 10
40.209243499999957
 20
809.03802500000006
 11
40.27338450000002
 21
809.06927500000006
  0
LINE
  8
_0-0_0
  6
CONTINUOUS
 62
    7
 10
40.27338450000002
 20
809.06927500000006
 11
40.344032500000026
 21
809.097534
  0
LINE
  8
_0-0_0
  6
CONTINUOUS
 62
    7
 10
40.344032500000026
 20
809.097534
 11
40.392112500000053
 21
809.11389199999996
  0
LINE
  8
_0-0_0
  6
CONTINUOUS
 62
    7
 10
40.392112500000053
 20
809.11389199999996
 11
40.442253499999993
 21
809.12887599999999
  0
LINE
  8
_0-0_0
  6
CONTINUOUS
 62
    7
 10
40.442253499999993
 20
809.12887599999999
 11
40.498954499999968
 21
809.14364599999999
  0
LINE
  8
_0-0_0
  6
CONTINUOUS
 62
    7
 10
40.498954499999968
 20
809.14364599999999
 11
40.557563500000015
 21
809.15673800000002
  0
LINE
  8
_0-0_0
  6
CONTINUOUS
 62
    7
 10
40.557563500000015
 20
809.15673800000002
 11
40.674339499999974
 21
809.17706299999998
  0
LINE
  8
_0-0_0
  6
CONTINUOUS
 62
    7
 10
40.674339499999974
 20
809.17706299999998
 11
40.781745500000056
 21
809.18978900000002
  0
LINE
  8
_0-0_0
  6
CONTINUOUS
 62
    7
 10
40.781745500000056
 20
809.18978900000002
 11
40.891517499999964
 21
809.19741799999997
  0
LINE
  8
_0-0_0
  6
CONTINUOUS
 62
    7
 10
40.891517499999964
 20
809.19741799999997
 11
41.002403500000014
 21
809.19998199999998
  0
LINE
  8
_0-0_0
  6
CONTINUOUS
 62
    7
 10
40.002403500000014
 20
809.75543199999993
 11
40.005287500000009
 21
809.78634699999998
  0
LINE
  8
_0-0_0
  6
CONTINUOUS
 62
    7
 10
40.005287500000009
 20
809.78634699999998
 11
40.013984499999992
 21
809.81777999999997
  0
LINE
  8
_0-0_0
  6
CONTINUOUS
 62
    7
 10
40.013984499999992
 20
809.81777999999997
 11
40.028472500000021
 21
809.84945700000003
  0
LINE
  8
_0-0_0
  6
CONTINUOUS
 62
    7
 10
40.028472500000021
 20
809.84945700000003
 11
40.048637500000041
 21
809.88104299999998
  0
LINE
  8
_0-0_0
  6
CONTINUOUS
 62
    7
 10
40.048637500000041
 20
809.88104299999998
 11
40.065162500000042
 21
809.90191699999991
  0
LINE
  8
_0-0_0
  6
CONTINUOUS
 62
    7
 10
40.065162500000042
 20
809.90191699999991
 11
40.084068500000058
 21
809.92251599999997
  0
LINE
  8
_0-0_0
  6
CONTINUOUS
 62
    7
 10
40.084068500000058
 20
809.92251599999997
 11
40.128700500000036
 21
809.96267699999999
  0
LINE
  8
_0-0_0
  6
CONTINUOUS
 62
    7
 10
40.128700500000036
 20
809.96267699999999
 11
40.181831500000044
 21
810.00088499999993
  0
LINE
  8
_0-0_0
  6
CONTINUOUS
 62
    7
 10
40.181831500000044
 20
810.00088499999993
 11
40.231727500000034
 21
810.03070099999991
  0
LINE
  8
_0-0_0
  6
CONTINUOUS
 62
    7
 10
40.231727500000034
 20
810.03070099999991
 11
40.286399500000016
 21
810.05856300000005
  0
LINE
  8
_0-0_0
  6
CONTINUOUS
 62
    7
 10
40.286399500000016
 20
810.05856300000005
 11
40.345375500000046
 21
810.08431999999993
  0
LINE
  8
_0-0_0
  6
CONTINUOUS
 62
    7
 10
40.345375500000046
 20
810.08431999999993
 11
40.392135499999995
 21
810.102081
  0
LINE
  8
_0-0_0
  6
CONTINUOUS
 62
    7
 10
40.392135499999995
 20
810.102081
 11
40.440833500000053
 21
810.11852999999996
  0
LINE
  8
_0-0_0
  6
CONTINUOUS
 62
    7
 10
40.440833500000053
 20
810.11852999999996
 11
40.543266500000072
 21
810.14709500000004
  0
LINE
  8
_0-0_0
  6
CONTINUOUS
 62
    7
 10
40.543266500000072
 20
810.14709500000004
 11
40.651084500000024
 21
810.16970800000001
  0
LINE
  8
_0-0_0
  6
CONTINUOUS
 62
    7
 10
40.651084500000024
 20
810.16970800000001
 11
40.762779499999965
 21
810.18612699999994
  0
LINE
  8
_0-0_0
  6
CONTINUOUS
 62
    7
 10
40.762779499999965
 20
810.18612699999994
 11
40.876930500000071
 21
810.19622800000002
  0
LINE
  8
_0-0_0
  6
CONTINUOUS
 62
    7
 10
40.876930500000071
 20
810.19622800000002
 11
41.002403500000014
 21
810.19998199999998
  0
LINE
  8
_0-0_0
  6
CONTINUOUS
 62
    7
 10
40.002403500000014
 20
808.78576699999996
 11
40.002403500000014
 21
809.75543199999993
  0
ARC
  8
_0-0_0
  6
CONTINUOUS
 62
    7
 10
41.002403500000014
 20
782.39999399999999
 40
1
 50
180.00000900000003
 51
269.99999700000001
  0
LINE
  8
_0-0_0
  6
CONTINUOUS
 62
    7
 10
40.002403500000014
 20
782.39999399999999
 11
40.002403500000014
 21
808.78576699999996
  0
CIRCLE
  8
_0-0_0
  6
CONTINUOUS
 62
    7
 10
51.502403500000014
 20
799.59997599999997
 40
5
  0
LINE
  8
_0-0_0
  6
CONTINUOUS
 62
    7
 10
1518.0025025
 20
809.78582800000004
 11
1518.0025025
 21
811.39999399999999
  0
ARC
  8
_0-0_0
  6
CONTINUOUS
 62
    7
 10
1517.0025025
 20
811.39999399999999
 40
1
 50
0
 51
90.000003000000007
  0
ARC
  8
_0-0_0
  6
CONTINUOUS
 62
    7
 10
41.002403500000014
 20
811.39999399999999
 40
1
 50
90.000003000000007
 51
180.00000900000001
  0
LINE
  8
_0-0_0
  6
CONTINUOUS
 62
    7
 10
40.002403500000014
 20
809.75543199999993
 11
40.002403500000014
 21
811.39999399999999
  0
LINE
  8
_0-0_0
  6
CONTINUOUS
 62
    7
 10
12.092529499999955
 20
781.39999399999999
 11
12.092529499999955
 21
780.79998799999998
  0
LINE
  8
_0-0_0
  6
CONTINUOUS
 62
    7
 10
14.592529499999955
 20
775.55499299999997
 11
14.592529499999955
 21
777.79998799999998
  0
LINE
  8
_0-0_0
  6
CONTINUOUS
 62
    7
 10
15.592529499999955
 20
777.79998799999998
 11
15.592529499999955
 21
779.79998799999998
  0
ARC
  8
_0-0_0
  6
CONTINUOUS
 62
    7
 10
15.092529499999955
 20
779.79998799999998
 40
0.5
 50
0
 51
90.000003000000007
  0
LINE
  8
_0-0_0
  6
CONTINUOUS
 62
    7
 10
15.092529499999955
 20
780.29998799999998
 11
13.592529499999955
 21
780.29998799999998
  0
ARC
  8
_0-0_0
  6
CONTINUOUS
 62
    7
 10
13.592529499999955
 20
781.29998799999998
 40
1
 50
180.00000900000003
 51
269.99999700000001
  0
LINE
  8
_0-0_0
  6
CONTINUOUS
 62
    7
 10
12.592529499999955
 20
781.39999399999999
 11
12.592529499999955
 21
781.29998799999998
  0
ARC
  8
_0-0_0
  6
CONTINUOUS
 62
    7
 10
13.592529499999955
 20
780.79998799999998
 40
1.5
 50
180.00000900000003
 51
269.99999700000001
  0
LINE
  8
_0-0_0
  6
CONTINUOUS
 62
    7
 10
13.592529499999955
 20
779.29998799999998
 11
12.89251749999994
 21
779.29998799999998
  0
ARC
  8
_0-0_0
  6
CONTINUOUS
 62
    7
 10
12.89251749999994
 20
780.29998799999998
 40
1
 50
180.00000900000003
 51
269.99999700000001
  0
LINE
  8
_0-0_0
  6
CONTINUOUS
 62
    7
 10
11.89251749999994
 20
781.29998799999998
 11
11.89251749999994
 21
780.29998799999998
  0
LINE
  8
_0-0_0
  6
CONTINUOUS
 62
    7
 10
3.6925355000000764
 20
780.29998799999998
 11
3.6925355000000764
 21
781.29998799999998
  0
ARC
  8
_0-0_0
  6
CONTINUOUS
 62
    7
 10
2.6925355000000764
 20
780.29998799999998
 40
1
 50
269.99999700000001
 51
0
  0
LINE
  8
_0-0_0
  6
CONTINUOUS
 62
    7
 10
2.6925355000000764
 20
779.29998799999998
 11
2.4925235000000612
 21
779.29998799999998
  0
ARC
  8
_0-0_0
  6
CONTINUOUS
 62
    7
 10
2.4925235000000612
 20
780.29998799999998
 40
1
 50
269.99999700000001
 51
0
  0
LINE
  8
_0-0_0
  6
CONTINUOUS
 62
    7
 10
3.4925235000000612
 20
780.29998799999998
 11
3.4925235000000612
 21
781.39999399999999
  0
LINE
  8
_0-0_0
  6
CONTINUOUS
 62
    7
 10
2.9925235000000612
 20
781.29998799999998
 11
2.9925235000000612
 21
781.39999399999999
  0
ARC
  8
_0-0_0
  6
CONTINUOUS
 62
    7
 10
1.9925235000000612
 20
781.29998799999998
 40
1
 50
269.99999700000001
 51
0
  0
LINE
  8
_0-0_0
  6
CONTINUOUS
 62
    7
 10
1.9925235000000612
 20
780.29998799999998
 11
0.4925235000000611
 21
780.29998799999998
  0
ARC
  8
_0-0_0
  6
CONTINUOUS
 62
    7
 10
0.4925235000000611
 20
779.79998799999998
 40
0.5
 50
90.000003000000007
 51
180.00000900000001
  0
LINE
  8
_0-0_0
  6
CONTINUOUS
 62
    7
 10
-0.0074764999999388
 20
779.79998799999998
 11
-0.0074764999999388
 21
777.79998799999998
  0
LINE
  8
_0-0_0
  6
CONTINUOUS
 62
    7
 10
0.9925235000000611
 20
775.55499299999997
 11
0.9925235000000611
 21
777.79998799999998
  0
LINE
  8
_0-0_0
  6
CONTINUOUS
 62
    7
 10
-0.9074705000000449
 20
757.19998199999998
 11
-0.9074705000000449
 21
775.55499299999997
  0
LINE
  8
_0-0_0
  6
CONTINUOUS
 62
    7
 10
15.89251749999994
 20
757.19998199999998
 11
15.89251749999994
 21
775.55499299999997
  0
CIRCLE
  8
_0-0_0
  6
CONTINUOUS
 62
    7
 10
7.7925414999999703
 20
777.79998799999998
 40
2.0499999999999998
  0
LINE
  8
_0-0_0
  6
CONTINUOUS
 62
    7
 10
15.89251749999994
 20
779.29998799999998
 11
15.89251749999994
 21
779.27499399999999
  0
LINE
  8
_0-0_0
  6
CONTINUOUS
 62
    7
 10
15.89251749999994
 20
776.05493200000001
 11
15.89251749999994
 21
776.32498199999998
  0
LINE
  8
_0-0_0
  6
CONTINUOUS
 62
    7
 10
15.89251749999994
 20
775.55499299999997
 11
15.89251749999994
 21
776.05499299999997
  0
LINE
  8
_0-0_0
  6
CONTINUOUS
 62
    7
 10
15.89251749999994
 20
755.19998199999998
 11
15.89251749999994
 21
757.19998199999998
  0
LINE
  8
_0-0_0
  6
CONTINUOUS
 62
    7
 10
-0.9074705000000449
 20
755.19998199999998
 11
-0.9074705000000449
 21
757.19998199999998
  0
LINE
  8
_0-0_0
  6
CONTINUOUS
 62
    7
 10
-0.9074705000000449
 20
755.19998199999998
 11
15.89251749999994
 21
755.19998199999998
  0
LINE
  8
_0-0_0
  6
CONTINUOUS
 62
    7
 10
-0.9074705000000449
 20
779.29998799999998
 11
-0.9074705000000449
 21
777.79998799999998
  0
LINE
  8
_0-0_0
  6
CONTINUOUS
 62
    7
 10
-0.9074705000000449
 20
776.05499299999997
 11
-0.9074705000000449
 21
777.79998799999998
  0
LINE
  8
_0-0_0
  6
CONTINUOUS
 62
    7
 10
-0.9074705000000449
 20
775.55499299999997
 11
-0.9074705000000449
 21
776.05499299999997
  0
LINE
  8
_0-0_0
  6
CONTINUOUS
 62
    7
 10
-0.0074764999999388
 20
776.05505399999993
 11
-0.0074764999999388
 21
777.79998799999998
  0
ARC
  8
_0-0_0
  6
CONTINUOUS
 62
    7
 10
14.29254149999997
 20
757.29998799999998
 40
2
 50
323.13010300000002
 51
0.0000000000000127
  0
LINE
  8
_0-0_0
  6
CONTINUOUS
 62
    7
 10
16.29254149999997
 20
757.29998799999998
 11
16.29254149999997
 21
758.70004300000005
  0
LINE
  8
_0-0_0
  6
CONTINUOUS
 62
    7
 10
16.592529499999955
 20
763.78967299999999
 11
16.592529499999955
 21
774.23767099999998
  0
LINE
  8
_0-0_0
  6
CONTINUOUS
 62
    7
 10
16.592529499999955
 20
775.20047
 11
16.592529499999955
 21
777.43511999999998
  0
LINE
  8
_0-0_0
  6
CONTINUOUS
 62
    7
 10
-0.9074705000000449
 20
779.29998799999998
 11
-0.0074764999999388
 21
779.29998799999998
  0
LINE
  8
_0-0_0
  6
CONTINUOUS
 62
    7
 10
-1.0074764999999388
 20
758.69998199999998
 11
-0.9074705000000449
 21
758.69998199999998
  0
LINE
  8
_0-0_0
  6
CONTINUOUS
 62
    7
 10
-1.0074764999999388
 20
758.69998199999998
 11
-1.0074764999999388
 21
763.78967299999999
  0
LINE
  8
_0-0_0
  6
CONTINUOUS
 62
    7
 10
-1.0074764999999388
 20
774.23767099999998
 11
-1.0074764999999388
 21
775.20047
  0
LINE
  8
_0-0_0
  6
CONTINUOUS
 62
    7
 10
-1.0074764999999388
 20
778.29998799999998
 11
-0.9074705000000449
 21
778.29998799999998
  0
LINE
  8
_0-0_0
  6
CONTINUOUS
 62
    7
 10
-1.0074764999999388
 20
777.43511999999998
 11
-1.0074764999999388
 21
778.29998799999998
  0
LINE
  8
_0-0_0
  6
CONTINUOUS
 62
    7
 10
-1.0074764999999388
 20
775.20047
 11
-1.0074764999999388
 21
777.43511999999998
  0
LINE
  8
_0-0_0
  6
CONTINUOUS
 62
    7
 10
-1.0074764999999388
 20
763.78967299999999
 11
-1.0074764999999388
 21
774.23767099999998
  0
LINE
  8
_0-0_0
  6
CONTINUOUS
 62
    7
 10
-0.7074585000000297
 20
777.18872099999999
 11
-0.7074585000000297
 21
779.07498199999998
  0
LINE
  8
_0-0_0
  6
CONTINUOUS
 62
    7
 10
-0.7074585000000297
 20
776.52499399999999
 11
-0.7074585000000297
 21
777.18872099999999
  0
LINE
  8
_0-0_0
  6
CONTINUOUS
 62
    7
 10
16.29254149999997
 20
778.41125499999998
 11
16.29254149999997
 21
776.52529900000002
  0
LINE
  8
_0-0_0
  6
CONTINUOUS
 62
    7
 10
16.29254149999997
 20
779.06662000000006
 11
16.29254149999997
 21
778.41125499999998
  0
LINE
  8
_0-0_0
  6
CONTINUOUS
 62
    7
 10
16.592529499999955
 20
758.69998199999998
 11
16.592529499999955
 21
763.78967299999999
  0
LINE
  8
_0-0_0
  6
CONTINUOUS
 62
    7
 10
16.592529499999955
 20
777.43511999999998
 11
16.592529499999955
 21
778.29998799999998
  0
LINE
  8
_0-0_0
  6
CONTINUOUS
 62
    7
 10
16.592529499999955
 20
774.23767099999998
 11
16.592529499999955
 21
775.20047
  0
LINE
  8
_0-0_0
  6
CONTINUOUS
 62
    7
 10
16.592529499999955
 20
778.29998799999998
 11
16.292510500000049
 21
778.29998799999998
  0
LINE
  8
_0-0_0
  6
CONTINUOUS
 62
    7
 10
16.592529499999955
 20
758.69998199999998
 11
15.89251749999994
 21
758.69998199999998
  0
LINE
  8
_0-0_0
  6
CONTINUOUS
 62
    7
 10
15.89251749999994
 20
779.29998799999998
 11
15.592529499999955
 21
779.29998799999998
  0
LINE
  8
_0-0_0
  6
CONTINUOUS
 62
    7
 10
15.592529499999955
 20
777.79998799999998
 11
15.592529499999955
 21
776.05505399999993
  0
LINE
  8
_0-0_0
  6
CONTINUOUS
 62
    7
 10
11.89251749999994
 20
781.29998799999998
 11
11.89251749999994
 21
781.40005500000007
  0
LINE
  8
_0-0_0
  6
CONTINUOUS
 62
    7
 10
3.6925355000000764
 20
781.40005500000007
 11
3.6925355000000764
 21
781.29998799999998
  0
LINE
  8
_0-0_0
  6
CONTINUOUS
 62
    7
 10
14.592529499999955
 20
776.05499299999997
 11
15.89251749999994
 21
776.05499299999997
  0
ARC
  8
_0-0_0
  6
CONTINUOUS
 62
    7
 10
-0.2074585000000297
 20
779.07498199999998
 40
0.2
 50
359.91222800000003
 51
89.999948000000003
  0
ARC
  8
_0-0_0
  6
CONTINUOUS
 62
    7
 10
-0.2075804999999491
 20
776.52514700000006
 40
0.200169
 50
270.02985900000004
 51
2.3526610000000452
  0
LINE
  8
_0-0_0
  6
CONTINUOUS
 62
    7
 10
-0.5074764999999388
 20
779.27499399999999
 11
-0.2074585000000297
 21
779.27499399999999
  0
LINE
  8
_0-0_0
  6
CONTINUOUS
 62
    7
 10
-0.5074764999999388
 20
776.32498199999998
 11
-0.2074585000000297
 21
776.32498199999998
  0
ARC
  8
_0-0_0
  6
CONTINUOUS
 62
    7
 10
-0.5073545000000194
 20
779.07482899999991
 40
0.200169
 50
90.029849999999996
 51
182.352667
  0
ARC
  8
_0-0_0
  6
CONTINUOUS
 62
    7
 10
-0.5074764999999388
 20
776.52499399999999
 40
0.2
 50
179.912237
 51
269.99994299999997
  0
ARC
  8
_0-0_0
  6
CONTINUOUS
 62
    7
 10
15.792632499999968
 20
776.52514700000006
 40
0.200169
 50
177.647333
 51
269.97013600000002
  0
ARC
  8
_0-0_0
  6
CONTINUOUS
 62
    7
 10
15.79254149999997
 20
779.07498199999998
 40
0.2
 50
90.000049999999987
 51
180.08776299999997
  0
LINE
  8
_0-0_0
  6
CONTINUOUS
 62
    7
 10
16.092529499999955
 20
776.32498199999998
 11
15.79254149999997
 21
776.32498199999998
  0
LINE
  8
_0-0_0
  6
CONTINUOUS
 62
    7
 10
16.092529499999955
 20
779.27499399999999
 11
15.79254149999997
 21
779.27499399999999
  0
ARC
  8
_0-0_0
  6
CONTINUOUS
 62
    7
 10
16.092529499999955
 20
776.52499399999999
 40
0.2
 50
270.00005199999998
 51
0.0877600000000175
  0
ARC
  8
_0-0_0
  6
CONTINUOUS
 62
    7
 10
16.09243749999996
 20
779.07482899999991
 40
0.200169
 50
357.64733799999999
 51
89.970147999999995
  0
LINE
  8
_0-0_0
  6
CONTINUOUS
 62
    7
 10
-0.9074705000000449
 20
776.05499299999997
 11
0.9925235000000611
 21
776.05499299999997
  0
LINE
  8
_0-0_0
  6
CONTINUOUS
 62
    7
 10
16.592529499999955
 20
781.79998799999998
 11
16.592529499999955
 21
794.99997000000008
  0
ARC
  8
_0-0_0
  6
CONTINUOUS
 62
    7
 10
16.092529499999955
 20
781.79998799999998
 40
0.5
 50
269.99999700000001
 51
0
  0
ARC
  8
_0-0_0
  6
CONTINUOUS
 62
    7
 10
16.533935499999984
 20
795.19998199999998
 40
0.1
 50
135
 51
225
  0
LINE
  8
_0-0_0
  6
CONTINUOUS
 62
    7
 10
16.463226500000019
 20
795.12927300000001
 11
16.592529499999955
 21
794.99997000000008
  0
LINE
  8
_0-0_0
  6
CONTINUOUS
 62
    7
 10
16.092529499999955
 20
781.29998799999998
 11
14.192535500000076
 21
781.29998799999998
  0
ARC
  8
_0-0_0
  6
CONTINUOUS
 62
    7
 10
14.192535500000076
 20
781.79998799999998
 40
0.5
 50
233.12990600000001
 51
269.99999700000001
  0
ARC
  8
_0-0_0
  6
CONTINUOUS
 62
    7
 10
1.4925235000000612
 20
781.79998799999998
 40
0.5
 50
269.99999700000001
 51
306.87009999999998
  0
LINE
  8
_0-0_0
  6
CONTINUOUS
 62
    7
 10
1.4925235000000612
 20
781.29998799999998
 11
-0.4074705000000449
 21
781.29998799999998
  0
ARC
  8
_0-0_0
  6
CONTINUOUS
 62
    7
 10
-0.4074705000000449
 20
781.79998799999998
 40
0.5
 50
180.00000900000003
 51
269.99999700000001
  0
LINE
  8
_0-0_0
  6
CONTINUOUS
 62
    7
 10
-0.9074705000000449
 20
791.23498500000005
 11
-0.9074705000000449
 21
781.79998799999998
  0
LINE
  8
_0-0_0
  6
CONTINUOUS
 62
    7
 10
-0.9074705000000449
 20
791.23498500000005
 11
-0.2074585000000297
 21
791.23498500000005
  0
LINE
  8
_0-0_0
  6
CONTINUOUS
 62
    7
 10
15.79254149999997
 20
809.79998799999998
 11
15.998565500000041
 21
809.79998799999998
  0
LINE
  8
_0-0_0
  6
CONTINUOUS
 62
    7
 10
15.998565500000041
 20
809.79998799999998
 11
16.592529499999955
 21
809.20602400000007
  0
LINE
  8
_0-0_0
  6
CONTINUOUS
 62
    7
 10
16.592529499999955
 20
804.19998199999998
 11
16.592529499999955
 21
809.20602400000007
  0
LINE
  8
_0-0_0
  6
CONTINUOUS
 62
    7
 10
16.463226500000019
 20
804.07070899999997
 11
16.592529499999955
 21
804.19998199999998
  0
ARC
  8
_0-0_0
  6
CONTINUOUS
 62
    7
 10
16.533935499999984
 20
803.99997000000008
 40
0.1
 50
135
 51
225
  0
LINE
  8
_0-0_0
  6
CONTINUOUS
 62
    7
 10
16.463226500000019
 20
803.92929099999992
 11
16.592529499999955
 21
803.79998799999998
  0
LINE
  8
_0-0_0
  6
CONTINUOUS
 62
    7
 10
16.592529499999955
 20
803.09997599999997
 11
16.592529499999955
 21
803.79998799999998
  0
LINE
  8
_0-0_0
  6
CONTINUOUS
 62
    7
 10
16.463226500000019
 20
802.97070299999996
 11
16.592529499999955
 21
803.09997599999997
  0
ARC
  8
_0-0_0
  6
CONTINUOUS
 62
    7
 10
16.533935499999984
 20
802.89999399999999
 40
0.1
 50
135
 51
225
  0
LINE
  8
_0-0_0
  6
CONTINUOUS
 62
    7
 10
16.463226500000019
 20
802.82928500000003
 11
16.592529499999955
 21
802.69998199999998
  0
LINE
  8
_0-0_0
  6
CONTINUOUS
 62
    7
 10
16.592529499999955
 20
801.99997000000008
 11
16.592529499999955
 21
802.69998199999998
  0
LINE
  8
_0-0_0
  6
CONTINUOUS
 62
    7
 10
16.463226500000019
 20
801.87069700000006
 11
16.592529499999955
 21
801.99997000000008
  0
ARC
  8
_0-0_0
  6
CONTINUOUS
 62
    7
 10
16.533935499999984
 20
801.79998799999998
 40
0.1
 50
135
 51
225
  0
LINE
  8
_0-0_0
  6
CONTINUOUS
 62
    7
 10
16.463226500000019
 20
801.72927900000002
 11
16.592529499999955
 21
801.59997599999997
  0
LINE
  8
_0-0_0
  6
CONTINUOUS
 62
    7
 10
16.592529499999955
 20
800.89999399999999
 11
16.592529499999955
 21
801.59997599999997
  0
LINE
  8
_0-0_0
  6
CONTINUOUS
 62
    7
 10
16.463226500000019
 20
800.77069099999994
 11
16.592529499999955
 21
800.89999399999999
  0
ARC
  8
_0-0_0
  6
CONTINUOUS
 62
    7
 10
16.533935499999984
 20
800.69998199999998
 40
0.1
 50
135
 51
225
  0
LINE
  8
_0-0_0
  6
CONTINUOUS
 62
    7
 10
16.463226500000019
 20
800.62927300000001
 11
16.592529499999955
 21
800.49997000000008
  0
LINE
  8
_0-0_0
  6
CONTINUOUS
 62
    7
 10
16.592529499999955
 20
799.79998799999998
 11
16.592529499999955
 21
800.49997000000008
  0
LINE
  8
_0-0_0
  6
CONTINUOUS
 62
    7
 10
16.463226500000019
 20
799.67068500000005
 11
16.592529499999955
 21
799.79998799999998
  0
ARC
  8
_0-0_0
  6
CONTINUOUS
 62
    7
 10
16.533935499999984
 20
799.59997599999997
 40
0.1
 50
135
 51
225
  0
LINE
  8
_0-0_0
  6
CONTINUOUS
 62
    7
 10
16.463226500000019
 20
799.52926600000001
 11
16.592529499999955
 21
799.39999399999999
  0
LINE
  8
_0-0_0
  6
CONTINUOUS
 62
    7
 10
16.592529499999955
 20
798.69998199999998
 11
16.592529499999955
 21
799.39999399999999
  0
LINE
  8
_0-0_0
  6
CONTINUOUS
 62
    7
 10
16.463226500000019
 20
798.57070899999997
 11
16.592529499999955
 21
798.69998199999998
  0
ARC
  8
_0-0_0
  6
CONTINUOUS
 62
    7
 10
16.533935499999984
 20
798.49997000000008
 40
0.1
 50
135
 51
225
  0
LINE
  8
_0-0_0
  6
CONTINUOUS
 62
    7
 10
16.463226500000019
 20
798.42929099999992
 11
16.592529499999955
 21
798.29998799999998
  0
LINE
  8
_0-0_0
  6
CONTINUOUS
 62
    7
 10
16.592529499999955
 20
797.59997599999997
 11
16.592529499999955
 21
798.29998799999998
  0
LINE
  8
_0-0_0
  6
CONTINUOUS
 62
    7
 10
16.463226500000019
 20
797.47070299999996
 11
16.592529499999955
 21
797.59997599999997
  0
ARC
  8
_0-0_0
  6
CONTINUOUS
 62
    7
 10
16.533935499999984
 20
797.39999399999999
 40
0.1
 50
135
 51
225
  0
LINE
  8
_0-0_0
  6
CONTINUOUS
 62
    7
 10
16.463226500000019
 20
797.32928500000003
 11
16.592529499999955
 21
797.19998199999998
  0
LINE
  8
_0-0_0
  6
CONTINUOUS
 62
    7
 10
16.592529499999955
 20
796.49997000000008
 11
16.592529499999955
 21
797.19998199999998
  0
LINE
  8
_0-0_0
  6
CONTINUOUS
 62
    7
 10
16.463226500000019
 20
796.37069700000006
 11
16.592529499999955
 21
796.49997000000008
  0
ARC
  8
_0-0_0
  6
CONTINUOUS
 62
    7
 10
16.533935499999984
 20
796.29998799999998
 40
0.1
 50
135
 51
225
  0
LINE
  8
_0-0_0
  6
CONTINUOUS
 62
    7
 10
16.463226500000019
 20
796.22927900000002
 11
16.592529499999955
 21
796.09997599999997
  0
LINE
  8
_0-0_0
  6
CONTINUOUS
 62
    7
 10
16.592529499999955
 20
795.39999399999999
 11
16.592529499999955
 21
796.09997599999997
  0
LINE
  8
_0-0_0
  6
CONTINUOUS
 62
    7
 10
16.463226500000019
 20
795.27069099999994
 11
16.592529499999955
 21
795.39999399999999
  0
LINE
  8
_0-0_0
  6
CONTINUOUS
 62
    7
 10
16.592529499999955
 20
787.29998799999998
 11
16.692535500000076
 21
787.29998799999998
  0
LINE
  8
_0-0_0
  6
CONTINUOUS
 62
    7
 10
16.692535500000076
 20
786.79998799999998
 11
16.692535500000076
 21
787.29998799999998
  0
LINE
  8
_0-0_0
  6
CONTINUOUS
 62
    7
 10
16.692535500000076
 20
786.79998799999998
 11
16.692535500000076
 21
782.79998799999998
  0
LINE
  8
_0-0_0
  6
CONTINUOUS
 62
    7
 10
16.592529499999955
 20
782.29998799999998
 11
16.692535500000076
 21
782.29998799999998
  0
LINE
  8
_0-0_0
  6
CONTINUOUS
 62
    7
 10
16.692535500000076
 20
782.29998799999998
 11
16.692535500000076
 21
782.79998799999998
  0
LINE
  8
_0-0_0
  6
CONTINUOUS
 62
    7
 10
-0.9074705000000449
 20
791.29998799999998
 11
-0.9074705000000449
 21
791.23498500000005
  0
LINE
  8
_0-0_0
  6
CONTINUOUS
 62
    7
 10
15.592529499999955
 20
810.09997599999997
 11
15.592529499999955
 21
809.99997000000008
  0
ARC
  8
_0-0_0
  6
CONTINUOUS
 62
    7
 10
3.0925294999999551
 20
810.09997599999997
 40
2.5
 50
90.000003000000007
 51
180.00000900000001
  0
LINE
  8
_0-0_0
  6
CONTINUOUS
 62
    7
 10
-1.0074764999999388
 20
791.29998799999998
 11
-0.2074585000000297
 21
791.29998799999998
  0
LINE
  8
_0-0_0
  6
CONTINUOUS
 62
    7
 10
-0.5074764999999388
 20
813.09997599999997
 11
-0.5074764999999388
 21
808.87844900000005
  0
LINE
  8
_0-0_0
  6
CONTINUOUS
 62
    7
 10
0.592529499999955
 20
813.09997599999997
 11
0.592529499999955
 21
810.09997599999997
  0
LINE
  8
_0-0_0
  6
CONTINUOUS
 62
    7
 10
-0.5074764999999388
 20
808.87844900000005
 11
-0.2074585000000297
 21
808.87844900000005
  0
LINE
  8
_0-0_0
  6
CONTINUOUS
 62
    7
 10
-0.5074764999999388
 20
818.23989899999992
 11
0.592529499999955
 21
818.23989899999992
  0
LINE
  8
_0-0_0
  6
CONTINUOUS
 62
    7
 10
0.592529499999955
 20
813.10049400000003
 11
0.592529499999955
 21
818.23989899999992
  0
LINE
  8
_0-0_0
  6
CONTINUOUS
 62
    7
 10
-1.0074764999999388
 20
812.60101299999997
 11
-1.0074764999999388
 21
817.67208899999991
  0
LINE
  8
_0-0_0
  6
CONTINUOUS
 62
    7
 10
-0.5074764999999388
 20
818.23989899999992
 11
-1.0074764999999388
 21
817.67208899999991
  0
ARC
  8
_0-0_0
  6
CONTINUOUS
 62
    7
 10
13.092529499999955
 20
810.09997599999997
 40
2.5
 50
0
 51
90.000003000000007
  0
LINE
  8
_0-0_0
  6
CONTINUOUS
 62
    7
 10
0.592529499999955
 20
810
 11
0.592529499999955
 21
810.09997599999997
  0
LINE
  8
_0-0_0
  6
CONTINUOUS
 62
    7
 10
13.092529499999955
 20
812.59997599999997
 11
3.0925294999999551
 21
812.59997599999997
  0
LINE
  8
_0-0_0
  6
CONTINUOUS
 62
    7
 10
16.79254149999997
 20
782.79998799999998
 11
16.79254149999997
 21
782.93035899999995
  0
LINE
  8
_0-0_0
  6
CONTINUOUS
 62
    7
 10
16.79254149999997
 20
786.43035899999995
 11
16.79254149999997
 21
782.93035899999995
  0
LINE
  8
_0-0_0
  6
CONTINUOUS
 62
    7
 10
16.692535500000076
 20
786.69998199999998
 11
16.79254149999997
 21
786.69998199999998
  0
LINE
  8
_0-0_0
  6
CONTINUOUS
 62
    7
 10
16.79254149999997
 20
786.43035899999995
 11
16.79254149999997
 21
786.69998199999998
  0
LINE
  8
_0-0_0
  6
CONTINUOUS
 62
    7
 10
0.592529499999955
 20
820.60000600000001
 11
0.592529499999955
 21
818.23989899999992
  0
LINE
  8
_0-0_0
  6
CONTINUOUS
 62
    7
 10
16.39251749999994
 20
809.19998199999998
 11
15.39251749999994
 21
810.19998199999998
  0
LINE
  8
_0-0_0
  6
CONTINUOUS
 62
    7
 10
16.39251749999994
 20
781.39999399999999
 11
16.39251749999994
 21
809.19998199999998
  0
LINE
  8
_0-0_0
  6
CONTINUOUS
 62
    7
 10
-0.2074585000000297
 20
781.39999399999999
 11
16.39251749999994
 21
781.39999399999999
  0
LINE
  8
_0-0_0
  6
CONTINUOUS
 62
    7
 10
-0.2074585000000297
 20
809.19998199999998
 11
-0.2074585000000297
 21
781.39999399999999
  0
LINE
  8
_0-0_0
  6
CONTINUOUS
 62
    7
 10
-1.0074764999999388
 20
791.29998799999998
 11
-1.0074764999999388
 21
808.11279300000001
  0
LINE
  8
_0-0_0
  6
CONTINUOUS
 62
    7
 10
-1.0074764999999388
 20
812.59997599999997
 11
-1.0074764999999388
 21
808.11279300000001
  0
ARC
  8
_0-0_0
  6
CONTINUOUS
 62
    7
 10
30.444274500000006
 20
788.11779799999999
 40
37.269466000000001
 50
146.14857699999999
 51
147.55443399999999
  0
LINE
  8
_0-0_0
  6
CONTINUOUS
 62
    7
 10
-0.5074764999999388
 20
820.60000600000001
 11
-0.5074764999999388
 21
818.23989899999992
  0
LINE
  8
_0-0_0
  6
CONTINUOUS
 62
    7
 10
-1.0074764999999388
 20
820.10000600000001
 11
-1.0074764999999388
 21
817.67208899999991
  0
ARC
  8
_0-0_0
  6
CONTINUOUS
 62
    7
 10
12.823486499999944
 20
809.79998799999998
 40
2.6000000000000001
 50
8.8498839999999994
 51
90.000002999999992
  0
LINE
  8
_0-0_0
  6
CONTINUOUS
 62
    7
 10
12.823486499999944
 20
812.39999399999999
 11
3.3615724999999657
 21
812.39999399999999
  0
ARC
  8
_0-0_0
  6
CONTINUOUS
 62
    7
 10
3.3615724999999657
 20
809.79998799999998
 40
2.6000000000000001
 50
90.000003000000007
 51
171.150115
  0
LINE
  8
_0-0_0
  6
CONTINUOUS
 62
    7
 10
-0.2074585000000297
 20
809.19998199999998
 11
0.7925414999999702
 21
810.19998199999998
  0
LINE
  8
_0-0_0
  6
CONTINUOUS
 62
    7
 10
15.39251749999994
 20
808.78576699999996
 11
16.39251749999994
 21
809.19998199999998
  0
ARC
  8
_0-0_0
  6
CONTINUOUS
 62
    7
 10
9.8499755000000278
 20
820.98611499999993
 40
12.126564999999999
 50
292.155034
 51
297.19674500000002
  0
LINE
  8
_0-0_0
  6
CONTINUOUS
 62
    7
 10
15.39251749999994
 20
782.39999399999999
 11
16.39251749999994
 21
781.39999399999999
  0
LINE
  8
_0-0_0
  6
CONTINUOUS
 62
    7
 10
0.7925414999999702
 20
782.39999399999999
 11
-0.2074585000000297
 21
781.39999399999999
  0
LINE
  8
_0-0_0
  6
CONTINUOUS
 62
    7
 10
0.7925414999999702
 20
808.78576699999996
 11
-0.2074585000000297
 21
809.19998199999998
  0
ARC
  8
_0-0_0
  6
CONTINUOUS
 62
    7
 10
6.3350824999999986
 20
820.98611499999993
 40
12.126567
 50
242.80325699999997
 51
247.84494000000001
  0
CIRCLE
  8
_0-0_0
  6
CONTINUOUS
 62
    7
 10
8.0925294999999551
 20
789.59997599999997
 40
2.0670000000000002
  0
LINE
  8
_0-0_0
  6
CONTINUOUS
 62
    7
 10
0.592529499999955
 20
813.09997599999997
 11
-0.5074764999999388
 21
813.09997599999997
  0
LINE
  8
_0-0_0
  6
CONTINUOUS
 62
    7
 10
16.692535500000076
 20
782.79998799999998
 11
16.79254149999997
 21
782.79998799999998
  0
LINE
  8
_0-0_0
  6
CONTINUOUS
 62
    7
 10
16.692535500000076
 20
782.79998799999998
 11
16.79254149999997
 21
782.79998799999998
  0
LINE
  8
_0-0_0
  6
CONTINUOUS
 62
    7
 10
-1.0074764999999388
 20
812.59997599999997
 11
-0.5074764999999388
 21
813.09997599999997
  0
LINE
  8
_0-0_0
  6
CONTINUOUS
 62
    7
 10
0.592529499999955
 20
820.60000600000001
 11
-0.5074764999999388
 21
820.60000600000001
  0
LINE
  8
_0-0_0
  6
CONTINUOUS
 62
    7
 10
-1.0074764999999388
 20
820.10000600000001
 11
-0.5074764999999388
 21
820.60000600000001
  0
ENDSEC
  0
EOF
