  0
SECTION
  2
HEADER
  9
$ACADVER
  1
AC1009
  9
$INSBASE
 10
0
 20
0
 30
0
  9
$EXTMIN
 10
0
 20
0
  9
$EXTMAX
 10
1682
 20
1188
  9
$LIMMIN
 10
0
 20
0
  9
$LIMMAX
 10
1682
 20
1188
  9
$LTSCALE
 40
2
  0
ENDSEC
  0
SECTION
  2
TABLES
  0
TABLE
  2
LTYPE
 70
     9
  0
LTYPE
  2
CONTINUOUS
 70
    64
  3
実線
 72
    65
 73
     0
 40
0.0
  0
LTYPE
  2
DASHED1
 70
    64
  3
--  --  --  --  --  --  --  --  
 72
    65
 73
     2
 40
2.5
 49
1.25
 49
-1.25
  0
LTYPE
  2
DASHED2
 70
    64
  3
----    ----    ----    ----    
 72
    65
 73
     2
 40
5.0
 49
2.5
 49
-2.5
  0
LTYPE
  2
DASHED3
 70
    64
  3
------  ------  ------  ------  
 72
    65
 73
     2
 40
5.0
 49
3.75
 49
-1.25
  0
LTYPE
  2
CENTER1
 70
    64
  3
----- - ----- - ----- - ----- - 
 72
    65
 73
     4
 40
10.0
 49
6.25
 49
-1.25
 49
1.25
 49
-1.25
  0
LTYPE
  2
CENTER2
 70
    64
  3
----------  --  ----------  --  
 72
    65
 73
     4
 40
20.0
 49
12.5
 49
-2.5
 49
2.5
 49
-2.5
  0
LTYPE
  2
PHANTOM1
 70
    64
  3
--- - - --- - - --- - - --- - - 
 72
    65
 73
     6
 40
10.0
 49
3.25
 49
-1.25
 49
1.25
 49
-1.25
 49
1.25
 49
-1.25
  0
LTYPE
  2
PHANTOM2
 70
    64
  3
--------  -  -  --------  -  -  
 72
    65
 73
     6
 40
20.0
 49
10.0
 49
-2.5
 49
1.25
 49
-2.5
 49
1.25
 49
-2.5
  0
LTYPE
  2
DOT
 70
    64
  3
-   -   -   -   -   -   -   -   
 72
    65
 73
     2
 40
2.5
 49
0.625
 49
-1.875
  0
LTYPE
  2
DUMMY
 70
    64
  3
ダミー
 72
    65
 73
     0
 40
0.0
  0
LTYPE
  2
RAND1
 70
    64
  3
ランダム線1
 72
    65
 73
     4
 40
10.0
 49
1.0
 49
-2.0
 49
3.0
 49
-4.0
  0
LTYPE
  2
RAND2
 70
    64
  3
ランダム線2
 72
    65
 73
     4
 40
14.0
 49
2.0
 49
-3.0
 49
4.0
 49
-5.0
  0
LTYPE
  2
RAND3
 70
    64
  3
ランダム線3
 72
    65
 73
     4
 40
18.0
 49
3.0
 49
-4.0
 49
5.0
 49
-6.0
  0
LTYPE
  2
RAND4
 70
    64
  3
ランダム線4
 72
    65
 73
     4
 40
22.0
 49
4.0
 49
-5.0
 49
6.0
 49
-7.0
  0
LTYPE
  2
RAND5
 70
    64
  3
ランダム線5
 72
    65
 73
     4
 40
26.0
 49
5.0
 49
-6.0
 49
7.0
 49
-8.0
  0
LTYPE
  2
LONG1
 70
    64
  3
----------  --  ----------  --  
 72
    65
 73
     4
 40
40.0
 49
32.5
 49
-2.5
 49
2.5
 49
-2.5
  0
LTYPE
  2
LONG2
 70
    64
  3
--------  -  -  --------  -  -  
 72
    65
 73
     6
 40
40.0
 49
30.0
 49
-2.5
 49
1.25
 49
-2.5
 49
1.25
 49
-2.5
  0
LTYPE
  2
LONG3
 70
    64
  3
+++++++++++++++..+++++++++++++++
 72
    65
 73
     2
 40
40.0
 49
37.5
 49
-2.5
  0
LTYPE
  2
LONG4
 70
    64
  3
+++++++++++++++..+++++++++++++++
 72
    65
 73
     2
 40
80.0
 49
75.0
 49
-5.0
  0
LTYPE
  2
LONG5
 70
    64
  3
----------  --  ----------  --  
 72
    65
 73
     4
 40
60.0
 49
37.5
 49
-7.5
 49
7.5
 49
-7.5
  0
LTYPE
  2
dashed
 70
   64
  3
-------   -------------   ------
 72
   65
 73
    2
 40
7.5
 49
6
 49
-1.5
  0
LTYPE
  2
dashed_spaced
 70
   64
  3
----        --------        ----
 72
   65
 73
    2
 40
12
 49
6
 49
-6
  0
LTYPE
  2
long_dashed_dotted
 70
   64
  3
------------- --- --------------
 72
   65
 73
    4
 40
15.25
 49
12
 49
-1.5
 49
0.25
 49
-1.5
  0
LTYPE
  2
long_dashed_double-dotted
 70
   64
  3
----------- --- --- ------------
 72
   65
 73
    6
 40
17
 49
12
 49
-1.5
 49
0.25
 49
-1.5
 49
0.25
 49
-1.5
  0
LTYPE
  2
long_dashed_triplicate-dotted
 70
   64
  3
--------- --- --- --- ----------
 72
   65
 73
    8
 40
18.75
 49
12
 49
-1.5
 49
0.25
 49
-1.5
 49
0.25
 49
-1.5
 49
0.25
 49
-1.5
  0
LTYPE
  2
dotted
 70
   64
  3
   -       -       -       -    
 72
   65
 73
    2
 40
1.75
 49
0.25
 49
-1.5
  0
LTYPE
  2
chain
 70
   64
  3
-------------- -- --------------
 72
   65
 73
    4
 40
18.5
 49
12
 49
-1.5
 49
3.5
 49
-1.5
  0
LTYPE
  2
chain_double_dash
 70
   64
  3
------------ -- -- -------------
 72
   65
 73
    6
 40
23.5
 49
12
 49
-1.5
 49
3.5
 49
-1.5
 49
3.5
 49
-1.5
  0
LTYPE
  2
dashed_dotted
 70
   64
  3
-----------     -     ----------
 72
   65
 73
    4
 40
9.25
 49
6
 49
-1.5
 49
0.25
 49
-1.5
  0
LTYPE
  2
double-dashed_dotted
 70
   64
  3
------   -----------   -   -----
 72
   65
 73
    6
 40
16.75
 49
6
 49
-1.5
 49
6
 49
-1.5
 49
0.25
 49
-1.5
  0
LTYPE
  2
dashed_double-dotted
 70
   64
  3
---------    -    -    ---------
 72
   65
 73
    6
 40
11
 49
6
 49
-1.5
 49
0.25
 49
-1.5
 49
0.25
 49
-1.5
  0
LTYPE
  2
double-dashed_double-dotted
 70
   64
  3
-----   ---------   -   -   ----
 72
   65
 73
    8
 40
18.5
 49
6
 49
-1.5
 49
6
 49
-1.5
 49
0.25
 49
-1.5
 49
0.25
 49
-1.5
  0
LTYPE
  2
dashed_triplicate-dotted
 70
   64
  3
-------    -    -    -    ------
 72
   65
 73
    8
 40
12.75
 49
6
 49
-1.5
 49
0.25
 49
-1.5
 49
0.25
 49
-1.5
 49
0.25
 49
-1.5
  0
LTYPE
  2
double-dashed_triplicate-dotted
 70
   64
  3
-----  ---------  -  -  -  -----
 72
   65
 73
   10
 40
20.25
 49
6
 49
-1.5
 49
6
 49
-1.5
 49
0.25
 49
-1.5
 49
0.25
 49
-1.5
 49
0.25
 49
-1.5
  0
LTYPE
  2
undefined
 70
   64
  3
--------------------------------
 72
   65
 73
    0
 40
0
  0
ENDTAB
  0
TABLE
  2
STYLE
  5
3
100
AcDbSymbolTable
 70
     1
  0
STYLE
  5
10
100
AcDbSymbolTableRecord
100
AcDbTextStyleTableRecord
  2
STANDARD
 70
     0
 40
0.0
 41
1.0
 50
0.0
 71
     0
 42
0.2
  3
txt
  4
bigfont.shx
  0
STYLE
  5
26
100
AcDbSymbolTableRecord
100
AcDbTextStyleTableRecord
  2
TATEGAKI
 70
    68
 40
0.0
 41
1.0
 50
0.0
 71
     0
 42
1.0
  3
txt
  4
bigfont.shx
  0
ENDTAB
  0
TABLE
  2
LAYER
 70
    2
  0
LAYER
  2
_0-0_0
 70
   64
 62
    7
  6
CONTINUOUS
  0
LAYER
  2
ADD_LINE
 70
   64
 62
    7
  6
CONTINUOUS
  0
ENDTAB
  0
ENDSEC
  0
SECTION
  2
BLOCKS
  0
ENDSEC
  0
SECTION
  2
ENTITIES
  0
LINE
  8
_0-0_0
  6
CONTINUOUS
 62
    7
 10
105.00239550000003
 20
809.90048200000001
 11
105.00239550000003
 21
809.89947499999994
  0
LINE
  8
_0-0_0
  6
CONTINUOUS
 62
    7
 10
131.50239550000003
 20
775.55499299999997
 11
131.50239550000003
 21
777.79998799999998
  0
LINE
  8
_0-0_0
  6
CONTINUOUS
 62
    7
 10
131.50239550000003
 20
777.79998799999998
 11
131.50239550000003
 21
779.79998799999998
  0
LINE
  8
_0-0_0
  6
CONTINUOUS
 62
    7
 10
131.50239550000003
 20
779.79998799999998
 11
131.50239550000003
 21
780.29998799999998
  0
LINE
  8
_0-0_0
  6
CONTINUOUS
 62
    7
 10
131.50239550000003
 20
780.29998799999998
 11
131.50239550000003
 21
781.29998799999998
  0
LINE
  8
_0-0_0
  6
CONTINUOUS
 62
    7
 10
131.50239550000003
 20
757.19998199999998
 11
131.50239550000003
 21
775.55499299999997
  0
LINE
  8
_0-0_0
  6
CONTINUOUS
 62
    7
 10
228.00239950000002
 20
779.29998799999998
 11
228.00239950000002
 21
779.79998799999998
  0
LINE
  8
_0-0_0
  6
CONTINUOUS
 62
    7
 10
228.00239950000002
 20
780.29998799999998
 11
228.00239950000002
 21
781.29998799999998
  0
LINE
  8
_0-0_0
  6
CONTINUOUS
 62
    7
 10
228.00239950000002
 20
779.79998799999998
 11
228.00239950000002
 21
780.29998799999998
  0
ARC
  8
_0-0_0
  6
CONTINUOUS
 62
    7
 10
214.00239950000002
 20
775.55499299999997
 40
0.5
 50
0
 51
123.74898500000002
  0
ARC
  8
_0-0_0
  6
CONTINUOUS
 62
    7
 10
212.50239950000002
 20
777.79998799999998
 40
2.2000000000000002
 50
180.00000900000003
 51
303.74900400000001
  0
LINE
  8
_0-0_0
  6
CONTINUOUS
 62
    7
 10
210.30240249999997
 20
777.79998799999998
 11
210.30240249999997
 21
779.29998799999998
  0
LINE
  8
_0-0_0
  6
CONTINUOUS
 62
    7
 10
135.70239649999996
 20
779.29998799999998
 11
210.30240249999997
 21
779.29998799999998
  0
LINE
  8
_0-0_0
  6
CONTINUOUS
 62
    7
 10
135.70239649999996
 20
779.29998799999998
 11
135.70239649999996
 21
777.79998799999998
  0
ARC
  8
_0-0_0
  6
CONTINUOUS
 62
    7
 10
133.50239550000003
 20
777.79998799999998
 40
2.2000000000000002
 50
236.25102899999999
 51
0
  0
ARC
  8
_0-0_0
  6
CONTINUOUS
 62
    7
 10
132.00239550000003
 20
775.55499299999997
 40
0.5
 50
56.251010000000008
 51
180.00000900000001
  0
ARC
  8
_0-0_0
  6
CONTINUOUS
 62
    7
 10
133.50239550000003
 20
757.19998199999998
 40
2
 50
180.00000900000003
 51
269.99999700000001
  0
LINE
  8
_0-0_0
  6
CONTINUOUS
 62
    7
 10
133.50239550000003
 20
755.19998199999998
 11
134.50239550000003
 21
755.19998199999998
  0
LINE
  8
_0-0_0
  6
CONTINUOUS
 62
    7
 10
134.50239550000003
 20
755.19998199999998
 11
134.50239550000003
 21
756.79998799999998
  0
ARC
  8
_0-0_0
  6
CONTINUOUS
 62
    7
 10
135.00239550000003
 20
756.79998799999998
 40
0.5
 50
90.000003000000007
 51
180.00000900000001
  0
LINE
  8
_0-0_0
  6
CONTINUOUS
 62
    7
 10
135.20239649999996
 20
757.29998799999998
 11
135.00239550000003
 21
757.29998799999998
  0
ARC
  8
_0-0_0
  6
CONTINUOUS
 62
    7
 10
135.20239649999996
 20
756.79998799999998
 40
0.5
 50
90.000003000000007
 51
180.00000900000001
  0
LINE
  8
_0-0_0
  6
CONTINUOUS
 62
    7
 10
134.70239649999996
 20
755.29998799999998
 11
134.70239649999996
 21
756.79998799999998
  0
LINE
  8
_0-0_0
  6
CONTINUOUS
 62
    7
 10
204.30240249999997
 20
755.29998799999998
 11
134.70239649999996
 21
755.29998799999998
  0
LINE
  8
_0-0_0
  6
CONTINUOUS
 62
    7
 10
204.30240249999997
 20
755.29998799999998
 11
204.30240249999997
 21
756.79998799999998
  0
ARC
  8
_0-0_0
  6
CONTINUOUS
 62
    7
 10
203.80240249999997
 20
756.79998799999998
 40
0.5
 50
0
 51
90.000003000000007
  0
LINE
  8
_0-0_0
  6
CONTINUOUS
 62
    7
 10
204.00239950000002
 20
757.29998799999998
 11
203.80240249999997
 21
757.29998799999998
  0
ARC
  8
_0-0_0
  6
CONTINUOUS
 62
    7
 10
204.00239950000002
 20
756.79998799999998
 40
0.5
 50
0
 51
90.000003000000007
  0
LINE
  8
_0-0_0
  6
CONTINUOUS
 62
    7
 10
204.50239950000002
 20
756.79998799999998
 11
204.50239950000002
 21
755.19998199999998
  0
LINE
  8
_0-0_0
  6
CONTINUOUS
 62
    7
 10
204.50239950000002
 20
755.19998199999998
 11
214.50239950000002
 21
755.19998199999998
  0
LINE
  8
_0-0_0
  6
CONTINUOUS
 62
    7
 10
214.50239950000002
 20
755.19998199999998
 11
214.50239950000002
 21
756.09997599999997
  0
LINE
  8
_0-0_0
  6
CONTINUOUS
 62
    7
 10
150.50239150000004
 20
758.704071
 11
191.90239350000002
 21
758.704071
  0
LINE
  8
_0-0_0
  6
CONTINUOUS
 62
    7
 10
150.50239150000004
 20
778.29998799999998
 11
191.90239350000002
 21
778.29998799999998
  0
ARC
  8
_0-0_0
  6
CONTINUOUS
 62
    7
 10
203.20239649999996
 20
757.49997000000008
 40
0.2
 50
180.00000900000003
 51
269.99999700000001
  0
LINE
  8
_0-0_0
  6
CONTINUOUS
 62
    7
 10
203.20239649999996
 20
757.29998799999998
 11
135.80239449999999
 21
757.29998799999998
  0
ARC
  8
_0-0_0
  6
CONTINUOUS
 62
    7
 10
135.80239449999999
 20
757.49997000000008
 40
0.2
 50
269.99999700000001
 51
0
  0
ARC
  8
_0-0_0
  6
CONTINUOUS
 62
    7
 10
136.20239649999996
 20
757.49997000000008
 40
0.2
 50
90.000003000000007
 51
180.00000900000001
  0
LINE
  8
_0-0_0
  6
CONTINUOUS
 62
    7
 10
136.20239649999996
 20
757.69998199999998
 11
202.80240249999997
 21
757.69998199999998
  0
ARC
  8
_0-0_0
  6
CONTINUOUS
 62
    7
 10
202.80240249999997
 20
757.49997000000008
 40
0.2
 50
0
 51
90.000003000000007
  0
LINE
  8
_0-0_0
  6
CONTINUOUS
 62
    7
 10
131.50239550000003
 20
780.29998799999998
 11
228.00239950000002
 21
780.29998799999998
  0
LINE
  8
_0-0_0
  6
CONTINUOUS
 62
    7
 10
227.50239950000002
 20
779.29998799999998
 11
228.00239950000002
 21
779.29998799999998
  0
LINE
  8
_0-0_0
  6
CONTINUOUS
 62
    7
 10
214.50239950000002
 20
757.29998799999998
 11
214.50239950000002
 21
756.09997599999997
  0
LINE
  8
_0-0_0
  6
CONTINUOUS
 62
    7
 10
214.50239950000002
 20
757.29998799999998
 11
214.50239950000002
 21
774.89999399999999
  0
LINE
  8
_0-0_0
  6
CONTINUOUS
 62
    7
 10
214.50239950000002
 20
776.87734999999998
 11
214.50239950000002
 21
774.89999399999999
  0
LINE
  8
_0-0_0
  6
CONTINUOUS
 62
    7
 10
133.50239550000003
 20
763.78967299999999
 11
133.50239550000003
 21
774.23767099999998
  0
ARC
  8
_0-0_0
  6
CONTINUOUS
 62
    7
 10
133.50239550000003
 20
777.79998799999998
 40
2.7000000000000002
 50
285.68033600000007
 51
352.23356600000005
  0
LINE
  8
_0-0_0
  6
CONTINUOUS
 62
    7
 10
210.50239950000002
 20
775.29998799999998
 11
210.50239950000002
 21
761.69998199999998
  0
LINE
  8
_0-0_0
  6
CONTINUOUS
 62
    7
 10
135.50239550000003
 20
779.29998799999998
 11
135.70239649999996
 21
779.29998799999998
  0
LINE
  8
_0-0_0
  6
CONTINUOUS
 62
    7
 10
135.50239550000003
 20
779.29998799999998
 11
135.50239550000003
 21
777.79998799999998
  0
ARC
  8
_0-0_0
  6
CONTINUOUS
 62
    7
 10
133.50239550000003
 20
777.79998799999998
 40
2
 50
180.00000900000003
 51
0.0000000000000254
  0
LINE
  8
_0-0_0
  6
CONTINUOUS
 62
    7
 10
227.50239950000002
 20
779.29998799999998
 11
227.50239950000002
 21
777.59997599999997
  0
LINE
  8
_0-0_0
  6
CONTINUOUS
 62
    7
 10
214.50239950000002
 20
755.29998799999998
 11
226.50239950000002
 21
755.29998799999998
  0
LINE
  8
_0-0_0
  6
CONTINUOUS
 62
    7
 10
226.50239950000002
 20
755.29998799999998
 11
231.17784449999999
 21
755.29998799999998
  0
LINE
  8
_0-0_0
  6
CONTINUOUS
 62
    7
 10
226.50239950000002
 20
760.79998799999998
 11
226.50239950000002
 21
757.79998799999998
  0
LINE
  8
_0-0_0
  6
CONTINUOUS
 62
    7
 10
226.50239950000002
 20
757.79998799999998
 11
226.50239950000002
 21
757.29998799999998
  0
LINE
  8
_0-0_0
  6
CONTINUOUS
 62
    7
 10
226.50239950000002
 20
760.79998799999998
 11
226.50239950000002
 21
761.29998799999998
  0
ARC
  8
_0-0_0
  6
CONTINUOUS
 62
    7
 10
220.50238450000006
 20
760.60000600000001
 40
0.500016
 50
180.00117
 51
359.995611
  0
LINE
  8
_0-0_0
  6
CONTINUOUS
 62
    7
 10
221.00239950000002
 20
760.59997599999997
 11
221.00239950000002
 21
772.59997599999997
  0
ARC
  8
_0-0_0
  6
CONTINUOUS
 62
    7
 10
220.50238450000006
 20
772.59997599999997
 40
0.500016
 50
0.001164
 51
179.99560600000004
  0
LINE
  8
_0-0_0
  6
CONTINUOUS
 62
    7
 10
220.00239950000002
 20
760.59997599999997
 11
220.00239950000002
 21
772.59997599999997
  0
ARC
  8
_0-0_0
  6
CONTINUOUS
 62
    7
 10
222.00238450000006
 20
760.60000600000001
 40
0.500016
 50
180.00117
 51
359.995611
  0
LINE
  8
_0-0_0
  6
CONTINUOUS
 62
    7
 10
222.50239950000002
 20
760.59997599999997
 11
222.50239950000002
 21
772.59997599999997
  0
ARC
  8
_0-0_0
  6
CONTINUOUS
 62
    7
 10
222.00238450000006
 20
772.59997599999997
 40
0.500016
 50
0.001164
 51
179.99560600000004
  0
LINE
  8
_0-0_0
  6
CONTINUOUS
 62
    7
 10
221.50239950000002
 20
760.59997599999997
 11
221.50239950000002
 21
772.59997599999997
  0
ARC
  8
_0-0_0
  6
CONTINUOUS
 62
    7
 10
223.50238450000006
 20
760.60000600000001
 40
0.500016
 50
180.00117
 51
359.995611
  0
LINE
  8
_0-0_0
  6
CONTINUOUS
 62
    7
 10
224.00239950000002
 20
760.59997599999997
 11
224.00239950000002
 21
772.59997599999997
  0
ARC
  8
_0-0_0
  6
CONTINUOUS
 62
    7
 10
223.50238450000006
 20
772.59997599999997
 40
0.500016
 50
0.001164
 51
179.99560600000004
  0
LINE
  8
_0-0_0
  6
CONTINUOUS
 62
    7
 10
223.00239950000002
 20
760.59997599999997
 11
223.00239950000002
 21
772.59997599999997
  0
ARC
  8
_0-0_0
  6
CONTINUOUS
 62
    7
 10
225.00238450000006
 20
760.60000600000001
 40
0.500016
 50
180.00117
 51
359.995611
  0
LINE
  8
_0-0_0
  6
CONTINUOUS
 62
    7
 10
225.50239950000002
 20
760.59997599999997
 11
225.50239950000002
 21
772.59997599999997
  0
ARC
  8
_0-0_0
  6
CONTINUOUS
 62
    7
 10
225.00238450000006
 20
772.59997599999997
 40
0.500016
 50
0.001164
 51
179.99560600000004
  0
LINE
  8
_0-0_0
  6
CONTINUOUS
 62
    7
 10
224.50239950000002
 20
760.59997599999997
 11
224.50239950000002
 21
772.59997599999997
  0
LINE
  8
_0-0_0
  6
CONTINUOUS
 62
    7
 10
214.50239950000002
 20
777.59997599999997
 11
214.50239950000002
 21
776.87734999999998
  0
LINE
  8
_0-0_0
  6
CONTINUOUS
 62
    7
 10
227.50239950000002
 20
777.59997599999997
 11
214.50239950000002
 21
777.59997599999997
  0
LINE
  8
_0-0_0
  6
CONTINUOUS
 62
    7
 10
214.50239950000002
 20
779.29998799999998
 11
227.50239950000002
 21
779.29998799999998
  0
LINE
  8
_0-0_0
  6
CONTINUOUS
 62
    7
 10
214.50239950000002
 20
779.29998799999998
 11
214.50239950000002
 21
777.59997599999997
  0
LINE
  8
_0-0_0
  6
CONTINUOUS
 62
    7
 10
203.95239649999996
 20
757.27694700000006
 11
203.95239649999996
 21
757.29998799999998
  0
ARC
  8
_0-0_0
  6
CONTINUOUS
 62
    7
 10
231.17784449999999
 20
757.29998799999998
 40
2
 50
269.99999700000001
 51
288.43501300000003
  0
LINE
  8
_0-0_0
  6
CONTINUOUS
 62
    7
 10
210.30240249999997
 20
779.29998799999998
 11
210.50239950000002
 21
779.29998799999998
  0
ARC
  8
_0-0_0
  6
CONTINUOUS
 62
    7
 10
212.50239950000002
 20
777.79998799999998
 40
2
 50
180.00000900000003
 51
0.0000000000000254
  0
LINE
  8
_0-0_0
  6
CONTINUOUS
 62
    7
 10
210.50239950000002
 20
777.79998799999998
 11
210.50239950000002
 21
779.29998799999998
  0
LINE
  8
_0-0_0
  6
CONTINUOUS
 62
    7
 10
232.25238450000006
 20
755.54998799999998
 11
231.81029149999995
 21
755.40261899999996
  0
ARC
  8
_0-0_0
  6
CONTINUOUS
 62
    7
 10
201.50239950000002
 20
770.89999399999999
 40
2.25
 50
269.99999700000001
 51
90.000002999999992
  0
LINE
  8
_0-0_0
  6
CONTINUOUS
 62
    7
 10
197.50239150000004
 20
768.64999399999999
 11
201.50239950000002
 21
768.64999399999999
  0
ARC
  8
_0-0_0
  6
CONTINUOUS
 62
    7
 10
197.50239150000004
 20
770.89999399999999
 40
2.25
 50
90.000003000000007
 51
269.99999700000006
  0
ARC
  8
_0-0_0
  6
CONTINUOUS
 62
    7
 10
145.50239150000004
 20
770.89999399999999
 40
2.25
 50
269.99999700000001
 51
90.000002999999992
  0
LINE
  8
_0-0_0
  6
CONTINUOUS
 62
    7
 10
141.50239150000004
 20
768.64999399999999
 11
145.50239150000004
 21
768.64999399999999
  0
ARC
  8
_0-0_0
  6
CONTINUOUS
 62
    7
 10
141.50239150000004
 20
770.89999399999999
 40
2.25
 50
90.000003000000007
 51
269.99999700000006
  0
LINE
  8
_0-0_0
  6
CONTINUOUS
 62
    7
 10
197.50239150000004
 20
773.14999399999999
 11
201.50239950000002
 21
773.14999399999999
  0
LINE
  8
_0-0_0
  6
CONTINUOUS
 62
    7
 10
141.50239150000004
 20
773.14999399999999
 11
145.50239150000004
 21
773.14999399999999
  0
LINE
  8
_0-0_0
  6
CONTINUOUS
 62
    7
 10
203.7429995
 20
766.89999399999999
 11
195.26179149999996
 21
766.89999399999999
  0
LINE
  8
_0-0_0
  6
CONTINUOUS
 62
    7
 10
203.7429995
 20
766.89999399999999
 11
206.05240249999997
 21
770.89999399999999
  0
LINE
  8
_0-0_0
  6
CONTINUOUS
 62
    7
 10
206.05240249999997
 20
770.89999399999999
 11
203.7429995
 21
774.89999399999999
  0
LINE
  8
_0-0_0
  6
CONTINUOUS
 62
    7
 10
195.26179149999996
 20
774.89999399999999
 11
203.7429995
 21
774.89999399999999
  0
LINE
  8
_0-0_0
  6
CONTINUOUS
 62
    7
 10
192.95238849999998
 20
770.89999399999999
 11
195.26179149999996
 21
774.89999399999999
  0
LINE
  8
_0-0_0
  6
CONTINUOUS
 62
    7
 10
195.26179149999996
 20
766.89999399999999
 11
192.95238849999998
 21
770.89999399999999
  0
LINE
  8
_0-0_0
  6
CONTINUOUS
 62
    7
 10
147.74299250000001
 20
766.89999399999999
 11
139.26179850000005
 21
766.89999399999999
  0
LINE
  8
_0-0_0
  6
CONTINUOUS
 62
    7
 10
150.05239449999999
 20
770.89999399999999
 11
147.74299250000001
 21
766.89999399999999
  0
LINE
  8
_0-0_0
  6
CONTINUOUS
 62
    7
 10
150.05239449999999
 20
770.89999399999999
 11
147.74299250000001
 21
774.89999399999999
  0
LINE
  8
_0-0_0
  6
CONTINUOUS
 62
    7
 10
139.26179850000005
 20
774.89999399999999
 11
147.74299250000001
 21
774.89999399999999
  0
LINE
  8
_0-0_0
  6
CONTINUOUS
 62
    7
 10
136.95239649999996
 20
770.89999399999999
 11
139.26179850000005
 21
774.89999399999999
  0
LINE
  8
_0-0_0
  6
CONTINUOUS
 62
    7
 10
136.95239649999996
 20
770.89999399999999
 11
139.26179850000005
 21
766.89999399999999
  0
CIRCLE
  8
_0-0_0
  6
CONTINUOUS
 62
    7
 10
212.50239950000002
 20
777.79998799999998
 40
1.4750000000000001
  0
CIRCLE
  8
_0-0_0
  6
CONTINUOUS
 62
    7
 10
133.50239550000003
 20
777.79998799999998
 40
1.4750000000000001
  0
LINE
  8
_0-0_0
  6
CONTINUOUS
 62
    7
 10
212.95239649999996
 20
777.59997599999997
 11
213.60239049999996
 21
777.59997599999997
  0
ARC
  8
_0-0_0
  6
CONTINUOUS
 62
    7
 10
212.95239649999996
 20
777.34997599999997
 40
0.25
 50
90.000003000000007
 51
180.00000900000001
  0
LINE
  8
_0-0_0
  6
CONTINUOUS
 62
    7
 10
212.70239649999996
 20
777.34997599999997
 11
212.70239649999996
 21
776.69998199999998
  0
LINE
  8
_0-0_0
  6
CONTINUOUS
 62
    7
 10
212.30240249999997
 20
776.69998199999998
 11
212.70239649999996
 21
776.69998199999998
  0
LINE
  8
_0-0_0
  6
CONTINUOUS
 62
    7
 10
212.30240249999997
 20
776.69998199999998
 11
212.30240249999997
 21
777.34997599999997
  0
ARC
  8
_0-0_0
  6
CONTINUOUS
 62
    7
 10
212.05240249999997
 20
777.34997599999997
 40
0.25
 50
0
 51
90.000003000000007
  0
LINE
  8
_0-0_0
  6
CONTINUOUS
 62
    7
 10
211.40239350000002
 20
777.59997599999997
 11
212.05240249999997
 21
777.59997599999997
  0
LINE
  8
_0-0_0
  6
CONTINUOUS
 62
    7
 10
211.40239350000002
 20
777.59997599999997
 11
211.40239350000002
 21
778
  0
LINE
  8
_0-0_0
  6
CONTINUOUS
 62
    7
 10
212.05240249999997
 20
778
 11
211.40239350000002
 21
778
  0
ARC
  8
_0-0_0
  6
CONTINUOUS
 62
    7
 10
212.05240249999997
 20
778.25
 40
0.25
 50
269.99999700000001
 51
0
  0
LINE
  8
_0-0_0
  6
CONTINUOUS
 62
    7
 10
212.30240249999997
 20
778.25
 11
212.30240249999997
 21
778.89999399999999
  0
LINE
  8
_0-0_0
  6
CONTINUOUS
 62
    7
 10
212.70239649999996
 20
778.89999399999999
 11
212.30240249999997
 21
778.89999399999999
  0
LINE
  8
_0-0_0
  6
CONTINUOUS
 62
    7
 10
212.70239649999996
 20
778.89999399999999
 11
212.70239649999996
 21
778.25
  0
ARC
  8
_0-0_0
  6
CONTINUOUS
 62
    7
 10
212.95239649999996
 20
778.25
 40
0.25
 50
180.00000900000003
 51
269.99999700000001
  0
LINE
  8
_0-0_0
  6
CONTINUOUS
 62
    7
 10
213.60239049999996
 20
778
 11
212.95239649999996
 21
778
  0
LINE
  8
_0-0_0
  6
CONTINUOUS
 62
    7
 10
213.60239049999996
 20
778
 11
213.60239049999996
 21
777.59997599999997
  0
LINE
  8
_0-0_0
  6
CONTINUOUS
 62
    7
 10
133.95239649999996
 20
777.59997599999997
 11
134.60239450000006
 21
777.59997599999997
  0
ARC
  8
_0-0_0
  6
CONTINUOUS
 62
    7
 10
133.95239649999996
 20
777.34997599999997
 40
0.25
 50
90.000003000000007
 51
180.00000900000001
  0
LINE
  8
_0-0_0
  6
CONTINUOUS
 62
    7
 10
133.70239649999996
 20
777.34997599999997
 11
133.70239649999996
 21
776.69998199999998
  0
LINE
  8
_0-0_0
  6
CONTINUOUS
 62
    7
 10
133.30239449999999
 20
776.69998199999998
 11
133.70239649999996
 21
776.69998199999998
  0
LINE
  8
_0-0_0
  6
CONTINUOUS
 62
    7
 10
133.30239449999999
 20
776.69998199999998
 11
133.30239449999999
 21
777.34997599999997
  0
ARC
  8
_0-0_0
  6
CONTINUOUS
 62
    7
 10
133.05239449999999
 20
777.34997599999997
 40
0.25
 50
0
 51
90.000003000000007
  0
LINE
  8
_0-0_0
  6
CONTINUOUS
 62
    7
 10
132.40239350000002
 20
777.59997599999997
 11
133.05239449999999
 21
777.59997599999997
  0
LINE
  8
_0-0_0
  6
CONTINUOUS
 62
    7
 10
132.40239350000002
 20
777.59997599999997
 11
132.40239350000002
 21
778
  0
LINE
  8
_0-0_0
  6
CONTINUOUS
 62
    7
 10
133.05239449999999
 20
778
 11
132.40239350000002
 21
778
  0
ARC
  8
_0-0_0
  6
CONTINUOUS
 62
    7
 10
133.05239449999999
 20
778.25
 40
0.25
 50
269.99999700000001
 51
0
  0
LINE
  8
_0-0_0
  6
CONTINUOUS
 62
    7
 10
133.30239449999999
 20
778.25
 11
133.30239449999999
 21
778.89999399999999
  0
LINE
  8
_0-0_0
  6
CONTINUOUS
 62
    7
 10
133.70239649999996
 20
778.89999399999999
 11
133.30239449999999
 21
778.89999399999999
  0
LINE
  8
_0-0_0
  6
CONTINUOUS
 62
    7
 10
133.70239649999996
 20
778.89999399999999
 11
133.70239649999996
 21
778.25
  0
ARC
  8
_0-0_0
  6
CONTINUOUS
 62
    7
 10
133.95239649999996
 20
778.25
 40
0.25
 50
180.00000900000003
 51
269.99999700000001
  0
LINE
  8
_0-0_0
  6
CONTINUOUS
 62
    7
 10
134.60239450000006
 20
778
 11
133.95239649999996
 21
778
  0
LINE
  8
_0-0_0
  6
CONTINUOUS
 62
    7
 10
134.60239450000006
 20
778
 11
134.60239450000006
 21
777.59997599999997
  0
LINE
  8
_0-0_0
  6
CONTINUOUS
 62
    7
 10
135.05239449999999
 20
757.27694700000006
 11
135.05239449999999
 21
757.29998799999998
  0
LINE
  8
_0-0_0
  6
CONTINUOUS
 62
    7
 10
153.50239150000004
 20
775.29998799999998
 11
153.50239150000004
 21
762.34298699999999
  0
ARC
  8
_0-0_0
  6
CONTINUOUS
 62
    7
 10
150.50239150000004
 20
775.29998799999998
 40
3
 50
0
 51
90.000003000000007
  0
LINE
  8
_0-0_0
  6
CONTINUOUS
 62
    7
 10
189.50239150000004
 20
761.69998199999998
 11
189.50239150000004
 21
775.29998799999998
  0
LINE
  8
_0-0_0
  6
CONTINUOUS
 62
    7
 10
172.98987950000003
 20
771.46963499999993
 11
171.68987649999997
 21
774.96963499999993
  0
ARC
  8
_0-0_0
  6
CONTINUOUS
 62
    7
 10
170.20239649999996
 20
771.39999399999999
 40
0.2
 50
159.62357
 51
269.99999700000001
  0
LINE
  8
_0-0_0
  6
CONTINUOUS
 62
    7
 10
214.50239950000002
 20
776.89999399999999
 11
231.17784449999999
 21
776.89999399999999
  0
ARC
  8
_0-0_0
  6
CONTINUOUS
 62
    7
 10
231.17784449999999
 20
774.89999399999999
 40
2
 50
71.565000999999995
 51
90.000003000000007
  0
LINE
  8
_0-0_0
  6
CONTINUOUS
 62
    7
 10
231.81030650000002
 20
776.79736300000002
 11
231.69079950000003
 21
776.83297700000003
  0
LINE
  8
_0-0_0
  6
CONTINUOUS
 62
    7
 10
231.69079950000003
 20
776.83297700000003
 11
231.56924849999996
 21
776.86084000000005
  0
LINE
  8
_0-0_0
  6
CONTINUOUS
 62
    7
 10
231.56924849999996
 20
776.86084000000005
 11
231.4461245
 21
776.88088999999991
  0
LINE
  8
_0-0_0
  6
CONTINUOUS
 62
    7
 10
231.4461245
 20
776.88088999999991
 11
231.32190349999996
 21
776.89300500000002
  0
LINE
  8
_0-0_0
  6
CONTINUOUS
 62
    7
 10
231.32190349999996
 20
776.89300500000002
 11
231.19707149999999
 21
776.89712499999996
  0
LINE
  8
_0-0_0
  6
CONTINUOUS
 62
    7
 10
231.19707149999999
 20
776.89712499999996
 11
231.17784449999999
 21
776.897064
  0
LINE
  8
_0-0_0
  6
CONTINUOUS
 62
    7
 10
236.13484549999998
 20
775.35583500000007
 11
231.81029149999995
 21
776.79736300000002
  0
LINE
  8
_0-0_0
  6
CONTINUOUS
 62
    7
 10
235.97673450000002
 20
760.79998799999998
 11
236.67009350000001
 21
760.79998799999998
  0
LINE
  8
_0-0_0
  6
CONTINUOUS
 62
    7
 10
235.97673450000002
 20
760.79998799999998
 11
231.65217949999999
 21
760.79998799999998
  0
LINE
  8
_0-0_0
  6
CONTINUOUS
 62
    7
 10
231.17784449999999
 20
760.79998799999998
 11
231.65217949999999
 21
760.79998799999998
  0
LINE
  8
_0-0_0
  6
CONTINUOUS
 62
    7
 10
226.50239950000002
 20
760.79998799999998
 11
231.17784449999999
 21
760.79998799999998
  0
LINE
  8
_0-0_0
  6
CONTINUOUS
 62
    7
 10
237.50239950000002
 20
760.04995699999995
 11
237.50239950000002
 21
761.17095999999992
  0
LINE
  8
_0-0_0
  6
CONTINUOUS
 62
    7
 10
237.50239950000002
 20
762.09228499999995
 11
237.50239950000002
 21
761.17095999999992
  0
LINE
  8
_0-0_0
  6
CONTINUOUS
 62
    7
 10
248.50239950000002
 20
760.84997599999997
 11
248.50239950000002
 21
768.83154300000001
  0
ARC
  8
_0-0_0
  6
CONTINUOUS
 62
    7
 10
242.32851049999999
 20
769.35086100000001
 40
4.9238749999999998
 50
352.49423299999995
 51
1.5359699999999901
  0
LINE
  8
_0-0_0
  6
CONTINUOUS
 62
    7
 10
247.21022449999998
 20
763.49227900000005
 11
247.3045535
 21
763.738922
  0
LINE
  8
_0-0_0
  6
CONTINUOUS
 62
    7
 10
247.3045535
 20
763.738922
 11
247.38850750000006
 21
763.978882
  0
LINE
  8
_0-0_0
  6
CONTINUOUS
 62
    7
 10
247.38850750000006
 20
763.978882
 11
247.46266549999996
 21
764.21301300000005
  0
LINE
  8
_0-0_0
  6
CONTINUOUS
 62
    7
 10
247.46266549999996
 20
764.21301300000005
 11
247.52754549999997
 21
764.442047
  0
LINE
  8
_0-0_0
  6
CONTINUOUS
 62
    7
 10
247.52754549999997
 20
764.442047
 11
247.58359150000001
 21
764.66671799999995
  0
LINE
  8
_0-0_0
  6
CONTINUOUS
 62
    7
 10
247.58359150000001
 20
764.66671799999995
 11
247.63115349999998
 21
764.88769500000001
  0
LINE
  8
_0-0_0
  6
CONTINUOUS
 62
    7
 10
247.63115349999998
 20
764.88769500000001
 11
247.67055149999999
 21
765.10562099999993
  0
LINE
  8
_0-0_0
  6
CONTINUOUS
 62
    7
 10
247.67055149999999
 20
765.10562099999993
 11
247.70204550000005
 21
765.32104499999991
  0
LINE
  8
_0-0_0
  6
CONTINUOUS
 62
    7
 10
247.70204550000005
 20
765.32104499999991
 11
247.72581850000006
 21
765.53457700000001
  0
LINE
  8
_0-0_0
  6
CONTINUOUS
 62
    7
 10
247.72581850000006
 20
765.53457700000001
 11
247.74174849999997
 21
765.74230999999997
  0
LINE
  8
_0-0_0
  6
CONTINUOUS
 62
    7
 10
247.74174849999997
 20
765.74230999999997
 11
247.75050750000003
 21
765.94915800000001
  0
LINE
  8
_0-0_0
  6
CONTINUOUS
 62
    7
 10
247.75050750000003
 20
765.94915800000001
 11
247.7521395
 21
766.15560899999991
  0
LINE
  8
_0-0_0
  6
CONTINUOUS
 62
    7
 10
247.7521395
 20
766.15560899999991
 11
247.74667750000003
 21
766.362213
  0
LINE
  8
_0-0_0
  6
CONTINUOUS
 62
    7
 10
247.74667750000003
 20
766.362213
 11
247.73405850000006
 21
766.56939699999998
  0
LINE
  8
_0-0_0
  6
CONTINUOUS
 62
    7
 10
247.73405850000006
 20
766.56939699999998
 11
247.71425250000004
 21
766.77767999999992
  0
LINE
  8
_0-0_0
  6
CONTINUOUS
 62
    7
 10
247.71425250000004
 20
766.77767999999992
 11
247.68710750000002
 21
766.98761000000002
  0
LINE
  8
_0-0_0
  6
CONTINUOUS
 62
    7
 10
247.68710750000002
 20
766.98761000000002
 11
247.65245449999998
 21
767.19967700000007
  0
LINE
  8
_0-0_0
  6
CONTINUOUS
 62
    7
 10
247.65245449999998
 20
767.19967700000007
 11
247.61011150000002
 21
767.41442899999993
  0
LINE
  8
_0-0_0
  6
CONTINUOUS
 62
    7
 10
247.61011150000002
 20
767.41442899999993
 11
247.55978749999997
 21
767.63241599999992
  0
LINE
  8
_0-0_0
  6
CONTINUOUS
 62
    7
 10
247.55978749999997
 20
767.63241599999992
 11
247.50554250000005
 21
767.83871499999998
  0
LINE
  8
_0-0_0
  6
CONTINUOUS
 62
    7
 10
247.50554250000005
 20
767.83871499999998
 11
247.44383649999997
 21
768.04882799999996
  0
LINE
  8
_0-0_0
  6
CONTINUOUS
 62
    7
 10
247.44383649999997
 20
768.04882799999996
 11
247.37431749999996
 21
768.26327500000002
  0
LINE
  8
_0-0_0
  6
CONTINUOUS
 62
    7
 10
247.37431749999996
 20
768.26327500000002
 11
247.29660450000006
 21
768.48269699999992
  0
LINE
  8
_0-0_0
  6
CONTINUOUS
 62
    7
 10
247.29660450000006
 20
768.48269699999992
 11
247.21022449999998
 21
768.707672
  0
ARC
  8
_0-0_0
  6
CONTINUOUS
 62
    7
 10
242.33867250000003
 20
762.84997599999997
 40
4.9136889999999998
 50
352.48898799999995
 51
7.5110139999999577
  0
LINE
  8
_0-0_0
  6
CONTINUOUS
 62
    7
 10
247.21022449999998
 20
762.207672
 11
247.26471349999997
 21
762.13775599999997
  0
LINE
  8
_0-0_0
  6
CONTINUOUS
 62
    7
 10
247.26471349999997
 20
762.13775599999997
 11
247.31581449999999
 21
762.06890900000008
  0
LINE
  8
_0-0_0
  6
CONTINUOUS
 62
    7
 10
247.31581449999999
 20
762.06890900000008
 11
247.36345249999999
 21
762.00140399999998
  0
LINE
  8
_0-0_0
  6
CONTINUOUS
 62
    7
 10
247.36345249999999
 20
762.00140399999998
 11
247.40794749999998
 21
761.93487600000003
  0
LINE
  8
_0-0_0
  6
CONTINUOUS
 62
    7
 10
247.40794749999998
 20
761.93487600000003
 11
247.46266549999996
 21
761.84732099999997
  0
LINE
  8
_0-0_0
  6
CONTINUOUS
 62
    7
 10
247.46266549999996
 20
761.84732099999997
 11
247.5121805
 21
761.76123099999995
  0
LINE
  8
_0-0_0
  6
CONTINUOUS
 62
    7
 10
247.5121805
 20
761.76123099999995
 11
247.55664450000006
 21
761.67639199999996
  0
LINE
  8
_0-0_0
  6
CONTINUOUS
 62
    7
 10
247.55664450000006
 20
761.67639199999996
 11
247.60361050000006
 21
761.57608000000005
  0
LINE
  8
_0-0_0
  6
CONTINUOUS
 62
    7
 10
247.60361050000006
 20
761.57608000000005
 11
247.64381750000007
 21
761.47714199999996
  0
LINE
  8
_0-0_0
  6
CONTINUOUS
 62
    7
 10
247.64381750000007
 20
761.47714199999996
 11
247.67747850000001
 21
761.37939499999993
  0
LINE
  8
_0-0_0
  6
CONTINUOUS
 62
    7
 10
247.67747850000001
 20
761.37939499999993
 11
247.70477649999998
 21
761.28259300000002
  0
LINE
  8
_0-0_0
  6
CONTINUOUS
 62
    7
 10
247.70477649999998
 20
761.28259300000002
 11
247.72581850000006
 21
761.18652399999996
  0
LINE
  8
_0-0_0
  6
CONTINUOUS
 62
    7
 10
247.72581850000006
 20
761.18652399999996
 11
247.74174849999997
 21
761.082672
  0
LINE
  8
_0-0_0
  6
CONTINUOUS
 62
    7
 10
247.74174849999997
 20
761.082672
 11
247.75050750000003
 21
760.97924799999998
  0
LINE
  8
_0-0_0
  6
CONTINUOUS
 62
    7
 10
247.75050750000003
 20
760.97924799999998
 11
247.7521395
 21
760.87600700000007
  0
LINE
  8
_0-0_0
  6
CONTINUOUS
 62
    7
 10
247.7521395
 20
760.87600700000007
 11
247.74667750000003
 21
760.77273600000001
  0
LINE
  8
_0-0_0
  6
CONTINUOUS
 62
    7
 10
247.74667750000003
 20
760.77273600000001
 11
247.73405850000006
 21
760.669129
  0
LINE
  8
_0-0_0
  6
CONTINUOUS
 62
    7
 10
247.73405850000006
 20
760.669129
 11
247.71425250000004
 21
760.56497200000001
  0
LINE
  8
_0-0_0
  6
CONTINUOUS
 62
    7
 10
247.71425250000004
 20
760.56497200000001
 11
247.68710750000002
 21
760.46002199999998
  0
LINE
  8
_0-0_0
  6
CONTINUOUS
 62
    7
 10
247.68710750000002
 20
760.46002199999998
 11
247.65245449999998
 21
760.35400400000003
  0
LINE
  8
_0-0_0
  6
CONTINUOUS
 62
    7
 10
247.65245449999998
 20
760.35400400000003
 11
247.61011150000002
 21
760.24661300000002
  0
LINE
  8
_0-0_0
  6
CONTINUOUS
 62
    7
 10
247.61011150000002
 20
760.24661300000002
 11
247.55978749999997
 21
760.13760400000001
  0
LINE
  8
_0-0_0
  6
CONTINUOUS
 62
    7
 10
247.55978749999997
 20
760.13760400000001
 11
247.51410250000004
 21
760.04995699999995
  0
LINE
  8
_0-0_0
  6
CONTINUOUS
 62
    7
 10
237.50239950000002
 20
769.99227900000005
 11
247.21022449999998
 21
769.99227900000005
  0
LINE
  8
_0-0_0
  6
CONTINUOUS
 62
    7
 10
237.50239950000002
 20
768.707672
 11
237.50239950000002
 21
769.99227900000005
  0
LINE
  8
_0-0_0
  6
CONTINUOUS
 62
    7
 10
237.50239950000002
 20
768.707672
 11
247.21022449999998
 21
768.707672
  0
ARC
  8
_0-0_0
  6
CONTINUOUS
 62
    7
 10
242.29048550000005
 20
769.34591699999999
 40
4.9620009999999999
 50
1.5813010000000001
 51
7.4847919999999997
  0
LINE
  8
_0-0_0
  6
CONTINUOUS
 62
    7
 10
237.20239649999996
 20
763.88797
 11
237.11893050000003
 21
764.26663200000007
  0
LINE
  8
_0-0_0
  6
CONTINUOUS
 62
    7
 10
237.11893050000003
 20
764.26663200000007
 11
237.07884550000006
 21
764.45816100000002
  0
LINE
  8
_0-0_0
  6
CONTINUOUS
 62
    7
 10
237.07884550000006
 20
764.45816100000002
 11
237.02275450000002
 21
764.7482
  0
LINE
  8
_0-0_0
  6
CONTINUOUS
 62
    7
 10
237.02275450000002
 20
764.7482
 11
236.98515650000002
 21
764.96777399999996
  0
LINE
  8
_0-0_0
  6
CONTINUOUS
 62
    7
 10
236.98515650000002
 20
764.96777399999996
 11
236.9525185
 21
765.18902600000001
  0
LINE
  8
_0-0_0
  6
CONTINUOUS
 62
    7
 10
236.9525185
 20
765.18902600000001
 11
236.92535750000002
 21
765.41583300000002
  0
LINE
  8
_0-0_0
  6
CONTINUOUS
 62
    7
 10
236.92535750000002
 20
765.41583300000002
 11
236.90529249999997
 21
765.64321900000004
  0
LINE
  8
_0-0_0
  6
CONTINUOUS
 62
    7
 10
236.90529249999997
 20
765.64321900000004
 11
236.89813649999996
 21
765.75695799999994
  0
LINE
  8
_0-0_0
  6
CONTINUOUS
 62
    7
 10
236.89813649999996
 20
765.75695799999994
 11
236.89297850000003
 21
765.87063599999999
  0
LINE
  8
_0-0_0
  6
CONTINUOUS
 62
    7
 10
236.89297850000003
 20
765.87063599999999
 11
236.88925549999999
 21
766.022064
  0
LINE
  8
_0-0_0
  6
CONTINUOUS
 62
    7
 10
236.88925549999999
 20
766.022064
 11
236.88919450000003
 21
766.17334000000005
  0
LINE
  8
_0-0_0
  6
CONTINUOUS
 62
    7
 10
236.88919450000003
 20
766.17334000000005
 11
236.89278049999996
 21
766.32437099999993
  0
LINE
  8
_0-0_0
  6
CONTINUOUS
 62
    7
 10
236.89278049999996
 20
766.32437099999993
 11
236.90228650000006
 21
766.51294000000007
  0
LINE
  8
_0-0_0
  6
CONTINUOUS
 62
    7
 10
236.90228650000006
 20
766.51294000000007
 11
236.91714850000005
 21
766.70117200000004
  0
LINE
  8
_0-0_0
  6
CONTINUOUS
 62
    7
 10
236.91714850000005
 20
766.70117200000004
 11
236.93707649999999
 21
766.88913000000002
  0
LINE
  8
_0-0_0
  6
CONTINUOUS
 62
    7
 10
236.93707649999999
 20
766.88913000000002
 11
236.9534645
 21
767.01800500000002
  0
LINE
  8
_0-0_0
  6
CONTINUOUS
 62
    7
 10
236.9534645
 20
767.01800500000002
 11
236.97186650000003
 21
767.14663700000006
  0
LINE
  8
_0-0_0
  6
CONTINUOUS
 62
    7
 10
236.97186650000003
 20
767.14663700000006
 11
236.99603650000006
 21
767.29858400000001
  0
LINE
  8
_0-0_0
  6
CONTINUOUS
 62
    7
 10
236.99603650000006
 20
767.29858400000001
 11
237.02243450000003
 21
767.44992100000002
  0
LINE
  8
_0-0_0
  6
CONTINUOUS
 62
    7
 10
237.02243450000003
 20
767.44992100000002
 11
237.07860149999999
 21
767.74054000000001
  0
LINE
  8
_0-0_0
  6
CONTINUOUS
 62
    7
 10
237.07860149999999
 20
767.74054000000001
 11
237.1187625
 21
767.93249500000002
  0
LINE
  8
_0-0_0
  6
CONTINUOUS
 62
    7
 10
237.1187625
 20
767.93249500000002
 11
237.20239649999996
 21
768.31198100000006
  0
LINE
  8
_0-0_0
  6
CONTINUOUS
 62
    7
 10
237.50239950000002
 20
764.53793300000007
 11
237.50239950000002
 21
767.66204799999991
  0
LINE
  8
_0-0_0
  6
CONTINUOUS
 62
    7
 10
262.25239550000003
 20
756.57455499999992
 11
262.00239550000003
 21
756.54998799999998
  0
LINE
  8
_0-0_0
  6
CONTINUOUS
 62
    7
 10
262.00239550000003
 20
756.54998799999998
 11
252.75239150000004
 21
756.54998799999998
  0
LINE
  8
_0-0_0
  6
CONTINUOUS
 62
    7
 10
252.50239150000004
 20
756.57455499999992
 11
252.75239150000004
 21
756.54998799999998
  0
LINE
  8
_0-0_0
  6
CONTINUOUS
 62
    7
 10
262.25239550000003
 20
759.54855399999997
 11
262.00239550000003
 21
759.82254
  0
LINE
  8
_0-0_0
  6
CONTINUOUS
 62
    7
 10
262.25239550000003
 20
759.54855399999997
 11
262.00239550000003
 21
759.65783699999997
  0
LINE
  8
_0-0_0
  6
CONTINUOUS
 62
    7
 10
262.25239550000003
 20
759.39096100000006
 11
262.00239550000003
 21
759.65783699999997
  0
LINE
  8
_0-0_0
  6
CONTINUOUS
 62
    7
 10
262.25239550000003
 20
759.39096100000006
 11
262.00239550000003
 21
759.47280899999998
  0
LINE
  8
_0-0_0
  6
CONTINUOUS
 62
    7
 10
262.25239550000003
 20
759.21597300000008
 11
262.00239550000003
 21
759.47280899999998
  0
LINE
  8
_0-0_0
  6
CONTINUOUS
 62
    7
 10
262.25239550000003
 20
759.21597300000008
 11
262.00239550000003
 21
759.26944000000003
  0
LINE
  8
_0-0_0
  6
CONTINUOUS
 62
    7
 10
262.25239550000003
 20
759.02542100000005
 11
262.00239550000003
 21
759.26944000000003
  0
LINE
  8
_0-0_0
  6
CONTINUOUS
 62
    7
 10
262.25239550000003
 20
759.02542100000005
 11
262.00239550000003
 21
759.04998799999998
  0
LINE
  8
_0-0_0
  6
CONTINUOUS
 62
    7
 10
262.25239550000003
 20
758.82147199999997
 11
262.00239550000003
 21
759.04998799999998
  0
LINE
  8
_0-0_0
  6
CONTINUOUS
 62
    7
 10
262.25239550000003
 20
758.82147199999997
 11
262.00239550000003
 21
758.81683399999997
  0
LINE
  8
_0-0_0
  6
CONTINUOUS
 62
    7
 10
262.25239550000003
 20
758.60632299999997
 11
262.00239550000003
 21
758.81683399999997
  0
LINE
  8
_0-0_0
  6
CONTINUOUS
 62
    7
 10
262.25239550000003
 20
758.60632299999997
 11
262.00239550000003
 21
758.57254
  0
LINE
  8
_0-0_0
  6
CONTINUOUS
 62
    7
 10
262.25239550000003
 20
758.38232399999993
 11
262.00239550000003
 21
758.57254
  0
LINE
  8
_0-0_0
  6
CONTINUOUS
 62
    7
 10
262.25239550000003
 20
758.38232399999993
 11
262.00239550000003
 21
758.31976299999997
  0
LINE
  8
_0-0_0
  6
CONTINUOUS
 62
    7
 10
262.25239550000003
 20
758.15197799999999
 11
262.00239550000003
 21
758.31976299999997
  0
LINE
  8
_0-0_0
  6
CONTINUOUS
 62
    7
 10
262.25239550000003
 20
758.15197799999999
 11
262.00239550000003
 21
758.06131000000005
  0
LINE
  8
_0-0_0
  6
CONTINUOUS
 62
    7
 10
262.25239550000003
 20
757.91775499999994
 11
262.00239550000003
 21
758.06131000000005
  0
LINE
  8
_0-0_0
  6
CONTINUOUS
 62
    7
 10
262.25239550000003
 20
757.91775499999994
 11
262.00239550000003
 21
757.79998799999998
  0
LINE
  8
_0-0_0
  6
CONTINUOUS
 62
    7
 10
262.25239550000003
 20
757.68222100000003
 11
262.00239550000003
 21
757.79998799999998
  0
LINE
  8
_0-0_0
  6
CONTINUOUS
 62
    7
 10
262.25239550000003
 20
757.68222100000003
 11
262.00239550000003
 21
757.53866599999992
  0
LINE
  8
_0-0_0
  6
CONTINUOUS
 62
    7
 10
262.25239550000003
 20
757.44799799999998
 11
262.00239550000003
 21
757.53866599999992
  0
LINE
  8
_0-0_0
  6
CONTINUOUS
 62
    7
 10
262.25239550000003
 20
757.44799799999998
 11
262.00239550000003
 21
757.280213
  0
LINE
  8
_0-0_0
  6
CONTINUOUS
 62
    7
 10
262.25239550000003
 20
757.21765099999993
 11
262.00239550000003
 21
757.280213
  0
LINE
  8
_0-0_0
  6
CONTINUOUS
 62
    7
 10
262.25239550000003
 20
757.21765099999993
 11
262.00239550000003
 21
757.02743499999997
  0
LINE
  8
_0-0_0
  6
CONTINUOUS
 62
    7
 10
262.25239550000003
 20
756.993652
 11
262.00239550000003
 21
757.02743499999997
  0
LINE
  8
_0-0_0
  6
CONTINUOUS
 62
    7
 10
262.25239550000003
 20
756.993652
 11
262.00239550000003
 21
756.783142
  0
LINE
  8
_0-0_0
  6
CONTINUOUS
 62
    7
 10
262.25239550000003
 20
756.778504
 11
262.00239550000003
 21
756.783142
  0
LINE
  8
_0-0_0
  6
CONTINUOUS
 62
    7
 10
262.25239550000003
 20
756.778504
 11
262.00239550000003
 21
756.54998799999998
  0
LINE
  8
_0-0_0
  6
CONTINUOUS
 62
    7
 10
262.25239550000003
 20
756.57455499999992
 11
262.00239550000003
 21
756.33053599999994
  0
LINE
  8
_0-0_0
  6
CONTINUOUS
 62
    7
 10
262.25239550000003
 20
756.38400300000001
 11
262.00239550000003
 21
756.33053599999994
  0
LINE
  8
_0-0_0
  6
CONTINUOUS
 62
    7
 10
262.25239550000003
 20
756.38400300000001
 11
262.00239550000003
 21
756.12716699999999
  0
LINE
  8
_0-0_0
  6
CONTINUOUS
 62
    7
 10
262.25239550000003
 20
756.20898399999999
 11
262.00239550000003
 21
756.12716699999999
  0
LINE
  8
_0-0_0
  6
CONTINUOUS
 62
    7
 10
262.25239550000003
 20
756.20898399999999
 11
262.00239550000003
 21
755.94210799999996
  0
LINE
  8
_0-0_0
  6
CONTINUOUS
 62
    7
 10
262.25239550000003
 20
756.051422
 11
262.00239550000003
 21
755.94210799999996
  0
LINE
  8
_0-0_0
  6
CONTINUOUS
 62
    7
 10
262.25239550000003
 20
756.051422
 11
262.00239550000003
 21
755.77743499999997
  0
LINE
  8
_0-0_0
  6
CONTINUOUS
 62
    7
 10
262.25239550000003
 20
755.91299400000003
 11
262.00239550000003
 21
755.77743499999997
  0
LINE
  8
_0-0_0
  6
CONTINUOUS
 62
    7
 10
262.25239550000003
 20
755.91299400000003
 11
262.00239550000003
 21
755.63491799999997
  0
LINE
  8
_0-0_0
  6
CONTINUOUS
 62
    7
 10
262.25239550000003
 20
755.79522700000007
 11
262.00239550000003
 21
755.63491799999997
  0
LINE
  8
_0-0_0
  6
CONTINUOUS
 62
    7
 10
262.25239550000003
 20
755.79522700000007
 11
262.00239550000003
 21
755.51611300000002
  0
LINE
  8
_0-0_0
  6
CONTINUOUS
 62
    7
 10
262.25239550000003
 20
755.699432
 11
262.00239550000003
 21
755.51611300000002
  0
LINE
  8
_0-0_0
  6
CONTINUOUS
 62
    7
 10
262.25239550000003
 20
755.699432
 11
262.00239550000003
 21
755.42233299999998
  0
LINE
  8
_0-0_0
  6
CONTINUOUS
 62
    7
 10
262.25239550000003
 20
755.62664799999993
 11
262.00239550000003
 21
755.42233299999998
  0
LINE
  8
_0-0_0
  6
CONTINUOUS
 62
    7
 10
262.25239550000003
 20
755.62664799999993
 11
262.00239550000003
 21
755.35461399999997
  0
LINE
  8
_0-0_0
  6
CONTINUOUS
 62
    7
 10
262.25239550000003
 20
755.57769800000005
 11
262.00239550000003
 21
755.35461399999997
  0
LINE
  8
_0-0_0
  6
CONTINUOUS
 62
    7
 10
262.25239550000003
 20
755.57769800000005
 11
262.00239550000003
 21
755.31368999999995
  0
LINE
  8
_0-0_0
  6
CONTINUOUS
 62
    7
 10
262.25239550000003
 20
755.55306999999993
 11
262.00239550000003
 21
755.31368999999995
  0
LINE
  8
_0-0_0
  6
CONTINUOUS
 62
    7
 10
262.25239550000003
 20
755.55306999999993
 11
262.00239550000003
 21
755.29998799999998
  0
LINE
  8
_0-0_0
  6
CONTINUOUS
 62
    7
 10
262.50239550000003
 20
755.79998799999998
 11
262.50239550000003
 21
759.55514500000004
  0
LINE
  8
_0-0_0
  6
CONTINUOUS
 62
    7
 10
262.12243650000005
 20
759.88861099999997
 11
262.00239550000003
 21
759.965057
  0
LINE
  8
_0-0_0
  6
CONTINUOUS
 62
    7
 10
262.25239550000003
 20
759.68698100000006
 11
262.00239550000003
 21
759.965057
  0
LINE
  8
_0-0_0
  6
CONTINUOUS
 62
    7
 10
262.25239550000003
 20
759.68698100000006
 11
262.00239550000003
 21
759.82254
  0
LINE
  8
_0-0_0
  6
CONTINUOUS
 62
    7
 10
262.00239550000003
 20
759.65783699999997
 11
252.75239150000004
 21
759.65783699999997
  0
LINE
  8
_0-0_0
  6
CONTINUOUS
 62
    7
 10
252.50239150000004
 20
759.54855399999997
 11
252.75239150000004
 21
759.65783699999997
  0
LINE
  8
_0-0_0
  6
CONTINUOUS
 62
    7
 10
262.00239550000003
 20
759.47280899999998
 11
252.75239150000004
 21
759.47280899999998
  0
LINE
  8
_0-0_0
  6
CONTINUOUS
 62
    7
 10
252.50239150000004
 20
759.39096100000006
 11
252.75239150000004
 21
759.47280899999998
  0
LINE
  8
_0-0_0
  6
CONTINUOUS
 62
    7
 10
262.00239550000003
 20
759.26944000000003
 11
252.75239150000004
 21
759.26944000000003
  0
LINE
  8
_0-0_0
  6
CONTINUOUS
 62
    7
 10
252.50239150000004
 20
759.21597300000008
 11
252.75239150000004
 21
759.26944000000003
  0
LINE
  8
_0-0_0
  6
CONTINUOUS
 62
    7
 10
262.00239550000003
 20
759.04998799999998
 11
252.75239150000004
 21
759.04998799999998
  0
LINE
  8
_0-0_0
  6
CONTINUOUS
 62
    7
 10
252.50239150000004
 20
759.02542100000005
 11
252.75239150000004
 21
759.04998799999998
  0
LINE
  8
_0-0_0
  6
CONTINUOUS
 62
    7
 10
262.00239550000003
 20
758.81683399999997
 11
252.75239150000004
 21
758.81683399999997
  0
LINE
  8
_0-0_0
  6
CONTINUOUS
 62
    7
 10
262.25239550000003
 20
758.82147199999997
 11
252.50239150000004
 21
758.82147199999997
  0
LINE
  8
_0-0_0
  6
CONTINUOUS
 62
    7
 10
252.50239150000004
 20
758.82147199999997
 11
252.75239150000004
 21
758.81683399999997
  0
LINE
  8
_0-0_0
  6
CONTINUOUS
 62
    7
 10
262.00239550000003
 20
758.57254
 11
252.75239150000004
 21
758.57254
  0
LINE
  8
_0-0_0
  6
CONTINUOUS
 62
    7
 10
262.25239550000003
 20
758.60632299999997
 11
252.50239150000004
 21
758.60632299999997
  0
LINE
  8
_0-0_0
  6
CONTINUOUS
 62
    7
 10
252.50239150000004
 20
758.60632299999997
 11
252.75239150000004
 21
758.57254
  0
LINE
  8
_0-0_0
  6
CONTINUOUS
 62
    7
 10
262.00239550000003
 20
758.31976299999997
 11
252.75239150000004
 21
758.31976299999997
  0
LINE
  8
_0-0_0
  6
CONTINUOUS
 62
    7
 10
262.25239550000003
 20
758.38232399999993
 11
252.50239150000004
 21
758.38232399999993
  0
LINE
  8
_0-0_0
  6
CONTINUOUS
 62
    7
 10
252.50239150000004
 20
758.38232399999993
 11
252.75239150000004
 21
758.31976299999997
  0
LINE
  8
_0-0_0
  6
CONTINUOUS
 62
    7
 10
262.00239550000003
 20
758.06131000000005
 11
252.75239150000004
 21
758.06131000000005
  0
LINE
  8
_0-0_0
  6
CONTINUOUS
 62
    7
 10
262.25239550000003
 20
758.15197799999999
 11
252.50239150000004
 21
758.15197799999999
  0
LINE
  8
_0-0_0
  6
CONTINUOUS
 62
    7
 10
252.50239150000004
 20
758.15197799999999
 11
252.75239150000004
 21
758.06131000000005
  0
LINE
  8
_0-0_0
  6
CONTINUOUS
 62
    7
 10
262.00239550000003
 20
757.79998799999998
 11
252.75239150000004
 21
757.79998799999998
  0
LINE
  8
_0-0_0
  6
CONTINUOUS
 62
    7
 10
262.25239550000003
 20
757.91775499999994
 11
252.50239150000004
 21
757.91775499999994
  0
LINE
  8
_0-0_0
  6
CONTINUOUS
 62
    7
 10
252.50239150000004
 20
757.91775499999994
 11
252.75239150000004
 21
757.79998799999998
  0
LINE
  8
_0-0_0
  6
CONTINUOUS
 62
    7
 10
262.00239550000003
 20
757.53866599999992
 11
252.75239150000004
 21
757.53866599999992
  0
LINE
  8
_0-0_0
  6
CONTINUOUS
 62
    7
 10
262.25239550000003
 20
757.68222100000003
 11
252.50239150000004
 21
757.68222100000003
  0
LINE
  8
_0-0_0
  6
CONTINUOUS
 62
    7
 10
252.50239150000004
 20
757.68222100000003
 11
252.75239150000004
 21
757.53866599999992
  0
LINE
  8
_0-0_0
  6
CONTINUOUS
 62
    7
 10
262.00239550000003
 20
757.280213
 11
252.75239150000004
 21
757.280213
  0
LINE
  8
_0-0_0
  6
CONTINUOUS
 62
    7
 10
262.25239550000003
 20
757.44799799999998
 11
252.50239150000004
 21
757.44799799999998
  0
LINE
  8
_0-0_0
  6
CONTINUOUS
 62
    7
 10
252.50239150000004
 20
757.44799799999998
 11
252.75239150000004
 21
757.280213
  0
LINE
  8
_0-0_0
  6
CONTINUOUS
 62
    7
 10
262.00239550000003
 20
757.02743499999997
 11
252.75239150000004
 21
757.02743499999997
  0
LINE
  8
_0-0_0
  6
CONTINUOUS
 62
    7
 10
262.25239550000003
 20
757.21765099999993
 11
252.50239150000004
 21
757.21765099999993
  0
LINE
  8
_0-0_0
  6
CONTINUOUS
 62
    7
 10
252.50239150000004
 20
757.21765099999993
 11
252.75239150000004
 21
757.02743499999997
  0
LINE
  8
_0-0_0
  6
CONTINUOUS
 62
    7
 10
262.00239550000003
 20
756.783142
 11
252.75239150000004
 21
756.783142
  0
LINE
  8
_0-0_0
  6
CONTINUOUS
 62
    7
 10
262.25239550000003
 20
756.993652
 11
252.50239150000004
 21
756.993652
  0
LINE
  8
_0-0_0
  6
CONTINUOUS
 62
    7
 10
252.50239150000004
 20
756.993652
 11
252.75239150000004
 21
756.783142
  0
LINE
  8
_0-0_0
  6
CONTINUOUS
 62
    7
 10
262.00239550000003
 20
756.12716699999999
 11
252.75239150000004
 21
756.12716699999999
  0
LINE
  8
_0-0_0
  6
CONTINUOUS
 62
    7
 10
252.50239150000004
 20
756.38400300000001
 11
252.75239150000004
 21
756.12716699999999
  0
LINE
  8
_0-0_0
  6
CONTINUOUS
 62
    7
 10
262.00239550000003
 20
755.94210799999996
 11
252.75239150000004
 21
755.94210799999996
  0
LINE
  8
_0-0_0
  6
CONTINUOUS
 62
    7
 10
252.50239150000004
 20
756.20898399999999
 11
252.75239150000004
 21
755.94210799999996
  0
LINE
  8
_0-0_0
  6
CONTINUOUS
 62
    7
 10
262.00239550000003
 20
755.77743499999997
 11
252.75239150000004
 21
755.77743499999997
  0
LINE
  8
_0-0_0
  6
CONTINUOUS
 62
    7
 10
252.50239150000004
 20
756.051422
 11
252.75239150000004
 21
755.77743499999997
  0
LINE
  8
_0-0_0
  6
CONTINUOUS
 62
    7
 10
262.00239550000003
 20
755.63491799999997
 11
252.75239150000004
 21
755.63491799999997
  0
LINE
  8
_0-0_0
  6
CONTINUOUS
 62
    7
 10
252.50239150000004
 20
755.91299400000003
 11
252.75239150000004
 21
755.63491799999997
  0
LINE
  8
_0-0_0
  6
CONTINUOUS
 62
    7
 10
262.00239550000003
 20
755.51611300000002
 11
252.75239150000004
 21
755.51611300000002
  0
LINE
  8
_0-0_0
  6
CONTINUOUS
 62
    7
 10
252.50239150000004
 20
755.79522700000007
 11
252.75239150000004
 21
755.51611300000002
  0
LINE
  8
_0-0_0
  6
CONTINUOUS
 62
    7
 10
262.00239550000003
 20
755.42233299999998
 11
252.75239150000004
 21
755.42233299999998
  0
LINE
  8
_0-0_0
  6
CONTINUOUS
 62
    7
 10
252.50239150000004
 20
755.699432
 11
252.75239150000004
 21
755.42233299999998
  0
LINE
  8
_0-0_0
  6
CONTINUOUS
 62
    7
 10
262.00239550000003
 20
755.35461399999997
 11
252.75239150000004
 21
755.35461399999997
  0
LINE
  8
_0-0_0
  6
CONTINUOUS
 62
    7
 10
252.50239150000004
 20
755.62664799999993
 11
252.75239150000004
 21
755.35461399999997
  0
LINE
  8
_0-0_0
  6
CONTINUOUS
 62
    7
 10
262.00239550000003
 20
755.31368999999995
 11
252.75239150000004
 21
755.31368999999995
  0
LINE
  8
_0-0_0
  6
CONTINUOUS
 62
    7
 10
252.50239150000004
 20
755.57769800000005
 11
252.75239150000004
 21
755.31368999999995
  0
LINE
  8
_0-0_0
  6
CONTINUOUS
 62
    7
 10
262.00239550000003
 20
755.29998799999998
 11
252.75239150000004
 21
755.29998799999998
  0
LINE
  8
_0-0_0
  6
CONTINUOUS
 62
    7
 10
252.50239150000004
 20
755.55306999999993
 11
252.75239150000004
 21
755.29998799999998
  0
LINE
  8
_0-0_0
  6
CONTINUOUS
 62
    7
 10
262.00239550000003
 20
759.965057
 11
252.75239150000004
 21
759.965057
  0
LINE
  8
_0-0_0
  6
CONTINUOUS
 62
    7
 10
262.25239550000003
 20
759.80474900000002
 11
262.12243650000005
 21
759.88861099999997
  0
LINE
  8
_0-0_0
  6
CONTINUOUS
 62
    7
 10
252.50239150000004
 20
759.80474900000002
 11
252.63236649999999
 21
759.88861099999997
  0
LINE
  8
_0-0_0
  6
CONTINUOUS
 62
    7
 10
252.63236649999999
 20
759.88861099999997
 11
252.75239150000004
 21
759.965057
  0
LINE
  8
_0-0_0
  6
CONTINUOUS
 62
    7
 10
262.00239550000003
 20
759.82254
 11
252.75239150000004
 21
759.82254
  0
LINE
  8
_0-0_0
  6
CONTINUOUS
 62
    7
 10
252.50239150000004
 20
759.68698100000006
 11
252.75239150000004
 21
759.82254
  0
LINE
  8
_0-0_0
  6
CONTINUOUS
 62
    7
 10
262.25239550000003
 20
759.80474900000002
 11
262.00239550000003
 21
760.08386199999995
  0
LINE
  8
_0-0_0
  6
CONTINUOUS
 62
    7
 10
262.00239550000003
 20
760.08386199999995
 11
252.75239150000004
 21
760.08386199999995
  0
LINE
  8
_0-0_0
  6
CONTINUOUS
 62
    7
 10
252.50239150000004
 20
759.80474900000002
 11
252.75239150000004
 21
760.08386199999995
  0
LINE
  8
_0-0_0
  6
CONTINUOUS
 62
    7
 10
262.25239550000003
 20
759.90054299999997
 11
262.00239550000003
 21
760.08386199999995
  0
LINE
  8
_0-0_0
  6
CONTINUOUS
 62
    7
 10
252.50239150000004
 20
759.90054299999997
 11
252.75239150000004
 21
760.08386199999995
  0
LINE
  8
_0-0_0
  6
CONTINUOUS
 62
    7
 10
262.25239550000003
 20
759.90054299999997
 11
262.00239550000003
 21
760.17764299999999
  0
LINE
  8
_0-0_0
  6
CONTINUOUS
 62
    7
 10
262.00239550000003
 20
760.17764299999999
 11
252.75239150000004
 21
760.17764299999999
  0
LINE
  8
_0-0_0
  6
CONTINUOUS
 62
    7
 10
252.50239150000004
 20
759.90054299999997
 11
252.75239150000004
 21
760.17764299999999
  0
LINE
  8
_0-0_0
  6
CONTINUOUS
 62
    7
 10
262.25239550000003
 20
759.97332800000004
 11
262.00239550000003
 21
760.17764299999999
  0
LINE
  8
_0-0_0
  6
CONTINUOUS
 62
    7
 10
252.50239150000004
 20
759.97332800000004
 11
252.75239150000004
 21
760.17764299999999
  0
LINE
  8
_0-0_0
  6
CONTINUOUS
 62
    7
 10
262.25239550000003
 20
759.97332800000004
 11
262.00239550000003
 21
760.245361
  0
LINE
  8
_0-0_0
  6
CONTINUOUS
 62
    7
 10
262.00239550000003
 20
760.245361
 11
252.75239150000004
 21
760.245361
  0
LINE
  8
_0-0_0
  6
CONTINUOUS
 62
    7
 10
252.50239150000004
 20
759.97332800000004
 11
252.75239150000004
 21
760.245361
  0
LINE
  8
_0-0_0
  6
CONTINUOUS
 62
    7
 10
262.25239550000003
 20
760.02227799999991
 11
262.00239550000003
 21
760.245361
  0
LINE
  8
_0-0_0
  6
CONTINUOUS
 62
    7
 10
252.50239150000004
 20
760.02227799999991
 11
252.75239150000004
 21
760.245361
  0
LINE
  8
_0-0_0
  6
CONTINUOUS
 62
    7
 10
262.25239550000003
 20
760.02227799999991
 11
262.00239550000003
 21
760.28628600000002
  0
LINE
  8
_0-0_0
  6
CONTINUOUS
 62
    7
 10
262.00239550000003
 20
760.28628600000002
 11
252.75239150000004
 21
760.28628600000002
  0
LINE
  8
_0-0_0
  6
CONTINUOUS
 62
    7
 10
252.50239150000004
 20
760.02227799999991
 11
252.75239150000004
 21
760.28628600000002
  0
LINE
  8
_0-0_0
  6
CONTINUOUS
 62
    7
 10
262.25239550000003
 20
760.04690600000004
 11
262.00239550000003
 21
760.28628600000002
  0
LINE
  8
_0-0_0
  6
CONTINUOUS
 62
    7
 10
252.50239150000004
 20
760.04690600000004
 11
252.75239150000004
 21
760.28628600000002
  0
LINE
  8
_0-0_0
  6
CONTINUOUS
 62
    7
 10
262.25239550000003
 20
760.04690600000004
 11
262.00239550000003
 21
760.29998799999998
  0
LINE
  8
_0-0_0
  6
CONTINUOUS
 62
    7
 10
262.00239550000003
 20
760.29998799999998
 11
252.75239150000004
 21
760.29998799999998
  0
LINE
  8
_0-0_0
  6
CONTINUOUS
 62
    7
 10
252.50239150000004
 20
760.04690600000004
 11
252.75239150000004
 21
760.29998799999998
  0
LINE
  8
_0-0_0
  6
CONTINUOUS
 62
    7
 10
262.25239550000003
 20
773.17456100000004
 11
262.00239550000003
 21
773.14999399999999
  0
LINE
  8
_0-0_0
  6
CONTINUOUS
 62
    7
 10
262.00239550000003
 20
773.14999399999999
 11
252.75239150000004
 21
773.14999399999999
  0
LINE
  8
_0-0_0
  6
CONTINUOUS
 62
    7
 10
252.50239150000004
 20
773.17456100000004
 11
252.75239150000004
 21
773.14999399999999
  0
LINE
  8
_0-0_0
  6
CONTINUOUS
 62
    7
 10
262.25239550000003
 20
776.14855999999997
 11
262.00239550000003
 21
776.42251599999997
  0
LINE
  8
_0-0_0
  6
CONTINUOUS
 62
    7
 10
262.25239550000003
 20
776.14855999999997
 11
262.00239550000003
 21
776.25784299999998
  0
LINE
  8
_0-0_0
  6
CONTINUOUS
 62
    7
 10
262.25239550000003
 20
775.99096699999996
 11
262.00239550000003
 21
776.25784299999998
  0
LINE
  8
_0-0_0
  6
CONTINUOUS
 62
    7
 10
262.25239550000003
 20
775.99096699999996
 11
262.00239550000003
 21
776.07281499999999
  0
LINE
  8
_0-0_0
  6
CONTINUOUS
 62
    7
 10
262.25239550000003
 20
775.81594900000005
 11
262.00239550000003
 21
776.07281499999999
  0
LINE
  8
_0-0_0
  6
CONTINUOUS
 62
    7
 10
262.25239550000003
 20
775.81594900000005
 11
262.00239550000003
 21
775.86944599999993
  0
LINE
  8
_0-0_0
  6
CONTINUOUS
 62
    7
 10
262.25239550000003
 20
775.62542699999995
 11
262.00239550000003
 21
775.86944599999993
  0
LINE
  8
_0-0_0
  6
CONTINUOUS
 62
    7
 10
262.25239550000003
 20
775.62542699999995
 11
262.00239550000003
 21
775.64999399999999
  0
LINE
  8
_0-0_0
  6
CONTINUOUS
 62
    7
 10
262.25239550000003
 20
775.42147799999998
 11
262.00239550000003
 21
775.64999399999999
  0
LINE
  8
_0-0_0
  6
CONTINUOUS
 62
    7
 10
262.25239550000003
 20
775.42147799999998
 11
262.00239550000003
 21
775.41683999999998
  0
LINE
  8
_0-0_0
  6
CONTINUOUS
 62
    7
 10
262.25239550000003
 20
775.20632899999998
 11
262.00239550000003
 21
775.41683999999998
  0
LINE
  8
_0-0_0
  6
CONTINUOUS
 62
    7
 10
262.25239550000003
 20
775.20632899999998
 11
262.00239550000003
 21
775.17251599999997
  0
LINE
  8
_0-0_0
  6
CONTINUOUS
 62
    7
 10
262.25239550000003
 20
774.98233000000005
 11
262.00239550000003
 21
775.17251599999997
  0
LINE
  8
_0-0_0
  6
CONTINUOUS
 62
    7
 10
262.25239550000003
 20
774.98233000000005
 11
262.00239550000003
 21
774.91976899999997
  0
LINE
  8
_0-0_0
  6
CONTINUOUS
 62
    7
 10
262.25239550000003
 20
774.75195299999996
 11
262.00239550000003
 21
774.91976899999997
  0
LINE
  8
_0-0_0
  6
CONTINUOUS
 62
    7
 10
262.25239550000003
 20
774.75195299999996
 11
262.00239550000003
 21
774.66131599999994
  0
LINE
  8
_0-0_0
  6
CONTINUOUS
 62
    7
 10
262.25239550000003
 20
774.51773099999991
 11
262.00239550000003
 21
774.66131599999994
  0
LINE
  8
_0-0_0
  6
CONTINUOUS
 62
    7
 10
262.25239550000003
 20
774.51773099999991
 11
262.00239550000003
 21
774.39999399999999
  0
LINE
  8
_0-0_0
  6
CONTINUOUS
 62
    7
 10
262.25239550000003
 20
774.28222699999992
 11
262.00239550000003
 21
774.39999399999999
  0
LINE
  8
_0-0_0
  6
CONTINUOUS
 62
    7
 10
262.25239550000003
 20
774.28222699999992
 11
262.00239550000003
 21
774.13867200000004
  0
LINE
  8
_0-0_0
  6
CONTINUOUS
 62
    7
 10
262.25239550000003
 20
774.04800399999999
 11
262.00239550000003
 21
774.13867200000004
  0
LINE
  8
_0-0_0
  6
CONTINUOUS
 62
    7
 10
262.25239550000003
 20
774.04800399999999
 11
262.00239550000003
 21
773.88021900000001
  0
LINE
  8
_0-0_0
  6
CONTINUOUS
 62
    7
 10
262.25239550000003
 20
773.81765799999994
 11
262.00239550000003
 21
773.88021900000001
  0
LINE
  8
_0-0_0
  6
CONTINUOUS
 62
    7
 10
262.25239550000003
 20
773.81765799999994
 11
262.00239550000003
 21
773.62744199999997
  0
LINE
  8
_0-0_0
  6
CONTINUOUS
 62
    7
 10
262.25239550000003
 20
773.593659
 11
262.00239550000003
 21
773.62744199999997
  0
LINE
  8
_0-0_0
  6
CONTINUOUS
 62
    7
 10
262.25239550000003
 20
773.593659
 11
262.00239550000003
 21
773.38314800000001
  0
LINE
  8
_0-0_0
  6
CONTINUOUS
 62
    7
 10
262.25239550000003
 20
773.37851000000001
 11
262.00239550000003
 21
773.38314800000001
  0
LINE
  8
_0-0_0
  6
CONTINUOUS
 62
    7
 10
262.25239550000003
 20
773.37851000000001
 11
262.00239550000003
 21
773.14999399999999
  0
LINE
  8
_0-0_0
  6
CONTINUOUS
 62
    7
 10
262.25239550000003
 20
773.17456100000004
 11
262.00239550000003
 21
772.93051199999991
  0
LINE
  8
_0-0_0
  6
CONTINUOUS
 62
    7
 10
262.25239550000003
 20
772.98400900000001
 11
262.00239550000003
 21
772.93051199999991
  0
LINE
  8
_0-0_0
  6
CONTINUOUS
 62
    7
 10
262.25239550000003
 20
772.98400900000001
 11
262.00239550000003
 21
772.72717299999999
  0
LINE
  8
_0-0_0
  6
CONTINUOUS
 62
    7
 10
262.25239550000003
 20
772.80899099999999
 11
262.00239550000003
 21
772.72717299999999
  0
LINE
  8
_0-0_0
  6
CONTINUOUS
 62
    7
 10
262.25239550000003
 20
772.80899099999999
 11
262.00239550000003
 21
772.54211399999997
  0
LINE
  8
_0-0_0
  6
CONTINUOUS
 62
    7
 10
262.25239550000003
 20
772.65139799999997
 11
262.00239550000003
 21
772.54211399999997
  0
LINE
  8
_0-0_0
  6
CONTINUOUS
 62
    7
 10
262.25239550000003
 20
772.65139799999997
 11
262.00239550000003
 21
772.37744199999997
  0
LINE
  8
_0-0_0
  6
CONTINUOUS
 62
    7
 10
262.25239550000003
 20
772.51297
 11
262.00239550000003
 21
772.37744199999997
  0
LINE
  8
_0-0_0
  6
CONTINUOUS
 62
    7
 10
262.25239550000003
 20
772.51297
 11
262.00239550000003
 21
772.23492399999998
  0
LINE
  8
_0-0_0
  6
CONTINUOUS
 62
    7
 10
262.25239550000003
 20
772.39523299999996
 11
262.00239550000003
 21
772.23492399999998
  0
LINE
  8
_0-0_0
  6
CONTINUOUS
 62
    7
 10
262.25239550000003
 20
772.39523299999996
 11
262.00239550000003
 21
772.11611900000003
  0
LINE
  8
_0-0_0
  6
CONTINUOUS
 62
    7
 10
262.25239550000003
 20
772.29943900000001
 11
262.00239550000003
 21
772.11611900000003
  0
LINE
  8
_0-0_0
  6
CONTINUOUS
 62
    7
 10
262.25239550000003
 20
772.29943900000001
 11
262.00239550000003
 21
772.02233899999999
  0
LINE
  8
_0-0_0
  6
CONTINUOUS
 62
    7
 10
262.25239550000003
 20
772.22665400000005
 11
262.00239550000003
 21
772.02233899999999
  0
LINE
  8
_0-0_0
  6
CONTINUOUS
 62
    7
 10
262.25239550000003
 20
772.22665400000005
 11
262.00239550000003
 21
771.95461999999998
  0
LINE
  8
_0-0_0
  6
CONTINUOUS
 62
    7
 10
262.25239550000003
 20
772.17767299999991
 11
262.00239550000003
 21
771.95461999999998
  0
LINE
  8
_0-0_0
  6
CONTINUOUS
 62
    7
 10
262.25239550000003
 20
772.17767299999991
 11
262.00239550000003
 21
771.91366599999992
  0
LINE
  8
_0-0_0
  6
CONTINUOUS
 62
    7
 10
262.25239550000003
 20
772.15307600000006
 11
262.00239550000003
 21
771.91366599999992
  0
LINE
  8
_0-0_0
  6
CONTINUOUS
 62
    7
 10
262.25239550000003
 20
772.15307600000006
 11
262.00239550000003
 21
771.89999399999999
  0
LINE
  8
_0-0_0
  6
CONTINUOUS
 62
    7
 10
262.50239550000003
 20
772.39999399999999
 11
262.50239550000003
 21
776.15515099999993
  0
LINE
  8
_0-0_0
  6
CONTINUOUS
 62
    7
 10
262.12243650000005
 20
776.48861699999998
 11
262.00239550000003
 21
776.56506400000001
  0
LINE
  8
_0-0_0
  6
CONTINUOUS
 62
    7
 10
262.25239550000003
 20
776.28698699999995
 11
262.00239550000003
 21
776.56506400000001
  0
LINE
  8
_0-0_0
  6
CONTINUOUS
 62
    7
 10
262.25239550000003
 20
776.28698699999995
 11
262.00239550000003
 21
776.42251599999997
  0
LINE
  8
_0-0_0
  6
CONTINUOUS
 62
    7
 10
262.00239550000003
 20
776.25784299999998
 11
252.75239150000004
 21
776.25784299999998
  0
LINE
  8
_0-0_0
  6
CONTINUOUS
 62
    7
 10
252.50239150000004
 20
776.14855999999997
 11
252.75239150000004
 21
776.25784299999998
  0
LINE
  8
_0-0_0
  6
CONTINUOUS
 62
    7
 10
262.00239550000003
 20
776.07281499999999
 11
252.75239150000004
 21
776.07281499999999
  0
LINE
  8
_0-0_0
  6
CONTINUOUS
 62
    7
 10
252.50239150000004
 20
775.99096699999996
 11
252.75239150000004
 21
776.07281499999999
  0
LINE
  8
_0-0_0
  6
CONTINUOUS
 62
    7
 10
262.00239550000003
 20
775.86944599999993
 11
252.75239150000004
 21
775.86944599999993
  0
LINE
  8
_0-0_0
  6
CONTINUOUS
 62
    7
 10
252.50239150000004
 20
775.81594900000005
 11
252.75239150000004
 21
775.86944599999993
  0
LINE
  8
_0-0_0
  6
CONTINUOUS
 62
    7
 10
262.00239550000003
 20
775.64999399999999
 11
252.75239150000004
 21
775.64999399999999
  0
LINE
  8
_0-0_0
  6
CONTINUOUS
 62
    7
 10
252.50239150000004
 20
775.62542699999995
 11
252.75239150000004
 21
775.64999399999999
  0
LINE
  8
_0-0_0
  6
CONTINUOUS
 62
    7
 10
262.00239550000003
 20
775.41683999999998
 11
252.75239150000004
 21
775.41683999999998
  0
LINE
  8
_0-0_0
  6
CONTINUOUS
 62
    7
 10
262.25239550000003
 20
775.42147799999998
 11
252.50239150000004
 21
775.42147799999998
  0
LINE
  8
_0-0_0
  6
CONTINUOUS
 62
    7
 10
252.50239150000004
 20
775.42147799999998
 11
252.75239150000004
 21
775.41683999999998
  0
LINE
  8
_0-0_0
  6
CONTINUOUS
 62
    7
 10
262.00239550000003
 20
775.17251599999997
 11
252.75239150000004
 21
775.17251599999997
  0
LINE
  8
_0-0_0
  6
CONTINUOUS
 62
    7
 10
262.25239550000003
 20
775.20632899999998
 11
252.50239150000004
 21
775.20632899999998
  0
LINE
  8
_0-0_0
  6
CONTINUOUS
 62
    7
 10
252.50239150000004
 20
775.20632899999998
 11
252.75239150000004
 21
775.17251599999997
  0
LINE
  8
_0-0_0
  6
CONTINUOUS
 62
    7
 10
262.00239550000003
 20
774.91976899999997
 11
252.75239150000004
 21
774.91976899999997
  0
LINE
  8
_0-0_0
  6
CONTINUOUS
 62
    7
 10
262.25239550000003
 20
774.98233000000005
 11
252.50239150000004
 21
774.98233000000005
  0
LINE
  8
_0-0_0
  6
CONTINUOUS
 62
    7
 10
252.50239150000004
 20
774.98233000000005
 11
252.75239150000004
 21
774.91976899999997
  0
LINE
  8
_0-0_0
  6
CONTINUOUS
 62
    7
 10
262.00239550000003
 20
774.66131599999994
 11
252.75239150000004
 21
774.66131599999994
  0
LINE
  8
_0-0_0
  6
CONTINUOUS
 62
    7
 10
262.25239550000003
 20
774.75195299999996
 11
252.50239150000004
 21
774.75195299999996
  0
LINE
  8
_0-0_0
  6
CONTINUOUS
 62
    7
 10
252.50239150000004
 20
774.75195299999996
 11
252.75239150000004
 21
774.66131599999994
  0
LINE
  8
_0-0_0
  6
CONTINUOUS
 62
    7
 10
262.00239550000003
 20
774.39999399999999
 11
252.75239150000004
 21
774.39999399999999
  0
LINE
  8
_0-0_0
  6
CONTINUOUS
 62
    7
 10
262.25239550000003
 20
774.51773099999991
 11
252.50239150000004
 21
774.51773099999991
  0
LINE
  8
_0-0_0
  6
CONTINUOUS
 62
    7
 10
252.50239150000004
 20
774.51773099999991
 11
252.75239150000004
 21
774.39999399999999
  0
LINE
  8
_0-0_0
  6
CONTINUOUS
 62
    7
 10
262.00239550000003
 20
774.13867200000004
 11
252.75239150000004
 21
774.13867200000004
  0
LINE
  8
_0-0_0
  6
CONTINUOUS
 62
    7
 10
262.25239550000003
 20
774.28222699999992
 11
252.50239150000004
 21
774.28222699999992
  0
LINE
  8
_0-0_0
  6
CONTINUOUS
 62
    7
 10
252.50239150000004
 20
774.28222699999992
 11
252.75239150000004
 21
774.13867200000004
  0
LINE
  8
_0-0_0
  6
CONTINUOUS
 62
    7
 10
262.00239550000003
 20
773.88021900000001
 11
252.75239150000004
 21
773.88021900000001
  0
LINE
  8
_0-0_0
  6
CONTINUOUS
 62
    7
 10
262.25239550000003
 20
774.04800399999999
 11
252.50239150000004
 21
774.04800399999999
  0
LINE
  8
_0-0_0
  6
CONTINUOUS
 62
    7
 10
252.50239150000004
 20
774.04800399999999
 11
252.75239150000004
 21
773.88021900000001
  0
LINE
  8
_0-0_0
  6
CONTINUOUS
 62
    7
 10
262.00239550000003
 20
773.62744199999997
 11
252.75239150000004
 21
773.62744199999997
  0
LINE
  8
_0-0_0
  6
CONTINUOUS
 62
    7
 10
262.25239550000003
 20
773.81765799999994
 11
252.50239150000004
 21
773.81765799999994
  0
LINE
  8
_0-0_0
  6
CONTINUOUS
 62
    7
 10
252.50239150000004
 20
773.81765799999994
 11
252.75239150000004
 21
773.62744199999997
  0
LINE
  8
_0-0_0
  6
CONTINUOUS
 62
    7
 10
262.00239550000003
 20
773.38314800000001
 11
252.75239150000004
 21
773.38314800000001
  0
LINE
  8
_0-0_0
  6
CONTINUOUS
 62
    7
 10
262.25239550000003
 20
773.593659
 11
252.50239150000004
 21
773.593659
  0
LINE
  8
_0-0_0
  6
CONTINUOUS
 62
    7
 10
252.50239150000004
 20
773.593659
 11
252.75239150000004
 21
773.38314800000001
  0
LINE
  8
_0-0_0
  6
CONTINUOUS
 62
    7
 10
262.00239550000003
 20
772.72717299999999
 11
252.75239150000004
 21
772.72717299999999
  0
LINE
  8
_0-0_0
  6
CONTINUOUS
 62
    7
 10
252.50239150000004
 20
772.98400900000001
 11
252.75239150000004
 21
772.72717299999999
  0
LINE
  8
_0-0_0
  6
CONTINUOUS
 62
    7
 10
262.00239550000003
 20
772.54211399999997
 11
252.75239150000004
 21
772.54211399999997
  0
LINE
  8
_0-0_0
  6
CONTINUOUS
 62
    7
 10
252.50239150000004
 20
772.80899099999999
 11
252.75239150000004
 21
772.54211399999997
  0
LINE
  8
_0-0_0
  6
CONTINUOUS
 62
    7
 10
262.00239550000003
 20
772.37744199999997
 11
252.75239150000004
 21
772.37744199999997
  0
LINE
  8
_0-0_0
  6
CONTINUOUS
 62
    7
 10
252.50239150000004
 20
772.65139799999997
 11
252.75239150000004
 21
772.37744199999997
  0
LINE
  8
_0-0_0
  6
CONTINUOUS
 62
    7
 10
262.00239550000003
 20
772.23492399999998
 11
252.75239150000004
 21
772.23492399999998
  0
LINE
  8
_0-0_0
  6
CONTINUOUS
 62
    7
 10
252.50239150000004
 20
772.51297
 11
252.75239150000004
 21
772.23492399999998
  0
LINE
  8
_0-0_0
  6
CONTINUOUS
 62
    7
 10
262.00239550000003
 20
772.11611900000003
 11
252.75239150000004
 21
772.11611900000003
  0
LINE
  8
_0-0_0
  6
CONTINUOUS
 62
    7
 10
252.50239150000004
 20
772.39523299999996
 11
252.75239150000004
 21
772.11611900000003
  0
LINE
  8
_0-0_0
  6
CONTINUOUS
 62
    7
 10
262.00239550000003
 20
772.02233899999999
 11
252.75239150000004
 21
772.02233899999999
  0
LINE
  8
_0-0_0
  6
CONTINUOUS
 62
    7
 10
252.50239150000004
 20
772.29943900000001
 11
252.75239150000004
 21
772.02233899999999
  0
LINE
  8
_0-0_0
  6
CONTINUOUS
 62
    7
 10
262.00239550000003
 20
771.95461999999998
 11
252.75239150000004
 21
771.95461999999998
  0
LINE
  8
_0-0_0
  6
CONTINUOUS
 62
    7
 10
252.50239150000004
 20
772.22665400000005
 11
252.75239150000004
 21
771.95461999999998
  0
LINE
  8
_0-0_0
  6
CONTINUOUS
 62
    7
 10
262.00239550000003
 20
771.91366599999992
 11
252.75239150000004
 21
771.91366599999992
  0
LINE
  8
_0-0_0
  6
CONTINUOUS
 62
    7
 10
252.50239150000004
 20
772.17767299999991
 11
252.75239150000004
 21
771.91366599999992
  0
LINE
  8
_0-0_0
  6
CONTINUOUS
 62
    7
 10
262.00239550000003
 20
771.89999399999999
 11
252.75239150000004
 21
771.89999399999999
  0
LINE
  8
_0-0_0
  6
CONTINUOUS
 62
    7
 10
252.50239150000004
 20
772.15307600000006
 11
252.75239150000004
 21
771.89999399999999
  0
LINE
  8
_0-0_0
  6
CONTINUOUS
 62
    7
 10
262.00239550000003
 20
776.56506400000001
 11
252.75239150000004
 21
776.56506400000001
  0
LINE
  8
_0-0_0
  6
CONTINUOUS
 62
    7
 10
262.25239550000003
 20
776.40475500000002
 11
262.12243650000005
 21
776.48861699999998
  0
LINE
  8
_0-0_0
  6
CONTINUOUS
 62
    7
 10
252.50239150000004
 20
776.40475500000002
 11
252.63236649999999
 21
776.48861699999998
  0
LINE
  8
_0-0_0
  6
CONTINUOUS
 62
    7
 10
252.63236649999999
 20
776.48861699999998
 11
252.75239150000004
 21
776.56506400000001
  0
LINE
  8
_0-0_0
  6
CONTINUOUS
 62
    7
 10
262.00239550000003
 20
776.42251599999997
 11
252.75239150000004
 21
776.42251599999997
  0
LINE
  8
_0-0_0
  6
CONTINUOUS
 62
    7
 10
252.50239150000004
 20
776.28698699999995
 11
252.75239150000004
 21
776.42251599999997
  0
LINE
  8
_0-0_0
  6
CONTINUOUS
 62
    7
 10
262.25239550000003
 20
776.40475500000002
 11
262.00239550000003
 21
776.68383799999992
  0
LINE
  8
_0-0_0
  6
CONTINUOUS
 62
    7
 10
262.00239550000003
 20
776.68383799999992
 11
252.75239150000004
 21
776.68383799999992
  0
LINE
  8
_0-0_0
  6
CONTINUOUS
 62
    7
 10
252.50239150000004
 20
776.40475500000002
 11
252.75239150000004
 21
776.68383799999992
  0
LINE
  8
_0-0_0
  6
CONTINUOUS
 62
    7
 10
262.25239550000003
 20
776.50054899999998
 11
262.00239550000003
 21
776.68383799999992
  0
LINE
  8
_0-0_0
  6
CONTINUOUS
 62
    7
 10
252.50239150000004
 20
776.50054899999998
 11
252.75239150000004
 21
776.68383799999992
  0
LINE
  8
_0-0_0
  6
CONTINUOUS
 62
    7
 10
262.25239550000003
 20
776.50054899999998
 11
262.00239550000003
 21
776.77761899999996
  0
LINE
  8
_0-0_0
  6
CONTINUOUS
 62
    7
 10
262.00239550000003
 20
776.77761899999996
 11
252.75239150000004
 21
776.77761899999996
  0
LINE
  8
_0-0_0
  6
CONTINUOUS
 62
    7
 10
252.50239150000004
 20
776.50054899999998
 11
252.75239150000004
 21
776.77761899999996
  0
LINE
  8
_0-0_0
  6
CONTINUOUS
 62
    7
 10
262.25239550000003
 20
776.57333399999993
 11
262.00239550000003
 21
776.77761899999996
  0
LINE
  8
_0-0_0
  6
CONTINUOUS
 62
    7
 10
252.50239150000004
 20
776.57333399999993
 11
252.75239150000004
 21
776.77761899999996
  0
LINE
  8
_0-0_0
  6
CONTINUOUS
 62
    7
 10
262.25239550000003
 20
776.57333399999993
 11
262.00239550000003
 21
776.84536800000001
  0
LINE
  8
_0-0_0
  6
CONTINUOUS
 62
    7
 10
262.00239550000003
 20
776.84536800000001
 11
252.75239150000004
 21
776.84536800000001
  0
LINE
  8
_0-0_0
  6
CONTINUOUS
 62
    7
 10
252.50239150000004
 20
776.57333399999993
 11
252.75239150000004
 21
776.84536800000001
  0
LINE
  8
_0-0_0
  6
CONTINUOUS
 62
    7
 10
262.25239550000003
 20
776.62228400000004
 11
262.00239550000003
 21
776.84536800000001
  0
LINE
  8
_0-0_0
  6
CONTINUOUS
 62
    7
 10
252.50239150000004
 20
776.62228400000004
 11
252.75239150000004
 21
776.84536800000001
  0
LINE
  8
_0-0_0
  6
CONTINUOUS
 62
    7
 10
262.25239550000003
 20
776.62228400000004
 11
262.00239550000003
 21
776.88629199999991
  0
LINE
  8
_0-0_0
  6
CONTINUOUS
 62
    7
 10
262.00239550000003
 20
776.88629199999991
 11
252.75239150000004
 21
776.88629199999991
  0
LINE
  8
_0-0_0
  6
CONTINUOUS
 62
    7
 10
252.50239150000004
 20
776.62228400000004
 11
252.75239150000004
 21
776.88629199999991
  0
LINE
  8
_0-0_0
  6
CONTINUOUS
 62
    7
 10
262.25239550000003
 20
776.64691199999993
 11
262.00239550000003
 21
776.88629199999991
  0
LINE
  8
_0-0_0
  6
CONTINUOUS
 62
    7
 10
252.50239150000004
 20
776.64691199999993
 11
252.75239150000004
 21
776.88629199999991
  0
LINE
  8
_0-0_0
  6
CONTINUOUS
 62
    7
 10
262.25239550000003
 20
776.64691199999993
 11
262.00239550000003
 21
776.89999399999999
  0
LINE
  8
_0-0_0
  6
CONTINUOUS
 62
    7
 10
262.00239550000003
 20
776.89999399999999
 11
252.75239150000004
 21
776.89999399999999
  0
LINE
  8
_0-0_0
  6
CONTINUOUS
 62
    7
 10
252.50239150000004
 20
776.64691199999993
 11
252.75239150000004
 21
776.89999399999999
  0
LINE
  8
_0-0_0
  6
CONTINUOUS
 62
    7
 10
307.70239249999997
 20
762.09997599999997
 11
307.70239249999997
 21
762.10134900000003
  0
LINE
  8
_0-0_0
  6
CONTINUOUS
 62
    7
 10
307.70239249999997
 20
762.10134900000003
 11
307.70239249999997
 21
770.09997599999997
  0
LINE
  8
_0-0_0
  6
CONTINUOUS
 62
    7
 10
252.50239150000004
 20
776.28698699999995
 11
252.75239150000004
 21
776.56506400000001
  0
LINE
  8
_0-0_0
  6
CONTINUOUS
 62
    7
 10
262.50239550000003
 20
776.15515099999993
 11
262.50239550000003
 21
776.39999399999999
  0
LINE
  8
_0-0_0
  6
CONTINUOUS
 62
    7
 10
252.50239150000004
 20
772.15307600000006
 11
252.75239150000004
 21
771.91366599999992
  0
LINE
  8
_0-0_0
  6
CONTINUOUS
 62
    7
 10
252.50239150000004
 20
772.17767299999991
 11
252.75239150000004
 21
771.95461999999998
  0
LINE
  8
_0-0_0
  6
CONTINUOUS
 62
    7
 10
252.50239150000004
 20
772.22665400000005
 11
252.75239150000004
 21
772.02233899999999
  0
LINE
  8
_0-0_0
  6
CONTINUOUS
 62
    7
 10
252.50239150000004
 20
772.29943900000001
 11
252.75239150000004
 21
772.11611900000003
  0
LINE
  8
_0-0_0
  6
CONTINUOUS
 62
    7
 10
252.50239150000004
 20
772.39523299999996
 11
252.75239150000004
 21
772.23492399999998
  0
LINE
  8
_0-0_0
  6
CONTINUOUS
 62
    7
 10
252.50239150000004
 20
772.51297
 11
252.75239150000004
 21
772.37744199999997
  0
LINE
  8
_0-0_0
  6
CONTINUOUS
 62
    7
 10
252.50239150000004
 20
772.65139799999997
 11
252.75239150000004
 21
772.54211399999997
  0
LINE
  8
_0-0_0
  6
CONTINUOUS
 62
    7
 10
252.50239150000004
 20
772.80899099999999
 11
252.75239150000004
 21
772.72717299999999
  0
LINE
  8
_0-0_0
  6
CONTINUOUS
 62
    7
 10
262.00239550000003
 20
772.93051199999991
 11
252.75239150000004
 21
772.93051199999991
  0
LINE
  8
_0-0_0
  6
CONTINUOUS
 62
    7
 10
252.50239150000004
 20
772.98400900000001
 11
252.75239150000004
 21
772.93051199999991
  0
LINE
  8
_0-0_0
  6
CONTINUOUS
 62
    7
 10
252.50239150000004
 20
773.37851000000001
 11
252.75239150000004
 21
773.38314800000001
  0
LINE
  8
_0-0_0
  6
CONTINUOUS
 62
    7
 10
262.25239550000003
 20
773.37851000000001
 11
252.50239150000004
 21
773.37851000000001
  0
LINE
  8
_0-0_0
  6
CONTINUOUS
 62
    7
 10
252.50239150000004
 20
773.593659
 11
252.75239150000004
 21
773.62744199999997
  0
LINE
  8
_0-0_0
  6
CONTINUOUS
 62
    7
 10
252.50239150000004
 20
773.81765799999994
 11
252.75239150000004
 21
773.88021900000001
  0
LINE
  8
_0-0_0
  6
CONTINUOUS
 62
    7
 10
252.50239150000004
 20
774.04800399999999
 11
252.75239150000004
 21
774.13867200000004
  0
LINE
  8
_0-0_0
  6
CONTINUOUS
 62
    7
 10
252.50239150000004
 20
774.28222699999992
 11
252.75239150000004
 21
774.39999399999999
  0
LINE
  8
_0-0_0
  6
CONTINUOUS
 62
    7
 10
252.50239150000004
 20
774.51773099999991
 11
252.75239150000004
 21
774.66131599999994
  0
LINE
  8
_0-0_0
  6
CONTINUOUS
 62
    7
 10
252.50239150000004
 20
774.75195299999996
 11
252.75239150000004
 21
774.91976899999997
  0
LINE
  8
_0-0_0
  6
CONTINUOUS
 62
    7
 10
252.50239150000004
 20
774.98233000000005
 11
252.75239150000004
 21
775.17251599999997
  0
LINE
  8
_0-0_0
  6
CONTINUOUS
 62
    7
 10
252.50239150000004
 20
775.20632899999998
 11
252.75239150000004
 21
775.41683999999998
  0
LINE
  8
_0-0_0
  6
CONTINUOUS
 62
    7
 10
252.50239150000004
 20
775.42147799999998
 11
252.75239150000004
 21
775.64999399999999
  0
LINE
  8
_0-0_0
  6
CONTINUOUS
 62
    7
 10
252.50239150000004
 20
775.62542699999995
 11
252.75239150000004
 21
775.86944599999993
  0
LINE
  8
_0-0_0
  6
CONTINUOUS
 62
    7
 10
252.50239150000004
 20
775.81594900000005
 11
252.75239150000004
 21
776.07281499999999
  0
LINE
  8
_0-0_0
  6
CONTINUOUS
 62
    7
 10
252.50239150000004
 20
775.99096699999996
 11
252.75239150000004
 21
776.25784299999998
  0
LINE
  8
_0-0_0
  6
CONTINUOUS
 62
    7
 10
252.50239150000004
 20
776.14855999999997
 11
252.75239150000004
 21
776.42251599999997
  0
LINE
  8
_0-0_0
  6
CONTINUOUS
 62
    7
 10
252.50239150000004
 20
773.17456100000004
 11
252.75239150000004
 21
772.93051199999991
  0
LINE
  8
_0-0_0
  6
CONTINUOUS
 62
    7
 10
252.50239150000004
 20
773.37851000000001
 11
252.75239150000004
 21
773.14999399999999
  0
LINE
  8
_0-0_0
  6
CONTINUOUS
 62
    7
 10
252.50239150000004
 20
759.68698100000006
 11
252.75239150000004
 21
759.965057
  0
LINE
  8
_0-0_0
  6
CONTINUOUS
 62
    7
 10
262.50239550000003
 20
759.55514500000004
 11
262.50239550000003
 21
759.79998799999998
  0
LINE
  8
_0-0_0
  6
CONTINUOUS
 62
    7
 10
252.50239150000004
 20
755.55306999999993
 11
252.75239150000004
 21
755.31368999999995
  0
LINE
  8
_0-0_0
  6
CONTINUOUS
 62
    7
 10
252.50239150000004
 20
755.57769800000005
 11
252.75239150000004
 21
755.35461399999997
  0
LINE
  8
_0-0_0
  6
CONTINUOUS
 62
    7
 10
252.50239150000004
 20
755.62664799999993
 11
252.75239150000004
 21
755.42233299999998
  0
LINE
  8
_0-0_0
  6
CONTINUOUS
 62
    7
 10
252.50239150000004
 20
755.699432
 11
252.75239150000004
 21
755.51611300000002
  0
LINE
  8
_0-0_0
  6
CONTINUOUS
 62
    7
 10
252.50239150000004
 20
755.79522700000007
 11
252.75239150000004
 21
755.63491799999997
  0
LINE
  8
_0-0_0
  6
CONTINUOUS
 62
    7
 10
252.50239150000004
 20
755.91299400000003
 11
252.75239150000004
 21
755.77743499999997
  0
LINE
  8
_0-0_0
  6
CONTINUOUS
 62
    7
 10
252.50239150000004
 20
756.051422
 11
252.75239150000004
 21
755.94210799999996
  0
LINE
  8
_0-0_0
  6
CONTINUOUS
 62
    7
 10
252.50239150000004
 20
756.20898399999999
 11
252.75239150000004
 21
756.12716699999999
  0
LINE
  8
_0-0_0
  6
CONTINUOUS
 62
    7
 10
262.00239550000003
 20
756.33053599999994
 11
252.75239150000004
 21
756.33053599999994
  0
LINE
  8
_0-0_0
  6
CONTINUOUS
 62
    7
 10
252.50239150000004
 20
756.38400300000001
 11
252.75239150000004
 21
756.33053599999994
  0
LINE
  8
_0-0_0
  6
CONTINUOUS
 62
    7
 10
252.50239150000004
 20
756.778504
 11
252.75239150000004
 21
756.783142
  0
LINE
  8
_0-0_0
  6
CONTINUOUS
 62
    7
 10
262.25239550000003
 20
756.778504
 11
252.50239150000004
 21
756.778504
  0
LINE
  8
_0-0_0
  6
CONTINUOUS
 62
    7
 10
252.50239150000004
 20
756.993652
 11
252.75239150000004
 21
757.02743499999997
  0
LINE
  8
_0-0_0
  6
CONTINUOUS
 62
    7
 10
252.50239150000004
 20
757.21765099999993
 11
252.75239150000004
 21
757.280213
  0
LINE
  8
_0-0_0
  6
CONTINUOUS
 62
    7
 10
252.50239150000004
 20
757.44799799999998
 11
252.75239150000004
 21
757.53866599999992
  0
LINE
  8
_0-0_0
  6
CONTINUOUS
 62
    7
 10
252.50239150000004
 20
757.68222100000003
 11
252.75239150000004
 21
757.79998799999998
  0
LINE
  8
_0-0_0
  6
CONTINUOUS
 62
    7
 10
252.50239150000004
 20
757.91775499999994
 11
252.75239150000004
 21
758.06131000000005
  0
LINE
  8
_0-0_0
  6
CONTINUOUS
 62
    7
 10
252.50239150000004
 20
758.15197799999999
 11
252.75239150000004
 21
758.31976299999997
  0
LINE
  8
_0-0_0
  6
CONTINUOUS
 62
    7
 10
252.50239150000004
 20
758.38232399999993
 11
252.75239150000004
 21
758.57254
  0
LINE
  8
_0-0_0
  6
CONTINUOUS
 62
    7
 10
252.50239150000004
 20
758.60632299999997
 11
252.75239150000004
 21
758.81683399999997
  0
LINE
  8
_0-0_0
  6
CONTINUOUS
 62
    7
 10
252.50239150000004
 20
758.82147199999997
 11
252.75239150000004
 21
759.04998799999998
  0
LINE
  8
_0-0_0
  6
CONTINUOUS
 62
    7
 10
252.50239150000004
 20
759.02542100000005
 11
252.75239150000004
 21
759.26944000000003
  0
LINE
  8
_0-0_0
  6
CONTINUOUS
 62
    7
 10
252.50239150000004
 20
759.21597300000008
 11
252.75239150000004
 21
759.47280899999998
  0
LINE
  8
_0-0_0
  6
CONTINUOUS
 62
    7
 10
252.50239150000004
 20
759.39096100000006
 11
252.75239150000004
 21
759.65783699999997
  0
LINE
  8
_0-0_0
  6
CONTINUOUS
 62
    7
 10
252.50239150000004
 20
759.54855399999997
 11
252.75239150000004
 21
759.82254
  0
LINE
  8
_0-0_0
  6
CONTINUOUS
 62
    7
 10
252.50239150000004
 20
756.57455499999992
 11
252.75239150000004
 21
756.33053599999994
  0
LINE
  8
_0-0_0
  6
CONTINUOUS
 62
    7
 10
252.50239150000004
 20
756.778504
 11
252.75239150000004
 21
756.54998799999998
  0
LINE
  8
_0-0_0
  6
CONTINUOUS
 62
    7
 10
249.70239649999996
 20
761.56185899999991
 11
249.70239649999996
 21
763.83093299999996
  0
LINE
  8
_0-0_0
  6
CONTINUOUS
 62
    7
 10
249.70239649999996
 20
763.83093299999996
 11
249.70239649999996
 21
770.63809199999992
  0
LINE
  8
_0-0_0
  6
CONTINUOUS
 62
    7
 10
252.50239150000004
 20
773.37851000000001
 11
252.50239150000004
 21
773.593659
  0
LINE
  8
_0-0_0
  6
CONTINUOUS
 62
    7
 10
252.50239150000004
 20
773.593659
 11
252.50239150000004
 21
773.81765799999994
  0
LINE
  8
_0-0_0
  6
CONTINUOUS
 62
    7
 10
252.50239150000004
 20
773.81765799999994
 11
252.50239150000004
 21
774.04800399999999
  0
LINE
  8
_0-0_0
  6
CONTINUOUS
 62
    7
 10
252.50239150000004
 20
774.04800399999999
 11
252.50239150000004
 21
774.28222699999992
  0
LINE
  8
_0-0_0
  6
CONTINUOUS
 62
    7
 10
252.50239150000004
 20
774.28222699999992
 11
252.50239150000004
 21
774.51773099999991
  0
LINE
  8
_0-0_0
  6
CONTINUOUS
 62
    7
 10
252.50239150000004
 20
774.51773099999991
 11
252.50239150000004
 21
774.75195299999996
  0
LINE
  8
_0-0_0
  6
CONTINUOUS
 62
    7
 10
252.50239150000004
 20
774.75195299999996
 11
252.50239150000004
 21
774.98233000000005
  0
LINE
  8
_0-0_0
  6
CONTINUOUS
 62
    7
 10
252.50239150000004
 20
774.98233000000005
 11
252.50239150000004
 21
775.20632899999998
  0
LINE
  8
_0-0_0
  6
CONTINUOUS
 62
    7
 10
252.50239150000004
 20
775.20632899999998
 11
252.50239150000004
 21
775.42147799999998
  0
LINE
  8
_0-0_0
  6
CONTINUOUS
 62
    7
 10
252.50239150000004
 20
775.42147799999998
 11
252.50239150000004
 21
775.62542699999995
  0
LINE
  8
_0-0_0
  6
CONTINUOUS
 62
    7
 10
252.50239150000004
 20
775.62542699999995
 11
252.50239150000004
 21
775.81594900000005
  0
LINE
  8
_0-0_0
  6
CONTINUOUS
 62
    7
 10
252.50239150000004
 20
775.81594900000005
 11
252.50239150000004
 21
775.99096699999996
  0
LINE
  8
_0-0_0
  6
CONTINUOUS
 62
    7
 10
252.50239150000004
 20
775.99096699999996
 11
252.50239150000004
 21
776.14855999999997
  0
LINE
  8
_0-0_0
  6
CONTINUOUS
 62
    7
 10
252.50239150000004
 20
776.14855999999997
 11
252.50239150000004
 21
776.28698699999995
  0
LINE
  8
_0-0_0
  6
CONTINUOUS
 62
    7
 10
252.50239150000004
 20
776.28698699999995
 11
252.50239150000004
 21
776.37454200000002
  0
LINE
  8
_0-0_0
  6
CONTINUOUS
 62
    7
 10
252.50239150000004
 20
776.37454200000002
 11
252.50239150000004
 21
776.40475500000002
  0
LINE
  8
_0-0_0
  6
CONTINUOUS
 62
    7
 10
252.50239150000004
 20
776.40475500000002
 11
252.50239150000004
 21
776.50054899999998
  0
LINE
  8
_0-0_0
  6
CONTINUOUS
 62
    7
 10
252.50239150000004
 20
776.50054899999998
 11
252.50239150000004
 21
776.57333399999993
  0
LINE
  8
_0-0_0
  6
CONTINUOUS
 62
    7
 10
252.50239150000004
 20
776.57333399999993
 11
252.50239150000004
 21
776.62228400000004
  0
LINE
  8
_0-0_0
  6
CONTINUOUS
 62
    7
 10
252.50239150000004
 20
776.62228400000004
 11
252.50239150000004
 21
776.64999399999999
  0
LINE
  8
_0-0_0
  6
CONTINUOUS
 62
    7
 10
252.50239150000004
 20
776.64691199999993
 11
252.50239150000004
 21
776.64999399999999
  0
LINE
  8
_0-0_0
  6
CONTINUOUS
 62
    7
 10
252.50239150000004
 20
772.14999399999999
 11
252.50239150000004
 21
772.15307600000006
  0
LINE
  8
_0-0_0
  6
CONTINUOUS
 62
    7
 10
252.50239150000004
 20
772.15307600000006
 11
252.50239150000004
 21
772.17767299999991
  0
LINE
  8
_0-0_0
  6
CONTINUOUS
 62
    7
 10
252.50239150000004
 20
772.17767299999991
 11
252.50239150000004
 21
772.22665400000005
  0
LINE
  8
_0-0_0
  6
CONTINUOUS
 62
    7
 10
252.50239150000004
 20
772.14999399999999
 11
252.50239150000004
 21
772.29943900000001
  0
LINE
  8
_0-0_0
  6
CONTINUOUS
 62
    7
 10
252.50239150000004
 20
772.29943900000001
 11
252.50239150000004
 21
772.39523299999996
  0
LINE
  8
_0-0_0
  6
CONTINUOUS
 62
    7
 10
252.50239150000004
 20
772.39523299999996
 11
252.50239150000004
 21
772.51297
  0
LINE
  8
_0-0_0
  6
CONTINUOUS
 62
    7
 10
252.50239150000004
 20
772.51297
 11
252.50239150000004
 21
772.65139799999997
  0
LINE
  8
_0-0_0
  6
CONTINUOUS
 62
    7
 10
252.50239150000004
 20
772.65139799999997
 11
252.50239150000004
 21
772.80899099999999
  0
LINE
  8
_0-0_0
  6
CONTINUOUS
 62
    7
 10
252.50239150000004
 20
772.80899099999999
 11
252.50239150000004
 21
772.98400900000001
  0
LINE
  8
_0-0_0
  6
CONTINUOUS
 62
    7
 10
252.50239150000004
 20
772.98400900000001
 11
252.50239150000004
 21
773.17456100000004
  0
LINE
  8
_0-0_0
  6
CONTINUOUS
 62
    7
 10
252.50239150000004
 20
773.32128899999998
 11
252.50239150000004
 21
773.37851000000001
  0
LINE
  8
_0-0_0
  6
CONTINUOUS
 62
    7
 10
252.50239150000004
 20
773.17456100000004
 11
252.50239150000004
 21
773.32128899999998
  0
LINE
  8
_0-0_0
  6
CONTINUOUS
 62
    7
 10
252.50239150000004
 20
756.778504
 11
252.50239150000004
 21
756.993652
  0
LINE
  8
_0-0_0
  6
CONTINUOUS
 62
    7
 10
252.50239150000004
 20
756.993652
 11
252.50239150000004
 21
757.21765099999993
  0
LINE
  8
_0-0_0
  6
CONTINUOUS
 62
    7
 10
252.50239150000004
 20
757.21765099999993
 11
252.50239150000004
 21
757.44799799999998
  0
LINE
  8
_0-0_0
  6
CONTINUOUS
 62
    7
 10
252.50239150000004
 20
757.44799799999998
 11
252.50239150000004
 21
757.68222100000003
  0
LINE
  8
_0-0_0
  6
CONTINUOUS
 62
    7
 10
252.50239150000004
 20
757.68222100000003
 11
252.50239150000004
 21
757.91775499999994
  0
LINE
  8
_0-0_0
  6
CONTINUOUS
 62
    7
 10
252.50239150000004
 20
757.91775499999994
 11
252.50239150000004
 21
758.15197799999999
  0
LINE
  8
_0-0_0
  6
CONTINUOUS
 62
    7
 10
252.50239150000004
 20
758.15197799999999
 11
252.50239150000004
 21
758.38232399999993
  0
LINE
  8
_0-0_0
  6
CONTINUOUS
 62
    7
 10
252.50239150000004
 20
758.38232399999993
 11
252.50239150000004
 21
758.60632299999997
  0
LINE
  8
_0-0_0
  6
CONTINUOUS
 62
    7
 10
252.50239150000004
 20
758.60632299999997
 11
252.50239150000004
 21
758.82147199999997
  0
LINE
  8
_0-0_0
  6
CONTINUOUS
 62
    7
 10
252.50239150000004
 20
758.82147199999997
 11
252.50239150000004
 21
759.02542100000005
  0
LINE
  8
_0-0_0
  6
CONTINUOUS
 62
    7
 10
252.50239150000004
 20
759.02542100000005
 11
252.50239150000004
 21
759.21597300000008
  0
LINE
  8
_0-0_0
  6
CONTINUOUS
 62
    7
 10
252.50239150000004
 20
759.21597300000008
 11
252.50239150000004
 21
759.39096100000006
  0
LINE
  8
_0-0_0
  6
CONTINUOUS
 62
    7
 10
252.50239150000004
 20
759.39096100000006
 11
252.50239150000004
 21
759.54855399999997
  0
LINE
  8
_0-0_0
  6
CONTINUOUS
 62
    7
 10
252.50239150000004
 20
759.54855399999997
 11
252.50239150000004
 21
759.68698100000006
  0
LINE
  8
_0-0_0
  6
CONTINUOUS
 62
    7
 10
252.50239150000004
 20
759.68698100000006
 11
252.50239150000004
 21
759.77453600000001
  0
LINE
  8
_0-0_0
  6
CONTINUOUS
 62
    7
 10
252.50239150000004
 20
759.77453600000001
 11
252.50239150000004
 21
759.80474900000002
  0
LINE
  8
_0-0_0
  6
CONTINUOUS
 62
    7
 10
252.50239150000004
 20
759.80474900000002
 11
252.50239150000004
 21
759.90054299999997
  0
LINE
  8
_0-0_0
  6
CONTINUOUS
 62
    7
 10
252.50239150000004
 20
759.90054299999997
 11
252.50239150000004
 21
759.97332800000004
  0
LINE
  8
_0-0_0
  6
CONTINUOUS
 62
    7
 10
252.50239150000004
 20
759.97332800000004
 11
252.50239150000004
 21
760.02227799999991
  0
LINE
  8
_0-0_0
  6
CONTINUOUS
 62
    7
 10
252.50239150000004
 20
760.02227799999991
 11
252.50239150000004
 21
760.04998799999998
  0
LINE
  8
_0-0_0
  6
CONTINUOUS
 62
    7
 10
252.50239150000004
 20
760.04690600000004
 11
252.50239150000004
 21
760.04998799999998
  0
LINE
  8
_0-0_0
  6
CONTINUOUS
 62
    7
 10
252.50239150000004
 20
755.54998799999998
 11
252.50239150000004
 21
755.55306999999993
  0
LINE
  8
_0-0_0
  6
CONTINUOUS
 62
    7
 10
252.50239150000004
 20
755.55306999999993
 11
252.50239150000004
 21
755.57769800000005
  0
LINE
  8
_0-0_0
  6
CONTINUOUS
 62
    7
 10
252.50239150000004
 20
755.57769800000005
 11
252.50239150000004
 21
755.62664799999993
  0
LINE
  8
_0-0_0
  6
CONTINUOUS
 62
    7
 10
252.50239150000004
 20
755.54998799999998
 11
252.50239150000004
 21
755.699432
  0
LINE
  8
_0-0_0
  6
CONTINUOUS
 62
    7
 10
252.50239150000004
 20
755.699432
 11
252.50239150000004
 21
755.79522700000007
  0
LINE
  8
_0-0_0
  6
CONTINUOUS
 62
    7
 10
252.50239150000004
 20
755.79522700000007
 11
252.50239150000004
 21
755.91299400000003
  0
LINE
  8
_0-0_0
  6
CONTINUOUS
 62
    7
 10
252.50239150000004
 20
755.91299400000003
 11
252.50239150000004
 21
756.051422
  0
LINE
  8
_0-0_0
  6
CONTINUOUS
 62
    7
 10
252.50239150000004
 20
756.051422
 11
252.50239150000004
 21
756.20898399999999
  0
LINE
  8
_0-0_0
  6
CONTINUOUS
 62
    7
 10
252.50239150000004
 20
756.20898399999999
 11
252.50239150000004
 21
756.38400300000001
  0
LINE
  8
_0-0_0
  6
CONTINUOUS
 62
    7
 10
252.50239150000004
 20
756.38400300000001
 11
252.50239150000004
 21
756.57455499999992
  0
LINE
  8
_0-0_0
  6
CONTINUOUS
 62
    7
 10
252.50239150000004
 20
756.72128299999997
 11
252.50239150000004
 21
756.778504
  0
LINE
  8
_0-0_0
  6
CONTINUOUS
 62
    7
 10
252.50239150000004
 20
756.57455499999992
 11
252.50239150000004
 21
756.72128299999997
  0
LINE
  8
_0-0_0
  6
CONTINUOUS
 62
    7
 10
248.90239350000002
 20
763.59997599999997
 11
248.90239350000002
 21
771.09997599999997
  0
LINE
  8
_0-0_0
  6
CONTINUOUS
 62
    7
 10
248.90239350000002
 20
761.09997599999997
 11
248.90239350000002
 21
763.59997599999997
  0
LINE
  8
_0-0_0
  6
CONTINUOUS
 62
    7
 10
237.50239950000002
 20
772.59997599999997
 11
247.21022449999998
 21
772.59997599999997
  0
LINE
  8
_0-0_0
  6
CONTINUOUS
 62
    7
 10
247.25239950000002
 20
772.59997599999997
 11
247.21022449999998
 21
772.59997599999997
  0
LINE
  8
_0-0_0
  6
CONTINUOUS
 62
    7
 10
237.20239649999996
 20
763.88797
 11
237.26120349999997
 21
763.64111300000002
  0
LINE
  8
_0-0_0
  6
CONTINUOUS
 62
    7
 10
237.26120349999997
 20
763.64111300000002
 11
237.31096249999996
 21
763.44879199999991
  0
LINE
  8
_0-0_0
  6
CONTINUOUS
 62
    7
 10
237.31096249999996
 20
763.44879199999991
 11
237.38208350000002
 21
763.18304499999999
  0
LINE
  8
_0-0_0
  6
CONTINUOUS
 62
    7
 10
237.38208350000002
 20
763.18304499999999
 11
237.41504250000003
 21
763.05633599999999
  0
LINE
  8
_0-0_0
  6
CONTINUOUS
 62
    7
 10
237.41504250000003
 20
763.05633599999999
 11
237.44029650000004
 21
762.95291099999997
  0
LINE
  8
_0-0_0
  6
CONTINUOUS
 62
    7
 10
237.44029650000004
 20
762.95291099999997
 11
237.46232950000001
 21
762.852936
  0
LINE
  8
_0-0_0
  6
CONTINUOUS
 62
    7
 10
237.46232950000001
 20
762.852936
 11
237.4837225
 21
762.73523
  0
LINE
  8
_0-0_0
  6
CONTINUOUS
 62
    7
 10
237.4837225
 20
762.73523
 11
237.49228249999999
 21
762.67309599999999
  0
LINE
  8
_0-0_0
  6
CONTINUOUS
 62
    7
 10
237.49228249999999
 20
762.67309599999999
 11
237.49837149999996
 21
762.61248799999998
  0
LINE
  8
_0-0_0
  6
CONTINUOUS
 62
    7
 10
237.49837149999996
 20
762.61248799999998
 11
237.50137749999999
 21
762.56326300000001
  0
LINE
  8
_0-0_0
  6
CONTINUOUS
 62
    7
 10
237.50137749999999
 20
762.56326300000001
 11
237.50239950000002
 21
762.51504499999999
  0
LINE
  8
_0-0_0
  6
CONTINUOUS
 62
    7
 10
237.20239649999996
 20
768.31198100000006
 11
237.2611885
 21
768.558807
  0
LINE
  8
_0-0_0
  6
CONTINUOUS
 62
    7
 10
237.2611885
 20
768.558807
 11
237.31096249999996
 21
768.75116000000003
  0
LINE
  8
_0-0_0
  6
CONTINUOUS
 62
    7
 10
237.31096249999996
 20
768.75116000000003
 11
237.38208350000002
 21
769.01693699999998
  0
LINE
  8
_0-0_0
  6
CONTINUOUS
 62
    7
 10
237.38208350000002
 20
769.01693699999998
 11
237.41504250000003
 21
769.14367700000003
  0
LINE
  8
_0-0_0
  6
CONTINUOUS
 62
    7
 10
237.41504250000003
 20
769.14367700000003
 11
237.44031150000001
 21
769.24707000000001
  0
LINE
  8
_0-0_0
  6
CONTINUOUS
 62
    7
 10
237.44031150000001
 20
769.24707000000001
 11
237.46232950000001
 21
769.34701500000006
  0
LINE
  8
_0-0_0
  6
CONTINUOUS
 62
    7
 10
237.46232950000001
 20
769.34701500000006
 11
237.48370750000004
 21
769.46472199999994
  0
LINE
  8
_0-0_0
  6
CONTINUOUS
 62
    7
 10
237.48370750000004
 20
769.46472199999994
 11
237.49228249999999
 21
769.52685599999995
  0
LINE
  8
_0-0_0
  6
CONTINUOUS
 62
    7
 10
237.49228249999999
 20
769.52685599999995
 11
237.49837149999996
 21
769.58746300000007
  0
LINE
  8
_0-0_0
  6
CONTINUOUS
 62
    7
 10
237.49837149999996
 20
769.58746300000007
 11
237.50137749999999
 21
769.63671899999997
  0
LINE
  8
_0-0_0
  6
CONTINUOUS
 62
    7
 10
237.50137749999999
 20
769.63671899999997
 11
237.50239950000002
 21
769.68493699999999
  0
LINE
  8
_0-0_0
  6
CONTINUOUS
 62
    7
 10
237.50239950000002
 20
764.53793300000007
 11
237.50239950000002
 21
763.49227900000005
  0
LINE
  8
_0-0_0
  6
CONTINUOUS
 62
    7
 10
237.50239950000002
 20
762.207672
 11
237.50239950000002
 21
763.49227900000005
  0
LINE
  8
_0-0_0
  6
CONTINUOUS
 62
    7
 10
237.50239950000002
 20
762.09228499999995
 11
237.50239950000002
 21
762.207672
  0
ARC
  8
_0-0_0
  6
CONTINUOUS
 62
    7
 10
235.50239950000002
 20
773.45846600000004
 40
2
 50
0
 51
71.565000999999995
  0
LINE
  8
_0-0_0
  6
CONTINUOUS
 62
    7
 10
247.21022449999998
 20
772.59997599999997
 11
247.26471349999997
 21
772.53006000000005
  0
LINE
  8
_0-0_0
  6
CONTINUOUS
 62
    7
 10
247.26471349999997
 20
772.53006000000005
 11
247.31581449999999
 21
772.46121199999993
  0
LINE
  8
_0-0_0
  6
CONTINUOUS
 62
    7
 10
247.31581449999999
 20
772.46121199999993
 11
247.36345249999999
 21
772.39370699999995
  0
LINE
  8
_0-0_0
  6
CONTINUOUS
 62
    7
 10
247.36345249999999
 20
772.39370699999995
 11
247.40794749999998
 21
772.327179
  0
LINE
  8
_0-0_0
  6
CONTINUOUS
 62
    7
 10
247.40794749999998
 20
772.327179
 11
247.46266549999996
 21
772.23962400000005
  0
LINE
  8
_0-0_0
  6
CONTINUOUS
 62
    7
 10
247.46266549999996
 20
772.23962400000005
 11
247.5121805
 21
772.15353400000004
  0
LINE
  8
_0-0_0
  6
CONTINUOUS
 62
    7
 10
247.5121805
 20
772.15353400000004
 11
247.55664450000006
 21
772.06869499999993
  0
LINE
  8
_0-0_0
  6
CONTINUOUS
 62
    7
 10
247.55664450000006
 20
772.06869499999993
 11
247.60361050000006
 21
771.96838400000001
  0
LINE
  8
_0-0_0
  6
CONTINUOUS
 62
    7
 10
247.60361050000006
 20
771.96838400000001
 11
247.64381750000007
 21
771.86944599999993
  0
LINE
  8
_0-0_0
  6
CONTINUOUS
 62
    7
 10
247.64381750000007
 20
771.86944599999993
 11
247.67747850000001
 21
771.77169800000001
  0
LINE
  8
_0-0_0
  6
CONTINUOUS
 62
    7
 10
247.67747850000001
 20
771.77169800000001
 11
247.70477649999998
 21
771.67489599999999
  0
LINE
  8
_0-0_0
  6
CONTINUOUS
 62
    7
 10
247.70477649999998
 20
771.67489599999999
 11
247.72581850000006
 21
771.57882700000005
  0
LINE
  8
_0-0_0
  6
CONTINUOUS
 62
    7
 10
247.72581850000006
 20
771.57882700000005
 11
247.74174849999997
 21
771.47497599999997
  0
LINE
  8
_0-0_0
  6
CONTINUOUS
 62
    7
 10
247.74174849999997
 20
771.47497599999997
 11
247.75050750000003
 21
771.37155200000007
  0
LINE
  8
_0-0_0
  6
CONTINUOUS
 62
    7
 10
247.75050750000003
 20
771.37155200000007
 11
247.7521395
 21
771.26831100000004
  0
LINE
  8
_0-0_0
  6
CONTINUOUS
 62
    7
 10
247.7521395
 20
771.26831100000004
 11
247.74667750000003
 21
771.16503899999998
  0
LINE
  8
_0-0_0
  6
CONTINUOUS
 62
    7
 10
247.74667750000003
 20
771.16503899999998
 11
247.73405850000006
 21
771.06143199999997
  0
LINE
  8
_0-0_0
  6
CONTINUOUS
 62
    7
 10
247.73405850000006
 20
771.06143199999997
 11
247.71425250000004
 21
770.95727499999998
  0
LINE
  8
_0-0_0
  6
CONTINUOUS
 62
    7
 10
247.71425250000004
 20
770.95727499999998
 11
247.68710750000002
 21
770.85232599999995
  0
LINE
  8
_0-0_0
  6
CONTINUOUS
 62
    7
 10
247.68710750000002
 20
770.85232599999995
 11
247.65245449999998
 21
770.746307
  0
LINE
  8
_0-0_0
  6
CONTINUOUS
 62
    7
 10
247.65245449999998
 20
770.746307
 11
247.61011150000002
 21
770.63891599999999
  0
LINE
  8
_0-0_0
  6
CONTINUOUS
 62
    7
 10
247.61011150000002
 20
770.63891599999999
 11
247.55978749999997
 21
770.52990699999998
  0
LINE
  8
_0-0_0
  6
CONTINUOUS
 62
    7
 10
247.55978749999997
 20
770.52990699999998
 11
247.50554250000005
 21
770.42678799999999
  0
LINE
  8
_0-0_0
  6
CONTINUOUS
 62
    7
 10
247.50554250000005
 20
770.42678799999999
 11
247.44383649999997
 21
770.32171599999992
  0
LINE
  8
_0-0_0
  6
CONTINUOUS
 62
    7
 10
247.44383649999997
 20
770.32171599999992
 11
247.37431749999996
 21
770.21447799999999
  0
LINE
  8
_0-0_0
  6
CONTINUOUS
 62
    7
 10
247.37431749999996
 20
770.21447799999999
 11
247.29660450000006
 21
770.10476700000004
  0
LINE
  8
_0-0_0
  6
CONTINUOUS
 62
    7
 10
247.29660450000006
 20
770.10476700000004
 11
247.21022449999998
 21
769.99227900000005
  0
LINE
  8
_0-0_0
  6
CONTINUOUS
 62
    7
 10
237.50239950000002
 20
770.10766599999999
 11
237.50239950000002
 21
769.99227900000005
  0
LINE
  8
_0-0_0
  6
CONTINUOUS
 62
    7
 10
237.50239950000002
 20
768.707672
 11
237.50239950000002
 21
767.66204799999991
  0
LINE
  8
_0-0_0
  6
CONTINUOUS
 62
    7
 10
237.50239950000002
 20
763.49227900000005
 11
247.21022449999998
 21
763.49227900000005
  0
LINE
  8
_0-0_0
  6
CONTINUOUS
 62
    7
 10
237.50239950000002
 20
762.207672
 11
247.21022449999998
 21
762.207672
  0
LINE
  8
_0-0_0
  6
CONTINUOUS
 62
    7
 10
248.50239950000002
 20
768.83154300000001
 11
248.50239950000002
 21
771.34997599999997
  0
LINE
  8
_0-0_0
  6
CONTINUOUS
 62
    7
 10
237.50239950000002
 20
773.45846600000004
 11
237.50239950000002
 21
770.10766599999999
  0
LINE
  8
_0-0_0
  6
CONTINUOUS
 62
    7
 10
226.50239950000002
 20
755.29998799999998
 11
226.50239950000002
 21
755.55004899999994
  0
LINE
  8
_0-0_0
  6
CONTINUOUS
 62
    7
 10
202.00239950000002
 20
775.39999399999999
 11
197.00239150000004
 21
775.39999399999999
  0
ARC
  8
_0-0_0
  6
CONTINUOUS
 62
    7
 10
197.00239150000004
 20
770.89999399999999
 40
4.5
 50
90.000003000000007
 51
269.99999700000006
  0
LINE
  8
_0-0_0
  6
CONTINUOUS
 62
    7
 10
202.00239950000002
 20
766.39999399999999
 11
197.00239150000004
 21
766.39999399999999
  0
ARC
  8
_0-0_0
  6
CONTINUOUS
 62
    7
 10
202.00239950000002
 20
770.89999399999999
 40
4.5
 50
269.99999700000001
 51
90.000002999999992
  0
LINE
  8
_0-0_0
  6
CONTINUOUS
 62
    7
 10
146.00239150000004
 20
775.39999399999999
 11
141.00239150000004
 21
775.39999399999999
  0
ARC
  8
_0-0_0
  6
CONTINUOUS
 62
    7
 10
141.00239150000004
 20
770.89999399999999
 40
4.5
 50
90.000003000000007
 51
269.99999700000006
  0
LINE
  8
_0-0_0
  6
CONTINUOUS
 62
    7
 10
146.00239150000004
 20
766.39999399999999
 11
141.00239150000004
 21
766.39999399999999
  0
ARC
  8
_0-0_0
  6
CONTINUOUS
 62
    7
 10
146.00239150000004
 20
770.89999399999999
 40
4.5
 50
269.99999700000001
 51
90.000002999999992
  0
LINE
  8
_0-0_0
  6
CONTINUOUS
 62
    7
 10
171.3149075
 20
774.96963499999993
 11
170.01491150000004
 21
771.46963499999993
  0
LINE
  8
_0-0_0
  6
CONTINUOUS
 62
    7
 10
170.20239649999996
 20
771.19998199999998
 11
172.80239449999999
 21
771.19998199999998
  0
ARC
  8
_0-0_0
  6
CONTINUOUS
 62
    7
 10
172.80239449999999
 20
771.39999399999999
 40
0.2
 50
269.99999700000001
 51
20.376435000000019
  0
ARC
  8
_0-0_0
  6
CONTINUOUS
 62
    7
 10
171.50239150000004
 20
774.89999399999999
 40
0.2
 50
20.376434999999997
 51
159.62357000000003
  0
LINE
  8
_0-0_0
  6
CONTINUOUS
 62
    7
 10
226.50239950000002
 20
755.29998799999998
 11
226.50239950000002
 21
757.29998799999998
  0
ARC
  8
_0-0_0
  6
CONTINUOUS
 62
    7
 10
192.50239150000004
 20
761.69998199999998
 40
3
 50
180.00000900000003
 51
269.99999700000001
  0
LINE
  8
_0-0_0
  6
CONTINUOUS
 62
    7
 10
192.50239150000004
 20
758.69998199999998
 11
207.50239950000002
 21
758.69998199999998
  0
ARC
  8
_0-0_0
  6
CONTINUOUS
 62
    7
 10
207.50239950000002
 20
761.69998199999998
 40
3
 50
269.99999700000001
 51
0
  0
ARC
  8
_0-0_0
  6
CONTINUOUS
 62
    7
 10
207.50239950000002
 20
775.29998799999998
 40
3
 50
0
 51
90.000003000000007
  0
LINE
  8
_0-0_0
  6
CONTINUOUS
 62
    7
 10
207.50239950000002
 20
778.29998799999998
 11
192.50239150000004
 21
778.29998799999998
  0
ARC
  8
_0-0_0
  6
CONTINUOUS
 62
    7
 10
192.50239150000004
 20
775.29998799999998
 40
3
 50
90.000003000000007
 51
180.00000900000001
  0
ARC
  8
_0-0_0
  6
CONTINUOUS
 62
    7
 10
138.59207549999996
 20
763.78967299999999
 40
5.089683
 50
180.00000900000003
 51
269.99999700000001
  0
LINE
  8
_0-0_0
  6
CONTINUOUS
 62
    7
 10
138.59207549999996
 20
758.69998199999998
 11
149.85940149999999
 21
758.69998199999998
  0
ARC
  8
_0-0_0
  6
CONTINUOUS
 62
    7
 10
149.85940149999999
 20
762.34298699999999
 40
3.6429879999999999
 50
269.99999700000001
 51
0.0000099999999886
  0
LINE
  8
_0-0_0
  6
CONTINUOUS
 62
    7
 10
150.50239150000004
 20
778.29998799999998
 11
137.16845350000006
 21
778.29998799999998
  0
ARC
  8
_0-0_0
  6
CONTINUOUS
 62
    7
 10
137.16845350000006
 20
777.29998799999998
 40
1
 50
90.000003000000007
 51
172.23356100000001
  0
ARC
  8
_0-0_0
  6
CONTINUOUS
 62
    7
 10
134.50239550000003
 20
774.23767099999998
 40
1
 50
105.68034800000001
 51
180.00000900000001
  0
LINE
  8
_0-0_0
  6
CONTINUOUS
 62
    7
 10
191.90239350000002
 20
778.29998799999998
 11
191.90239350000002
 21
778.23937999999998
  0
LINE
  8
_0-0_0
  6
CONTINUOUS
 62
    7
 10
150.50239150000004
 20
758.75717199999997
 11
150.50239150000004
 21
758.704071
  0
LINE
  8
_0-0_0
  6
CONTINUOUS
 62
    7
 10
191.90239350000002
 20
758.76058999999998
 11
191.90239350000002
 21
758.704071
  0
LINE
  8
_0-0_0
  6
CONTINUOUS
 62
    7
 10
248.50239950000002
 20
760.84997599999997
 11
247.70239649999996
 21
760.04998799999998
  0
LINE
  8
_0-0_0
  6
CONTINUOUS
 62
    7
 10
262.50239550000003
 20
755.79998799999998
 11
262.00256349999995
 21
755.30014000000006
  0
LINE
  8
_0-0_0
  6
CONTINUOUS
 62
    7
 10
262.50239550000003
 20
772.39999399999999
 11
262.00256349999995
 21
771.90014700000006
  0
LINE
  8
_0-0_0
  6
CONTINUOUS
 62
    7
 10
249.70239649999996
 20
770.09997599999997
 11
307.70239249999997
 21
770.09997599999997
  0
LINE
  8
_0-0_0
  6
CONTINUOUS
 62
    7
 10
249.70239649999996
 20
762.09997599999997
 11
307.70239249999997
 21
762.09997599999997
  0
LINE
  8
_0-0_0
  6
CONTINUOUS
 62
    7
 10
262.50239550000003
 20
776.39999399999999
 11
262.00256349999995
 21
776.89984099999992
  0
LINE
  8
_0-0_0
  6
CONTINUOUS
 62
    7
 10
262.50239550000003
 20
759.79998799999998
 11
262.00256349999995
 21
760.29983500000003
  0
LINE
  8
_0-0_0
  6
CONTINUOUS
 62
    7
 10
252.50239150000004
 20
776.64999399999999
 11
252.75239150000004
 21
776.89999399999999
  0
LINE
  8
_0-0_0
  6
CONTINUOUS
 62
    7
 10
252.50239150000004
 20
772.14999399999999
 11
252.75239150000004
 21
771.89999399999999
  0
LINE
  8
_0-0_0
  6
CONTINUOUS
 62
    7
 10
252.50239150000004
 20
760.04998799999998
 11
252.75239150000004
 21
760.29998799999998
  0
LINE
  8
_0-0_0
  6
CONTINUOUS
 62
    7
 10
252.50239150000004
 20
755.54998799999998
 11
252.75239150000004
 21
755.29998799999998
  0
LINE
  8
_0-0_0
  6
CONTINUOUS
 62
    7
 10
249.70239649999996
 20
770.63809199999992
 11
248.90239350000002
 21
771.09997599999997
  0
LINE
  8
_0-0_0
  6
CONTINUOUS
 62
    7
 10
249.70239649999996
 20
761.56185899999991
 11
248.90239350000002
 21
761.09997599999997
  0
LINE
  8
_0-0_0
  6
CONTINUOUS
 62
    7
 10
232.25235350000003
 20
776.64999399999999
 11
252.50239150000004
 21
776.64999399999999
  0
LINE
  8
_0-0_0
  6
CONTINUOUS
 62
    7
 10
247.70239649999996
 20
772.14999399999999
 11
252.50239150000004
 21
772.14999399999999
  0
LINE
  8
_0-0_0
  6
CONTINUOUS
 62
    7
 10
226.50239950000002
 20
760.04998799999998
 11
252.50239150000004
 21
760.04998799999998
  0
LINE
  8
_0-0_0
  6
CONTINUOUS
 62
    7
 10
226.50239950000002
 20
755.54998799999998
 11
252.50239150000004
 21
755.54998799999998
  0
LINE
  8
_0-0_0
  6
CONTINUOUS
 62
    7
 10
248.50239950000002
 20
771.09997599999997
 11
248.90239350000002
 21
771.09997599999997
  0
LINE
  8
_0-0_0
  6
CONTINUOUS
 62
    7
 10
248.50239950000002
 20
761.09997599999997
 11
248.90239350000002
 21
761.09997599999997
  0
LINE
  8
_0-0_0
  6
CONTINUOUS
 62
    7
 10
248.50239950000002
 20
771.34997599999997
 11
247.25239950000002
 21
772.59997599999997
  0
ARC
  8
_0-0_0
  6
CONTINUOUS
 62
    7
 10
126.50239550000003
 20
799.59997599999997
 40
8
 50
215.099627
 51
324.90037799999999
  0
LINE
  8
_0-0_0
  6
CONTINUOUS
 62
    7
 10
117.50239550000003
 20
794.99997000000008
 11
119.95716849999997
 21
794.99997000000008
  0
LINE
  8
_0-0_0
  6
CONTINUOUS
 62
    7
 10
117.50239550000003
 20
781.79998799999998
 11
117.50239550000003
 21
794.99997000000008
  0
LINE
  8
_0-0_0
  6
CONTINUOUS
 62
    7
 10
1490.5025025
 20
781.79998799999998
 11
1490.5025025
 21
794.99997000000008
  0
LINE
  8
_0-0_0
  6
CONTINUOUS
 62
    7
 10
1488.0477905
 20
794.99997000000008
 11
1490.5025025
 21
794.99997000000008
  0
ARC
  8
_0-0_0
  6
CONTINUOUS
 62
    7
 10
1481.5025025
 20
799.59997599999997
 40
8
 50
215.099627
 51
324.90037799999999
  0
LINE
  8
_0-0_0
  6
CONTINUOUS
 62
    7
 10
133.04762249999999
 20
794.99997000000008
 11
1474.9572145
 21
794.99997000000008
  0
LINE
  8
_0-0_0
  6
CONTINUOUS
 62
    7
 10
133.04762249999999
 20
794.99997000000008
 11
133.13660849999997
 21
795.12927300000001
  0
LINE
  8
_0-0_0
  6
CONTINUOUS
 62
    7
 10
1474.9572145
 20
794.99997000000008
 11
1474.8683475
 21
795.12927300000001
  0
LINE
  8
_0-0_0
  6
CONTINUOUS
 62
    7
 10
1488.2297974999999
 20
795.27069099999994
 11
1488.3113404999999
 21
795.39999399999999
  0
ARC
  8
_0-0_0
  6
CONTINUOUS
 62
    7
 10
1481.5025025
 20
799.59997599999997
 40
8
 50
328.33175599999993
 51
334.05550899999992
  0
LINE
  8
_0-0_0
  6
CONTINUOUS
 62
    7
 10
1488.6962275000001
 20
796.09997599999997
 11
1488.7902225
 21
796.29998799999998
  0
LINE
  8
_0-0_0
  6
CONTINUOUS
 62
    7
 10
1488.7902225
 20
796.29998799999998
 11
1488.8775025
 21
796.49997000000008
  0
ARC
  8
_0-0_0
  6
CONTINUOUS
 62
    7
 10
1481.5025025
 20
799.59997599999997
 40
8
 50
337.20097500000003
 51
342.54240199999998
  0
LINE
  8
_0-0_0
  6
CONTINUOUS
 62
    7
 10
1489.1339725
 20
797.19998199999998
 11
1489.1940305000001
 21
797.39999399999999
  0
LINE
  8
_0-0_0
  6
CONTINUOUS
 62
    7
 10
1489.1940305000001
 20
797.39999399999999
 11
1489.2484744999999
 21
797.59997599999997
  0
ARC
  8
_0-0_0
  6
CONTINUOUS
 62
    7
 10
1481.5025025
 20
799.59997599999997
 40
8
 50
345.52249499999999
 51
350.64797900000002
  0
LINE
  8
_0-0_0
  6
CONTINUOUS
 62
    7
 10
1489.3961795
 20
798.29998799999998
 11
1489.4265745
 21
798.49997000000008
  0
LINE
  8
_0-0_0
  6
CONTINUOUS
 62
    7
 10
1489.4265745
 20
798.49997000000008
 11
1489.4517215000001
 21
798.69998199999998
  0
ARC
  8
_0-0_0
  6
CONTINUOUS
 62
    7
 10
1481.5025025
 20
799.59997599999997
 40
8
 50
353.54056400000002
 51
358.56744600000002
  0
LINE
  8
_0-0_0
  6
CONTINUOUS
 62
    7
 10
1489.5000605
 20
799.39999399999999
 11
1489.5025025
 21
799.59997599999997
  0
LINE
  8
_0-0_0
  6
CONTINUOUS
 62
    7
 10
1473.5049435000001
 20
799.39999399999999
 11
1473.5025025
 21
799.59997599999997
  0
ARC
  8
_0-0_0
  6
CONTINUOUS
 62
    7
 10
1481.5025025
 20
799.59997599999997
 40
8
 50
181.432545
 51
186.45945499999999
  0
LINE
  8
_0-0_0
  6
CONTINUOUS
 62
    7
 10
1473.5784305
 20
798.49997000000008
 11
1473.5532834999999
 21
798.69998199999998
  0
LINE
  8
_0-0_0
  6
CONTINUOUS
 62
    7
 10
1473.6088255
 20
798.29998799999998
 11
1473.5784305
 21
798.49997000000008
  0
ARC
  8
_0-0_0
  6
CONTINUOUS
 62
    7
 10
1481.5025025
 20
799.59997599999997
 40
8
 50
189.35203999999999
 51
194.47751
  0
LINE
  8
_0-0_0
  6
CONTINUOUS
 62
    7
 10
1473.8109744999999
 20
797.39999399999999
 11
1473.7565305000001
 21
797.59997599999997
  0
LINE
  8
_0-0_0
  6
CONTINUOUS
 62
    7
 10
1473.8710325
 20
797.19998199999998
 11
1473.8109744999999
 21
797.39999399999999
  0
ARC
  8
_0-0_0
  6
CONTINUOUS
 62
    7
 10
1481.5025025
 20
799.59997599999997
 40
8
 50
197.45760300000001
 51
202.79902999999999
  0
LINE
  8
_0-0_0
  6
CONTINUOUS
 62
    7
 10
1474.2147825
 20
796.29998799999998
 11
1474.1275025
 21
796.49997000000008
  0
LINE
  8
_0-0_0
  6
CONTINUOUS
 62
    7
 10
1474.3087765
 20
796.09997599999997
 11
1474.2147825
 21
796.29998799999998
  0
ARC
  8
_0-0_0
  6
CONTINUOUS
 62
    7
 10
1481.5025025
 20
799.59997599999997
 40
8
 50
205.94448199999999
 51
211.66823500000001
  0
LINE
  8
_0-0_0
  6
CONTINUOUS
 62
    7
 10
1474.7752075000001
 20
795.27069099999994
 11
1474.6936645000001
 21
795.39999399999999
  0
LINE
  8
_0-0_0
  6
CONTINUOUS
 62
    7
 10
1474.7752075000001
 20
795.27069099999994
 11
1474.8683475
 21
795.12927300000001
  0
LINE
  8
_0-0_0
  6
CONTINUOUS
 62
    7
 10
1488.0477905
 20
794.99997000000008
 11
1488.1366575
 21
795.12927300000001
  0
LINE
  8
_0-0_0
  6
CONTINUOUS
 62
    7
 10
1488.2297974999999
 20
795.27069099999994
 11
1488.1366575
 21
795.12927300000001
  0
LINE
  8
_0-0_0
  6
CONTINUOUS
 62
    7
 10
1490.5025025
 20
795.12927300000001
 11
1490.5025025
 21
794.99997000000008
  0
LINE
  8
_0-0_0
  6
CONTINUOUS
 62
    7
 10
1490.5025025
 20
803.92929099999992
 11
1490.5025025
 21
804.07070899999997
  0
LINE
  8
_0-0_0
  6
CONTINUOUS
 62
    7
 10
1490.5025025
 20
803.92929099999992
 11
1490.5025025
 21
803.79998799999998
  0
LINE
  8
_0-0_0
  6
CONTINUOUS
 62
    7
 10
1490.5025025
 20
803.09997599999997
 11
1490.5025025
 21
803.79998799999998
  0
LINE
  8
_0-0_0
  6
CONTINUOUS
 62
    7
 10
1490.5025025
 20
802.89999399999999
 11
1490.5025025
 21
803.09997599999997
  0
LINE
  8
_0-0_0
  6
CONTINUOUS
 62
    7
 10
1490.5025025
 20
802.89999399999999
 11
1490.5025025
 21
802.69998199999998
  0
LINE
  8
_0-0_0
  6
CONTINUOUS
 62
    7
 10
1490.5025025
 20
801.99997000000008
 11
1490.5025025
 21
802.69998199999998
  0
LINE
  8
_0-0_0
  6
CONTINUOUS
 62
    7
 10
1490.5025025
 20
801.79998799999998
 11
1490.5025025
 21
801.99997000000008
  0
LINE
  8
_0-0_0
  6
CONTINUOUS
 62
    7
 10
1490.5025025
 20
801.79998799999998
 11
1490.5025025
 21
801.59997599999997
  0
LINE
  8
_0-0_0
  6
CONTINUOUS
 62
    7
 10
1490.5025025
 20
800.89999399999999
 11
1490.5025025
 21
801.59997599999997
  0
LINE
  8
_0-0_0
  6
CONTINUOUS
 62
    7
 10
1490.5025025
 20
800.69998199999998
 11
1490.5025025
 21
800.89999399999999
  0
LINE
  8
_0-0_0
  6
CONTINUOUS
 62
    7
 10
1490.5025025
 20
800.69998199999998
 11
1490.5025025
 21
800.49997000000008
  0
LINE
  8
_0-0_0
  6
CONTINUOUS
 62
    7
 10
1490.5025025
 20
799.79998799999998
 11
1490.5025025
 21
800.49997000000008
  0
LINE
  8
_0-0_0
  6
CONTINUOUS
 62
    7
 10
1490.5025025
 20
799.59997599999997
 11
1490.5025025
 21
799.79998799999998
  0
LINE
  8
_0-0_0
  6
CONTINUOUS
 62
    7
 10
1490.5025025
 20
799.59997599999997
 11
1490.5025025
 21
799.39999399999999
  0
LINE
  8
_0-0_0
  6
CONTINUOUS
 62
    7
 10
1490.5025025
 20
798.69998199999998
 11
1490.5025025
 21
799.39999399999999
  0
LINE
  8
_0-0_0
  6
CONTINUOUS
 62
    7
 10
1490.5025025
 20
798.49997000000008
 11
1490.5025025
 21
798.69998199999998
  0
LINE
  8
_0-0_0
  6
CONTINUOUS
 62
    7
 10
1490.5025025
 20
798.49997000000008
 11
1490.5025025
 21
798.29998799999998
  0
LINE
  8
_0-0_0
  6
CONTINUOUS
 62
    7
 10
1490.5025025
 20
797.59997599999997
 11
1490.5025025
 21
798.29998799999998
  0
LINE
  8
_0-0_0
  6
CONTINUOUS
 62
    7
 10
1490.5025025
 20
797.39999399999999
 11
1490.5025025
 21
797.59997599999997
  0
LINE
  8
_0-0_0
  6
CONTINUOUS
 62
    7
 10
1490.5025025
 20
797.39999399999999
 11
1490.5025025
 21
797.19998199999998
  0
LINE
  8
_0-0_0
  6
CONTINUOUS
 62
    7
 10
1490.5025025
 20
796.49997000000008
 11
1490.5025025
 21
797.19998199999998
  0
LINE
  8
_0-0_0
  6
CONTINUOUS
 62
    7
 10
1490.5025025
 20
796.29998799999998
 11
1490.5025025
 21
796.49997000000008
  0
LINE
  8
_0-0_0
  6
CONTINUOUS
 62
    7
 10
1490.5025025
 20
796.29998799999998
 11
1490.5025025
 21
796.09997599999997
  0
LINE
  8
_0-0_0
  6
CONTINUOUS
 62
    7
 10
1490.5025025
 20
795.39999399999999
 11
1490.5025025
 21
796.09997599999997
  0
LINE
  8
_0-0_0
  6
CONTINUOUS
 62
    7
 10
1490.5025025
 20
795.27069099999994
 11
1490.5025025
 21
795.39999399999999
  0
LINE
  8
_0-0_0
  6
CONTINUOUS
 62
    7
 10
1490.5025025
 20
795.12927300000001
 11
1490.5025025
 21
795.27069099999994
  0
LINE
  8
_0-0_0
  6
CONTINUOUS
 62
    7
 10
1490.5025025
 20
781.29998799999998
 11
1490.5025025
 21
781.79998799999998
  0
LINE
  8
_0-0_0
  6
CONTINUOUS
 62
    7
 10
1490.5025025
 20
809.79998799999998
 11
1490.5025025
 21
809.20602400000007
  0
LINE
  8
_0-0_0
  6
CONTINUOUS
 62
    7
 10
1490.5025025
 20
804.19998199999998
 11
1490.5025025
 21
809.20602400000007
  0
LINE
  8
_0-0_0
  6
CONTINUOUS
 62
    7
 10
1490.5025025
 20
804.07070899999997
 11
1490.5025025
 21
804.19998199999998
  0
LINE
  8
_0-0_0
  6
CONTINUOUS
 62
    7
 10
117.50239550000003
 20
781.29998799999998
 11
117.50239550000003
 21
781.79998799999998
  0
LINE
  8
_0-0_0
  6
CONTINUOUS
 62
    7
 10
117.50239550000003
 20
781.29998799999998
 11
1490.5025025
 21
781.29998799999998
  0
LINE
  8
_0-0_0
  6
CONTINUOUS
 62
    7
 10
117.50239550000003
 20
795.12927300000001
 11
117.50239550000003
 21
795.27069099999994
  0
LINE
  8
_0-0_0
  6
CONTINUOUS
 62
    7
 10
117.50239550000003
 20
795.12927300000001
 11
117.50239550000003
 21
794.99997000000008
  0
LINE
  8
_0-0_0
  6
CONTINUOUS
 62
    7
 10
117.50239550000003
 20
809.79998799999998
 11
117.50239550000003
 21
809.20602400000007
  0
LINE
  8
_0-0_0
  6
CONTINUOUS
 62
    7
 10
117.50239550000003
 20
804.19998199999998
 11
117.50239550000003
 21
809.20602400000007
  0
LINE
  8
_0-0_0
  6
CONTINUOUS
 62
    7
 10
117.50239550000003
 20
804.07070899999997
 11
117.50239550000003
 21
804.19998199999998
  0
LINE
  8
_0-0_0
  6
CONTINUOUS
 62
    7
 10
117.50239550000003
 20
803.92929099999992
 11
117.50239550000003
 21
804.07070899999997
  0
LINE
  8
_0-0_0
  6
CONTINUOUS
 62
    7
 10
117.50239550000003
 20
803.92929099999992
 11
117.50239550000003
 21
803.79998799999998
  0
LINE
  8
_0-0_0
  6
CONTINUOUS
 62
    7
 10
117.50239550000003
 20
803.09997599999997
 11
117.50239550000003
 21
803.79998799999998
  0
LINE
  8
_0-0_0
  6
CONTINUOUS
 62
    7
 10
117.50239550000003
 20
802.97070299999996
 11
117.50239550000003
 21
803.09997599999997
  0
LINE
  8
_0-0_0
  6
CONTINUOUS
 62
    7
 10
117.50239550000003
 20
802.82928500000003
 11
117.50239550000003
 21
802.97070299999996
  0
LINE
  8
_0-0_0
  6
CONTINUOUS
 62
    7
 10
117.50239550000003
 20
802.82928500000003
 11
117.50239550000003
 21
802.69998199999998
  0
LINE
  8
_0-0_0
  6
CONTINUOUS
 62
    7
 10
117.50239550000003
 20
801.99997000000008
 11
117.50239550000003
 21
802.69998199999998
  0
LINE
  8
_0-0_0
  6
CONTINUOUS
 62
    7
 10
117.50239550000003
 20
801.87069700000006
 11
117.50239550000003
 21
801.99997000000008
  0
LINE
  8
_0-0_0
  6
CONTINUOUS
 62
    7
 10
117.50239550000003
 20
801.72927900000002
 11
117.50239550000003
 21
801.87069700000006
  0
LINE
  8
_0-0_0
  6
CONTINUOUS
 62
    7
 10
117.50239550000003
 20
801.72927900000002
 11
117.50239550000003
 21
801.59997599999997
  0
LINE
  8
_0-0_0
  6
CONTINUOUS
 62
    7
 10
117.50239550000003
 20
800.89999399999999
 11
117.50239550000003
 21
801.59997599999997
  0
LINE
  8
_0-0_0
  6
CONTINUOUS
 62
    7
 10
117.50239550000003
 20
800.77069099999994
 11
117.50239550000003
 21
800.89999399999999
  0
LINE
  8
_0-0_0
  6
CONTINUOUS
 62
    7
 10
117.50239550000003
 20
800.62927300000001
 11
117.50239550000003
 21
800.77069099999994
  0
LINE
  8
_0-0_0
  6
CONTINUOUS
 62
    7
 10
117.50239550000003
 20
800.62927300000001
 11
117.50239550000003
 21
800.49997000000008
  0
LINE
  8
_0-0_0
  6
CONTINUOUS
 62
    7
 10
117.50239550000003
 20
799.79998799999998
 11
117.50239550000003
 21
800.49997000000008
  0
LINE
  8
_0-0_0
  6
CONTINUOUS
 62
    7
 10
117.50239550000003
 20
799.67068500000005
 11
117.50239550000003
 21
799.79998799999998
  0
LINE
  8
_0-0_0
  6
CONTINUOUS
 62
    7
 10
117.50239550000003
 20
799.52926600000001
 11
117.50239550000003
 21
799.67068500000005
  0
LINE
  8
_0-0_0
  6
CONTINUOUS
 62
    7
 10
117.50239550000003
 20
799.52926600000001
 11
117.50239550000003
 21
799.39999399999999
  0
LINE
  8
_0-0_0
  6
CONTINUOUS
 62
    7
 10
117.50239550000003
 20
798.69998199999998
 11
117.50239550000003
 21
799.39999399999999
  0
LINE
  8
_0-0_0
  6
CONTINUOUS
 62
    7
 10
117.50239550000003
 20
798.57070899999997
 11
117.50239550000003
 21
798.69998199999998
  0
LINE
  8
_0-0_0
  6
CONTINUOUS
 62
    7
 10
117.50239550000003
 20
798.42929099999992
 11
117.50239550000003
 21
798.57070899999997
  0
LINE
  8
_0-0_0
  6
CONTINUOUS
 62
    7
 10
117.50239550000003
 20
798.42929099999992
 11
117.50239550000003
 21
798.29998799999998
  0
LINE
  8
_0-0_0
  6
CONTINUOUS
 62
    7
 10
117.50239550000003
 20
797.59997599999997
 11
117.50239550000003
 21
798.29998799999998
  0
LINE
  8
_0-0_0
  6
CONTINUOUS
 62
    7
 10
117.50239550000003
 20
797.47070299999996
 11
117.50239550000003
 21
797.59997599999997
  0
LINE
  8
_0-0_0
  6
CONTINUOUS
 62
    7
 10
117.50239550000003
 20
797.32928500000003
 11
117.50239550000003
 21
797.47070299999996
  0
LINE
  8
_0-0_0
  6
CONTINUOUS
 62
    7
 10
117.50239550000003
 20
797.32928500000003
 11
117.50239550000003
 21
797.19998199999998
  0
LINE
  8
_0-0_0
  6
CONTINUOUS
 62
    7
 10
117.50239550000003
 20
796.49997000000008
 11
117.50239550000003
 21
797.19998199999998
  0
LINE
  8
_0-0_0
  6
CONTINUOUS
 62
    7
 10
117.50239550000003
 20
796.37069700000006
 11
117.50239550000003
 21
796.49997000000008
  0
LINE
  8
_0-0_0
  6
CONTINUOUS
 62
    7
 10
117.50239550000003
 20
796.22927900000002
 11
117.50239550000003
 21
796.37069700000006
  0
LINE
  8
_0-0_0
  6
CONTINUOUS
 62
    7
 10
117.50239550000003
 20
796.22927900000002
 11
117.50239550000003
 21
796.09997599999997
  0
LINE
  8
_0-0_0
  6
CONTINUOUS
 62
    7
 10
117.50239550000003
 20
795.39999399999999
 11
117.50239550000003
 21
796.09997599999997
  0
LINE
  8
_0-0_0
  6
CONTINUOUS
 62
    7
 10
117.50239550000003
 20
795.27069099999994
 11
117.50239550000003
 21
795.39999399999999
  0
LINE
  8
_0-0_0
  6
CONTINUOUS
 62
    7
 10
119.95716849999997
 20
794.99997000000008
 11
119.86819450000007
 21
795.12927300000001
  0
LINE
  8
_0-0_0
  6
CONTINUOUS
 62
    7
 10
133.22974750000003
 20
795.27069099999994
 11
133.13660849999997
 21
795.12927300000001
  0
LINE
  8
_0-0_0
  6
CONTINUOUS
 62
    7
 10
133.22974750000003
 20
795.27069099999994
 11
133.31121450000001
 21
795.39999399999999
  0
ARC
  8
_0-0_0
  6
CONTINUOUS
 62
    7
 10
126.50239550000003
 20
799.59997599999997
 40
8
 50
328.33175599999993
 51
334.05550899999992
  0
LINE
  8
_0-0_0
  6
CONTINUOUS
 62
    7
 10
133.69614450000006
 20
796.09997599999997
 11
133.79005849999999
 21
796.29998799999998
  0
LINE
  8
_0-0_0
  6
CONTINUOUS
 62
    7
 10
133.79005849999999
 20
796.29998799999998
 11
133.87735350000003
 21
796.49997000000008
  0
ARC
  8
_0-0_0
  6
CONTINUOUS
 62
    7
 10
126.50239550000003
 20
799.59997599999997
 40
8
 50
337.20097500000003
 51
342.54240199999998
  0
LINE
  8
_0-0_0
  6
CONTINUOUS
 62
    7
 10
134.13391150000007
 20
797.19998199999998
 11
134.19395050000003
 21
797.39999399999999
  0
LINE
  8
_0-0_0
  6
CONTINUOUS
 62
    7
 10
134.19395050000003
 20
797.39999399999999
 11
134.24836349999998
 21
797.59997599999997
  0
ARC
  8
_0-0_0
  6
CONTINUOUS
 62
    7
 10
126.50239550000003
 20
799.59997599999997
 40
8
 50
345.52249499999999
 51
350.64797900000002
  0
LINE
  8
_0-0_0
  6
CONTINUOUS
 62
    7
 10
134.39606449999997
 20
798.29998799999998
 11
134.42641049999997
 21
798.49997000000008
  0
LINE
  8
_0-0_0
  6
CONTINUOUS
 62
    7
 10
134.42641049999997
 20
798.49997000000008
 11
134.45161050000002
 21
798.69998199999998
  0
ARC
  8
_0-0_0
  6
CONTINUOUS
 62
    7
 10
126.50239550000003
 20
799.59997599999997
 40
8
 50
353.54056400000002
 51
358.56744600000002
  0
LINE
  8
_0-0_0
  6
CONTINUOUS
 62
    7
 10
134.49989649999998
 20
799.39999399999999
 11
134.50239550000003
 21
799.59997599999997
  0
LINE
  8
_0-0_0
  6
CONTINUOUS
 62
    7
 10
118.50271650000002
 20
799.52926600000001
 11
118.50239550000003
 21
799.59997599999997
  0
LINE
  8
_0-0_0
  6
CONTINUOUS
 62
    7
 10
118.50489849999997
 20
799.39999399999999
 11
118.50271650000002
 21
799.52926600000001
  0
ARC
  8
_0-0_0
  6
CONTINUOUS
 62
    7
 10
126.50239550000003
 20
799.59997599999997
 40
8
 50
181.432545
 51
186.45945499999999
  0
LINE
  8
_0-0_0
  6
CONTINUOUS
 62
    7
 10
118.56889350000006
 20
798.57070899999997
 11
118.55317650000006
 21
798.69998199999998
  0
LINE
  8
_0-0_0
  6
CONTINUOUS
 62
    7
 10
118.56889350000006
 20
798.57070899999997
 11
118.58851649999997
 21
798.42929099999992
  0
LINE
  8
_0-0_0
  6
CONTINUOUS
 62
    7
 10
118.60873449999997
 20
798.29998799999998
 11
118.58851649999997
 21
798.42929099999992
  0
ARC
  8
_0-0_0
  6
CONTINUOUS
 62
    7
 10
126.50239550000003
 20
799.59997599999997
 40
8
 50
189.35203999999999
 51
194.47751
  0
LINE
  8
_0-0_0
  6
CONTINUOUS
 62
    7
 10
118.79096949999996
 20
797.47070299999996
 11
118.75642349999998
 21
797.59997599999997
  0
LINE
  8
_0-0_0
  6
CONTINUOUS
 62
    7
 10
118.79096949999996
 20
797.47070299999996
 11
118.83142050000004
 21
797.32928500000003
  0
LINE
  8
_0-0_0
  6
CONTINUOUS
 62
    7
 10
118.8708805
 20
797.19998199999998
 11
118.83142050000004
 21
797.32928500000003
  0
ARC
  8
_0-0_0
  6
CONTINUOUS
 62
    7
 10
126.50239550000003
 20
799.59997599999997
 40
8
 50
197.45760300000001
 51
202.79902999999999
  0
LINE
  8
_0-0_0
  6
CONTINUOUS
 62
    7
 10
119.18313550000005
 20
796.37069700000006
 11
119.12744150000003
 21
796.49997000000008
  0
LINE
  8
_0-0_0
  6
CONTINUOUS
 62
    7
 10
119.18313550000005
 20
796.37069700000006
 11
119.24717750000002
 21
796.22927900000002
  0
LINE
  8
_0-0_0
  6
CONTINUOUS
 62
    7
 10
119.30865449999999
 20
796.09997599999997
 11
119.24717750000002
 21
796.22927900000002
  0
ARC
  8
_0-0_0
  6
CONTINUOUS
 62
    7
 10
126.50239550000003
 20
799.59997599999997
 40
8
 50
205.94448199999999
 51
211.66823500000001
  0
LINE
  8
_0-0_0
  6
CONTINUOUS
 62
    7
 10
119.77503950000005
 20
795.27069099999994
 11
119.69357249999996
 21
795.39999399999999
  0
LINE
  8
_0-0_0
  6
CONTINUOUS
 62
    7
 10
119.77503950000005
 20
795.27069099999994
 11
119.86819450000007
 21
795.12927300000001
  0
LINE
  8
_0-0_0
  6
CONTINUOUS
 62
    7
 10
1408.0025025
 20
787.29998799999998
 11
1415.0025025
 21
787.29998799999998
  0
ARC
  8
_0-0_0
  6
CONTINUOUS
 62
    7
 10
1408.0025025
 20
786.79998799999998
 40
0.5
 50
90.000003000000007
 51
180.00000900000001
  0
LINE
  8
_0-0_0
  6
CONTINUOUS
 62
    7
 10
1407.5025025
 20
786.79998799999998
 11
1407.5025025
 21
782.79998799999998
  0
ARC
  8
_0-0_0
  6
CONTINUOUS
 62
    7
 10
1408.0025025
 20
782.79998799999998
 40
0.5
 50
180.00000900000003
 51
269.99999700000001
  0
LINE
  8
_0-0_0
  6
CONTINUOUS
 62
    7
 10
1415.0025025
 20
782.29998799999998
 11
1408.0025025
 21
782.29998799999998
  0
ARC
  8
_0-0_0
  6
CONTINUOUS
 62
    7
 10
1415.0025025
 20
782.79998799999998
 40
0.5
 50
269.99999700000001
 51
0
  0
LINE
  8
_0-0_0
  6
CONTINUOUS
 62
    7
 10
1415.5025025
 20
782.79998799999998
 11
1415.5025025
 21
786.79998799999998
  0
ARC
  8
_0-0_0
  6
CONTINUOUS
 62
    7
 10
1415.0025025
 20
786.79998799999998
 40
0.5
 50
0
 51
90.000003000000007
  0
ARC
  8
_0-0_0
  6
CONTINUOUS
 62
    7
 10
168.00239150000004
 20
786.79998799999998
 40
0.5
 50
90.000003000000007
 51
180.00000900000001
  0
LINE
  8
_0-0_0
  6
CONTINUOUS
 62
    7
 10
167.50239150000004
 20
786.79998799999998
 11
167.50239150000004
 21
782.79998799999998
  0
ARC
  8
_0-0_0
  6
CONTINUOUS
 62
    7
 10
168.00239150000004
 20
782.79998799999998
 40
0.5
 50
180.00000900000003
 51
269.99999700000001
  0
LINE
  8
_0-0_0
  6
CONTINUOUS
 62
    7
 10
175.00239150000004
 20
782.29998799999998
 11
168.00239150000004
 21
782.29998799999998
  0
ARC
  8
_0-0_0
  6
CONTINUOUS
 62
    7
 10
175.00239150000004
 20
782.79998799999998
 40
0.5
 50
269.99999700000001
 51
0
  0
LINE
  8
_0-0_0
  6
CONTINUOUS
 62
    7
 10
175.50239150000004
 20
782.79998799999998
 11
175.50239150000004
 21
786.79998799999998
  0
ARC
  8
_0-0_0
  6
CONTINUOUS
 62
    7
 10
175.00239150000004
 20
786.79998799999998
 40
0.5
 50
0
 51
90.000003000000007
  0
LINE
  8
_0-0_0
  6
CONTINUOUS
 62
    7
 10
168.00239150000004
 20
787.29998799999998
 11
175.00239150000004
 21
787.29998799999998
  0
LINE
  8
_0-0_0
  6
CONTINUOUS
 62
    7
 10
133.31121450000001
 20
795.39999399999999
 11
1474.6936645000001
 21
795.39999399999999
  0
LINE
  8
_0-0_0
  6
CONTINUOUS
 62
    7
 10
133.69614450000006
 20
796.09997599999997
 11
1474.3087765
 21
796.09997599999997
  0
LINE
  8
_0-0_0
  6
CONTINUOUS
 62
    7
 10
133.79005849999999
 20
796.29998799999998
 11
1474.2147825
 21
796.29998799999998
  0
LINE
  8
_0-0_0
  6
CONTINUOUS
 62
    7
 10
133.87735350000003
 20
796.49997000000008
 11
1474.1275025
 21
796.49997000000008
  0
LINE
  8
_0-0_0
  6
CONTINUOUS
 62
    7
 10
134.13391150000007
 20
797.19998199999998
 11
1473.8710325
 21
797.19998199999998
  0
LINE
  8
_0-0_0
  6
CONTINUOUS
 62
    7
 10
134.19395050000003
 20
797.39999399999999
 11
1473.8109744999999
 21
797.39999399999999
  0
LINE
  8
_0-0_0
  6
CONTINUOUS
 62
    7
 10
134.24836349999998
 20
797.59997599999997
 11
1473.7565305000001
 21
797.59997599999997
  0
LINE
  8
_0-0_0
  6
CONTINUOUS
 62
    7
 10
134.39606449999997
 20
798.29998799999998
 11
1473.6088255
 21
798.29998799999998
  0
LINE
  8
_0-0_0
  6
CONTINUOUS
 62
    7
 10
134.42641049999997
 20
798.49997000000008
 11
1473.5784305
 21
798.49997000000008
  0
LINE
  8
_0-0_0
  6
CONTINUOUS
 62
    7
 10
134.45161050000002
 20
798.69998199999998
 11
1473.5532834999999
 21
798.69998199999998
  0
LINE
  8
_0-0_0
  6
CONTINUOUS
 62
    7
 10
134.49989649999998
 20
799.39999399999999
 11
1473.5049435000001
 21
799.39999399999999
  0
LINE
  8
_0-0_0
  6
CONTINUOUS
 62
    7
 10
134.50239550000003
 20
799.59997599999997
 11
1473.5025025
 21
799.59997599999997
  0
LINE
  8
_0-0_0
  6
CONTINUOUS
 62
    7
 10
1488.0477905
 20
804.19998199999998
 11
1488.1366575
 21
804.07070899999997
  0
ARC
  8
_0-0_0
  6
CONTINUOUS
 62
    7
 10
1481.5025025
 20
799.59997599999997
 40
8
 50
35.099632
 51
144.900373
  0
LINE
  8
_0-0_0
  6
CONTINUOUS
 62
    7
 10
1474.9572145
 20
804.19998199999998
 11
1474.8683475
 21
804.07070899999997
  0
LINE
  8
_0-0_0
  6
CONTINUOUS
 62
    7
 10
1474.7752075000001
 20
803.92929099999992
 11
1474.8683475
 21
804.07070899999997
  0
LINE
  8
_0-0_0
  6
CONTINUOUS
 62
    7
 10
1474.7752075000001
 20
803.92929099999992
 11
1474.6936645000001
 21
803.79998799999998
  0
ARC
  8
_0-0_0
  6
CONTINUOUS
 62
    7
 10
1481.5025025
 20
799.59997599999997
 40
8
 50
148.33176499999999
 51
154.05551800000001
  0
LINE
  8
_0-0_0
  6
CONTINUOUS
 62
    7
 10
1474.3087765
 20
803.09997599999997
 11
1474.2147825
 21
802.89999399999999
  0
LINE
  8
_0-0_0
  6
CONTINUOUS
 62
    7
 10
1474.2147825
 20
802.89999399999999
 11
1474.1275025
 21
802.69998199999998
  0
ARC
  8
_0-0_0
  6
CONTINUOUS
 62
    7
 10
1481.5025025
 20
799.59997599999997
 40
8
 50
157.20097000000001
 51
162.54239699999999
  0
LINE
  8
_0-0_0
  6
CONTINUOUS
 62
    7
 10
1473.8710325
 20
801.99997000000008
 11
1473.8109744999999
 21
801.79998799999998
  0
LINE
  8
_0-0_0
  6
CONTINUOUS
 62
    7
 10
1473.8109744999999
 20
801.79998799999998
 11
1473.7565305000001
 21
801.59997599999997
  0
ARC
  8
_0-0_0
  6
CONTINUOUS
 62
    7
 10
1481.5025025
 20
799.59997599999997
 40
8
 50
165.52249
 51
170.64796000000001
  0
LINE
  8
_0-0_0
  6
CONTINUOUS
 62
    7
 10
1473.6088255
 20
800.89999399999999
 11
1473.5784305
 21
800.69998199999998
  0
LINE
  8
_0-0_0
  6
CONTINUOUS
 62
    7
 10
1473.5784305
 20
800.69998199999998
 11
1473.5532834999999
 21
800.49997000000008
  0
ARC
  8
_0-0_0
  6
CONTINUOUS
 62
    7
 10
1481.5025025
 20
799.59997599999997
 40
8
 50
173.54054500000001
 51
178.567455
  0
LINE
  8
_0-0_0
  6
CONTINUOUS
 62
    7
 10
1473.5049435000001
 20
799.79998799999998
 11
1473.5025025
 21
799.59997599999997
  0
LINE
  8
_0-0_0
  6
CONTINUOUS
 62
    7
 10
1489.5000605
 20
799.79998799999998
 11
1489.5025025
 21
799.59997599999997
  0
ARC
  8
_0-0_0
  6
CONTINUOUS
 62
    7
 10
1481.5025025
 20
799.59997599999997
 40
8
 50
1.432544
 51
6.4594489999999993
  0
LINE
  8
_0-0_0
  6
CONTINUOUS
 62
    7
 10
1489.4265745
 20
800.69998199999998
 11
1489.4517215000001
 21
800.49997000000008
  0
LINE
  8
_0-0_0
  6
CONTINUOUS
 62
    7
 10
1489.3961795
 20
800.89999399999999
 11
1489.4265745
 21
800.69998199999998
  0
ARC
  8
_0-0_0
  6
CONTINUOUS
 62
    7
 10
1481.5025025
 20
799.59997599999997
 40
8
 50
9.3520350000000008
 51
14.477510999999998
  0
LINE
  8
_0-0_0
  6
CONTINUOUS
 62
    7
 10
1489.1940305000001
 20
801.79998799999998
 11
1489.2484744999999
 21
801.59997599999997
  0
LINE
  8
_0-0_0
  6
CONTINUOUS
 62
    7
 10
1489.1339725
 20
801.99997000000008
 11
1489.1940305000001
 21
801.79998799999998
  0
ARC
  8
_0-0_0
  6
CONTINUOUS
 62
    7
 10
1481.5025025
 20
799.59997599999997
 40
8
 50
17.457602999999999
 51
22.799030999999999
  0
LINE
  8
_0-0_0
  6
CONTINUOUS
 62
    7
 10
1488.7902225
 20
802.89999399999999
 11
1488.8775025
 21
802.69998199999998
  0
LINE
  8
_0-0_0
  6
CONTINUOUS
 62
    7
 10
1488.6962275000001
 20
803.09997599999997
 11
1488.7902225
 21
802.89999399999999
  0
ARC
  8
_0-0_0
  6
CONTINUOUS
 62
    7
 10
1481.5025025
 20
799.59997599999997
 40
8
 50
25.944476999999999
 51
31.668240000000001
  0
LINE
  8
_0-0_0
  6
CONTINUOUS
 62
    7
 10
1488.2297974999999
 20
803.92929099999992
 11
1488.3113404999999
 21
803.79998799999998
  0
LINE
  8
_0-0_0
  6
CONTINUOUS
 62
    7
 10
1488.2297974999999
 20
803.92929099999992
 11
1488.1366575
 21
804.07070899999997
  0
CIRCLE
  8
_0-0_0
  6
CONTINUOUS
 62
    7
 10
1481.5025025
 20
799.59997599999997
 40
7.5
  0
LINE
  8
_0-0_0
  6
CONTINUOUS
 62
    7
 10
1489.5000605
 20
799.39999399999999
 11
1490.5025025
 21
799.39999399999999
  0
LINE
  8
_0-0_0
  6
CONTINUOUS
 62
    7
 10
1489.5025025
 20
799.59997599999997
 11
1490.5025025
 21
799.59997599999997
  0
LINE
  8
_0-0_0
  6
CONTINUOUS
 62
    7
 10
1489.4517215000001
 20
798.69998199999998
 11
1490.5025025
 21
798.69998199999998
  0
LINE
  8
_0-0_0
  6
CONTINUOUS
 62
    7
 10
1489.4265745
 20
798.49997000000008
 11
1490.5025025
 21
798.49997000000008
  0
LINE
  8
_0-0_0
  6
CONTINUOUS
 62
    7
 10
1489.3961795
 20
798.29998799999998
 11
1490.5025025
 21
798.29998799999998
  0
LINE
  8
_0-0_0
  6
CONTINUOUS
 62
    7
 10
1489.2484744999999
 20
797.59997599999997
 11
1490.5025025
 21
797.59997599999997
  0
LINE
  8
_0-0_0
  6
CONTINUOUS
 62
    7
 10
1489.1940305000001
 20
797.39999399999999
 11
1490.5025025
 21
797.39999399999999
  0
LINE
  8
_0-0_0
  6
CONTINUOUS
 62
    7
 10
1489.1339725
 20
797.19998199999998
 11
1490.5025025
 21
797.19998199999998
  0
LINE
  8
_0-0_0
  6
CONTINUOUS
 62
    7
 10
1488.8775025
 20
796.49997000000008
 11
1490.5025025
 21
796.49997000000008
  0
LINE
  8
_0-0_0
  6
CONTINUOUS
 62
    7
 10
1488.7902225
 20
796.29998799999998
 11
1490.5025025
 21
796.29998799999998
  0
LINE
  8
_0-0_0
  6
CONTINUOUS
 62
    7
 10
1488.6962275000001
 20
796.09997599999997
 11
1490.5025025
 21
796.09997599999997
  0
LINE
  8
_0-0_0
  6
CONTINUOUS
 62
    7
 10
1488.3113404999999
 20
795.39999399999999
 11
1490.5025025
 21
795.39999399999999
  0
LINE
  8
_0-0_0
  6
CONTINUOUS
 62
    7
 10
1488.3113404999999
 20
803.79998799999998
 11
1490.5025025
 21
803.79998799999998
  0
LINE
  8
_0-0_0
  6
CONTINUOUS
 62
    7
 10
1488.6962275000001
 20
803.09997599999997
 11
1490.5025025
 21
803.09997599999997
  0
LINE
  8
_0-0_0
  6
CONTINUOUS
 62
    7
 10
1488.7902225
 20
802.89999399999999
 11
1490.5025025
 21
802.89999399999999
  0
LINE
  8
_0-0_0
  6
CONTINUOUS
 62
    7
 10
1488.8775025
 20
802.69998199999998
 11
1490.5025025
 21
802.69998199999998
  0
LINE
  8
_0-0_0
  6
CONTINUOUS
 62
    7
 10
1489.1339725
 20
801.99997000000008
 11
1490.5025025
 21
801.99997000000008
  0
LINE
  8
_0-0_0
  6
CONTINUOUS
 62
    7
 10
1489.1940305000001
 20
801.79998799999998
 11
1490.5025025
 21
801.79998799999998
  0
LINE
  8
_0-0_0
  6
CONTINUOUS
 62
    7
 10
1489.2484744999999
 20
801.59997599999997
 11
1490.5025025
 21
801.59997599999997
  0
LINE
  8
_0-0_0
  6
CONTINUOUS
 62
    7
 10
1489.3961795
 20
800.89999399999999
 11
1490.5025025
 21
800.89999399999999
  0
LINE
  8
_0-0_0
  6
CONTINUOUS
 62
    7
 10
1489.4265745
 20
800.69998199999998
 11
1490.5025025
 21
800.69998199999998
  0
LINE
  8
_0-0_0
  6
CONTINUOUS
 62
    7
 10
1489.4517215000001
 20
800.49997000000008
 11
1490.5025025
 21
800.49997000000008
  0
LINE
  8
_0-0_0
  6
CONTINUOUS
 62
    7
 10
1489.5000605
 20
799.79998799999998
 11
1490.5025025
 21
799.79998799999998
  0
LINE
  8
_0-0_0
  6
CONTINUOUS
 62
    7
 10
1491.0025025
 20
783.09997599999997
 11
1490.5025025
 21
783.09997599999997
  0
LINE
  8
_0-0_0
  6
CONTINUOUS
 62
    7
 10
1491.0025025
 20
785.29998799999998
 11
1490.5025025
 21
785.29998799999998
  0
LINE
  8
_0-0_0
  6
CONTINUOUS
 62
    7
 10
1491.0025025
 20
787.59997599999997
 11
1490.5025025
 21
787.59997599999997
  0
LINE
  8
_0-0_0
  6
CONTINUOUS
 62
    7
 10
117.50239550000003
 20
787.59997599999997
 11
117.00239550000003
 21
787.59997599999997
  0
LINE
  8
_0-0_0
  6
CONTINUOUS
 62
    7
 10
1490.5025025
 20
789.89999399999999
 11
1491.0025025
 21
789.89999399999999
  0
LINE
  8
_0-0_0
  6
CONTINUOUS
 62
    7
 10
1491.0025025
 20
810.09997599999997
 11
1491.0025025
 21
809.99997000000008
  0
LINE
  8
_0-0_0
  6
CONTINUOUS
 62
    7
 10
117.00239550000003
 20
810.09997599999997
 11
117.00239550000003
 21
809.99997000000008
  0
LINE
  8
_0-0_0
  6
CONTINUOUS
 62
    7
 10
117.00239550000003
 20
789.89999399999999
 11
117.50239550000003
 21
789.89999399999999
  0
LINE
  8
_0-0_0
  6
CONTINUOUS
 62
    7
 10
117.50239550000003
 20
809.79998799999998
 11
1490.5025025
 21
809.79998799999998
  0
LINE
  8
_0-0_0
  6
CONTINUOUS
 62
    7
 10
117.50239550000003
 20
809.20602400000007
 11
1490.5025025
 21
809.20602400000007
  0
LINE
  8
_0-0_0
  6
CONTINUOUS
 62
    7
 10
1488.0477905
 20
804.19998199999998
 11
1490.5025025
 21
804.19998199999998
  0
LINE
  8
_0-0_0
  6
CONTINUOUS
 62
    7
 10
117.50239550000003
 20
804.19998199999998
 11
119.95716849999997
 21
804.19998199999998
  0
ARC
  8
_0-0_0
  6
CONTINUOUS
 62
    7
 10
126.50239550000003
 20
799.59997599999997
 40
8
 50
35.099632
 51
144.900373
  0
LINE
  8
_0-0_0
  6
CONTINUOUS
 62
    7
 10
133.04762249999999
 20
804.19998199999998
 11
1474.9572145
 21
804.19998199999998
  0
LINE
  8
_0-0_0
  6
CONTINUOUS
 62
    7
 10
117.00239550000003
 20
783.09997599999997
 11
117.50239550000003
 21
783.09997599999997
  0
LINE
  8
_0-0_0
  6
CONTINUOUS
 62
    7
 10
117.50239550000003
 20
785.29998799999998
 11
117.00239550000003
 21
785.29998799999998
  0
LINE
  8
_0-0_0
  6
CONTINUOUS
 62
    7
 10
119.95716849999997
 20
804.19998199999998
 11
119.86819450000007
 21
804.07070899999997
  0
LINE
  8
_0-0_0
  6
CONTINUOUS
 62
    7
 10
119.77503950000005
 20
803.92929099999992
 11
119.86819450000007
 21
804.07070899999997
  0
LINE
  8
_0-0_0
  6
CONTINUOUS
 62
    7
 10
117.50239550000003
 20
803.79998799999998
 11
119.69357249999996
 21
803.79998799999998
  0
LINE
  8
_0-0_0
  6
CONTINUOUS
 62
    7
 10
119.77503950000005
 20
803.92929099999992
 11
119.69357249999996
 21
803.79998799999998
  0
ARC
  8
_0-0_0
  6
CONTINUOUS
 62
    7
 10
126.50239550000003
 20
799.59997599999997
 40
8
 50
148.33176499999999
 51
154.05551800000001
  0
LINE
  8
_0-0_0
  6
CONTINUOUS
 62
    7
 10
117.50239550000003
 20
803.09997599999997
 11
119.30865449999999
 21
803.09997599999997
  0
LINE
  8
_0-0_0
  6
CONTINUOUS
 62
    7
 10
119.30865449999999
 20
803.09997599999997
 11
119.24717750000002
 21
802.97070299999996
  0
LINE
  8
_0-0_0
  6
CONTINUOUS
 62
    7
 10
119.18313550000005
 20
802.82928500000003
 11
119.24717750000002
 21
802.97070299999996
  0
LINE
  8
_0-0_0
  6
CONTINUOUS
 62
    7
 10
117.50239550000003
 20
802.69998199999998
 11
119.12744150000003
 21
802.69998199999998
  0
LINE
  8
_0-0_0
  6
CONTINUOUS
 62
    7
 10
119.18313550000005
 20
802.82928500000003
 11
119.12744150000003
 21
802.69998199999998
  0
ARC
  8
_0-0_0
  6
CONTINUOUS
 62
    7
 10
126.50239550000003
 20
799.59997599999997
 40
8
 50
157.20097000000001
 51
162.54239699999999
  0
LINE
  8
_0-0_0
  6
CONTINUOUS
 62
    7
 10
117.50239550000003
 20
801.99997000000008
 11
118.8708805
 21
801.99997000000008
  0
LINE
  8
_0-0_0
  6
CONTINUOUS
 62
    7
 10
118.8708805
 20
801.99997000000008
 11
118.83142050000004
 21
801.87069700000006
  0
LINE
  8
_0-0_0
  6
CONTINUOUS
 62
    7
 10
118.79096949999996
 20
801.72927900000002
 11
118.83142050000004
 21
801.87069700000006
  0
LINE
  8
_0-0_0
  6
CONTINUOUS
 62
    7
 10
117.50239550000003
 20
801.59997599999997
 11
118.75642349999998
 21
801.59997599999997
  0
LINE
  8
_0-0_0
  6
CONTINUOUS
 62
    7
 10
118.79096949999996
 20
801.72927900000002
 11
118.75642349999998
 21
801.59997599999997
  0
ARC
  8
_0-0_0
  6
CONTINUOUS
 62
    7
 10
126.50239550000003
 20
799.59997599999997
 40
8
 50
165.52249
 51
170.64796000000001
  0
LINE
  8
_0-0_0
  6
CONTINUOUS
 62
    7
 10
117.50239550000003
 20
800.89999399999999
 11
118.60873449999997
 21
800.89999399999999
  0
LINE
  8
_0-0_0
  6
CONTINUOUS
 62
    7
 10
118.60873449999997
 20
800.89999399999999
 11
118.58851649999997
 21
800.77069099999994
  0
LINE
  8
_0-0_0
  6
CONTINUOUS
 62
    7
 10
118.56889350000006
 20
800.62927300000001
 11
118.58851649999997
 21
800.77069099999994
  0
LINE
  8
_0-0_0
  6
CONTINUOUS
 62
    7
 10
117.50239550000003
 20
800.49997000000008
 11
118.55317650000006
 21
800.49997000000008
  0
LINE
  8
_0-0_0
  6
CONTINUOUS
 62
    7
 10
118.56889350000006
 20
800.62927300000001
 11
118.55317650000006
 21
800.49997000000008
  0
ARC
  8
_0-0_0
  6
CONTINUOUS
 62
    7
 10
126.50239550000003
 20
799.59997599999997
 40
8
 50
173.54054500000001
 51
178.567455
  0
LINE
  8
_0-0_0
  6
CONTINUOUS
 62
    7
 10
117.50239550000003
 20
799.79998799999998
 11
118.50489849999997
 21
799.79998799999998
  0
LINE
  8
_0-0_0
  6
CONTINUOUS
 62
    7
 10
118.50489849999997
 20
799.79998799999998
 11
118.50271650000002
 21
799.67068500000005
  0
LINE
  8
_0-0_0
  6
CONTINUOUS
 62
    7
 10
118.50239550000003
 20
799.59997599999997
 11
118.50271650000002
 21
799.67068500000005
  0
LINE
  8
_0-0_0
  6
CONTINUOUS
 62
    7
 10
117.50239550000003
 20
799.39999399999999
 11
118.50489849999997
 21
799.39999399999999
  0
LINE
  8
_0-0_0
  6
CONTINUOUS
 62
    7
 10
117.50239550000003
 20
798.69998199999998
 11
118.55317650000006
 21
798.69998199999998
  0
LINE
  8
_0-0_0
  6
CONTINUOUS
 62
    7
 10
117.50239550000003
 20
798.29998799999998
 11
118.60873449999997
 21
798.29998799999998
  0
LINE
  8
_0-0_0
  6
CONTINUOUS
 62
    7
 10
117.50239550000003
 20
797.59997599999997
 11
118.75642349999998
 21
797.59997599999997
  0
LINE
  8
_0-0_0
  6
CONTINUOUS
 62
    7
 10
117.50239550000003
 20
797.19998199999998
 11
118.8708805
 21
797.19998199999998
  0
LINE
  8
_0-0_0
  6
CONTINUOUS
 62
    7
 10
117.50239550000003
 20
796.49997000000008
 11
119.12744150000003
 21
796.49997000000008
  0
LINE
  8
_0-0_0
  6
CONTINUOUS
 62
    7
 10
117.50239550000003
 20
796.09997599999997
 11
119.30865449999999
 21
796.09997599999997
  0
LINE
  8
_0-0_0
  6
CONTINUOUS
 62
    7
 10
117.50239550000003
 20
795.39999399999999
 11
119.69357249999996
 21
795.39999399999999
  0
LINE
  8
_0-0_0
  6
CONTINUOUS
 62
    7
 10
134.49989649999998
 20
799.79998799999998
 11
134.50239550000003
 21
799.59997599999997
  0
ARC
  8
_0-0_0
  6
CONTINUOUS
 62
    7
 10
126.50239550000003
 20
799.59997599999997
 40
8
 50
1.432544
 51
6.4594489999999993
  0
LINE
  8
_0-0_0
  6
CONTINUOUS
 62
    7
 10
134.42641049999997
 20
800.69998199999998
 11
134.45161050000002
 21
800.49997000000008
  0
LINE
  8
_0-0_0
  6
CONTINUOUS
 62
    7
 10
134.39606449999997
 20
800.89999399999999
 11
134.42641049999997
 21
800.69998199999998
  0
ARC
  8
_0-0_0
  6
CONTINUOUS
 62
    7
 10
126.50239550000003
 20
799.59997599999997
 40
8
 50
9.3520350000000008
 51
14.477510999999998
  0
LINE
  8
_0-0_0
  6
CONTINUOUS
 62
    7
 10
134.19395050000003
 20
801.79998799999998
 11
134.24836349999998
 21
801.59997599999997
  0
LINE
  8
_0-0_0
  6
CONTINUOUS
 62
    7
 10
134.13391150000007
 20
801.99997000000008
 11
134.19395050000003
 21
801.79998799999998
  0
ARC
  8
_0-0_0
  6
CONTINUOUS
 62
    7
 10
126.50239550000003
 20
799.59997599999997
 40
8
 50
17.457602999999999
 51
22.799030999999999
  0
LINE
  8
_0-0_0
  6
CONTINUOUS
 62
    7
 10
133.79005849999999
 20
802.89999399999999
 11
133.87735350000003
 21
802.69998199999998
  0
LINE
  8
_0-0_0
  6
CONTINUOUS
 62
    7
 10
133.69614450000006
 20
803.09997599999997
 11
133.79005849999999
 21
802.89999399999999
  0
ARC
  8
_0-0_0
  6
CONTINUOUS
 62
    7
 10
126.50239550000003
 20
799.59997599999997
 40
8
 50
25.944476999999999
 51
31.668240000000001
  0
LINE
  8
_0-0_0
  6
CONTINUOUS
 62
    7
 10
133.22974750000003
 20
803.92929099999992
 11
133.31121450000001
 21
803.79998799999998
  0
LINE
  8
_0-0_0
  6
CONTINUOUS
 62
    7
 10
133.22974750000003
 20
803.92929099999992
 11
133.13660849999997
 21
804.07070899999997
  0
LINE
  8
_0-0_0
  6
CONTINUOUS
 62
    7
 10
133.04762249999999
 20
804.19998199999998
 11
133.13660849999997
 21
804.07070899999997
  0
CIRCLE
  8
_0-0_0
  6
CONTINUOUS
 62
    7
 10
126.50239550000003
 20
799.59997599999997
 40
7.5
  0
LINE
  8
_0-0_0
  6
CONTINUOUS
 62
    7
 10
134.49989649999998
 20
799.79998799999998
 11
1473.5049435000001
 21
799.79998799999998
  0
LINE
  8
_0-0_0
  6
CONTINUOUS
 62
    7
 10
134.45161050000002
 20
800.49997000000008
 11
1473.5532834999999
 21
800.49997000000008
  0
LINE
  8
_0-0_0
  6
CONTINUOUS
 62
    7
 10
134.42641049999997
 20
800.69998199999998
 11
1473.5784305
 21
800.69998199999998
  0
LINE
  8
_0-0_0
  6
CONTINUOUS
 62
    7
 10
134.39606449999997
 20
800.89999399999999
 11
1473.6088255
 21
800.89999399999999
  0
LINE
  8
_0-0_0
  6
CONTINUOUS
 62
    7
 10
134.24836349999998
 20
801.59997599999997
 11
1473.7565305000001
 21
801.59997599999997
  0
LINE
  8
_0-0_0
  6
CONTINUOUS
 62
    7
 10
134.19395050000003
 20
801.79998799999998
 11
1473.8109744999999
 21
801.79998799999998
  0
LINE
  8
_0-0_0
  6
CONTINUOUS
 62
    7
 10
134.13391150000007
 20
801.99997000000008
 11
1473.8710325
 21
801.99997000000008
  0
LINE
  8
_0-0_0
  6
CONTINUOUS
 62
    7
 10
133.87735350000003
 20
802.69998199999998
 11
1474.1275025
 21
802.69998199999998
  0
LINE
  8
_0-0_0
  6
CONTINUOUS
 62
    7
 10
133.79005849999999
 20
802.89999399999999
 11
1474.2147825
 21
802.89999399999999
  0
LINE
  8
_0-0_0
  6
CONTINUOUS
 62
    7
 10
133.69614450000006
 20
803.09997599999997
 11
1474.3087765
 21
803.09997599999997
  0
LINE
  8
_0-0_0
  6
CONTINUOUS
 62
    7
 10
133.31121450000001
 20
803.79998799999998
 11
1474.6936645000001
 21
803.79998799999998
  0
LINE
  8
_0-0_0
  6
CONTINUOUS
 62
    7
 10
1491.0025025
 20
781.59997599999997
 11
1490.5025025
 21
781.59997599999997
  0
LINE
  8
_0-0_0
  6
CONTINUOUS
 62
    7
 10
1491.0025025
 20
809.19998199999998
 11
1491.0025025
 21
809.99997000000008
  0
LINE
  8
_0-0_0
  6
CONTINUOUS
 62
    7
 10
1491.0025025
 20
781.39999399999999
 11
1491.0025025
 21
809.19998199999998
  0
ARC
  8
_0-0_0
  6
CONTINUOUS
 62
    7
 10
1481.5025025
 20
800.29998799999998
 40
12.800000000000001
 50
73.932597000000001
 51
106.06740099999999
  0
LINE
  8
_0-0_0
  6
CONTINUOUS
 62
    7
 10
117.00239550000003
 20
809.19998199999998
 11
117.00239550000003
 21
809.99997000000008
  0
LINE
  8
_0-0_0
  6
CONTINUOUS
 62
    7
 10
117.00239550000003
 20
781.39999399999999
 11
117.00239550000003
 21
809.19998199999998
  0
ARC
  8
_0-0_0
  6
CONTINUOUS
 62
    7
 10
126.50239550000003
 20
800.29998799999998
 40
12.800000000000001
 50
73.932597000000001
 51
106.06740099999999
  0
LINE
  8
_0-0_0
  6
CONTINUOUS
 62
    7
 10
794.50238049999996
 20
812.59997599999997
 11
794.50238049999996
 21
818.23989899999992
  0
LINE
  8
_0-0_0
  6
CONTINUOUS
 62
    7
 10
813.50238049999996
 20
818.23989899999992
 11
813.50238049999996
 21
812.59997599999997
  0
LINE
  8
_0-0_0
  6
CONTINUOUS
 62
    7
 10
1491.0025025
 20
810.09997599999997
 11
1491.0025025
 21
812.59997599999997
  0
LINE
  8
_0-0_0
  6
CONTINUOUS
 62
    7
 10
117.00239550000003
 20
812.59997599999997
 11
1491.0025025
 21
812.59997599999997
  0
LINE
  8
_0-0_0
  6
CONTINUOUS
 62
    7
 10
117.00239550000003
 20
810.09997599999997
 11
117.00239550000003
 21
812.59997599999997
  0
LINE
  8
_0-0_0
  6
CONTINUOUS
 62
    7
 10
117.00239550000003
 20
781.59997599999997
 11
117.50239550000003
 21
781.59997599999997
  0
ARC
  8
_0-0_0
  6
CONTINUOUS
 62
    7
 10
1412.8025514999999
 20
786.49997000000008
 40
0.2
 50
339.62356199999999
 51
90.000002999999978
  0
LINE
  8
_0-0_0
  6
CONTINUOUS
 62
    7
 10
1412.9899295
 20
786.43035899999995
 11
1411.6900025
 21
782.93035899999995
  0
ARC
  8
_0-0_0
  6
CONTINUOUS
 62
    7
 10
1411.5025025
 20
782.99997000000008
 40
0.2
 50
200.37643
 51
339.62356199999999
  0
LINE
  8
_0-0_0
  6
CONTINUOUS
 62
    7
 10
1410.0150755
 20
786.43035899999995
 11
1411.3150025
 21
782.93035899999995
  0
ARC
  8
_0-0_0
  6
CONTINUOUS
 62
    7
 10
1410.2024535
 20
786.49997000000008
 40
0.2
 50
90.000003000000007
 51
200.37643
  0
LINE
  8
_0-0_0
  6
CONTINUOUS
 62
    7
 10
1410.2024535
 20
786.69998199999998
 11
1412.8025514999999
 21
786.69998199999998
  0
ARC
  8
_0-0_0
  6
CONTINUOUS
 62
    7
 10
172.80239449999999
 20
786.49997000000008
 40
0.2
 50
339.62356199999999
 51
90.000002999999978
  0
LINE
  8
_0-0_0
  6
CONTINUOUS
 62
    7
 10
172.98987950000003
 20
786.43035899999995
 11
171.68987649999997
 21
782.93035899999995
  0
ARC
  8
_0-0_0
  6
CONTINUOUS
 62
    7
 10
171.50239150000004
 20
782.99997000000008
 40
0.2
 50
200.37643
 51
339.62356199999999
  0
LINE
  8
_0-0_0
  6
CONTINUOUS
 62
    7
 10
170.01491150000004
 20
786.43035899999995
 11
171.3149075
 21
782.93035899999995
  0
ARC
  8
_0-0_0
  6
CONTINUOUS
 62
    7
 10
170.20239649999996
 20
786.49997000000008
 40
0.2
 50
90.000003000000007
 51
200.37643
  0
LINE
  8
_0-0_0
  6
CONTINUOUS
 62
    7
 10
170.20239649999996
 20
786.69998199999998
 11
172.80239449999999
 21
786.69998199999998
  0
LINE
  8
_0-0_0
  6
CONTINUOUS
 62
    7
 10
1492.0025025
 20
809.19998199999998
 11
1491.0025025
 21
809.19998199999998
  0
LINE
  8
_0-0_0
  6
CONTINUOUS
 62
    7
 10
1492.0025025
 20
810.23696900000004
 11
1491.0025025
 21
810.23696900000004
  0
LINE
  8
_0-0_0
  6
CONTINUOUS
 62
    7
 10
1492.0025025
 20
781.39999399999999
 11
1491.0025025
 21
781.39999399999999
  0
ARC
  8
_0-0_0
  6
CONTINUOUS
 62
    7
 10
804.00238049999996
 20
800.29998799999998
 40
20.299999
 50
62.096725999999997
 51
117.903272
  0
CIRCLE
  8
_0-0_0
  6
CONTINUOUS
 62
    7
 10
804.00238049999996
 20
816.59997599999997
 40
2.5
  0
LINE
  8
_0-0_0
  6
CONTINUOUS
 62
    7
 10
116.00239550000003
 20
809.19998199999998
 11
117.00239550000003
 21
809.19998199999998
  0
LINE
  8
_0-0_0
  6
CONTINUOUS
 62
    7
 10
116.00239550000003
 20
810.19998199999998
 11
117.00239550000003
 21
810.19998199999998
  0
LINE
  8
_0-0_0
  6
CONTINUOUS
 62
    7
 10
116.00239550000003
 20
781.39999399999999
 11
117.00239550000003
 21
781.39999399999999
  0
LINE
  8
_0-0_0
  6
CONTINUOUS
 62
    7
 10
1492.0025025
 20
812.39999399999999
 11
1491.0025025
 21
812.39999399999999
  0
LINE
  8
_0-0_0
  6
CONTINUOUS
 62
    7
 10
116.00239550000003
 20
812.39999399999999
 11
117.00239550000003
 21
812.39999399999999
  0
LINE
  8
_0-0_0
  6
CONTINUOUS
 62
    7
 10
1493.0025025
 20
808.78576699999996
 11
1493.0015255000001
 21
808.80429099999992
  0
LINE
  8
_0-0_0
  6
CONTINUOUS
 62
    7
 10
1493.0015255000001
 20
808.80429099999992
 11
1492.9984744999999
 21
808.822723
  0
LINE
  8
_0-0_0
  6
CONTINUOUS
 62
    7
 10
1492.9984744999999
 20
808.822723
 11
1492.9932255000001
 21
808.841858
  0
LINE
  8
_0-0_0
  6
CONTINUOUS
 62
    7
 10
1492.9932255000001
 20
808.841858
 11
1492.9859005000001
 21
808.86086999999998
  0
LINE
  8
_0-0_0
  6
CONTINUOUS
 62
    7
 10
1492.9859005000001
 20
808.86086999999998
 11
1492.9653935000001
 21
808.89758299999994
  0
LINE
  8
_0-0_0
  6
CONTINUOUS
 62
    7
 10
1492.9653935000001
 20
808.89758299999994
 11
1492.9369505
 21
808.93325800000002
  0
LINE
  8
_0-0_0
  6
CONTINUOUS
 62
    7
 10
1492.9369505
 20
808.93325800000002
 11
1492.9010615
 21
808.96756000000005
  0
LINE
  8
_0-0_0
  6
CONTINUOUS
 62
    7
 10
1492.9010615
 20
808.96756000000005
 11
1492.8524775000001
 21
809.00402800000006
  0
LINE
  8
_0-0_0
  6
CONTINUOUS
 62
    7
 10
1492.8524775000001
 20
809.00402800000006
 11
1492.7957154999999
 21
809.03802500000006
  0
LINE
  8
_0-0_0
  6
CONTINUOUS
 62
    7
 10
1492.7957154999999
 20
809.03802500000006
 11
1492.7315065
 21
809.06927500000006
  0
LINE
  8
_0-0_0
  6
CONTINUOUS
 62
    7
 10
1492.7315065
 20
809.06927500000006
 11
1492.6608275000001
 21
809.097534
  0
LINE
  8
_0-0_0
  6
CONTINUOUS
 62
    7
 10
1492.6608275000001
 20
809.097534
 11
1492.6127315000001
 21
809.11389199999996
  0
LINE
  8
_0-0_0
  6
CONTINUOUS
 62
    7
 10
1492.6127315000001
 20
809.11389199999996
 11
1492.5626835
 21
809.12887599999999
  0
LINE
  8
_0-0_0
  6
CONTINUOUS
 62
    7
 10
1492.5626835
 20
809.12887599999999
 11
1492.5059205
 21
809.14364599999999
  0
LINE
  8
_0-0_0
  6
CONTINUOUS
 62
    7
 10
1492.5059205
 20
809.14364599999999
 11
1492.4473264999999
 21
809.15673800000002
  0
LINE
  8
_0-0_0
  6
CONTINUOUS
 62
    7
 10
1492.4473264999999
 20
809.15673800000002
 11
1492.3305055000001
 21
809.17706299999998
  0
LINE
  8
_0-0_0
  6
CONTINUOUS
 62
    7
 10
1492.3305055000001
 20
809.17706299999998
 11
1492.2232054999999
 21
809.18978900000002
  0
LINE
  8
_0-0_0
  6
CONTINUOUS
 62
    7
 10
1492.2232054999999
 20
809.18978900000002
 11
1492.1133425
 21
809.19741799999997
  0
LINE
  8
_0-0_0
  6
CONTINUOUS
 62
    7
 10
1492.1133425
 20
809.19741799999997
 11
1492.0025025
 21
809.19998199999998
  0
LINE
  8
_0-0_0
  6
CONTINUOUS
 62
    7
 10
1493.0025025
 20
808.78576699999996
 11
1493.0025025
 21
809.78582800000004
  0
LINE
  8
_0-0_0
  6
CONTINUOUS
 62
    7
 10
1493.0025025
 20
809.78582800000004
 11
1492.9995725000001
 21
809.81741299999999
  0
LINE
  8
_0-0_0
  6
CONTINUOUS
 62
    7
 10
1492.9995725000001
 20
809.81741299999999
 11
1492.9909055000001
 21
809.84948699999995
  0
LINE
  8
_0-0_0
  6
CONTINUOUS
 62
    7
 10
1492.9909055000001
 20
809.84948699999995
 11
1492.9763795000001
 21
809.88174400000003
  0
LINE
  8
_0-0_0
  6
CONTINUOUS
 62
    7
 10
1492.9763795000001
 20
809.88174400000003
 11
1492.9561154999999
 21
809.91390999999999
  0
LINE
  8
_0-0_0
  6
CONTINUOUS
 62
    7
 10
1492.9561154999999
 20
809.91390999999999
 11
1492.9395145000001
 21
809.93515000000002
  0
LINE
  8
_0-0_0
  6
CONTINUOUS
 62
    7
 10
1492.9395145000001
 20
809.93515000000002
 11
1492.9205935
 21
809.95608500000003
  0
LINE
  8
_0-0_0
  6
CONTINUOUS
 62
    7
 10
1492.9205935
 20
809.95608500000003
 11
1492.8757935000001
 21
809.99688700000002
  0
LINE
  8
_0-0_0
  6
CONTINUOUS
 62
    7
 10
1492.8757935000001
 20
809.99688700000002
 11
1492.8225705
 21
810.03561400000001
  0
LINE
  8
_0-0_0
  6
CONTINUOUS
 62
    7
 10
1492.8225705
 20
810.03561400000001
 11
1492.7726435
 21
810.06582700000001
  0
LINE
  8
_0-0_0
  6
CONTINUOUS
 62
    7
 10
1492.7726435
 20
810.06582700000001
 11
1492.7179564999999
 21
810.09405500000003
  0
LINE
  8
_0-0_0
  6
CONTINUOUS
 62
    7
 10
1492.7179564999999
 20
810.09405500000003
 11
1492.6589965000001
 21
810.12008700000001
  0
LINE
  8
_0-0_0
  6
CONTINUOUS
 62
    7
 10
1492.6589965000001
 20
810.12008700000001
 11
1492.6122435
 21
810.13809199999992
  0
LINE
  8
_0-0_0
  6
CONTINUOUS
 62
    7
 10
1492.6122435
 20
810.13809199999992
 11
1492.5635374999999
 21
810.15469400000006
  0
LINE
  8
_0-0_0
  6
CONTINUOUS
 62
    7
 10
1492.5635374999999
 20
810.15469400000006
 11
1492.4611205000001
 21
810.18356300000005
  0
LINE
  8
_0-0_0
  6
CONTINUOUS
 62
    7
 10
1492.4611205000001
 20
810.18356300000005
 11
1492.3534545
 21
810.20639000000006
  0
LINE
  8
_0-0_0
  6
CONTINUOUS
 62
    7
 10
1492.3534545
 20
810.20639000000006
 11
1492.2417605000001
 21
810.22299199999998
  0
LINE
  8
_0-0_0
  6
CONTINUOUS
 62
    7
 10
1492.2417605000001
 20
810.22299199999998
 11
1492.1277465000001
 21
810.23318500000005
  0
LINE
  8
_0-0_0
  6
CONTINUOUS
 62
    7
 10
1492.1277465000001
 20
810.23318500000005
 11
1492.0025025
 21
810.23696900000004
  0
ARC
  8
_0-0_0
  6
CONTINUOUS
 62
    7
 10
1492.0025025
 20
782.39999399999999
 40
1
 50
269.99999700000001
 51
0
  0
LINE
  8
_0-0_0
  6
CONTINUOUS
 62
    7
 10
1493.0025025
 20
782.39999399999999
 11
1493.0025025
 21
808.78576699999996
  0
LINE
  8
_0-0_0
  6
CONTINUOUS
 62
    7
 10
115.00239550000003
 20
808.78576699999996
 11
115.00340249999999
 21
808.80429099999992
  0
LINE
  8
_0-0_0
  6
CONTINUOUS
 62
    7
 10
115.00340249999999
 20
808.80429099999992
 11
115.00639350000006
 21
808.822723
  0
LINE
  8
_0-0_0
  6
CONTINUOUS
 62
    7
 10
115.00639350000006
 20
808.822723
 11
115.01162750000003
 21
808.841858
  0
LINE
  8
_0-0_0
  6
CONTINUOUS
 62
    7
 10
115.01162750000003
 20
808.841858
 11
115.01901250000003
 21
808.86086999999998
  0
LINE
  8
_0-0_0
  6
CONTINUOUS
 62
    7
 10
115.01901250000003
 20
808.86086999999998
 11
115.03956549999998
 21
808.89758299999994
  0
LINE
  8
_0-0_0
  6
CONTINUOUS
 62
    7
 10
115.03956549999998
 20
808.89758299999994
 11
115.06796250000002
 21
808.93325800000002
  0
LINE
  8
_0-0_0
  6
CONTINUOUS
 62
    7
 10
115.06796250000002
 20
808.93325800000002
 11
115.10383650000006
 21
808.96756000000005
  0
LINE
  8
_0-0_0
  6
CONTINUOUS
 62
    7
 10
115.10383650000006
 20
808.96756000000005
 11
115.15246550000006
 21
809.00402800000006
  0
LINE
  8
_0-0_0
  6
CONTINUOUS
 62
    7
 10
115.15246550000006
 20
809.00402800000006
 11
115.20924349999996
 21
809.03802500000006
  0
LINE
  8
_0-0_0
  6
CONTINUOUS
 62
    7
 10
115.20924349999996
 20
809.03802500000006
 11
115.2733915
 21
809.06927500000006
  0
LINE
  8
_0-0_0
  6
CONTINUOUS
 62
    7
 10
115.2733915
 20
809.06927500000006
 11
115.34403950000001
 21
809.097534
  0
LINE
  8
_0-0_0
  6
CONTINUOUS
 62
    7
 10
115.34403950000001
 20
809.097534
 11
115.39212050000003
 21
809.11389199999996
  0
LINE
  8
_0-0_0
  6
CONTINUOUS
 62
    7
 10
115.39212050000003
 20
809.11389199999996
 11
115.44224550000001
 21
809.12887599999999
  0
LINE
  8
_0-0_0
  6
CONTINUOUS
 62
    7
 10
115.44224550000001
 20
809.12887599999999
 11
115.49894749999999
 21
809.14364599999999
  0
LINE
  8
_0-0_0
  6
CONTINUOUS
 62
    7
 10
115.49894749999999
 20
809.14364599999999
 11
115.55755650000003
 21
809.15673800000002
  0
LINE
  8
_0-0_0
  6
CONTINUOUS
 62
    7
 10
115.55755650000003
 20
809.15673800000002
 11
115.67434649999996
 21
809.17706299999998
  0
LINE
  8
_0-0_0
  6
CONTINUOUS
 62
    7
 10
115.67434649999996
 20
809.17706299999998
 11
115.78175350000004
 21
809.18978900000002
  0
LINE
  8
_0-0_0
  6
CONTINUOUS
 62
    7
 10
115.78175350000004
 20
809.18978900000002
 11
115.89150949999998
 21
809.19741799999997
  0
LINE
  8
_0-0_0
  6
CONTINUOUS
 62
    7
 10
115.89150949999998
 20
809.19741799999997
 11
116.00239550000003
 21
809.19998199999998
  0
LINE
  8
_0-0_0
  6
CONTINUOUS
 62
    7
 10
115.00239550000003
 20
809.75543199999993
 11
115.00529449999999
 21
809.78634699999998
  0
LINE
  8
_0-0_0
  6
CONTINUOUS
 62
    7
 10
115.00529449999999
 20
809.78634699999998
 11
115.01399249999997
 21
809.81777999999997
  0
LINE
  8
_0-0_0
  6
CONTINUOUS
 62
    7
 10
115.01399249999997
 20
809.81777999999997
 11
115.02847250000002
 21
809.84945700000003
  0
LINE
  8
_0-0_0
  6
CONTINUOUS
 62
    7
 10
115.02847250000002
 20
809.84945700000003
 11
115.04862950000006
 21
809.88104299999998
  0
LINE
  8
_0-0_0
  6
CONTINUOUS
 62
    7
 10
115.04862950000006
 20
809.88104299999998
 11
115.06515450000006
 21
809.90191699999991
  0
LINE
  8
_0-0_0
  6
CONTINUOUS
 62
    7
 10
115.06515450000006
 20
809.90191699999991
 11
115.08406049999996
 21
809.92251599999997
  0
LINE
  8
_0-0_0
  6
CONTINUOUS
 62
    7
 10
115.08406049999996
 20
809.92251599999997
 11
115.12870750000002
 21
809.96267699999999
  0
LINE
  8
_0-0_0
  6
CONTINUOUS
 62
    7
 10
115.12870750000002
 20
809.96267699999999
 11
115.18182350000006
 21
810.00088499999993
  0
LINE
  8
_0-0_0
  6
CONTINUOUS
 62
    7
 10
115.18182350000006
 20
810.00088499999993
 11
115.23171950000005
 21
810.03070099999991
  0
LINE
  8
_0-0_0
  6
CONTINUOUS
 62
    7
 10
115.23171950000005
 20
810.03070099999991
 11
115.28639250000003
 21
810.05856300000005
  0
LINE
  8
_0-0_0
  6
CONTINUOUS
 62
    7
 10
115.28639250000003
 20
810.05856300000005
 11
115.34536750000007
 21
810.08431999999993
  0
LINE
  8
_0-0_0
  6
CONTINUOUS
 62
    7
 10
115.34536750000007
 20
810.08431999999993
 11
115.39213549999999
 21
810.102081
  0
LINE
  8
_0-0_0
  6
CONTINUOUS
 62
    7
 10
115.39213549999999
 20
810.102081
 11
115.44084150000003
 21
810.11852999999996
  0
LINE
  8
_0-0_0
  6
CONTINUOUS
 62
    7
 10
115.44084150000003
 20
810.11852999999996
 11
115.54327350000005
 21
810.14709500000004
  0
LINE
  8
_0-0_0
  6
CONTINUOUS
 62
    7
 10
115.54327350000005
 20
810.14709500000004
 11
115.6510925
 21
810.16970800000001
  0
LINE
  8
_0-0_0
  6
CONTINUOUS
 62
    7
 10
115.6510925
 20
810.16970800000001
 11
115.76277149999999
 21
810.18612699999994
  0
LINE
  8
_0-0_0
  6
CONTINUOUS
 62
    7
 10
115.76277149999999
 20
810.18612699999994
 11
115.87693750000005
 21
810.19622800000002
  0
LINE
  8
_0-0_0
  6
CONTINUOUS
 62
    7
 10
115.87693750000005
 20
810.19622800000002
 11
116.00239550000003
 21
810.19998199999998
  0
LINE
  8
_0-0_0
  6
CONTINUOUS
 62
    7
 10
115.00239550000003
 20
808.78576699999996
 11
115.00239550000003
 21
809.75543199999993
  0
ARC
  8
_0-0_0
  6
CONTINUOUS
 62
    7
 10
116.00239550000003
 20
782.39999399999999
 40
1
 50
180.00000900000003
 51
269.99999700000001
  0
LINE
  8
_0-0_0
  6
CONTINUOUS
 62
    7
 10
115.00239550000003
 20
782.39999399999999
 11
115.00239550000003
 21
808.78576699999996
  0
CIRCLE
  8
_0-0_0
  6
CONTINUOUS
 62
    7
 10
126.50239550000003
 20
799.59997599999997
 40
5
  0
CIRCLE
  8
_0-0_0
  6
CONTINUOUS
 62
    7
 10
1481.5025025
 20
799.59997599999997
 40
5
  0
LINE
  8
_0-0_0
  6
CONTINUOUS
 62
    7
 10
1493.0025025
 20
809.78582800000004
 11
1493.0025025
 21
811.39999399999999
  0
ARC
  8
_0-0_0
  6
CONTINUOUS
 62
    7
 10
1492.0025025
 20
811.39999399999999
 40
1
 50
0
 51
90.000003000000007
  0
ARC
  8
_0-0_0
  6
CONTINUOUS
 62
    7
 10
116.00239550000003
 20
811.39999399999999
 40
1
 50
90.000003000000007
 51
180.00000900000001
  0
LINE
  8
_0-0_0
  6
CONTINUOUS
 62
    7
 10
115.00239550000003
 20
809.75543199999993
 11
115.00239550000003
 21
811.39999399999999
  0
LINE
  8
_0-0_0
  6
CONTINUOUS
 62
    7
 10
87.092529499999955
 20
781.39999399999999
 11
87.092529499999955
 21
780.79998799999998
  0
LINE
  8
_0-0_0
  6
CONTINUOUS
 62
    7
 10
89.592529499999955
 20
775.55499299999997
 11
89.592529499999955
 21
777.79998799999998
  0
LINE
  8
_0-0_0
  6
CONTINUOUS
 62
    7
 10
90.592529499999955
 20
777.79998799999998
 11
90.592529499999955
 21
779.79998799999998
  0
ARC
  8
_0-0_0
  6
CONTINUOUS
 62
    7
 10
90.092529499999955
 20
779.79998799999998
 40
0.5
 50
0
 51
90.000003000000007
  0
LINE
  8
_0-0_0
  6
CONTINUOUS
 62
    7
 10
90.092529499999955
 20
780.29998799999998
 11
88.592529499999955
 21
780.29998799999998
  0
ARC
  8
_0-0_0
  6
CONTINUOUS
 62
    7
 10
88.592529499999955
 20
781.29998799999998
 40
1
 50
180.00000900000003
 51
269.99999700000001
  0
LINE
  8
_0-0_0
  6
CONTINUOUS
 62
    7
 10
87.592529499999955
 20
781.39999399999999
 11
87.592529499999955
 21
781.29998799999998
  0
ARC
  8
_0-0_0
  6
CONTINUOUS
 62
    7
 10
88.592529499999955
 20
780.79998799999998
 40
1.5
 50
180.00000900000003
 51
269.99999700000001
  0
LINE
  8
_0-0_0
  6
CONTINUOUS
 62
    7
 10
88.592529499999955
 20
779.29998799999998
 11
87.892532500000016
 21
779.29998799999998
  0
ARC
  8
_0-0_0
  6
CONTINUOUS
 62
    7
 10
87.892532500000016
 20
780.29998799999998
 40
1
 50
180.00000900000003
 51
269.99999700000001
  0
LINE
  8
_0-0_0
  6
CONTINUOUS
 62
    7
 10
86.892532500000016
 20
781.29998799999998
 11
86.892532500000016
 21
780.29998799999998
  0
LINE
  8
_0-0_0
  6
CONTINUOUS
 62
    7
 10
78.692520500000001
 20
780.29998799999998
 11
78.692520500000001
 21
781.29998799999998
  0
ARC
  8
_0-0_0
  6
CONTINUOUS
 62
    7
 10
77.692520500000001
 20
780.29998799999998
 40
1
 50
269.99999700000001
 51
0
  0
LINE
  8
_0-0_0
  6
CONTINUOUS
 62
    7
 10
77.692520500000001
 20
779.29998799999998
 11
77.492523500000061
 21
779.29998799999998
  0
ARC
  8
_0-0_0
  6
CONTINUOUS
 62
    7
 10
77.492523500000061
 20
780.29998799999998
 40
1
 50
269.99999700000001
 51
0
  0
LINE
  8
_0-0_0
  6
CONTINUOUS
 62
    7
 10
78.492523500000061
 20
780.29998799999998
 11
78.492523500000061
 21
781.39999399999999
  0
LINE
  8
_0-0_0
  6
CONTINUOUS
 62
    7
 10
77.992523500000061
 20
781.29998799999998
 11
77.992523500000061
 21
781.39999399999999
  0
ARC
  8
_0-0_0
  6
CONTINUOUS
 62
    7
 10
76.992523500000061
 20
781.29998799999998
 40
1
 50
269.99999700000001
 51
0
  0
LINE
  8
_0-0_0
  6
CONTINUOUS
 62
    7
 10
76.992523500000061
 20
780.29998799999998
 11
75.492523500000061
 21
780.29998799999998
  0
ARC
  8
_0-0_0
  6
CONTINUOUS
 62
    7
 10
75.492523500000061
 20
779.79998799999998
 40
0.5
 50
90.000003000000007
 51
180.00000900000001
  0
LINE
  8
_0-0_0
  6
CONTINUOUS
 62
    7
 10
74.992523500000061
 20
779.79998799999998
 11
74.992523500000061
 21
777.79998799999998
  0
LINE
  8
_0-0_0
  6
CONTINUOUS
 62
    7
 10
75.992523500000061
 20
775.55499299999997
 11
75.992523500000061
 21
777.79998799999998
  0
LINE
  8
_0-0_0
  6
CONTINUOUS
 62
    7
 10
74.092529499999955
 20
757.19998199999998
 11
74.092529499999955
 21
775.55499299999997
  0
LINE
  8
_0-0_0
  6
CONTINUOUS
 62
    7
 10
90.892532500000016
 20
757.19998199999998
 11
90.892532500000016
 21
775.55499299999997
  0
CIRCLE
  8
_0-0_0
  6
CONTINUOUS
 62
    7
 10
82.792526500000008
 20
777.79998799999998
 40
2.0499999999999998
  0
LINE
  8
_0-0_0
  6
CONTINUOUS
 62
    7
 10
90.892532500000016
 20
779.29998799999998
 11
90.892532500000016
 21
779.27499399999999
  0
LINE
  8
_0-0_0
  6
CONTINUOUS
 62
    7
 10
90.892532500000016
 20
776.05493200000001
 11
90.892532500000016
 21
776.32498199999998
  0
LINE
  8
_0-0_0
  6
CONTINUOUS
 62
    7
 10
90.892532500000016
 20
775.55499299999997
 11
90.892532500000016
 21
776.05499299999997
  0
LINE
  8
_0-0_0
  6
CONTINUOUS
 62
    7
 10
90.892532500000016
 20
755.19998199999998
 11
90.892532500000016
 21
757.19998199999998
  0
LINE
  8
_0-0_0
  6
CONTINUOUS
 62
    7
 10
74.092529499999955
 20
755.19998199999998
 11
74.092529499999955
 21
757.19998199999998
  0
LINE
  8
_0-0_0
  6
CONTINUOUS
 62
    7
 10
74.092529499999955
 20
755.19998199999998
 11
90.892532500000016
 21
755.19998199999998
  0
LINE
  8
_0-0_0
  6
CONTINUOUS
 62
    7
 10
74.092529499999955
 20
779.29998799999998
 11
74.092529499999955
 21
777.79998799999998
  0
LINE
  8
_0-0_0
  6
CONTINUOUS
 62
    7
 10
74.092529499999955
 20
776.05499299999997
 11
74.092529499999955
 21
777.79998799999998
  0
LINE
  8
_0-0_0
  6
CONTINUOUS
 62
    7
 10
74.092529499999955
 20
775.55499299999997
 11
74.092529499999955
 21
776.05499299999997
  0
LINE
  8
_0-0_0
  6
CONTINUOUS
 62
    7
 10
74.992523500000061
 20
776.05505399999993
 11
74.992523500000061
 21
777.79998799999998
  0
ARC
  8
_0-0_0
  6
CONTINUOUS
 62
    7
 10
89.292526500000008
 20
757.29998799999998
 40
2
 50
323.13010300000002
 51
0.0000000000000127
  0
LINE
  8
_0-0_0
  6
CONTINUOUS
 62
    7
 10
91.292526500000008
 20
757.29998799999998
 11
91.292526500000008
 21
758.70004300000005
  0
LINE
  8
_0-0_0
  6
CONTINUOUS
 62
    7
 10
91.592529499999955
 20
763.78967299999999
 11
91.592529499999955
 21
774.23767099999998
  0
LINE
  8
_0-0_0
  6
CONTINUOUS
 62
    7
 10
91.592529499999955
 20
775.20047
 11
91.592529499999955
 21
777.43511999999998
  0
LINE
  8
_0-0_0
  6
CONTINUOUS
 62
    7
 10
74.092529499999955
 20
779.29998799999998
 11
74.992523500000061
 21
779.29998799999998
  0
LINE
  8
_0-0_0
  6
CONTINUOUS
 62
    7
 10
73.992523500000061
 20
758.69998199999998
 11
74.092529499999955
 21
758.69998199999998
  0
LINE
  8
_0-0_0
  6
CONTINUOUS
 62
    7
 10
73.992523500000061
 20
758.69998199999998
 11
73.992523500000061
 21
763.78967299999999
  0
LINE
  8
_0-0_0
  6
CONTINUOUS
 62
    7
 10
73.992523500000061
 20
774.23767099999998
 11
73.992523500000061
 21
775.20047
  0
LINE
  8
_0-0_0
  6
CONTINUOUS
 62
    7
 10
73.992523500000061
 20
778.29998799999998
 11
74.092529499999955
 21
778.29998799999998
  0
LINE
  8
_0-0_0
  6
CONTINUOUS
 62
    7
 10
73.992523500000061
 20
777.43511999999998
 11
73.992523500000061
 21
778.29998799999998
  0
LINE
  8
_0-0_0
  6
CONTINUOUS
 62
    7
 10
73.992523500000061
 20
775.20047
 11
73.992523500000061
 21
777.43511999999998
  0
LINE
  8
_0-0_0
  6
CONTINUOUS
 62
    7
 10
73.992523500000061
 20
763.78967299999999
 11
73.992523500000061
 21
774.23767099999998
  0
LINE
  8
_0-0_0
  6
CONTINUOUS
 62
    7
 10
74.292526500000008
 20
777.18872099999999
 11
74.292526500000008
 21
779.07498199999998
  0
LINE
  8
_0-0_0
  6
CONTINUOUS
 62
    7
 10
74.292526500000008
 20
776.52499399999999
 11
74.292526500000008
 21
777.18872099999999
  0
LINE
  8
_0-0_0
  6
CONTINUOUS
 62
    7
 10
91.292526500000008
 20
778.41125499999998
 11
91.292526500000008
 21
776.52529900000002
  0
LINE
  8
_0-0_0
  6
CONTINUOUS
 62
    7
 10
91.292526500000008
 20
779.06662000000006
 11
91.292526500000008
 21
778.41125499999998
  0
LINE
  8
_0-0_0
  6
CONTINUOUS
 62
    7
 10
91.592529499999955
 20
758.69998199999998
 11
91.592529499999955
 21
763.78967299999999
  0
LINE
  8
_0-0_0
  6
CONTINUOUS
 62
    7
 10
91.592529499999955
 20
777.43511999999998
 11
91.592529499999955
 21
778.29998799999998
  0
LINE
  8
_0-0_0
  6
CONTINUOUS
 62
    7
 10
91.592529499999955
 20
774.23767099999998
 11
91.592529499999955
 21
775.20047
  0
LINE
  8
_0-0_0
  6
CONTINUOUS
 62
    7
 10
91.592529499999955
 20
778.29998799999998
 11
91.292526500000008
 21
778.29998799999998
  0
LINE
  8
_0-0_0
  6
CONTINUOUS
 62
    7
 10
91.592529499999955
 20
758.69998199999998
 11
90.892532500000016
 21
758.69998199999998
  0
LINE
  8
_0-0_0
  6
CONTINUOUS
 62
    7
 10
90.892532500000016
 20
779.29998799999998
 11
90.592529499999955
 21
779.29998799999998
  0
LINE
  8
_0-0_0
  6
CONTINUOUS
 62
    7
 10
90.592529499999955
 20
777.79998799999998
 11
90.592529499999955
 21
776.05505399999993
  0
LINE
  8
_0-0_0
  6
CONTINUOUS
 62
    7
 10
86.892532500000016
 20
781.29998799999998
 11
86.892532500000016
 21
781.40005500000007
  0
LINE
  8
_0-0_0
  6
CONTINUOUS
 62
    7
 10
78.692520500000001
 20
781.40005500000007
 11
78.692520500000001
 21
781.29998799999998
  0
LINE
  8
_0-0_0
  6
CONTINUOUS
 62
    7
 10
89.592529499999955
 20
776.05499299999997
 11
90.892532500000016
 21
776.05499299999997
  0
ARC
  8
_0-0_0
  6
CONTINUOUS
 62
    7
 10
74.792526500000008
 20
779.07498199999998
 40
0.2
 50
359.91222800000003
 51
89.999948000000003
  0
ARC
  8
_0-0_0
  6
CONTINUOUS
 62
    7
 10
74.792419500000051
 20
776.52514700000006
 40
0.200169
 50
270.02985900000004
 51
2.3526610000000452
  0
LINE
  8
_0-0_0
  6
CONTINUOUS
 62
    7
 10
74.492523500000061
 20
779.27499399999999
 11
74.792526500000008
 21
779.27499399999999
  0
LINE
  8
_0-0_0
  6
CONTINUOUS
 62
    7
 10
74.492523500000061
 20
776.32498199999998
 11
74.792526500000008
 21
776.32498199999998
  0
ARC
  8
_0-0_0
  6
CONTINUOUS
 62
    7
 10
74.492629500000021
 20
779.07482899999991
 40
0.200169
 50
90.029849999999996
 51
182.352667
  0
ARC
  8
_0-0_0
  6
CONTINUOUS
 62
    7
 10
74.492523500000061
 20
776.52499399999999
 40
0.2
 50
179.912237
 51
269.99994299999997
  0
ARC
  8
_0-0_0
  6
CONTINUOUS
 62
    7
 10
90.792632499999968
 20
776.52514700000006
 40
0.200169
 50
177.647333
 51
269.97013600000002
  0
ARC
  8
_0-0_0
  6
CONTINUOUS
 62
    7
 10
90.792526500000008
 20
779.07498199999998
 40
0.2
 50
90.000049999999987
 51
180.08776299999997
  0
LINE
  8
_0-0_0
  6
CONTINUOUS
 62
    7
 10
91.092529499999955
 20
776.32498199999998
 11
90.792526500000008
 21
776.32498199999998
  0
LINE
  8
_0-0_0
  6
CONTINUOUS
 62
    7
 10
91.092529499999955
 20
779.27499399999999
 11
90.792526500000008
 21
779.27499399999999
  0
ARC
  8
_0-0_0
  6
CONTINUOUS
 62
    7
 10
91.092529499999955
 20
776.52499399999999
 40
0.2
 50
270.00005199999998
 51
0.0877600000000175
  0
ARC
  8
_0-0_0
  6
CONTINUOUS
 62
    7
 10
91.092422499999998
 20
779.07482899999991
 40
0.200169
 50
357.64733799999999
 51
89.970147999999995
  0
LINE
  8
_0-0_0
  6
CONTINUOUS
 62
    7
 10
74.092529499999955
 20
776.05499299999997
 11
75.992523500000061
 21
776.05499299999997
  0
LINE
  8
_0-0_0
  6
CONTINUOUS
 62
    7
 10
91.592529499999955
 20
781.79998799999998
 11
91.592529499999955
 21
794.99997000000008
  0
ARC
  8
_0-0_0
  6
CONTINUOUS
 62
    7
 10
91.092529499999955
 20
781.79998799999998
 40
0.5
 50
269.99999700000001
 51
0
  0
ARC
  8
_0-0_0
  6
CONTINUOUS
 62
    7
 10
91.533950499999946
 20
795.19998199999998
 40
0.1
 50
135
 51
225
  0
LINE
  8
_0-0_0
  6
CONTINUOUS
 62
    7
 10
91.463241499999981
 20
795.12927300000001
 11
91.592529499999955
 21
794.99997000000008
  0
LINE
  8
_0-0_0
  6
CONTINUOUS
 62
    7
 10
91.092529499999955
 20
781.29998799999998
 11
89.192520500000001
 21
781.29998799999998
  0
ARC
  8
_0-0_0
  6
CONTINUOUS
 62
    7
 10
89.192520500000001
 20
781.79998799999998
 40
0.5
 50
233.12990600000001
 51
269.99999700000001
  0
ARC
  8
_0-0_0
  6
CONTINUOUS
 62
    7
 10
76.492523500000061
 20
781.79998799999998
 40
0.5
 50
269.99999700000001
 51
306.87009999999998
  0
LINE
  8
_0-0_0
  6
CONTINUOUS
 62
    7
 10
76.492523500000061
 20
781.29998799999998
 11
74.592529499999955
 21
781.29998799999998
  0
ARC
  8
_0-0_0
  6
CONTINUOUS
 62
    7
 10
74.592529499999955
 20
781.79998799999998
 40
0.5
 50
180.00000900000003
 51
269.99999700000001
  0
LINE
  8
_0-0_0
  6
CONTINUOUS
 62
    7
 10
74.092529499999955
 20
791.23498500000005
 11
74.092529499999955
 21
781.79998799999998
  0
LINE
  8
_0-0_0
  6
CONTINUOUS
 62
    7
 10
74.092529499999955
 20
791.23498500000005
 11
74.792526500000008
 21
791.23498500000005
  0
LINE
  8
_0-0_0
  6
CONTINUOUS
 62
    7
 10
90.792526500000008
 20
809.79998799999998
 11
90.998550499999965
 21
809.79998799999998
  0
LINE
  8
_0-0_0
  6
CONTINUOUS
 62
    7
 10
90.998550499999965
 20
809.79998799999998
 11
91.592529499999955
 21
809.20602400000007
  0
LINE
  8
_0-0_0
  6
CONTINUOUS
 62
    7
 10
91.592529499999955
 20
804.19998199999998
 11
91.592529499999955
 21
809.20602400000007
  0
LINE
  8
_0-0_0
  6
CONTINUOUS
 62
    7
 10
91.463241499999981
 20
804.07070899999997
 11
91.592529499999955
 21
804.19998199999998
  0
ARC
  8
_0-0_0
  6
CONTINUOUS
 62
    7
 10
91.533950499999946
 20
803.99997000000008
 40
0.1
 50
135
 51
225
  0
LINE
  8
_0-0_0
  6
CONTINUOUS
 62
    7
 10
91.463241499999981
 20
803.92929099999992
 11
91.592529499999955
 21
803.79998799999998
  0
LINE
  8
_0-0_0
  6
CONTINUOUS
 62
    7
 10
91.592529499999955
 20
803.09997599999997
 11
91.592529499999955
 21
803.79998799999998
  0
LINE
  8
_0-0_0
  6
CONTINUOUS
 62
    7
 10
91.463241499999981
 20
802.97070299999996
 11
91.592529499999955
 21
803.09997599999997
  0
ARC
  8
_0-0_0
  6
CONTINUOUS
 62
    7
 10
91.533950499999946
 20
802.89999399999999
 40
0.1
 50
135
 51
225
  0
LINE
  8
_0-0_0
  6
CONTINUOUS
 62
    7
 10
91.463241499999981
 20
802.82928500000003
 11
91.592529499999955
 21
802.69998199999998
  0
LINE
  8
_0-0_0
  6
CONTINUOUS
 62
    7
 10
91.592529499999955
 20
801.99997000000008
 11
91.592529499999955
 21
802.69998199999998
  0
LINE
  8
_0-0_0
  6
CONTINUOUS
 62
    7
 10
91.463241499999981
 20
801.87069700000006
 11
91.592529499999955
 21
801.99997000000008
  0
ARC
  8
_0-0_0
  6
CONTINUOUS
 62
    7
 10
91.533950499999946
 20
801.79998799999998
 40
0.1
 50
135
 51
225
  0
LINE
  8
_0-0_0
  6
CONTINUOUS
 62
    7
 10
91.463241499999981
 20
801.72927900000002
 11
91.592529499999955
 21
801.59997599999997
  0
LINE
  8
_0-0_0
  6
CONTINUOUS
 62
    7
 10
91.592529499999955
 20
800.89999399999999
 11
91.592529499999955
 21
801.59997599999997
  0
LINE
  8
_0-0_0
  6
CONTINUOUS
 62
    7
 10
91.463241499999981
 20
800.77069099999994
 11
91.592529499999955
 21
800.89999399999999
  0
ARC
  8
_0-0_0
  6
CONTINUOUS
 62
    7
 10
91.533950499999946
 20
800.69998199999998
 40
0.1
 50
135
 51
225
  0
LINE
  8
_0-0_0
  6
CONTINUOUS
 62
    7
 10
91.463241499999981
 20
800.62927300000001
 11
91.592529499999955
 21
800.49997000000008
  0
LINE
  8
_0-0_0
  6
CONTINUOUS
 62
    7
 10
91.592529499999955
 20
799.79998799999998
 11
91.592529499999955
 21
800.49997000000008
  0
LINE
  8
_0-0_0
  6
CONTINUOUS
 62
    7
 10
91.463241499999981
 20
799.67068500000005
 11
91.592529499999955
 21
799.79998799999998
  0
ARC
  8
_0-0_0
  6
CONTINUOUS
 62
    7
 10
91.533950499999946
 20
799.59997599999997
 40
0.1
 50
135
 51
225
  0
LINE
  8
_0-0_0
  6
CONTINUOUS
 62
    7
 10
91.463241499999981
 20
799.52926600000001
 11
91.592529499999955
 21
799.39999399999999
  0
LINE
  8
_0-0_0
  6
CONTINUOUS
 62
    7
 10
91.592529499999955
 20
798.69998199999998
 11
91.592529499999955
 21
799.39999399999999
  0
LINE
  8
_0-0_0
  6
CONTINUOUS
 62
    7
 10
91.463241499999981
 20
798.57070899999997
 11
91.592529499999955
 21
798.69998199999998
  0
ARC
  8
_0-0_0
  6
CONTINUOUS
 62
    7
 10
91.533950499999946
 20
798.49997000000008
 40
0.1
 50
135
 51
225
  0
LINE
  8
_0-0_0
  6
CONTINUOUS
 62
    7
 10
91.463241499999981
 20
798.42929099999992
 11
91.592529499999955
 21
798.29998799999998
  0
LINE
  8
_0-0_0
  6
CONTINUOUS
 62
    7
 10
91.592529499999955
 20
797.59997599999997
 11
91.592529499999955
 21
798.29998799999998
  0
LINE
  8
_0-0_0
  6
CONTINUOUS
 62
    7
 10
91.463241499999981
 20
797.47070299999996
 11
91.592529499999955
 21
797.59997599999997
  0
ARC
  8
_0-0_0
  6
CONTINUOUS
 62
    7
 10
91.533950499999946
 20
797.39999399999999
 40
0.1
 50
135
 51
225
  0
LINE
  8
_0-0_0
  6
CONTINUOUS
 62
    7
 10
91.463241499999981
 20
797.32928500000003
 11
91.592529499999955
 21
797.19998199999998
  0
LINE
  8
_0-0_0
  6
CONTINUOUS
 62
    7
 10
91.592529499999955
 20
796.49997000000008
 11
91.592529499999955
 21
797.19998199999998
  0
LINE
  8
_0-0_0
  6
CONTINUOUS
 62
    7
 10
91.463241499999981
 20
796.37069700000006
 11
91.592529499999955
 21
796.49997000000008
  0
ARC
  8
_0-0_0
  6
CONTINUOUS
 62
    7
 10
91.533950499999946
 20
796.29998799999998
 40
0.1
 50
135
 51
225
  0
LINE
  8
_0-0_0
  6
CONTINUOUS
 62
    7
 10
91.463241499999981
 20
796.22927900000002
 11
91.592529499999955
 21
796.09997599999997
  0
LINE
  8
_0-0_0
  6
CONTINUOUS
 62
    7
 10
91.592529499999955
 20
795.39999399999999
 11
91.592529499999955
 21
796.09997599999997
  0
LINE
  8
_0-0_0
  6
CONTINUOUS
 62
    7
 10
91.463241499999981
 20
795.27069099999994
 11
91.592529499999955
 21
795.39999399999999
  0
LINE
  8
_0-0_0
  6
CONTINUOUS
 62
    7
 10
91.592529499999955
 20
787.29998799999998
 11
91.692520500000001
 21
787.29998799999998
  0
LINE
  8
_0-0_0
  6
CONTINUOUS
 62
    7
 10
91.692520500000001
 20
786.79998799999998
 11
91.692520500000001
 21
787.29998799999998
  0
LINE
  8
_0-0_0
  6
CONTINUOUS
 62
    7
 10
91.692520500000001
 20
786.79998799999998
 11
91.692520500000001
 21
782.79998799999998
  0
LINE
  8
_0-0_0
  6
CONTINUOUS
 62
    7
 10
91.592529499999955
 20
782.29998799999998
 11
91.692520500000001
 21
782.29998799999998
  0
LINE
  8
_0-0_0
  6
CONTINUOUS
 62
    7
 10
91.692520500000001
 20
782.29998799999998
 11
91.692520500000001
 21
782.79998799999998
  0
LINE
  8
_0-0_0
  6
CONTINUOUS
 62
    7
 10
74.092529499999955
 20
791.29998799999998
 11
74.092529499999955
 21
791.23498500000005
  0
LINE
  8
_0-0_0
  6
CONTINUOUS
 62
    7
 10
90.592529499999955
 20
810.09997599999997
 11
90.592529499999955
 21
809.99997000000008
  0
ARC
  8
_0-0_0
  6
CONTINUOUS
 62
    7
 10
78.092529499999955
 20
810.09997599999997
 40
2.5
 50
90.000003000000007
 51
180.00000900000001
  0
LINE
  8
_0-0_0
  6
CONTINUOUS
 62
    7
 10
73.992523500000061
 20
791.29998799999998
 11
74.792526500000008
 21
791.29998799999998
  0
LINE
  8
_0-0_0
  6
CONTINUOUS
 62
    7
 10
74.492523500000061
 20
813.09997599999997
 11
74.492523500000061
 21
808.87844900000005
  0
LINE
  8
_0-0_0
  6
CONTINUOUS
 62
    7
 10
75.592529499999955
 20
813.09997599999997
 11
75.592529499999955
 21
810.09997599999997
  0
LINE
  8
_0-0_0
  6
CONTINUOUS
 62
    7
 10
74.492523500000061
 20
808.87844900000005
 11
74.792526500000008
 21
808.87844900000005
  0
LINE
  8
_0-0_0
  6
CONTINUOUS
 62
    7
 10
74.492523500000061
 20
818.23989899999992
 11
75.592529499999955
 21
818.23989899999992
  0
LINE
  8
_0-0_0
  6
CONTINUOUS
 62
    7
 10
75.592529499999955
 20
813.10046399999999
 11
75.592529499999955
 21
818.23989899999992
  0
LINE
  8
_0-0_0
  6
CONTINUOUS
 62
    7
 10
73.992523500000061
 20
812.60092199999997
 11
73.992523500000061
 21
817.67208899999991
  0
LINE
  8
_0-0_0
  6
CONTINUOUS
 62
    7
 10
74.492523500000061
 20
818.23989899999992
 11
73.992523500000061
 21
817.67208899999991
  0
ARC
  8
_0-0_0
  6
CONTINUOUS
 62
    7
 10
88.092529499999955
 20
810.09997599999997
 40
2.5
 50
0
 51
90.000003000000007
  0
LINE
  8
_0-0_0
  6
CONTINUOUS
 62
    7
 10
75.592529499999955
 20
810
 11
75.592529499999955
 21
810.09997599999997
  0
LINE
  8
_0-0_0
  6
CONTINUOUS
 62
    7
 10
88.092529499999955
 20
812.59997599999997
 11
78.092529499999955
 21
812.59997599999997
  0
LINE
  8
_0-0_0
  6
CONTINUOUS
 62
    7
 10
91.792526500000008
 20
782.79998799999998
 11
91.792526500000008
 21
782.93035899999995
  0
LINE
  8
_0-0_0
  6
CONTINUOUS
 62
    7
 10
91.792526500000008
 20
786.43035899999995
 11
91.792526500000008
 21
782.93035899999995
  0
LINE
  8
_0-0_0
  6
CONTINUOUS
 62
    7
 10
91.692520500000001
 20
786.69998199999998
 11
91.792526500000008
 21
786.69998199999998
  0
LINE
  8
_0-0_0
  6
CONTINUOUS
 62
    7
 10
91.792526500000008
 20
786.43035899999995
 11
91.792526500000008
 21
786.69998199999998
  0
LINE
  8
_0-0_0
  6
CONTINUOUS
 62
    7
 10
75.592529499999955
 20
820.60000600000001
 11
75.592529499999955
 21
818.23989899999992
  0
LINE
  8
_0-0_0
  6
CONTINUOUS
 62
    7
 10
91.392532500000016
 20
809.19998199999998
 11
90.392532500000016
 21
810.19998199999998
  0
LINE
  8
_0-0_0
  6
CONTINUOUS
 62
    7
 10
91.392532500000016
 20
781.39999399999999
 11
91.392532500000016
 21
809.19998199999998
  0
LINE
  8
_0-0_0
  6
CONTINUOUS
 62
    7
 10
74.792526500000008
 20
781.39999399999999
 11
91.392532500000016
 21
781.39999399999999
  0
LINE
  8
_0-0_0
  6
CONTINUOUS
 62
    7
 10
74.792526500000008
 20
809.19998199999998
 11
74.792526500000008
 21
781.39999399999999
  0
LINE
  8
_0-0_0
  6
CONTINUOUS
 62
    7
 10
73.992523500000061
 20
791.29998799999998
 11
73.992523500000061
 21
808.11279300000001
  0
LINE
  8
_0-0_0
  6
CONTINUOUS
 62
    7
 10
73.992523500000061
 20
812.59997599999997
 11
73.992523500000061
 21
808.11279300000001
  0
ARC
  8
_0-0_0
  6
CONTINUOUS
 62
    7
 10
105.44427450000001
 20
788.11779799999999
 40
37.269466000000001
 50
146.14857699999999
 51
147.55443399999999
  0
LINE
  8
_0-0_0
  6
CONTINUOUS
 62
    7
 10
74.492523500000061
 20
820.60000600000001
 11
74.492523500000061
 21
818.23989899999992
  0
LINE
  8
_0-0_0
  6
CONTINUOUS
 62
    7
 10
73.992523500000061
 20
820.10000600000001
 11
73.992523500000061
 21
817.67208899999991
  0
ARC
  8
_0-0_0
  6
CONTINUOUS
 62
    7
 10
87.823486500000058
 20
809.79998799999998
 40
2.6000000000000001
 50
8.8498839999999994
 51
90.000002999999992
  0
LINE
  8
_0-0_0
  6
CONTINUOUS
 62
    7
 10
87.823486500000058
 20
812.39999399999999
 11
78.361572499999966
 21
812.39999399999999
  0
ARC
  8
_0-0_0
  6
CONTINUOUS
 62
    7
 10
78.361572499999966
 20
809.79998799999998
 40
2.6000000000000001
 50
90.000003000000007
 51
171.150115
  0
LINE
  8
_0-0_0
  6
CONTINUOUS
 62
    7
 10
74.792526500000008
 20
809.19998199999998
 11
75.792526500000008
 21
810.19998199999998
  0
LINE
  8
_0-0_0
  6
CONTINUOUS
 62
    7
 10
90.392532500000016
 20
808.78576699999996
 11
91.392532500000016
 21
809.19998199999998
  0
ARC
  8
_0-0_0
  6
CONTINUOUS
 62
    7
 10
84.84999049999999
 20
820.98611499999993
 40
12.126564999999999
 50
292.155034
 51
297.19674500000002
  0
LINE
  8
_0-0_0
  6
CONTINUOUS
 62
    7
 10
90.392532500000016
 20
782.39999399999999
 11
91.392532500000016
 21
781.39999399999999
  0
LINE
  8
_0-0_0
  6
CONTINUOUS
 62
    7
 10
75.792526500000008
 20
782.39999399999999
 11
74.792526500000008
 21
781.39999399999999
  0
LINE
  8
_0-0_0
  6
CONTINUOUS
 62
    7
 10
75.792526500000008
 20
808.78576699999996
 11
74.792526500000008
 21
809.19998199999998
  0
ARC
  8
_0-0_0
  6
CONTINUOUS
 62
    7
 10
81.335067500000036
 20
820.98611499999993
 40
12.126567
 50
242.80325699999997
 51
247.84494000000001
  0
CIRCLE
  8
_0-0_0
  6
CONTINUOUS
 62
    7
 10
83.092529499999955
 20
789.59997599999997
 40
2.0670000000000002
  0
LINE
  8
_0-0_0
  6
CONTINUOUS
 62
    7
 10
75.592529499999955
 20
813.09997599999997
 11
74.492523500000061
 21
813.09997599999997
  0
LINE
  8
_0-0_0
  6
CONTINUOUS
 62
    7
 10
91.692520500000001
 20
782.79998799999998
 11
91.792526500000008
 21
782.79998799999998
  0
LINE
  8
_0-0_0
  6
CONTINUOUS
 62
    7
 10
91.692520500000001
 20
782.79998799999998
 11
91.792526500000008
 21
782.79998799999998
  0
LINE
  8
_0-0_0
  6
CONTINUOUS
 62
    7
 10
73.992523500000061
 20
812.59997599999997
 11
74.492523500000061
 21
813.09997599999997
  0
LINE
  8
_0-0_0
  6
CONTINUOUS
 62
    7
 10
75.592529499999955
 20
820.60000600000001
 11
74.492523500000061
 21
820.60000600000001
  0
LINE
  8
_0-0_0
  6
CONTINUOUS
 62
    7
 10
73.992523500000061
 20
820.10000600000001
 11
74.492523500000061
 21
820.60000600000001
  0
ENDSEC
  0
EOF
