  0
SECTION
  2
HEADER
  9
$ACADVER
  1
AC1009
  9
$INSBASE
 10
0
 20
0
 30
0
  9
$EXTMIN
 10
0
 20
0
  9
$EXTMAX
 10
841
 20
594
  9
$LIMMIN
 10
0
 20
0
  9
$LIMMAX
 10
841
 20
594
  9
$LTSCALE
 40
1
  0
ENDSEC
  0
SECTION
  2
TABLES
  0
TABLE
  2
LTYPE
 70
     9
  0
LTYPE
  2
CONTINUOUS
 70
    64
  3
実線
 72
    65
 73
     0
 40
0.0
  0
LTYPE
  2
DASHED1
 70
    64
  3
--  --  --  --  --  --  --  --  
 72
    65
 73
     2
 40
2.5
 49
1.25
 49
-1.25
  0
LTYPE
  2
DASHED2
 70
    64
  3
----    ----    ----    ----    
 72
    65
 73
     2
 40
5.0
 49
2.5
 49
-2.5
  0
LTYPE
  2
DASHED3
 70
    64
  3
------  ------  ------  ------  
 72
    65
 73
     2
 40
5.0
 49
3.75
 49
-1.25
  0
LTYPE
  2
CENTER1
 70
    64
  3
----- - ----- - ----- - ----- - 
 72
    65
 73
     4
 40
10.0
 49
6.25
 49
-1.25
 49
1.25
 49
-1.25
  0
LTYPE
  2
CENTER2
 70
    64
  3
----------  --  ----------  --  
 72
    65
 73
     4
 40
20.0
 49
12.5
 49
-2.5
 49
2.5
 49
-2.5
  0
LTYPE
  2
PHANTOM1
 70
    64
  3
--- - - --- - - --- - - --- - - 
 72
    65
 73
     6
 40
10.0
 49
3.25
 49
-1.25
 49
1.25
 49
-1.25
 49
1.25
 49
-1.25
  0
LTYPE
  2
PHANTOM2
 70
    64
  3
--------  -  -  --------  -  -  
 72
    65
 73
     6
 40
20.0
 49
10.0
 49
-2.5
 49
1.25
 49
-2.5
 49
1.25
 49
-2.5
  0
LTYPE
  2
DOT
 70
    64
  3
-   -   -   -   -   -   -   -   
 72
    65
 73
     2
 40
2.5
 49
0.625
 49
-1.875
  0
LTYPE
  2
DUMMY
 70
    64
  3
ダミー
 72
    65
 73
     0
 40
0.0
  0
LTYPE
  2
RAND1
 70
    64
  3
ランダム線1
 72
    65
 73
     4
 40
10.0
 49
1.0
 49
-2.0
 49
3.0
 49
-4.0
  0
LTYPE
  2
RAND2
 70
    64
  3
ランダム線2
 72
    65
 73
     4
 40
14.0
 49
2.0
 49
-3.0
 49
4.0
 49
-5.0
  0
LTYPE
  2
RAND3
 70
    64
  3
ランダム線3
 72
    65
 73
     4
 40
18.0
 49
3.0
 49
-4.0
 49
5.0
 49
-6.0
  0
LTYPE
  2
RAND4
 70
    64
  3
ランダム線4
 72
    65
 73
     4
 40
22.0
 49
4.0
 49
-5.0
 49
6.0
 49
-7.0
  0
LTYPE
  2
RAND5
 70
    64
  3
ランダム線5
 72
    65
 73
     4
 40
26.0
 49
5.0
 49
-6.0
 49
7.0
 49
-8.0
  0
LTYPE
  2
LONG1
 70
    64
  3
----------  --  ----------  --  
 72
    65
 73
     4
 40
40.0
 49
32.5
 49
-2.5
 49
2.5
 49
-2.5
  0
LTYPE
  2
LONG2
 70
    64
  3
--------  -  -  --------  -  -  
 72
    65
 73
     6
 40
40.0
 49
30.0
 49
-2.5
 49
1.25
 49
-2.5
 49
1.25
 49
-2.5
  0
LTYPE
  2
LONG3
 70
    64
  3
+++++++++++++++..+++++++++++++++
 72
    65
 73
     2
 40
40.0
 49
37.5
 49
-2.5
  0
LTYPE
  2
LONG4
 70
    64
  3
+++++++++++++++..+++++++++++++++
 72
    65
 73
     2
 40
80.0
 49
75.0
 49
-5.0
  0
LTYPE
  2
LONG5
 70
    64
  3
----------  --  ----------  --  
 72
    65
 73
     4
 40
60.0
 49
37.5
 49
-7.5
 49
7.5
 49
-7.5
  0
LTYPE
  2
dashed
 70
   64
  3
-------   -------------   ------
 72
   65
 73
    2
 40
7.5
 49
6
 49
-1.5
  0
LTYPE
  2
dashed_spaced
 70
   64
  3
----        --------        ----
 72
   65
 73
    2
 40
12
 49
6
 49
-6
  0
LTYPE
  2
long_dashed_dotted
 70
   64
  3
------------- --- --------------
 72
   65
 73
    4
 40
15.25
 49
12
 49
-1.5
 49
0.25
 49
-1.5
  0
LTYPE
  2
long_dashed_double-dotted
 70
   64
  3
----------- --- --- ------------
 72
   65
 73
    6
 40
17
 49
12
 49
-1.5
 49
0.25
 49
-1.5
 49
0.25
 49
-1.5
  0
LTYPE
  2
long_dashed_triplicate-dotted
 70
   64
  3
--------- --- --- --- ----------
 72
   65
 73
    8
 40
18.75
 49
12
 49
-1.5
 49
0.25
 49
-1.5
 49
0.25
 49
-1.5
 49
0.25
 49
-1.5
  0
LTYPE
  2
dotted
 70
   64
  3
   -       -       -       -    
 72
   65
 73
    2
 40
1.75
 49
0.25
 49
-1.5
  0
LTYPE
  2
chain
 70
   64
  3
-------------- -- --------------
 72
   65
 73
    4
 40
18.5
 49
12
 49
-1.5
 49
3.5
 49
-1.5
  0
LTYPE
  2
chain_double_dash
 70
   64
  3
------------ -- -- -------------
 72
   65
 73
    6
 40
23.5
 49
12
 49
-1.5
 49
3.5
 49
-1.5
 49
3.5
 49
-1.5
  0
LTYPE
  2
dashed_dotted
 70
   64
  3
-----------     -     ----------
 72
   65
 73
    4
 40
9.25
 49
6
 49
-1.5
 49
0.25
 49
-1.5
  0
LTYPE
  2
double-dashed_dotted
 70
   64
  3
------   -----------   -   -----
 72
   65
 73
    6
 40
16.75
 49
6
 49
-1.5
 49
6
 49
-1.5
 49
0.25
 49
-1.5
  0
LTYPE
  2
dashed_double-dotted
 70
   64
  3
---------    -    -    ---------
 72
   65
 73
    6
 40
11
 49
6
 49
-1.5
 49
0.25
 49
-1.5
 49
0.25
 49
-1.5
  0
LTYPE
  2
double-dashed_double-dotted
 70
   64
  3
-----   ---------   -   -   ----
 72
   65
 73
    8
 40
18.5
 49
6
 49
-1.5
 49
6
 49
-1.5
 49
0.25
 49
-1.5
 49
0.25
 49
-1.5
  0
LTYPE
  2
dashed_triplicate-dotted
 70
   64
  3
-------    -    -    -    ------
 72
   65
 73
    8
 40
12.75
 49
6
 49
-1.5
 49
0.25
 49
-1.5
 49
0.25
 49
-1.5
 49
0.25
 49
-1.5
  0
LTYPE
  2
double-dashed_triplicate-dotted
 70
   64
  3
-----  ---------  -  -  -  -----
 72
   65
 73
   10
 40
20.25
 49
6
 49
-1.5
 49
6
 49
-1.5
 49
0.25
 49
-1.5
 49
0.25
 49
-1.5
 49
0.25
 49
-1.5
  0
LTYPE
  2
undefined
 70
   64
  3
--------------------------------
 72
   65
 73
    0
 40
0
  0
ENDTAB
  0
TABLE
  2
STYLE
  5
3
100
AcDbSymbolTable
 70
     1
  0
STYLE
  5
10
100
AcDbSymbolTableRecord
100
AcDbTextStyleTableRecord
  2
STANDARD
 70
     0
 40
0.0
 41
1.0
 50
0.0
 71
     0
 42
0.2
  3
txt
  4
bigfont.shx
  0
STYLE
  5
26
100
AcDbSymbolTableRecord
100
AcDbTextStyleTableRecord
  2
TATEGAKI
 70
    68
 40
0.0
 41
1.0
 50
0.0
 71
     0
 42
1.0
  3
txt
  4
bigfont.shx
  0
ENDTAB
  0
TABLE
  2
LAYER
 70
    2
  0
LAYER
  2
_0-0_0
 70
   64
 62
    7
  6
CONTINUOUS
  0
LAYER
  2
ADD_LINE
 70
   64
 62
    7
  6
CONTINUOUS
  0
ENDTAB
  0
ENDSEC
  0
SECTION
  2
BLOCKS
  0
ENDSEC
  0
SECTION
  2
ENTITIES
  0
POINT
  8
_0-0_0
 62
    7
 10
31.502395500000034
 20
471.89999399999999
  0
LINE
  8
_0-0_0
  6
CONTINUOUS
 62
    7
 10
-75.497604499999966
 20
512.90048200000001
 11
-75.497604499999966
 21
512.89947499999994
  0
LINE
  8
_0-0_0
  6
CONTINUOUS
 62
    7
 10
-48.997604499999966
 20
478.55499299999997
 11
-48.997604499999966
 21
480.79998799999998
  0
LINE
  8
_0-0_0
  6
CONTINUOUS
 62
    7
 10
-48.997604499999966
 20
480.79998799999998
 11
-48.997604499999966
 21
482.79998799999998
  0
LINE
  8
_0-0_0
  6
CONTINUOUS
 62
    7
 10
-48.997604499999966
 20
482.79998799999998
 11
-48.997604499999966
 21
483.29998799999998
  0
LINE
  8
_0-0_0
  6
CONTINUOUS
 62
    7
 10
-48.997604499999966
 20
483.29998799999998
 11
-48.997604499999966
 21
484.29998799999998
  0
LINE
  8
_0-0_0
  6
CONTINUOUS
 62
    7
 10
-48.997604499999966
 20
460.19998199999998
 11
-48.997604499999966
 21
478.55499299999997
  0
LINE
  8
_0-0_0
  6
CONTINUOUS
 62
    7
 10
47.502395500000034
 20
482.29998799999998
 11
47.502395500000034
 21
482.79998799999998
  0
LINE
  8
_0-0_0
  6
CONTINUOUS
 62
    7
 10
47.502395500000034
 20
483.29998799999998
 11
47.502395500000034
 21
484.29998799999998
  0
LINE
  8
_0-0_0
  6
CONTINUOUS
 62
    7
 10
47.502395500000034
 20
482.79998799999998
 11
47.502395500000034
 21
483.29998799999998
  0
ARC
  8
_0-0_0
  6
CONTINUOUS
 62
    7
 10
33.502395500000034
 20
478.55499299999997
 40
0.5
 50
0
 51
123.74898500000002
  0
ARC
  8
_0-0_0
  6
CONTINUOUS
 62
    7
 10
32.002395500000034
 20
480.79998799999998
 40
2.2000000000000002
 50
180.00000900000003
 51
303.74900400000001
  0
LINE
  8
_0-0_0
  6
CONTINUOUS
 62
    7
 10
29.8024135
 20
480.79998799999998
 11
29.8024135
 21
482.29998799999998
  0
LINE
  8
_0-0_0
  6
CONTINUOUS
 62
    7
 10
-44.797607500000026
 20
482.29998799999998
 11
29.8024135
 21
482.29998799999998
  0
LINE
  8
_0-0_0
  6
CONTINUOUS
 62
    7
 10
-44.797607500000026
 20
482.29998799999998
 11
-44.797607500000026
 21
480.79998799999998
  0
ARC
  8
_0-0_0
  6
CONTINUOUS
 62
    7
 10
-46.997604499999966
 20
480.79998799999998
 40
2.2000000000000002
 50
236.25102899999999
 51
0
  0
ARC
  8
_0-0_0
  6
CONTINUOUS
 62
    7
 10
-48.497604499999966
 20
478.55499299999997
 40
0.5
 50
56.251010000000008
 51
180.00000900000001
  0
ARC
  8
_0-0_0
  6
CONTINUOUS
 62
    7
 10
-46.997604499999966
 20
460.19998199999998
 40
2
 50
180.00000900000003
 51
269.99999700000001
  0
LINE
  8
_0-0_0
  6
CONTINUOUS
 62
    7
 10
-46.997604499999966
 20
458.19998199999998
 11
-45.997604499999966
 21
458.19998199999998
  0
LINE
  8
_0-0_0
  6
CONTINUOUS
 62
    7
 10
-45.997604499999966
 20
458.19998199999998
 11
-45.997604499999966
 21
459.79998799999998
  0
ARC
  8
_0-0_0
  6
CONTINUOUS
 62
    7
 10
-45.497604499999966
 20
459.79998799999998
 40
0.5
 50
90.000003000000007
 51
180.00000900000001
  0
LINE
  8
_0-0_0
  6
CONTINUOUS
 62
    7
 10
-45.297607500000026
 20
460.29998799999998
 11
-45.497604499999966
 21
460.29998799999998
  0
ARC
  8
_0-0_0
  6
CONTINUOUS
 62
    7
 10
-45.297607500000026
 20
459.79998799999998
 40
0.5
 50
90.000003000000007
 51
180.00000900000001
  0
LINE
  8
_0-0_0
  6
CONTINUOUS
 62
    7
 10
-45.797607500000026
 20
458.29998799999998
 11
-45.797607500000026
 21
459.79998799999998
  0
LINE
  8
_0-0_0
  6
CONTINUOUS
 62
    7
 10
23.8024135
 20
458.29998799999998
 11
-45.797607500000026
 21
458.29998799999998
  0
LINE
  8
_0-0_0
  6
CONTINUOUS
 62
    7
 10
23.8024135
 20
458.29998799999998
 11
23.8024135
 21
459.79998799999998
  0
ARC
  8
_0-0_0
  6
CONTINUOUS
 62
    7
 10
23.3024135
 20
459.79998799999998
 40
0.5
 50
0
 51
90.000003000000007
  0
LINE
  8
_0-0_0
  6
CONTINUOUS
 62
    7
 10
23.502395500000034
 20
460.29998799999998
 11
23.3024135
 21
460.29998799999998
  0
ARC
  8
_0-0_0
  6
CONTINUOUS
 62
    7
 10
23.502395500000034
 20
459.79998799999998
 40
0.5
 50
0
 51
90.000003000000007
  0
LINE
  8
_0-0_0
  6
CONTINUOUS
 62
    7
 10
24.002395500000034
 20
459.79998799999998
 11
24.002395500000034
 21
458.19998199999998
  0
LINE
  8
_0-0_0
  6
CONTINUOUS
 62
    7
 10
24.002395500000034
 20
458.19998199999998
 11
34.002395500000034
 21
458.19998199999998
  0
LINE
  8
_0-0_0
  6
CONTINUOUS
 62
    7
 10
34.002395500000034
 20
458.19998199999998
 11
34.002395500000034
 21
459.09997599999997
  0
LINE
  8
_0-0_0
  6
CONTINUOUS
 62
    7
 10
-29.997604499999966
 20
461.704071
 11
11.402389500000027
 21
461.704071
  0
LINE
  8
_0-0_0
  6
CONTINUOUS
 62
    7
 10
-29.997604499999966
 20
481.29998799999998
 11
11.402389500000027
 21
481.29998799999998
  0
ARC
  8
_0-0_0
  6
CONTINUOUS
 62
    7
 10
22.702407500000049
 20
460.49997000000002
 40
0.2
 50
180.00000900000003
 51
269.99999700000001
  0
LINE
  8
_0-0_0
  6
CONTINUOUS
 62
    7
 10
22.702407500000049
 20
460.29998799999998
 11
-44.697601500000019
 21
460.29998799999998
  0
ARC
  8
_0-0_0
  6
CONTINUOUS
 62
    7
 10
-44.697601500000019
 20
460.49997000000002
 40
0.2
 50
269.99999700000001
 51
0
  0
ARC
  8
_0-0_0
  6
CONTINUOUS
 62
    7
 10
-44.297607500000026
 20
460.49997000000002
 40
0.2
 50
90.000003000000007
 51
180.00000900000001
  0
LINE
  8
_0-0_0
  6
CONTINUOUS
 62
    7
 10
-44.297607500000026
 20
460.69998199999998
 11
22.3024135
 21
460.69998199999998
  0
ARC
  8
_0-0_0
  6
CONTINUOUS
 62
    7
 10
22.3024135
 20
460.49997000000002
 40
0.2
 50
0
 51
90.000003000000007
  0
LINE
  8
_0-0_0
  6
CONTINUOUS
 62
    7
 10
-48.997604499999966
 20
483.29998799999998
 11
47.502395500000034
 21
483.29998799999998
  0
LINE
  8
_0-0_0
  6
CONTINUOUS
 62
    7
 10
47.002395500000034
 20
482.29998799999998
 11
47.502395500000034
 21
482.29998799999998
  0
LINE
  8
_0-0_0
  6
CONTINUOUS
 62
    7
 10
34.002395500000034
 20
460.29998799999998
 11
34.002395500000034
 21
459.09997599999997
  0
LINE
  8
_0-0_0
  6
CONTINUOUS
 62
    7
 10
34.002395500000034
 20
460.29998799999998
 11
34.002395500000034
 21
477.89999399999999
  0
LINE
  8
_0-0_0
  6
CONTINUOUS
 62
    7
 10
34.002395500000034
 20
479.87734999999998
 11
34.002395500000034
 21
477.89999399999999
  0
LINE
  8
_0-0_0
  6
CONTINUOUS
 62
    7
 10
-46.997604499999966
 20
466.78967299999999
 11
-46.997604499999966
 21
477.23767099999998
  0
ARC
  8
_0-0_0
  6
CONTINUOUS
 62
    7
 10
-46.997604499999966
 20
480.79998799999998
 40
2.7000000000000002
 50
285.68033600000007
 51
352.23356600000005
  0
LINE
  8
_0-0_0
  6
CONTINUOUS
 62
    7
 10
30.002395500000034
 20
478.29998799999998
 11
30.002395500000034
 21
464.69998199999998
  0
LINE
  8
_0-0_0
  6
CONTINUOUS
 62
    7
 10
-44.997604499999966
 20
482.29998799999998
 11
-44.797607500000026
 21
482.29998799999998
  0
LINE
  8
_0-0_0
  6
CONTINUOUS
 62
    7
 10
-44.997604499999966
 20
482.29998799999998
 11
-44.997604499999966
 21
480.79998799999998
  0
ARC
  8
_0-0_0
  6
CONTINUOUS
 62
    7
 10
-46.997604499999966
 20
480.79998799999998
 40
2
 50
180.00000900000003
 51
0.0000000000000254
  0
LINE
  8
_0-0_0
  6
CONTINUOUS
 62
    7
 10
47.002395500000034
 20
482.29998799999998
 11
47.002395500000034
 21
480.59997599999997
  0
LINE
  8
_0-0_0
  6
CONTINUOUS
 62
    7
 10
34.002395500000034
 20
458.29998799999998
 11
46.002395500000034
 21
458.29998799999998
  0
LINE
  8
_0-0_0
  6
CONTINUOUS
 62
    7
 10
46.002395500000034
 20
458.29998799999998
 11
50.6778415
 21
458.29998799999998
  0
LINE
  8
_0-0_0
  6
CONTINUOUS
 62
    7
 10
46.002395500000034
 20
463.79998799999998
 11
46.002395500000034
 21
460.79998799999998
  0
LINE
  8
_0-0_0
  6
CONTINUOUS
 62
    7
 10
46.002395500000034
 20
460.79998799999998
 11
46.002395500000034
 21
460.29998799999998
  0
LINE
  8
_0-0_0
  6
CONTINUOUS
 62
    7
 10
46.002395500000034
 20
463.79998799999998
 11
46.002395500000034
 21
464.29998799999998
  0
ARC
  8
_0-0_0
  6
CONTINUOUS
 62
    7
 10
40.002395500000034
 20
463.60000600000001
 40
0.500016
 50
180.00117
 51
359.995611
  0
LINE
  8
_0-0_0
  6
CONTINUOUS
 62
    7
 10
40.502395500000034
 20
463.59997599999997
 11
40.502395500000034
 21
475.59997599999997
  0
ARC
  8
_0-0_0
  6
CONTINUOUS
 62
    7
 10
40.002395500000034
 20
475.59997599999997
 40
0.500016
 50
0.001164
 51
179.99560600000004
  0
LINE
  8
_0-0_0
  6
CONTINUOUS
 62
    7
 10
39.502395500000034
 20
463.59997599999997
 11
39.502395500000034
 21
475.59997599999997
  0
ARC
  8
_0-0_0
  6
CONTINUOUS
 62
    7
 10
41.502395500000034
 20
463.60000600000001
 40
0.500016
 50
180.00117
 51
359.995611
  0
LINE
  8
_0-0_0
  6
CONTINUOUS
 62
    7
 10
42.002395500000034
 20
463.59997599999997
 11
42.002395500000034
 21
475.59997599999997
  0
ARC
  8
_0-0_0
  6
CONTINUOUS
 62
    7
 10
41.502395500000034
 20
475.59997599999997
 40
0.500016
 50
0.001164
 51
179.99560600000004
  0
LINE
  8
_0-0_0
  6
CONTINUOUS
 62
    7
 10
41.002395500000034
 20
463.59997599999997
 11
41.002395500000034
 21
475.59997599999997
  0
ARC
  8
_0-0_0
  6
CONTINUOUS
 62
    7
 10
43.002395500000034
 20
463.60000600000001
 40
0.500016
 50
180.00117
 51
359.995611
  0
LINE
  8
_0-0_0
  6
CONTINUOUS
 62
    7
 10
43.502395500000034
 20
463.59997599999997
 11
43.502395500000034
 21
475.59997599999997
  0
ARC
  8
_0-0_0
  6
CONTINUOUS
 62
    7
 10
43.002395500000034
 20
475.59997599999997
 40
0.500016
 50
0.001164
 51
179.99560600000004
  0
LINE
  8
_0-0_0
  6
CONTINUOUS
 62
    7
 10
42.502395500000034
 20
463.59997599999997
 11
42.502395500000034
 21
475.59997599999997
  0
ARC
  8
_0-0_0
  6
CONTINUOUS
 62
    7
 10
44.502395500000034
 20
463.60000600000001
 40
0.500016
 50
180.00117
 51
359.995611
  0
LINE
  8
_0-0_0
  6
CONTINUOUS
 62
    7
 10
45.002395500000034
 20
463.59997599999997
 11
45.002395500000034
 21
475.59997599999997
  0
ARC
  8
_0-0_0
  6
CONTINUOUS
 62
    7
 10
44.502395500000034
 20
475.59997599999997
 40
0.500016
 50
0.001164
 51
179.99560600000004
  0
LINE
  8
_0-0_0
  6
CONTINUOUS
 62
    7
 10
44.002395500000034
 20
463.59997599999997
 11
44.002395500000034
 21
475.59997599999997
  0
LINE
  8
_0-0_0
  6
CONTINUOUS
 62
    7
 10
34.002395500000034
 20
480.59997599999997
 11
34.002395500000034
 21
479.87734999999998
  0
LINE
  8
_0-0_0
  6
CONTINUOUS
 62
    7
 10
47.002395500000034
 20
480.59997599999997
 11
34.002395500000034
 21
480.59997599999997
  0
LINE
  8
_0-0_0
  6
CONTINUOUS
 62
    7
 10
34.002395500000034
 20
482.29998799999998
 11
47.002395500000034
 21
482.29998799999998
  0
LINE
  8
_0-0_0
  6
CONTINUOUS
 62
    7
 10
34.002395500000034
 20
482.29998799999998
 11
34.002395500000034
 21
480.59997599999997
  0
LINE
  8
_0-0_0
  6
CONTINUOUS
 62
    7
 10
23.452407500000049
 20
460.27694700000001
 11
23.452407500000049
 21
460.29998799999998
  0
ARC
  8
_0-0_0
  6
CONTINUOUS
 62
    7
 10
50.6778415
 20
460.29998799999998
 40
2
 50
269.99999700000001
 51
288.43501300000003
  0
LINE
  8
_0-0_0
  6
CONTINUOUS
 62
    7
 10
29.8024135
 20
482.29998799999998
 11
30.002395500000034
 21
482.29998799999998
  0
ARC
  8
_0-0_0
  6
CONTINUOUS
 62
    7
 10
32.002395500000034
 20
480.79998799999998
 40
2
 50
180.00000900000003
 51
0.0000000000000254
  0
LINE
  8
_0-0_0
  6
CONTINUOUS
 62
    7
 10
30.002395500000034
 20
480.79998799999998
 11
30.002395500000034
 21
482.29998799999998
  0
LINE
  8
_0-0_0
  6
CONTINUOUS
 62
    7
 10
51.752395500000034
 20
458.54998799999998
 11
51.310287500000015
 21
458.40261900000002
  0
ARC
  8
_0-0_0
  6
CONTINUOUS
 62
    7
 10
21.002395500000034
 20
473.89999399999999
 40
2.25
 50
269.99999700000001
 51
90.000002999999992
  0
LINE
  8
_0-0_0
  6
CONTINUOUS
 62
    7
 10
17.002395500000034
 20
471.64999399999999
 11
21.002395500000034
 21
471.64999399999999
  0
ARC
  8
_0-0_0
  6
CONTINUOUS
 62
    7
 10
17.002395500000034
 20
473.89999399999999
 40
2.25
 50
90.000003000000007
 51
269.99999700000006
  0
ARC
  8
_0-0_0
  6
CONTINUOUS
 62
    7
 10
-34.997604499999966
 20
473.89999399999999
 40
2.25
 50
269.99999700000001
 51
90.000002999999992
  0
LINE
  8
_0-0_0
  6
CONTINUOUS
 62
    7
 10
-38.997604499999966
 20
471.64999399999999
 11
-34.997604499999966
 21
471.64999399999999
  0
ARC
  8
_0-0_0
  6
CONTINUOUS
 62
    7
 10
-38.997604499999966
 20
473.89999399999999
 40
2.25
 50
90.000003000000007
 51
269.99999700000006
  0
LINE
  8
_0-0_0
  6
CONTINUOUS
 62
    7
 10
17.002395500000034
 20
476.14999399999999
 11
21.002395500000034
 21
476.14999399999999
  0
LINE
  8
_0-0_0
  6
CONTINUOUS
 62
    7
 10
-38.997604499999966
 20
476.14999399999999
 11
-34.997604499999966
 21
476.14999399999999
  0
LINE
  8
_0-0_0
  6
CONTINUOUS
 62
    7
 10
23.242996500000004
 20
469.89999399999999
 11
14.761794500000008
 21
469.89999399999999
  0
LINE
  8
_0-0_0
  6
CONTINUOUS
 62
    7
 10
23.242996500000004
 20
469.89999399999999
 11
25.5524135
 21
473.89999399999999
  0
LINE
  8
_0-0_0
  6
CONTINUOUS
 62
    7
 10
25.5524135
 20
473.89999399999999
 11
23.242996500000004
 21
477.89999399999999
  0
LINE
  8
_0-0_0
  6
CONTINUOUS
 62
    7
 10
14.761794500000008
 20
477.89999399999999
 11
23.242996500000004
 21
477.89999399999999
  0
LINE
  8
_0-0_0
  6
CONTINUOUS
 62
    7
 10
12.452392499999974
 20
473.89999399999999
 11
14.761794500000008
 21
477.89999399999999
  0
LINE
  8
_0-0_0
  6
CONTINUOUS
 62
    7
 10
14.761794500000008
 20
469.89999399999999
 11
12.452392499999974
 21
473.89999399999999
  0
LINE
  8
_0-0_0
  6
CONTINUOUS
 62
    7
 10
-32.757003499999996
 20
469.89999399999999
 11
-41.238205499999992
 21
469.89999399999999
  0
LINE
  8
_0-0_0
  6
CONTINUOUS
 62
    7
 10
-30.447601500000019
 20
473.89999399999999
 11
-32.757003499999996
 21
469.89999399999999
  0
LINE
  8
_0-0_0
  6
CONTINUOUS
 62
    7
 10
-30.447601500000019
 20
473.89999399999999
 11
-32.757003499999996
 21
477.89999399999999
  0
LINE
  8
_0-0_0
  6
CONTINUOUS
 62
    7
 10
-41.238205499999992
 20
477.89999399999999
 11
-32.757003499999996
 21
477.89999399999999
  0
LINE
  8
_0-0_0
  6
CONTINUOUS
 62
    7
 10
-43.547607500000026
 20
473.89999399999999
 11
-41.238205499999992
 21
477.89999399999999
  0
LINE
  8
_0-0_0
  6
CONTINUOUS
 62
    7
 10
-43.547607500000026
 20
473.89999399999999
 11
-41.238205499999992
 21
469.89999399999999
  0
CIRCLE
  8
_0-0_0
  6
CONTINUOUS
 62
    7
 10
32.002395500000034
 20
480.79998799999998
 40
1.4750000000000001
  0
CIRCLE
  8
_0-0_0
  6
CONTINUOUS
 62
    7
 10
-46.997604499999966
 20
480.79998799999998
 40
1.4750000000000001
  0
LINE
  8
_0-0_0
  6
CONTINUOUS
 62
    7
 10
32.452407500000049
 20
480.59997599999997
 11
33.102401500000042
 21
480.59997599999997
  0
ARC
  8
_0-0_0
  6
CONTINUOUS
 62
    7
 10
32.452407500000049
 20
480.34997599999997
 40
0.25
 50
90.000003000000007
 51
180.00000900000001
  0
LINE
  8
_0-0_0
  6
CONTINUOUS
 62
    7
 10
32.202407500000049
 20
480.34997599999997
 11
32.202407500000049
 21
479.69998199999998
  0
LINE
  8
_0-0_0
  6
CONTINUOUS
 62
    7
 10
31.8024135
 20
479.69998199999998
 11
32.202407500000049
 21
479.69998199999998
  0
LINE
  8
_0-0_0
  6
CONTINUOUS
 62
    7
 10
31.8024135
 20
479.69998199999998
 11
31.8024135
 21
480.34997599999997
  0
ARC
  8
_0-0_0
  6
CONTINUOUS
 62
    7
 10
31.5524135
 20
480.34997599999997
 40
0.25
 50
0
 51
90.000003000000007
  0
LINE
  8
_0-0_0
  6
CONTINUOUS
 62
    7
 10
30.902389500000027
 20
480.59997599999997
 11
31.5524135
 21
480.59997599999997
  0
LINE
  8
_0-0_0
  6
CONTINUOUS
 62
    7
 10
30.902389500000027
 20
480.59997599999997
 11
30.902389500000027
 21
481
  0
LINE
  8
_0-0_0
  6
CONTINUOUS
 62
    7
 10
31.5524135
 20
481
 11
30.902389500000027
 21
481
  0
ARC
  8
_0-0_0
  6
CONTINUOUS
 62
    7
 10
31.5524135
 20
481.25
 40
0.25
 50
269.99999700000001
 51
0
  0
LINE
  8
_0-0_0
  6
CONTINUOUS
 62
    7
 10
31.8024135
 20
481.25
 11
31.8024135
 21
481.89999399999999
  0
LINE
  8
_0-0_0
  6
CONTINUOUS
 62
    7
 10
32.202407500000049
 20
481.89999399999999
 11
31.8024135
 21
481.89999399999999
  0
LINE
  8
_0-0_0
  6
CONTINUOUS
 62
    7
 10
32.202407500000049
 20
481.89999399999999
 11
32.202407500000049
 21
481.25
  0
ARC
  8
_0-0_0
  6
CONTINUOUS
 62
    7
 10
32.452407500000049
 20
481.25
 40
0.25
 50
180.00000900000003
 51
269.99999700000001
  0
LINE
  8
_0-0_0
  6
CONTINUOUS
 62
    7
 10
33.102401500000042
 20
481
 11
32.452407500000049
 21
481
  0
LINE
  8
_0-0_0
  6
CONTINUOUS
 62
    7
 10
33.102401500000042
 20
481
 11
33.102401500000042
 21
480.59997599999997
  0
LINE
  8
_0-0_0
  6
CONTINUOUS
 62
    7
 10
-46.547607500000026
 20
480.59997599999997
 11
-45.897598499999958
 21
480.59997599999997
  0
ARC
  8
_0-0_0
  6
CONTINUOUS
 62
    7
 10
-46.547607500000026
 20
480.34997599999997
 40
0.25
 50
90.000003000000007
 51
180.00000900000001
  0
LINE
  8
_0-0_0
  6
CONTINUOUS
 62
    7
 10
-46.797607500000026
 20
480.34997599999997
 11
-46.797607500000026
 21
479.69998199999998
  0
LINE
  8
_0-0_0
  6
CONTINUOUS
 62
    7
 10
-47.197601500000019
 20
479.69998199999998
 11
-46.797607500000026
 21
479.69998199999998
  0
LINE
  8
_0-0_0
  6
CONTINUOUS
 62
    7
 10
-47.197601500000019
 20
479.69998199999998
 11
-47.197601500000019
 21
480.34997599999997
  0
ARC
  8
_0-0_0
  6
CONTINUOUS
 62
    7
 10
-47.447601500000019
 20
480.34997599999997
 40
0.25
 50
0
 51
90.000003000000007
  0
LINE
  8
_0-0_0
  6
CONTINUOUS
 62
    7
 10
-48.097610499999973
 20
480.59997599999997
 11
-47.447601500000019
 21
480.59997599999997
  0
LINE
  8
_0-0_0
  6
CONTINUOUS
 62
    7
 10
-48.097610499999973
 20
480.59997599999997
 11
-48.097610499999973
 21
481
  0
LINE
  8
_0-0_0
  6
CONTINUOUS
 62
    7
 10
-47.447601500000019
 20
481
 11
-48.097610499999973
 21
481
  0
ARC
  8
_0-0_0
  6
CONTINUOUS
 62
    7
 10
-47.447601500000019
 20
481.25
 40
0.25
 50
269.99999700000001
 51
0
  0
LINE
  8
_0-0_0
  6
CONTINUOUS
 62
    7
 10
-47.197601500000019
 20
481.25
 11
-47.197601500000019
 21
481.89999399999999
  0
LINE
  8
_0-0_0
  6
CONTINUOUS
 62
    7
 10
-46.797607500000026
 20
481.89999399999999
 11
-47.197601500000019
 21
481.89999399999999
  0
LINE
  8
_0-0_0
  6
CONTINUOUS
 62
    7
 10
-46.797607500000026
 20
481.89999399999999
 11
-46.797607500000026
 21
481.25
  0
ARC
  8
_0-0_0
  6
CONTINUOUS
 62
    7
 10
-46.547607500000026
 20
481.25
 40
0.25
 50
180.00000900000003
 51
269.99999700000001
  0
LINE
  8
_0-0_0
  6
CONTINUOUS
 62
    7
 10
-45.897598499999958
 20
481
 11
-46.547607500000026
 21
481
  0
LINE
  8
_0-0_0
  6
CONTINUOUS
 62
    7
 10
-45.897598499999958
 20
481
 11
-45.897598499999958
 21
480.59997599999997
  0
LINE
  8
_0-0_0
  6
CONTINUOUS
 62
    7
 10
-45.447601500000019
 20
460.27694700000001
 11
-45.447601500000019
 21
460.29998799999998
  0
LINE
  8
_0-0_0
  6
CONTINUOUS
 62
    7
 10
-26.997604499999966
 20
478.29998799999998
 11
-26.997604499999966
 21
465.34298699999999
  0
ARC
  8
_0-0_0
  6
CONTINUOUS
 62
    7
 10
-29.997604499999966
 20
478.29998799999998
 40
3
 50
0
 51
90.000003000000007
  0
LINE
  8
_0-0_0
  6
CONTINUOUS
 62
    7
 10
9.0023955000000342
 20
464.69998199999998
 11
9.0023955000000342
 21
478.29998799999998
  0
LINE
  8
_0-0_0
  6
CONTINUOUS
 62
    7
 10
-7.510116499999981
 20
474.46963499999998
 11
-8.8101194999999848
 21
477.96963499999998
  0
ARC
  8
_0-0_0
  6
CONTINUOUS
 62
    7
 10
-10.297592499999951
 20
474.39999399999999
 40
0.2
 50
159.62357
 51
269.99999700000001
  0
LINE
  8
_0-0_0
  6
CONTINUOUS
 62
    7
 10
34.002395500000034
 20
479.89999399999999
 11
50.6778415
 21
479.89999399999999
  0
ARC
  8
_0-0_0
  6
CONTINUOUS
 62
    7
 10
50.6778415
 20
477.89999399999999
 40
2
 50
71.565000999999995
 51
90.000003000000007
  0
LINE
  8
_0-0_0
  6
CONTINUOUS
 62
    7
 10
51.310317499999996
 20
479.79736300000002
 11
51.190811499999995
 21
479.83297699999997
  0
LINE
  8
_0-0_0
  6
CONTINUOUS
 62
    7
 10
51.190811499999995
 20
479.83297699999997
 11
51.069259500000044
 21
479.86084
  0
LINE
  8
_0-0_0
  6
CONTINUOUS
 62
    7
 10
51.069259500000044
 20
479.86084
 11
50.946121500000004
 21
479.88088999999997
  0
LINE
  8
_0-0_0
  6
CONTINUOUS
 62
    7
 10
50.946121500000004
 20
479.88088999999997
 11
50.821914500000048
 21
479.89300500000002
  0
LINE
  8
_0-0_0
  6
CONTINUOUS
 62
    7
 10
50.821914500000048
 20
479.89300500000002
 11
50.697067500000003
 21
479.89712500000002
  0
LINE
  8
_0-0_0
  6
CONTINUOUS
 62
    7
 10
50.697067500000003
 20
479.89712500000002
 11
50.6778415
 21
479.897064
  0
LINE
  8
_0-0_0
  6
CONTINUOUS
 62
    7
 10
55.634841499999993
 20
478.35583500000001
 11
51.310287500000015
 21
479.79736300000002
  0
LINE
  8
_0-0_0
  6
CONTINUOUS
 62
    7
 10
55.476730500000031
 20
463.79998799999998
 11
56.170089500000017
 21
463.79998799999998
  0
LINE
  8
_0-0_0
  6
CONTINUOUS
 62
    7
 10
55.476730500000031
 20
463.79998799999998
 11
51.152175499999998
 21
463.79998799999998
  0
LINE
  8
_0-0_0
  6
CONTINUOUS
 62
    7
 10
50.6778415
 20
463.79998799999998
 11
51.152175499999998
 21
463.79998799999998
  0
LINE
  8
_0-0_0
  6
CONTINUOUS
 62
    7
 10
46.002395500000034
 20
463.79998799999998
 11
50.6778415
 21
463.79998799999998
  0
LINE
  8
_0-0_0
  6
CONTINUOUS
 62
    7
 10
57.002395500000034
 20
463.04995700000001
 11
57.002395500000034
 21
464.17095999999998
  0
LINE
  8
_0-0_0
  6
CONTINUOUS
 62
    7
 10
57.002395500000034
 20
465.092285
 11
57.002395500000034
 21
464.17095999999998
  0
LINE
  8
_0-0_0
  6
CONTINUOUS
 62
    7
 10
68.002395500000034
 20
463.84997599999997
 11
68.002395500000034
 21
471.83154300000001
  0
ARC
  8
_0-0_0
  6
CONTINUOUS
 62
    7
 10
61.828506500000003
 20
472.35086100000001
 40
4.9238749999999998
 50
352.49423299999995
 51
1.5359699999999901
  0
LINE
  8
_0-0_0
  6
CONTINUOUS
 62
    7
 10
66.710220499999991
 20
466.492279
 11
66.804550500000005
 21
466.738922
  0
LINE
  8
_0-0_0
  6
CONTINUOUS
 62
    7
 10
66.804550500000005
 20
466.738922
 11
66.888503500000013
 21
466.978882
  0
LINE
  8
_0-0_0
  6
CONTINUOUS
 62
    7
 10
66.888503500000013
 20
466.978882
 11
66.962661499999967
 21
467.21301299999999
  0
LINE
  8
_0-0_0
  6
CONTINUOUS
 62
    7
 10
66.962661499999967
 20
467.21301299999999
 11
67.027542499999981
 21
467.442047
  0
LINE
  8
_0-0_0
  6
CONTINUOUS
 62
    7
 10
67.027542499999981
 20
467.442047
 11
67.083602499999984
 21
467.666718
  0
LINE
  8
_0-0_0
  6
CONTINUOUS
 62
    7
 10
67.083602499999984
 20
467.666718
 11
67.131149499999992
 21
467.88769500000001
  0
LINE
  8
_0-0_0
  6
CONTINUOUS
 62
    7
 10
67.131149499999992
 20
467.88769500000001
 11
67.170547499999998
 21
468.10562099999999
  0
LINE
  8
_0-0_0
  6
CONTINUOUS
 62
    7
 10
67.170547499999998
 20
468.10562099999999
 11
67.202041500000007
 21
468.32104499999997
  0
LINE
  8
_0-0_0
  6
CONTINUOUS
 62
    7
 10
67.202041500000007
 20
468.32104499999997
 11
67.225814500000013
 21
468.53457700000001
  0
LINE
  8
_0-0_0
  6
CONTINUOUS
 62
    7
 10
67.225814500000013
 20
468.53457700000001
 11
67.241744499999982
 21
468.74230999999997
  0
LINE
  8
_0-0_0
  6
CONTINUOUS
 62
    7
 10
67.241744499999982
 20
468.74230999999997
 11
67.250503500000036
 21
468.94915800000001
  0
LINE
  8
_0-0_0
  6
CONTINUOUS
 62
    7
 10
67.250503500000036
 20
468.94915800000001
 11
67.252151499999968
 21
469.15560899999997
  0
LINE
  8
_0-0_0
  6
CONTINUOUS
 62
    7
 10
67.252151499999968
 20
469.15560899999997
 11
67.246688500000005
 21
469.362213
  0
LINE
  8
_0-0_0
  6
CONTINUOUS
 62
    7
 10
67.246688500000005
 20
469.362213
 11
67.234054500000013
 21
469.56939699999998
  0
LINE
  8
_0-0_0
  6
CONTINUOUS
 62
    7
 10
67.234054500000013
 20
469.56939699999998
 11
67.214248499999997
 21
469.77767999999998
  0
LINE
  8
_0-0_0
  6
CONTINUOUS
 62
    7
 10
67.214248499999997
 20
469.77767999999998
 11
67.187118499999997
 21
469.98761000000002
  0
LINE
  8
_0-0_0
  6
CONTINUOUS
 62
    7
 10
67.187118499999997
 20
469.98761000000002
 11
67.152450499999986
 21
470.19967700000001
  0
LINE
  8
_0-0_0
  6
CONTINUOUS
 62
    7
 10
67.152450499999986
 20
470.19967700000001
 11
67.110122499999989
 21
470.41442899999998
  0
LINE
  8
_0-0_0
  6
CONTINUOUS
 62
    7
 10
67.110122499999989
 20
470.41442899999998
 11
67.059799499999997
 21
470.63241599999998
  0
LINE
  8
_0-0_0
  6
CONTINUOUS
 62
    7
 10
67.059799499999997
 20
470.63241599999998
 11
67.0055385
 21
470.83871499999998
  0
LINE
  8
_0-0_0
  6
CONTINUOUS
 62
    7
 10
67.0055385
 20
470.83871499999998
 11
66.943832499999985
 21
471.04882800000001
  0
LINE
  8
_0-0_0
  6
CONTINUOUS
 62
    7
 10
66.943832499999985
 20
471.04882800000001
 11
66.874313499999971
 21
471.26327499999996
  0
LINE
  8
_0-0_0
  6
CONTINUOUS
 62
    7
 10
66.874313499999971
 20
471.26327499999996
 11
66.79661550000003
 21
471.48269699999997
  0
LINE
  8
_0-0_0
  6
CONTINUOUS
 62
    7
 10
66.79661550000003
 20
471.48269699999997
 11
66.710220499999991
 21
471.707672
  0
ARC
  8
_0-0_0
  6
CONTINUOUS
 62
    7
 10
61.83866850000004
 20
465.84997599999997
 40
4.9136889999999998
 50
352.48898799999995
 51
7.5110139999999577
  0
LINE
  8
_0-0_0
  6
CONTINUOUS
 62
    7
 10
66.710220499999991
 20
465.207672
 11
66.7647245
 21
465.13775599999997
  0
LINE
  8
_0-0_0
  6
CONTINUOUS
 62
    7
 10
66.7647245
 20
465.13775599999997
 11
66.815811499999995
 21
465.06890900000002
  0
LINE
  8
_0-0_0
  6
CONTINUOUS
 62
    7
 10
66.815811499999995
 20
465.06890900000002
 11
66.863449500000002
 21
465.00140399999998
  0
LINE
  8
_0-0_0
  6
CONTINUOUS
 62
    7
 10
66.863449500000002
 20
465.00140399999998
 11
66.907943499999988
 21
464.93487599999997
  0
LINE
  8
_0-0_0
  6
CONTINUOUS
 62
    7
 10
66.907943499999988
 20
464.93487599999997
 11
66.962661499999967
 21
464.84732099999997
  0
LINE
  8
_0-0_0
  6
CONTINUOUS
 62
    7
 10
66.962661499999967
 20
464.84732099999997
 11
67.012191499999972
 21
464.76123100000001
  0
LINE
  8
_0-0_0
  6
CONTINUOUS
 62
    7
 10
67.012191499999972
 20
464.76123100000001
 11
67.056655500000033
 21
464.67639199999996
  0
LINE
  8
_0-0_0
  6
CONTINUOUS
 62
    7
 10
67.056655500000033
 20
464.67639199999996
 11
67.103622500000029
 21
464.57607999999999
  0
LINE
  8
_0-0_0
  6
CONTINUOUS
 62
    7
 10
67.103622500000029
 20
464.57607999999999
 11
67.143814500000019
 21
464.47714200000001
  0
LINE
  8
_0-0_0
  6
CONTINUOUS
 62
    7
 10
67.143814500000019
 20
464.47714200000001
 11
67.177474500000017
 21
464.37939499999999
  0
LINE
  8
_0-0_0
  6
CONTINUOUS
 62
    7
 10
67.177474500000017
 20
464.37939499999999
 11
67.204788500000006
 21
464.28259300000002
  0
LINE
  8
_0-0_0
  6
CONTINUOUS
 62
    7
 10
67.204788500000006
 20
464.28259300000002
 11
67.225814500000013
 21
464.18652400000002
  0
LINE
  8
_0-0_0
  6
CONTINUOUS
 62
    7
 10
67.225814500000013
 20
464.18652400000002
 11
67.241744499999982
 21
464.082672
  0
LINE
  8
_0-0_0
  6
CONTINUOUS
 62
    7
 10
67.241744499999982
 20
464.082672
 11
67.250503500000036
 21
463.97924799999998
  0
LINE
  8
_0-0_0
  6
CONTINUOUS
 62
    7
 10
67.250503500000036
 20
463.97924799999998
 11
67.252151499999968
 21
463.87600700000002
  0
LINE
  8
_0-0_0
  6
CONTINUOUS
 62
    7
 10
67.252151499999968
 20
463.87600700000002
 11
67.246688500000005
 21
463.77273600000001
  0
LINE
  8
_0-0_0
  6
CONTINUOUS
 62
    7
 10
67.246688500000005
 20
463.77273600000001
 11
67.234054500000013
 21
463.669129
  0
LINE
  8
_0-0_0
  6
CONTINUOUS
 62
    7
 10
67.234054500000013
 20
463.669129
 11
67.214248499999997
 21
463.56497200000001
  0
LINE
  8
_0-0_0
  6
CONTINUOUS
 62
    7
 10
67.214248499999997
 20
463.56497200000001
 11
67.187118499999997
 21
463.46002199999998
  0
LINE
  8
_0-0_0
  6
CONTINUOUS
 62
    7
 10
67.187118499999997
 20
463.46002199999998
 11
67.152450499999986
 21
463.35400399999997
  0
LINE
  8
_0-0_0
  6
CONTINUOUS
 62
    7
 10
67.152450499999986
 20
463.35400399999997
 11
67.110122499999989
 21
463.24661299999997
  0
LINE
  8
_0-0_0
  6
CONTINUOUS
 62
    7
 10
67.110122499999989
 20
463.24661299999997
 11
67.059799499999997
 21
463.13760400000001
  0
LINE
  8
_0-0_0
  6
CONTINUOUS
 62
    7
 10
67.059799499999997
 20
463.13760400000001
 11
67.014114500000005
 21
463.04995700000001
  0
LINE
  8
_0-0_0
  6
CONTINUOUS
 62
    7
 10
57.002395500000034
 20
472.992279
 11
66.710220499999991
 21
472.992279
  0
LINE
  8
_0-0_0
  6
CONTINUOUS
 62
    7
 10
57.002395500000034
 20
471.707672
 11
57.002395500000034
 21
472.992279
  0
LINE
  8
_0-0_0
  6
CONTINUOUS
 62
    7
 10
57.002395500000034
 20
471.707672
 11
66.710220499999991
 21
471.707672
  0
ARC
  8
_0-0_0
  6
CONTINUOUS
 62
    7
 10
61.790481499999999
 20
472.34591699999999
 40
4.9620009999999999
 50
1.5813010000000001
 51
7.4847919999999997
  0
LINE
  8
_0-0_0
  6
CONTINUOUS
 62
    7
 10
56.702407500000049
 20
466.88797
 11
56.618942500000003
 21
467.26663200000002
  0
LINE
  8
_0-0_0
  6
CONTINUOUS
 62
    7
 10
56.618942500000003
 20
467.26663200000002
 11
56.578842500000007
 21
467.45816100000002
  0
LINE
  8
_0-0_0
  6
CONTINUOUS
 62
    7
 10
56.578842500000007
 20
467.45816100000002
 11
56.522750500000029
 21
467.7482
  0
LINE
  8
_0-0_0
  6
CONTINUOUS
 62
    7
 10
56.522750500000029
 20
467.7482
 11
56.485153500000024
 21
467.96777400000002
  0
LINE
  8
_0-0_0
  6
CONTINUOUS
 62
    7
 10
56.485153500000024
 20
467.96777400000002
 11
56.452529499999969
 21
468.18902600000001
  0
LINE
  8
_0-0_0
  6
CONTINUOUS
 62
    7
 10
56.452529499999969
 20
468.18902600000001
 11
56.425369499999988
 21
468.41583300000002
  0
LINE
  8
_0-0_0
  6
CONTINUOUS
 62
    7
 10
56.425369499999988
 20
468.41583300000002
 11
56.405288499999983
 21
468.64321899999999
  0
LINE
  8
_0-0_0
  6
CONTINUOUS
 62
    7
 10
56.405288499999983
 20
468.64321899999999
 11
56.39814750000005
 21
468.756958
  0
LINE
  8
_0-0_0
  6
CONTINUOUS
 62
    7
 10
56.39814750000005
 20
468.756958
 11
56.392990499999996
 21
468.87063599999999
  0
LINE
  8
_0-0_0
  6
CONTINUOUS
 62
    7
 10
56.392990499999996
 20
468.87063599999999
 11
56.389266500000019
 21
469.022064
  0
LINE
  8
_0-0_0
  6
CONTINUOUS
 62
    7
 10
56.389266500000019
 20
469.022064
 11
56.389205500000003
 21
469.17334
  0
LINE
  8
_0-0_0
  6
CONTINUOUS
 62
    7
 10
56.389205500000003
 20
469.17334
 11
56.392776499999968
 21
469.32437099999999
  0
LINE
  8
_0-0_0
  6
CONTINUOUS
 62
    7
 10
56.392776499999968
 20
469.32437099999999
 11
56.402297500000032
 21
469.51294000000001
  0
LINE
  8
_0-0_0
  6
CONTINUOUS
 62
    7
 10
56.402297500000032
 20
469.51294000000001
 11
56.417159500000025
 21
469.70117199999999
  0
LINE
  8
_0-0_0
  6
CONTINUOUS
 62
    7
 10
56.417159500000025
 20
469.70117199999999
 11
56.437087500000018
 21
469.88912999999997
  0
LINE
  8
_0-0_0
  6
CONTINUOUS
 62
    7
 10
56.437087500000018
 20
469.88912999999997
 11
56.453475499999968
 21
470.01800500000002
  0
LINE
  8
_0-0_0
  6
CONTINUOUS
 62
    7
 10
56.453475499999968
 20
470.01800500000002
 11
56.471877500000005
 21
470.146637
  0
LINE
  8
_0-0_0
  6
CONTINUOUS
 62
    7
 10
56.471877500000005
 20
470.146637
 11
56.496047500000032
 21
470.29858400000001
  0
LINE
  8
_0-0_0
  6
CONTINUOUS
 62
    7
 10
56.496047500000032
 20
470.29858400000001
 11
56.522445500000003
 21
470.44992100000002
  0
LINE
  8
_0-0_0
  6
CONTINUOUS
 62
    7
 10
56.522445500000003
 20
470.44992100000002
 11
56.578597500000001
 21
470.74054000000001
  0
LINE
  8
_0-0_0
  6
CONTINUOUS
 62
    7
 10
56.578597500000001
 20
470.74054000000001
 11
56.61875950000001
 21
470.93249500000002
  0
LINE
  8
_0-0_0
  6
CONTINUOUS
 62
    7
 10
56.61875950000001
 20
470.93249500000002
 11
56.702407500000049
 21
471.311981
  0
LINE
  8
_0-0_0
  6
CONTINUOUS
 62
    7
 10
57.002395500000034
 20
467.53793300000001
 11
57.002395500000034
 21
470.66204799999997
  0
LINE
  8
_0-0_0
  6
CONTINUOUS
 62
    7
 10
81.752395500000034
 20
459.57455499999998
 11
81.502395500000034
 21
459.54998799999998
  0
LINE
  8
_0-0_0
  6
CONTINUOUS
 62
    7
 10
81.502395500000034
 20
459.54998799999998
 11
72.252395500000034
 21
459.54998799999998
  0
LINE
  8
_0-0_0
  6
CONTINUOUS
 62
    7
 10
72.002395500000034
 20
459.57455499999998
 11
72.252395500000034
 21
459.54998799999998
  0
LINE
  8
_0-0_0
  6
CONTINUOUS
 62
    7
 10
81.752395500000034
 20
462.54855399999997
 11
81.502395500000034
 21
462.82254
  0
LINE
  8
_0-0_0
  6
CONTINUOUS
 62
    7
 10
81.752395500000034
 20
462.54855399999997
 11
81.502395500000034
 21
462.65783699999997
  0
LINE
  8
_0-0_0
  6
CONTINUOUS
 62
    7
 10
81.752395500000034
 20
462.390961
 11
81.502395500000034
 21
462.65783699999997
  0
LINE
  8
_0-0_0
  6
CONTINUOUS
 62
    7
 10
81.752395500000034
 20
462.390961
 11
81.502395500000034
 21
462.47280899999998
  0
LINE
  8
_0-0_0
  6
CONTINUOUS
 62
    7
 10
81.752395500000034
 20
462.21597300000002
 11
81.502395500000034
 21
462.47280899999998
  0
LINE
  8
_0-0_0
  6
CONTINUOUS
 62
    7
 10
81.752395500000034
 20
462.21597300000002
 11
81.502395500000034
 21
462.26943999999997
  0
LINE
  8
_0-0_0
  6
CONTINUOUS
 62
    7
 10
81.752395500000034
 20
462.02542099999999
 11
81.502395500000034
 21
462.26943999999997
  0
LINE
  8
_0-0_0
  6
CONTINUOUS
 62
    7
 10
81.752395500000034
 20
462.02542099999999
 11
81.502395500000034
 21
462.04998799999998
  0
LINE
  8
_0-0_0
  6
CONTINUOUS
 62
    7
 10
81.752395500000034
 20
461.82147199999997
 11
81.502395500000034
 21
462.04998799999998
  0
LINE
  8
_0-0_0
  6
CONTINUOUS
 62
    7
 10
81.752395500000034
 20
461.82147199999997
 11
81.502395500000034
 21
461.81683399999997
  0
LINE
  8
_0-0_0
  6
CONTINUOUS
 62
    7
 10
81.752395500000034
 20
461.60632299999997
 11
81.502395500000034
 21
461.81683399999997
  0
LINE
  8
_0-0_0
  6
CONTINUOUS
 62
    7
 10
81.752395500000034
 20
461.60632299999997
 11
81.502395500000034
 21
461.57254
  0
LINE
  8
_0-0_0
  6
CONTINUOUS
 62
    7
 10
81.752395500000034
 20
461.38232399999998
 11
81.502395500000034
 21
461.57254
  0
LINE
  8
_0-0_0
  6
CONTINUOUS
 62
    7
 10
81.752395500000034
 20
461.38232399999998
 11
81.502395500000034
 21
461.31976299999997
  0
LINE
  8
_0-0_0
  6
CONTINUOUS
 62
    7
 10
81.752395500000034
 20
461.15197799999999
 11
81.502395500000034
 21
461.31976299999997
  0
LINE
  8
_0-0_0
  6
CONTINUOUS
 62
    7
 10
81.752395500000034
 20
461.15197799999999
 11
81.502395500000034
 21
461.06130999999999
  0
LINE
  8
_0-0_0
  6
CONTINUOUS
 62
    7
 10
81.752395500000034
 20
460.917755
 11
81.502395500000034
 21
461.06130999999999
  0
LINE
  8
_0-0_0
  6
CONTINUOUS
 62
    7
 10
81.752395500000034
 20
460.917755
 11
81.502395500000034
 21
460.79998799999998
  0
LINE
  8
_0-0_0
  6
CONTINUOUS
 62
    7
 10
81.752395500000034
 20
460.68222099999997
 11
81.502395500000034
 21
460.79998799999998
  0
LINE
  8
_0-0_0
  6
CONTINUOUS
 62
    7
 10
81.752395500000034
 20
460.68222099999997
 11
81.502395500000034
 21
460.53866599999998
  0
LINE
  8
_0-0_0
  6
CONTINUOUS
 62
    7
 10
81.752395500000034
 20
460.44799799999998
 11
81.502395500000034
 21
460.53866599999998
  0
LINE
  8
_0-0_0
  6
CONTINUOUS
 62
    7
 10
81.752395500000034
 20
460.44799799999998
 11
81.502395500000034
 21
460.280213
  0
LINE
  8
_0-0_0
  6
CONTINUOUS
 62
    7
 10
81.752395500000034
 20
460.21765099999999
 11
81.502395500000034
 21
460.280213
  0
LINE
  8
_0-0_0
  6
CONTINUOUS
 62
    7
 10
81.752395500000034
 20
460.21765099999999
 11
81.502395500000034
 21
460.02743499999997
  0
LINE
  8
_0-0_0
  6
CONTINUOUS
 62
    7
 10
81.752395500000034
 20
459.993652
 11
81.502395500000034
 21
460.02743499999997
  0
LINE
  8
_0-0_0
  6
CONTINUOUS
 62
    7
 10
81.752395500000034
 20
459.993652
 11
81.502395500000034
 21
459.783142
  0
LINE
  8
_0-0_0
  6
CONTINUOUS
 62
    7
 10
81.752395500000034
 20
459.778504
 11
81.502395500000034
 21
459.783142
  0
LINE
  8
_0-0_0
  6
CONTINUOUS
 62
    7
 10
81.752395500000034
 20
459.778504
 11
81.502395500000034
 21
459.54998799999998
  0
LINE
  8
_0-0_0
  6
CONTINUOUS
 62
    7
 10
81.752395500000034
 20
459.57455499999998
 11
81.502395500000034
 21
459.330536
  0
LINE
  8
_0-0_0
  6
CONTINUOUS
 62
    7
 10
81.752395500000034
 20
459.38400300000001
 11
81.502395500000034
 21
459.330536
  0
LINE
  8
_0-0_0
  6
CONTINUOUS
 62
    7
 10
81.752395500000034
 20
459.38400300000001
 11
81.502395500000034
 21
459.12716699999999
  0
LINE
  8
_0-0_0
  6
CONTINUOUS
 62
    7
 10
81.752395500000034
 20
459.20898399999999
 11
81.502395500000034
 21
459.12716699999999
  0
LINE
  8
_0-0_0
  6
CONTINUOUS
 62
    7
 10
81.752395500000034
 20
459.20898399999999
 11
81.502395500000034
 21
458.94210800000002
  0
LINE
  8
_0-0_0
  6
CONTINUOUS
 62
    7
 10
81.752395500000034
 20
459.051422
 11
81.502395500000034
 21
458.94210800000002
  0
LINE
  8
_0-0_0
  6
CONTINUOUS
 62
    7
 10
81.752395500000034
 20
459.051422
 11
81.502395500000034
 21
458.77743499999997
  0
LINE
  8
_0-0_0
  6
CONTINUOUS
 62
    7
 10
81.752395500000034
 20
458.91299399999997
 11
81.502395500000034
 21
458.77743499999997
  0
LINE
  8
_0-0_0
  6
CONTINUOUS
 62
    7
 10
81.752395500000034
 20
458.91299399999997
 11
81.502395500000034
 21
458.63491799999997
  0
LINE
  8
_0-0_0
  6
CONTINUOUS
 62
    7
 10
81.752395500000034
 20
458.79522700000001
 11
81.502395500000034
 21
458.63491799999997
  0
LINE
  8
_0-0_0
  6
CONTINUOUS
 62
    7
 10
81.752395500000034
 20
458.79522700000001
 11
81.502395500000034
 21
458.51611300000002
  0
LINE
  8
_0-0_0
  6
CONTINUOUS
 62
    7
 10
81.752395500000034
 20
458.699432
 11
81.502395500000034
 21
458.51611300000002
  0
LINE
  8
_0-0_0
  6
CONTINUOUS
 62
    7
 10
81.752395500000034
 20
458.699432
 11
81.502395500000034
 21
458.42233299999998
  0
LINE
  8
_0-0_0
  6
CONTINUOUS
 62
    7
 10
81.752395500000034
 20
458.62664799999999
 11
81.502395500000034
 21
458.42233299999998
  0
LINE
  8
_0-0_0
  6
CONTINUOUS
 62
    7
 10
81.752395500000034
 20
458.62664799999999
 11
81.502395500000034
 21
458.35461399999997
  0
LINE
  8
_0-0_0
  6
CONTINUOUS
 62
    7
 10
81.752395500000034
 20
458.577698
 11
81.502395500000034
 21
458.35461399999997
  0
LINE
  8
_0-0_0
  6
CONTINUOUS
 62
    7
 10
81.752395500000034
 20
458.577698
 11
81.502395500000034
 21
458.31369000000001
  0
LINE
  8
_0-0_0
  6
CONTINUOUS
 62
    7
 10
81.752395500000034
 20
458.55306999999999
 11
81.502395500000034
 21
458.31369000000001
  0
LINE
  8
_0-0_0
  6
CONTINUOUS
 62
    7
 10
81.752395500000034
 20
458.55306999999999
 11
81.502395500000034
 21
458.29998799999998
  0
LINE
  8
_0-0_0
  6
CONTINUOUS
 62
    7
 10
82.002395500000034
 20
458.79998799999998
 11
82.002395500000034
 21
462.55514499999998
  0
LINE
  8
_0-0_0
  6
CONTINUOUS
 62
    7
 10
81.622451500000011
 20
462.88861099999997
 11
81.502395500000034
 21
462.965057
  0
LINE
  8
_0-0_0
  6
CONTINUOUS
 62
    7
 10
81.752395500000034
 20
462.686981
 11
81.502395500000034
 21
462.965057
  0
LINE
  8
_0-0_0
  6
CONTINUOUS
 62
    7
 10
81.752395500000034
 20
462.686981
 11
81.502395500000034
 21
462.82254
  0
LINE
  8
_0-0_0
  6
CONTINUOUS
 62
    7
 10
81.502395500000034
 20
462.65783699999997
 11
72.252395500000034
 21
462.65783699999997
  0
LINE
  8
_0-0_0
  6
CONTINUOUS
 62
    7
 10
72.002395500000034
 20
462.54855399999997
 11
72.252395500000034
 21
462.65783699999997
  0
LINE
  8
_0-0_0
  6
CONTINUOUS
 62
    7
 10
81.502395500000034
 20
462.47280899999998
 11
72.252395500000034
 21
462.47280899999998
  0
LINE
  8
_0-0_0
  6
CONTINUOUS
 62
    7
 10
72.002395500000034
 20
462.390961
 11
72.252395500000034
 21
462.47280899999998
  0
LINE
  8
_0-0_0
  6
CONTINUOUS
 62
    7
 10
81.502395500000034
 20
462.26943999999997
 11
72.252395500000034
 21
462.26943999999997
  0
LINE
  8
_0-0_0
  6
CONTINUOUS
 62
    7
 10
72.002395500000034
 20
462.21597300000002
 11
72.252395500000034
 21
462.26943999999997
  0
LINE
  8
_0-0_0
  6
CONTINUOUS
 62
    7
 10
81.502395500000034
 20
462.04998799999998
 11
72.252395500000034
 21
462.04998799999998
  0
LINE
  8
_0-0_0
  6
CONTINUOUS
 62
    7
 10
72.002395500000034
 20
462.02542099999999
 11
72.252395500000034
 21
462.04998799999998
  0
LINE
  8
_0-0_0
  6
CONTINUOUS
 62
    7
 10
81.502395500000034
 20
461.81683399999997
 11
72.252395500000034
 21
461.81683399999997
  0
LINE
  8
_0-0_0
  6
CONTINUOUS
 62
    7
 10
81.752395500000034
 20
461.82147199999997
 11
72.002395500000034
 21
461.82147199999997
  0
LINE
  8
_0-0_0
  6
CONTINUOUS
 62
    7
 10
72.002395500000034
 20
461.82147199999997
 11
72.252395500000034
 21
461.81683399999997
  0
LINE
  8
_0-0_0
  6
CONTINUOUS
 62
    7
 10
81.502395500000034
 20
461.57254
 11
72.252395500000034
 21
461.57254
  0
LINE
  8
_0-0_0
  6
CONTINUOUS
 62
    7
 10
81.752395500000034
 20
461.60632299999997
 11
72.002395500000034
 21
461.60632299999997
  0
LINE
  8
_0-0_0
  6
CONTINUOUS
 62
    7
 10
72.002395500000034
 20
461.60632299999997
 11
72.252395500000034
 21
461.57254
  0
LINE
  8
_0-0_0
  6
CONTINUOUS
 62
    7
 10
81.502395500000034
 20
461.31976299999997
 11
72.252395500000034
 21
461.31976299999997
  0
LINE
  8
_0-0_0
  6
CONTINUOUS
 62
    7
 10
81.752395500000034
 20
461.38232399999998
 11
72.002395500000034
 21
461.38232399999998
  0
LINE
  8
_0-0_0
  6
CONTINUOUS
 62
    7
 10
72.002395500000034
 20
461.38232399999998
 11
72.252395500000034
 21
461.31976299999997
  0
LINE
  8
_0-0_0
  6
CONTINUOUS
 62
    7
 10
81.502395500000034
 20
461.06130999999999
 11
72.252395500000034
 21
461.06130999999999
  0
LINE
  8
_0-0_0
  6
CONTINUOUS
 62
    7
 10
81.752395500000034
 20
461.15197799999999
 11
72.002395500000034
 21
461.15197799999999
  0
LINE
  8
_0-0_0
  6
CONTINUOUS
 62
    7
 10
72.002395500000034
 20
461.15197799999999
 11
72.252395500000034
 21
461.06130999999999
  0
LINE
  8
_0-0_0
  6
CONTINUOUS
 62
    7
 10
81.502395500000034
 20
460.79998799999998
 11
72.252395500000034
 21
460.79998799999998
  0
LINE
  8
_0-0_0
  6
CONTINUOUS
 62
    7
 10
81.752395500000034
 20
460.917755
 11
72.002395500000034
 21
460.917755
  0
LINE
  8
_0-0_0
  6
CONTINUOUS
 62
    7
 10
72.002395500000034
 20
460.917755
 11
72.252395500000034
 21
460.79998799999998
  0
LINE
  8
_0-0_0
  6
CONTINUOUS
 62
    7
 10
81.502395500000034
 20
460.53866599999998
 11
72.252395500000034
 21
460.53866599999998
  0
LINE
  8
_0-0_0
  6
CONTINUOUS
 62
    7
 10
81.752395500000034
 20
460.68222099999997
 11
72.002395500000034
 21
460.68222099999997
  0
LINE
  8
_0-0_0
  6
CONTINUOUS
 62
    7
 10
72.002395500000034
 20
460.68222099999997
 11
72.252395500000034
 21
460.53866599999998
  0
LINE
  8
_0-0_0
  6
CONTINUOUS
 62
    7
 10
81.502395500000034
 20
460.280213
 11
72.252395500000034
 21
460.280213
  0
LINE
  8
_0-0_0
  6
CONTINUOUS
 62
    7
 10
81.752395500000034
 20
460.44799799999998
 11
72.002395500000034
 21
460.44799799999998
  0
LINE
  8
_0-0_0
  6
CONTINUOUS
 62
    7
 10
72.002395500000034
 20
460.44799799999998
 11
72.252395500000034
 21
460.280213
  0
LINE
  8
_0-0_0
  6
CONTINUOUS
 62
    7
 10
81.502395500000034
 20
460.02743499999997
 11
72.252395500000034
 21
460.02743499999997
  0
LINE
  8
_0-0_0
  6
CONTINUOUS
 62
    7
 10
81.752395500000034
 20
460.21765099999999
 11
72.002395500000034
 21
460.21765099999999
  0
LINE
  8
_0-0_0
  6
CONTINUOUS
 62
    7
 10
72.002395500000034
 20
460.21765099999999
 11
72.252395500000034
 21
460.02743499999997
  0
LINE
  8
_0-0_0
  6
CONTINUOUS
 62
    7
 10
81.502395500000034
 20
459.783142
 11
72.252395500000034
 21
459.783142
  0
LINE
  8
_0-0_0
  6
CONTINUOUS
 62
    7
 10
81.752395500000034
 20
459.993652
 11
72.002395500000034
 21
459.993652
  0
LINE
  8
_0-0_0
  6
CONTINUOUS
 62
    7
 10
72.002395500000034
 20
459.993652
 11
72.252395500000034
 21
459.783142
  0
LINE
  8
_0-0_0
  6
CONTINUOUS
 62
    7
 10
81.502395500000034
 20
459.12716699999999
 11
72.252395500000034
 21
459.12716699999999
  0
LINE
  8
_0-0_0
  6
CONTINUOUS
 62
    7
 10
72.002395500000034
 20
459.38400300000001
 11
72.252395500000034
 21
459.12716699999999
  0
LINE
  8
_0-0_0
  6
CONTINUOUS
 62
    7
 10
81.502395500000034
 20
458.94210800000002
 11
72.252395500000034
 21
458.94210800000002
  0
LINE
  8
_0-0_0
  6
CONTINUOUS
 62
    7
 10
72.002395500000034
 20
459.20898399999999
 11
72.252395500000034
 21
458.94210800000002
  0
LINE
  8
_0-0_0
  6
CONTINUOUS
 62
    7
 10
81.502395500000034
 20
458.77743499999997
 11
72.252395500000034
 21
458.77743499999997
  0
LINE
  8
_0-0_0
  6
CONTINUOUS
 62
    7
 10
72.002395500000034
 20
459.051422
 11
72.252395500000034
 21
458.77743499999997
  0
LINE
  8
_0-0_0
  6
CONTINUOUS
 62
    7
 10
81.502395500000034
 20
458.63491799999997
 11
72.252395500000034
 21
458.63491799999997
  0
LINE
  8
_0-0_0
  6
CONTINUOUS
 62
    7
 10
72.002395500000034
 20
458.91299399999997
 11
72.252395500000034
 21
458.63491799999997
  0
LINE
  8
_0-0_0
  6
CONTINUOUS
 62
    7
 10
81.502395500000034
 20
458.51611300000002
 11
72.252395500000034
 21
458.51611300000002
  0
LINE
  8
_0-0_0
  6
CONTINUOUS
 62
    7
 10
72.002395500000034
 20
458.79522700000001
 11
72.252395500000034
 21
458.51611300000002
  0
LINE
  8
_0-0_0
  6
CONTINUOUS
 62
    7
 10
81.502395500000034
 20
458.42233299999998
 11
72.252395500000034
 21
458.42233299999998
  0
LINE
  8
_0-0_0
  6
CONTINUOUS
 62
    7
 10
72.002395500000034
 20
458.699432
 11
72.252395500000034
 21
458.42233299999998
  0
LINE
  8
_0-0_0
  6
CONTINUOUS
 62
    7
 10
81.502395500000034
 20
458.35461399999997
 11
72.252395500000034
 21
458.35461399999997
  0
LINE
  8
_0-0_0
  6
CONTINUOUS
 62
    7
 10
72.002395500000034
 20
458.62664799999999
 11
72.252395500000034
 21
458.35461399999997
  0
LINE
  8
_0-0_0
  6
CONTINUOUS
 62
    7
 10
81.502395500000034
 20
458.31369000000001
 11
72.252395500000034
 21
458.31369000000001
  0
LINE
  8
_0-0_0
  6
CONTINUOUS
 62
    7
 10
72.002395500000034
 20
458.577698
 11
72.252395500000034
 21
458.31369000000001
  0
LINE
  8
_0-0_0
  6
CONTINUOUS
 62
    7
 10
81.502395500000034
 20
458.29998799999998
 11
72.252395500000034
 21
458.29998799999998
  0
LINE
  8
_0-0_0
  6
CONTINUOUS
 62
    7
 10
72.002395500000034
 20
458.55306999999999
 11
72.252395500000034
 21
458.29998799999998
  0
LINE
  8
_0-0_0
  6
CONTINUOUS
 62
    7
 10
81.502395500000034
 20
462.965057
 11
72.252395500000034
 21
462.965057
  0
LINE
  8
_0-0_0
  6
CONTINUOUS
 62
    7
 10
81.752395500000034
 20
462.80474900000002
 11
81.622451500000011
 21
462.88861099999997
  0
LINE
  8
_0-0_0
  6
CONTINUOUS
 62
    7
 10
72.002395500000034
 20
462.80474900000002
 11
72.132369499999982
 21
462.88861099999997
  0
LINE
  8
_0-0_0
  6
CONTINUOUS
 62
    7
 10
72.132369499999982
 20
462.88861099999997
 11
72.252395500000034
 21
462.965057
  0
LINE
  8
_0-0_0
  6
CONTINUOUS
 62
    7
 10
81.502395500000034
 20
462.82254
 11
72.252395500000034
 21
462.82254
  0
LINE
  8
_0-0_0
  6
CONTINUOUS
 62
    7
 10
72.002395500000034
 20
462.686981
 11
72.252395500000034
 21
462.82254
  0
LINE
  8
_0-0_0
  6
CONTINUOUS
 62
    7
 10
81.752395500000034
 20
462.80474900000002
 11
81.502395500000034
 21
463.08386200000001
  0
LINE
  8
_0-0_0
  6
CONTINUOUS
 62
    7
 10
81.502395500000034
 20
463.08386200000001
 11
72.252395500000034
 21
463.08386200000001
  0
LINE
  8
_0-0_0
  6
CONTINUOUS
 62
    7
 10
72.002395500000034
 20
462.80474900000002
 11
72.252395500000034
 21
463.08386200000001
  0
LINE
  8
_0-0_0
  6
CONTINUOUS
 62
    7
 10
81.752395500000034
 20
462.90054299999997
 11
81.502395500000034
 21
463.08386200000001
  0
LINE
  8
_0-0_0
  6
CONTINUOUS
 62
    7
 10
72.002395500000034
 20
462.90054299999997
 11
72.252395500000034
 21
463.08386200000001
  0
LINE
  8
_0-0_0
  6
CONTINUOUS
 62
    7
 10
81.752395500000034
 20
462.90054299999997
 11
81.502395500000034
 21
463.17764299999999
  0
LINE
  8
_0-0_0
  6
CONTINUOUS
 62
    7
 10
81.502395500000034
 20
463.17764299999999
 11
72.252395500000034
 21
463.17764299999999
  0
LINE
  8
_0-0_0
  6
CONTINUOUS
 62
    7
 10
72.002395500000034
 20
462.90054299999997
 11
72.252395500000034
 21
463.17764299999999
  0
LINE
  8
_0-0_0
  6
CONTINUOUS
 62
    7
 10
81.752395500000034
 20
462.97332799999998
 11
81.502395500000034
 21
463.17764299999999
  0
LINE
  8
_0-0_0
  6
CONTINUOUS
 62
    7
 10
72.002395500000034
 20
462.97332799999998
 11
72.252395500000034
 21
463.17764299999999
  0
LINE
  8
_0-0_0
  6
CONTINUOUS
 62
    7
 10
81.752395500000034
 20
462.97332799999998
 11
81.502395500000034
 21
463.245361
  0
LINE
  8
_0-0_0
  6
CONTINUOUS
 62
    7
 10
81.502395500000034
 20
463.245361
 11
72.252395500000034
 21
463.245361
  0
LINE
  8
_0-0_0
  6
CONTINUOUS
 62
    7
 10
72.002395500000034
 20
462.97332799999998
 11
72.252395500000034
 21
463.245361
  0
LINE
  8
_0-0_0
  6
CONTINUOUS
 62
    7
 10
81.752395500000034
 20
463.02227799999997
 11
81.502395500000034
 21
463.245361
  0
LINE
  8
_0-0_0
  6
CONTINUOUS
 62
    7
 10
72.002395500000034
 20
463.02227799999997
 11
72.252395500000034
 21
463.245361
  0
LINE
  8
_0-0_0
  6
CONTINUOUS
 62
    7
 10
81.752395500000034
 20
463.02227799999997
 11
81.502395500000034
 21
463.28628600000002
  0
LINE
  8
_0-0_0
  6
CONTINUOUS
 62
    7
 10
81.502395500000034
 20
463.28628600000002
 11
72.252395500000034
 21
463.28628600000002
  0
LINE
  8
_0-0_0
  6
CONTINUOUS
 62
    7
 10
72.002395500000034
 20
463.02227799999997
 11
72.252395500000034
 21
463.28628600000002
  0
LINE
  8
_0-0_0
  6
CONTINUOUS
 62
    7
 10
81.752395500000034
 20
463.04690599999998
 11
81.502395500000034
 21
463.28628600000002
  0
LINE
  8
_0-0_0
  6
CONTINUOUS
 62
    7
 10
72.002395500000034
 20
463.04690599999998
 11
72.252395500000034
 21
463.28628600000002
  0
LINE
  8
_0-0_0
  6
CONTINUOUS
 62
    7
 10
81.752395500000034
 20
463.04690599999998
 11
81.502395500000034
 21
463.29998799999998
  0
LINE
  8
_0-0_0
  6
CONTINUOUS
 62
    7
 10
81.502395500000034
 20
463.29998799999998
 11
72.252395500000034
 21
463.29998799999998
  0
LINE
  8
_0-0_0
  6
CONTINUOUS
 62
    7
 10
72.002395500000034
 20
463.04690599999998
 11
72.252395500000034
 21
463.29998799999998
  0
LINE
  8
_0-0_0
  6
CONTINUOUS
 62
    7
 10
81.752395500000034
 20
476.17456099999998
 11
81.502395500000034
 21
476.14999399999999
  0
LINE
  8
_0-0_0
  6
CONTINUOUS
 62
    7
 10
81.502395500000034
 20
476.14999399999999
 11
72.252395500000034
 21
476.14999399999999
  0
LINE
  8
_0-0_0
  6
CONTINUOUS
 62
    7
 10
72.002395500000034
 20
476.17456099999998
 11
72.252395500000034
 21
476.14999399999999
  0
LINE
  8
_0-0_0
  6
CONTINUOUS
 62
    7
 10
81.752395500000034
 20
479.14855999999997
 11
81.502395500000034
 21
479.42251599999997
  0
LINE
  8
_0-0_0
  6
CONTINUOUS
 62
    7
 10
81.752395500000034
 20
479.14855999999997
 11
81.502395500000034
 21
479.25784299999998
  0
LINE
  8
_0-0_0
  6
CONTINUOUS
 62
    7
 10
81.752395500000034
 20
478.99096700000001
 11
81.502395500000034
 21
479.25784299999998
  0
LINE
  8
_0-0_0
  6
CONTINUOUS
 62
    7
 10
81.752395500000034
 20
478.99096700000001
 11
81.502395500000034
 21
479.07281499999999
  0
LINE
  8
_0-0_0
  6
CONTINUOUS
 62
    7
 10
81.752395500000034
 20
478.81594899999999
 11
81.502395500000034
 21
479.07281499999999
  0
LINE
  8
_0-0_0
  6
CONTINUOUS
 62
    7
 10
81.752395500000034
 20
478.81594899999999
 11
81.502395500000034
 21
478.86944599999998
  0
LINE
  8
_0-0_0
  6
CONTINUOUS
 62
    7
 10
81.752395500000034
 20
478.625427
 11
81.502395500000034
 21
478.86944599999998
  0
LINE
  8
_0-0_0
  6
CONTINUOUS
 62
    7
 10
81.752395500000034
 20
478.625427
 11
81.502395500000034
 21
478.64999399999999
  0
LINE
  8
_0-0_0
  6
CONTINUOUS
 62
    7
 10
81.752395500000034
 20
478.42147799999998
 11
81.502395500000034
 21
478.64999399999999
  0
LINE
  8
_0-0_0
  6
CONTINUOUS
 62
    7
 10
81.752395500000034
 20
478.42147799999998
 11
81.502395500000034
 21
478.41683999999998
  0
LINE
  8
_0-0_0
  6
CONTINUOUS
 62
    7
 10
81.752395500000034
 20
478.20632899999998
 11
81.502395500000034
 21
478.41683999999998
  0
LINE
  8
_0-0_0
  6
CONTINUOUS
 62
    7
 10
81.752395500000034
 20
478.20632899999998
 11
81.502395500000034
 21
478.17251599999997
  0
LINE
  8
_0-0_0
  6
CONTINUOUS
 62
    7
 10
81.752395500000034
 20
477.98232999999999
 11
81.502395500000034
 21
478.17251599999997
  0
LINE
  8
_0-0_0
  6
CONTINUOUS
 62
    7
 10
81.752395500000034
 20
477.98232999999999
 11
81.502395500000034
 21
477.91976899999997
  0
LINE
  8
_0-0_0
  6
CONTINUOUS
 62
    7
 10
81.752395500000034
 20
477.75195300000001
 11
81.502395500000034
 21
477.91976899999997
  0
LINE
  8
_0-0_0
  6
CONTINUOUS
 62
    7
 10
81.752395500000034
 20
477.75195300000001
 11
81.502395500000034
 21
477.661316
  0
LINE
  8
_0-0_0
  6
CONTINUOUS
 62
    7
 10
81.752395500000034
 20
477.51773099999997
 11
81.502395500000034
 21
477.661316
  0
LINE
  8
_0-0_0
  6
CONTINUOUS
 62
    7
 10
81.752395500000034
 20
477.51773099999997
 11
81.502395500000034
 21
477.39999399999999
  0
LINE
  8
_0-0_0
  6
CONTINUOUS
 62
    7
 10
81.752395500000034
 20
477.28222699999998
 11
81.502395500000034
 21
477.39999399999999
  0
LINE
  8
_0-0_0
  6
CONTINUOUS
 62
    7
 10
81.752395500000034
 20
477.28222699999998
 11
81.502395500000034
 21
477.13867199999999
  0
LINE
  8
_0-0_0
  6
CONTINUOUS
 62
    7
 10
81.752395500000034
 20
477.04800399999999
 11
81.502395500000034
 21
477.13867199999999
  0
LINE
  8
_0-0_0
  6
CONTINUOUS
 62
    7
 10
81.752395500000034
 20
477.04800399999999
 11
81.502395500000034
 21
476.88021900000001
  0
LINE
  8
_0-0_0
  6
CONTINUOUS
 62
    7
 10
81.752395500000034
 20
476.81765799999999
 11
81.502395500000034
 21
476.88021900000001
  0
LINE
  8
_0-0_0
  6
CONTINUOUS
 62
    7
 10
81.752395500000034
 20
476.81765799999999
 11
81.502395500000034
 21
476.62744199999997
  0
LINE
  8
_0-0_0
  6
CONTINUOUS
 62
    7
 10
81.752395500000034
 20
476.593659
 11
81.502395500000034
 21
476.62744199999997
  0
LINE
  8
_0-0_0
  6
CONTINUOUS
 62
    7
 10
81.752395500000034
 20
476.593659
 11
81.502395500000034
 21
476.38314800000001
  0
LINE
  8
_0-0_0
  6
CONTINUOUS
 62
    7
 10
81.752395500000034
 20
476.37851000000001
 11
81.502395500000034
 21
476.38314800000001
  0
LINE
  8
_0-0_0
  6
CONTINUOUS
 62
    7
 10
81.752395500000034
 20
476.37851000000001
 11
81.502395500000034
 21
476.14999399999999
  0
LINE
  8
_0-0_0
  6
CONTINUOUS
 62
    7
 10
81.752395500000034
 20
476.17456099999998
 11
81.502395500000034
 21
475.93051199999996
  0
LINE
  8
_0-0_0
  6
CONTINUOUS
 62
    7
 10
81.752395500000034
 20
475.98400900000001
 11
81.502395500000034
 21
475.93051199999996
  0
LINE
  8
_0-0_0
  6
CONTINUOUS
 62
    7
 10
81.752395500000034
 20
475.98400900000001
 11
81.502395500000034
 21
475.72717299999999
  0
LINE
  8
_0-0_0
  6
CONTINUOUS
 62
    7
 10
81.752395500000034
 20
475.80899099999999
 11
81.502395500000034
 21
475.72717299999999
  0
LINE
  8
_0-0_0
  6
CONTINUOUS
 62
    7
 10
81.752395500000034
 20
475.80899099999999
 11
81.502395500000034
 21
475.54211399999997
  0
LINE
  8
_0-0_0
  6
CONTINUOUS
 62
    7
 10
81.752395500000034
 20
475.65139799999997
 11
81.502395500000034
 21
475.54211399999997
  0
LINE
  8
_0-0_0
  6
CONTINUOUS
 62
    7
 10
81.752395500000034
 20
475.65139799999997
 11
81.502395500000034
 21
475.37744199999997
  0
LINE
  8
_0-0_0
  6
CONTINUOUS
 62
    7
 10
81.752395500000034
 20
475.51297
 11
81.502395500000034
 21
475.37744199999997
  0
LINE
  8
_0-0_0
  6
CONTINUOUS
 62
    7
 10
81.752395500000034
 20
475.51297
 11
81.502395500000034
 21
475.23492399999998
  0
LINE
  8
_0-0_0
  6
CONTINUOUS
 62
    7
 10
81.752395500000034
 20
475.39523300000002
 11
81.502395500000034
 21
475.23492399999998
  0
LINE
  8
_0-0_0
  6
CONTINUOUS
 62
    7
 10
81.752395500000034
 20
475.39523300000002
 11
81.502395500000034
 21
475.11611899999997
  0
LINE
  8
_0-0_0
  6
CONTINUOUS
 62
    7
 10
81.752395500000034
 20
475.29943900000001
 11
81.502395500000034
 21
475.11611899999997
  0
LINE
  8
_0-0_0
  6
CONTINUOUS
 62
    7
 10
81.752395500000034
 20
475.29943900000001
 11
81.502395500000034
 21
475.02233899999999
  0
LINE
  8
_0-0_0
  6
CONTINUOUS
 62
    7
 10
81.752395500000034
 20
475.226654
 11
81.502395500000034
 21
475.02233899999999
  0
LINE
  8
_0-0_0
  6
CONTINUOUS
 62
    7
 10
81.752395500000034
 20
475.226654
 11
81.502395500000034
 21
474.95461999999998
  0
LINE
  8
_0-0_0
  6
CONTINUOUS
 62
    7
 10
81.752395500000034
 20
475.17767299999997
 11
81.502395500000034
 21
474.95461999999998
  0
LINE
  8
_0-0_0
  6
CONTINUOUS
 62
    7
 10
81.752395500000034
 20
475.17767299999997
 11
81.502395500000034
 21
474.91366599999998
  0
LINE
  8
_0-0_0
  6
CONTINUOUS
 62
    7
 10
81.752395500000034
 20
475.153076
 11
81.502395500000034
 21
474.91366599999998
  0
LINE
  8
_0-0_0
  6
CONTINUOUS
 62
    7
 10
81.752395500000034
 20
475.153076
 11
81.502395500000034
 21
474.89999399999999
  0
LINE
  8
_0-0_0
  6
CONTINUOUS
 62
    7
 10
82.002395500000034
 20
475.39999399999999
 11
82.002395500000034
 21
479.15515099999999
  0
LINE
  8
_0-0_0
  6
CONTINUOUS
 62
    7
 10
81.622451500000011
 20
479.48861699999998
 11
81.502395500000034
 21
479.56506400000001
  0
LINE
  8
_0-0_0
  6
CONTINUOUS
 62
    7
 10
81.752395500000034
 20
479.28698700000001
 11
81.502395500000034
 21
479.56506400000001
  0
LINE
  8
_0-0_0
  6
CONTINUOUS
 62
    7
 10
81.752395500000034
 20
479.28698700000001
 11
81.502395500000034
 21
479.42251599999997
  0
LINE
  8
_0-0_0
  6
CONTINUOUS
 62
    7
 10
81.502395500000034
 20
479.25784299999998
 11
72.252395500000034
 21
479.25784299999998
  0
LINE
  8
_0-0_0
  6
CONTINUOUS
 62
    7
 10
72.002395500000034
 20
479.14855999999997
 11
72.252395500000034
 21
479.25784299999998
  0
LINE
  8
_0-0_0
  6
CONTINUOUS
 62
    7
 10
81.502395500000034
 20
479.07281499999999
 11
72.252395500000034
 21
479.07281499999999
  0
LINE
  8
_0-0_0
  6
CONTINUOUS
 62
    7
 10
72.002395500000034
 20
478.99096700000001
 11
72.252395500000034
 21
479.07281499999999
  0
LINE
  8
_0-0_0
  6
CONTINUOUS
 62
    7
 10
81.502395500000034
 20
478.86944599999998
 11
72.252395500000034
 21
478.86944599999998
  0
LINE
  8
_0-0_0
  6
CONTINUOUS
 62
    7
 10
72.002395500000034
 20
478.81594899999999
 11
72.252395500000034
 21
478.86944599999998
  0
LINE
  8
_0-0_0
  6
CONTINUOUS
 62
    7
 10
81.502395500000034
 20
478.64999399999999
 11
72.252395500000034
 21
478.64999399999999
  0
LINE
  8
_0-0_0
  6
CONTINUOUS
 62
    7
 10
72.002395500000034
 20
478.625427
 11
72.252395500000034
 21
478.64999399999999
  0
LINE
  8
_0-0_0
  6
CONTINUOUS
 62
    7
 10
81.502395500000034
 20
478.41683999999998
 11
72.252395500000034
 21
478.41683999999998
  0
LINE
  8
_0-0_0
  6
CONTINUOUS
 62
    7
 10
81.752395500000034
 20
478.42147799999998
 11
72.002395500000034
 21
478.42147799999998
  0
LINE
  8
_0-0_0
  6
CONTINUOUS
 62
    7
 10
72.002395500000034
 20
478.42147799999998
 11
72.252395500000034
 21
478.41683999999998
  0
LINE
  8
_0-0_0
  6
CONTINUOUS
 62
    7
 10
81.502395500000034
 20
478.17251599999997
 11
72.252395500000034
 21
478.17251599999997
  0
LINE
  8
_0-0_0
  6
CONTINUOUS
 62
    7
 10
81.752395500000034
 20
478.20632899999998
 11
72.002395500000034
 21
478.20632899999998
  0
LINE
  8
_0-0_0
  6
CONTINUOUS
 62
    7
 10
72.002395500000034
 20
478.20632899999998
 11
72.252395500000034
 21
478.17251599999997
  0
LINE
  8
_0-0_0
  6
CONTINUOUS
 62
    7
 10
81.502395500000034
 20
477.91976899999997
 11
72.252395500000034
 21
477.91976899999997
  0
LINE
  8
_0-0_0
  6
CONTINUOUS
 62
    7
 10
81.752395500000034
 20
477.98232999999999
 11
72.002395500000034
 21
477.98232999999999
  0
LINE
  8
_0-0_0
  6
CONTINUOUS
 62
    7
 10
72.002395500000034
 20
477.98232999999999
 11
72.252395500000034
 21
477.91976899999997
  0
LINE
  8
_0-0_0
  6
CONTINUOUS
 62
    7
 10
81.502395500000034
 20
477.661316
 11
72.252395500000034
 21
477.661316
  0
LINE
  8
_0-0_0
  6
CONTINUOUS
 62
    7
 10
81.752395500000034
 20
477.75195300000001
 11
72.002395500000034
 21
477.75195300000001
  0
LINE
  8
_0-0_0
  6
CONTINUOUS
 62
    7
 10
72.002395500000034
 20
477.75195300000001
 11
72.252395500000034
 21
477.661316
  0
LINE
  8
_0-0_0
  6
CONTINUOUS
 62
    7
 10
81.502395500000034
 20
477.39999399999999
 11
72.252395500000034
 21
477.39999399999999
  0
LINE
  8
_0-0_0
  6
CONTINUOUS
 62
    7
 10
81.752395500000034
 20
477.51773099999997
 11
72.002395500000034
 21
477.51773099999997
  0
LINE
  8
_0-0_0
  6
CONTINUOUS
 62
    7
 10
72.002395500000034
 20
477.51773099999997
 11
72.252395500000034
 21
477.39999399999999
  0
LINE
  8
_0-0_0
  6
CONTINUOUS
 62
    7
 10
81.502395500000034
 20
477.13867199999999
 11
72.252395500000034
 21
477.13867199999999
  0
LINE
  8
_0-0_0
  6
CONTINUOUS
 62
    7
 10
81.752395500000034
 20
477.28222699999998
 11
72.002395500000034
 21
477.28222699999998
  0
LINE
  8
_0-0_0
  6
CONTINUOUS
 62
    7
 10
72.002395500000034
 20
477.28222699999998
 11
72.252395500000034
 21
477.13867199999999
  0
LINE
  8
_0-0_0
  6
CONTINUOUS
 62
    7
 10
81.502395500000034
 20
476.88021900000001
 11
72.252395500000034
 21
476.88021900000001
  0
LINE
  8
_0-0_0
  6
CONTINUOUS
 62
    7
 10
81.752395500000034
 20
477.04800399999999
 11
72.002395500000034
 21
477.04800399999999
  0
LINE
  8
_0-0_0
  6
CONTINUOUS
 62
    7
 10
72.002395500000034
 20
477.04800399999999
 11
72.252395500000034
 21
476.88021900000001
  0
LINE
  8
_0-0_0
  6
CONTINUOUS
 62
    7
 10
81.502395500000034
 20
476.62744199999997
 11
72.252395500000034
 21
476.62744199999997
  0
LINE
  8
_0-0_0
  6
CONTINUOUS
 62
    7
 10
81.752395500000034
 20
476.81765799999999
 11
72.002395500000034
 21
476.81765799999999
  0
LINE
  8
_0-0_0
  6
CONTINUOUS
 62
    7
 10
72.002395500000034
 20
476.81765799999999
 11
72.252395500000034
 21
476.62744199999997
  0
LINE
  8
_0-0_0
  6
CONTINUOUS
 62
    7
 10
81.502395500000034
 20
476.38314800000001
 11
72.252395500000034
 21
476.38314800000001
  0
LINE
  8
_0-0_0
  6
CONTINUOUS
 62
    7
 10
81.752395500000034
 20
476.593659
 11
72.002395500000034
 21
476.593659
  0
LINE
  8
_0-0_0
  6
CONTINUOUS
 62
    7
 10
72.002395500000034
 20
476.593659
 11
72.252395500000034
 21
476.38314800000001
  0
LINE
  8
_0-0_0
  6
CONTINUOUS
 62
    7
 10
81.502395500000034
 20
475.72717299999999
 11
72.252395500000034
 21
475.72717299999999
  0
LINE
  8
_0-0_0
  6
CONTINUOUS
 62
    7
 10
72.002395500000034
 20
475.98400900000001
 11
72.252395500000034
 21
475.72717299999999
  0
LINE
  8
_0-0_0
  6
CONTINUOUS
 62
    7
 10
81.502395500000034
 20
475.54211399999997
 11
72.252395500000034
 21
475.54211399999997
  0
LINE
  8
_0-0_0
  6
CONTINUOUS
 62
    7
 10
72.002395500000034
 20
475.80899099999999
 11
72.252395500000034
 21
475.54211399999997
  0
LINE
  8
_0-0_0
  6
CONTINUOUS
 62
    7
 10
81.502395500000034
 20
475.37744199999997
 11
72.252395500000034
 21
475.37744199999997
  0
LINE
  8
_0-0_0
  6
CONTINUOUS
 62
    7
 10
72.002395500000034
 20
475.65139799999997
 11
72.252395500000034
 21
475.37744199999997
  0
LINE
  8
_0-0_0
  6
CONTINUOUS
 62
    7
 10
81.502395500000034
 20
475.23492399999998
 11
72.252395500000034
 21
475.23492399999998
  0
LINE
  8
_0-0_0
  6
CONTINUOUS
 62
    7
 10
72.002395500000034
 20
475.51297
 11
72.252395500000034
 21
475.23492399999998
  0
LINE
  8
_0-0_0
  6
CONTINUOUS
 62
    7
 10
81.502395500000034
 20
475.11611899999997
 11
72.252395500000034
 21
475.11611899999997
  0
LINE
  8
_0-0_0
  6
CONTINUOUS
 62
    7
 10
72.002395500000034
 20
475.39523300000002
 11
72.252395500000034
 21
475.11611899999997
  0
LINE
  8
_0-0_0
  6
CONTINUOUS
 62
    7
 10
81.502395500000034
 20
475.02233899999999
 11
72.252395500000034
 21
475.02233899999999
  0
LINE
  8
_0-0_0
  6
CONTINUOUS
 62
    7
 10
72.002395500000034
 20
475.29943900000001
 11
72.252395500000034
 21
475.02233899999999
  0
LINE
  8
_0-0_0
  6
CONTINUOUS
 62
    7
 10
81.502395500000034
 20
474.95461999999998
 11
72.252395500000034
 21
474.95461999999998
  0
LINE
  8
_0-0_0
  6
CONTINUOUS
 62
    7
 10
72.002395500000034
 20
475.226654
 11
72.252395500000034
 21
474.95461999999998
  0
LINE
  8
_0-0_0
  6
CONTINUOUS
 62
    7
 10
81.502395500000034
 20
474.91366599999998
 11
72.252395500000034
 21
474.91366599999998
  0
LINE
  8
_0-0_0
  6
CONTINUOUS
 62
    7
 10
72.002395500000034
 20
475.17767299999997
 11
72.252395500000034
 21
474.91366599999998
  0
LINE
  8
_0-0_0
  6
CONTINUOUS
 62
    7
 10
81.502395500000034
 20
474.89999399999999
 11
72.252395500000034
 21
474.89999399999999
  0
LINE
  8
_0-0_0
  6
CONTINUOUS
 62
    7
 10
72.002395500000034
 20
475.153076
 11
72.252395500000034
 21
474.89999399999999
  0
LINE
  8
_0-0_0
  6
CONTINUOUS
 62
    7
 10
81.502395500000034
 20
479.56506400000001
 11
72.252395500000034
 21
479.56506400000001
  0
LINE
  8
_0-0_0
  6
CONTINUOUS
 62
    7
 10
81.752395500000034
 20
479.40475499999997
 11
81.622451500000011
 21
479.48861699999998
  0
LINE
  8
_0-0_0
  6
CONTINUOUS
 62
    7
 10
72.002395500000034
 20
479.40475499999997
 11
72.132369499999982
 21
479.48861699999998
  0
LINE
  8
_0-0_0
  6
CONTINUOUS
 62
    7
 10
72.132369499999982
 20
479.48861699999998
 11
72.252395500000034
 21
479.56506400000001
  0
LINE
  8
_0-0_0
  6
CONTINUOUS
 62
    7
 10
81.502395500000034
 20
479.42251599999997
 11
72.252395500000034
 21
479.42251599999997
  0
LINE
  8
_0-0_0
  6
CONTINUOUS
 62
    7
 10
72.002395500000034
 20
479.28698700000001
 11
72.252395500000034
 21
479.42251599999997
  0
LINE
  8
_0-0_0
  6
CONTINUOUS
 62
    7
 10
81.752395500000034
 20
479.40475499999997
 11
81.502395500000034
 21
479.68383799999998
  0
LINE
  8
_0-0_0
  6
CONTINUOUS
 62
    7
 10
81.502395500000034
 20
479.68383799999998
 11
72.252395500000034
 21
479.68383799999998
  0
LINE
  8
_0-0_0
  6
CONTINUOUS
 62
    7
 10
72.002395500000034
 20
479.40475499999997
 11
72.252395500000034
 21
479.68383799999998
  0
LINE
  8
_0-0_0
  6
CONTINUOUS
 62
    7
 10
81.752395500000034
 20
479.50054899999998
 11
81.502395500000034
 21
479.68383799999998
  0
LINE
  8
_0-0_0
  6
CONTINUOUS
 62
    7
 10
72.002395500000034
 20
479.50054899999998
 11
72.252395500000034
 21
479.68383799999998
  0
LINE
  8
_0-0_0
  6
CONTINUOUS
 62
    7
 10
81.752395500000034
 20
479.50054899999998
 11
81.502395500000034
 21
479.77761900000002
  0
LINE
  8
_0-0_0
  6
CONTINUOUS
 62
    7
 10
81.502395500000034
 20
479.77761900000002
 11
72.252395500000034
 21
479.77761900000002
  0
LINE
  8
_0-0_0
  6
CONTINUOUS
 62
    7
 10
72.002395500000034
 20
479.50054899999998
 11
72.252395500000034
 21
479.77761900000002
  0
LINE
  8
_0-0_0
  6
CONTINUOUS
 62
    7
 10
81.752395500000034
 20
479.57333399999999
 11
81.502395500000034
 21
479.77761900000002
  0
LINE
  8
_0-0_0
  6
CONTINUOUS
 62
    7
 10
72.002395500000034
 20
479.57333399999999
 11
72.252395500000034
 21
479.77761900000002
  0
LINE
  8
_0-0_0
  6
CONTINUOUS
 62
    7
 10
81.752395500000034
 20
479.57333399999999
 11
81.502395500000034
 21
479.84536800000001
  0
LINE
  8
_0-0_0
  6
CONTINUOUS
 62
    7
 10
81.502395500000034
 20
479.84536800000001
 11
72.252395500000034
 21
479.84536800000001
  0
LINE
  8
_0-0_0
  6
CONTINUOUS
 62
    7
 10
72.002395500000034
 20
479.57333399999999
 11
72.252395500000034
 21
479.84536800000001
  0
LINE
  8
_0-0_0
  6
CONTINUOUS
 62
    7
 10
81.752395500000034
 20
479.62228399999998
 11
81.502395500000034
 21
479.84536800000001
  0
LINE
  8
_0-0_0
  6
CONTINUOUS
 62
    7
 10
72.002395500000034
 20
479.62228399999998
 11
72.252395500000034
 21
479.84536800000001
  0
LINE
  8
_0-0_0
  6
CONTINUOUS
 62
    7
 10
81.752395500000034
 20
479.62228399999998
 11
81.502395500000034
 21
479.88629199999997
  0
LINE
  8
_0-0_0
  6
CONTINUOUS
 62
    7
 10
81.502395500000034
 20
479.88629199999997
 11
72.252395500000034
 21
479.88629199999997
  0
LINE
  8
_0-0_0
  6
CONTINUOUS
 62
    7
 10
72.002395500000034
 20
479.62228399999998
 11
72.252395500000034
 21
479.88629199999997
  0
LINE
  8
_0-0_0
  6
CONTINUOUS
 62
    7
 10
81.752395500000034
 20
479.64691199999999
 11
81.502395500000034
 21
479.88629199999997
  0
LINE
  8
_0-0_0
  6
CONTINUOUS
 62
    7
 10
72.002395500000034
 20
479.64691199999999
 11
72.252395500000034
 21
479.88629199999997
  0
LINE
  8
_0-0_0
  6
CONTINUOUS
 62
    7
 10
81.752395500000034
 20
479.64691199999999
 11
81.502395500000034
 21
479.89999399999999
  0
LINE
  8
_0-0_0
  6
CONTINUOUS
 62
    7
 10
81.502395500000034
 20
479.89999399999999
 11
72.252395500000034
 21
479.89999399999999
  0
LINE
  8
_0-0_0
  6
CONTINUOUS
 62
    7
 10
72.002395500000034
 20
479.64691199999999
 11
72.252395500000034
 21
479.89999399999999
  0
LINE
  8
_0-0_0
  6
CONTINUOUS
 62
    7
 10
127.20239250000003
 20
465.09997599999997
 11
127.20239250000003
 21
465.10134899999997
  0
LINE
  8
_0-0_0
  6
CONTINUOUS
 62
    7
 10
127.20239250000003
 20
465.10134899999997
 11
127.20239250000003
 21
473.09997599999997
  0
LINE
  8
_0-0_0
  6
CONTINUOUS
 62
    7
 10
72.002395500000034
 20
479.28698700000001
 11
72.252395500000034
 21
479.56506400000001
  0
LINE
  8
_0-0_0
  6
CONTINUOUS
 62
    7
 10
82.002395500000034
 20
479.15515099999999
 11
82.002395500000034
 21
479.39999399999999
  0
LINE
  8
_0-0_0
  6
CONTINUOUS
 62
    7
 10
72.002395500000034
 20
475.153076
 11
72.252395500000034
 21
474.91366599999998
  0
LINE
  8
_0-0_0
  6
CONTINUOUS
 62
    7
 10
72.002395500000034
 20
475.17767299999997
 11
72.252395500000034
 21
474.95461999999998
  0
LINE
  8
_0-0_0
  6
CONTINUOUS
 62
    7
 10
72.002395500000034
 20
475.226654
 11
72.252395500000034
 21
475.02233899999999
  0
LINE
  8
_0-0_0
  6
CONTINUOUS
 62
    7
 10
72.002395500000034
 20
475.29943900000001
 11
72.252395500000034
 21
475.11611899999997
  0
LINE
  8
_0-0_0
  6
CONTINUOUS
 62
    7
 10
72.002395500000034
 20
475.39523300000002
 11
72.252395500000034
 21
475.23492399999998
  0
LINE
  8
_0-0_0
  6
CONTINUOUS
 62
    7
 10
72.002395500000034
 20
475.51297
 11
72.252395500000034
 21
475.37744199999997
  0
LINE
  8
_0-0_0
  6
CONTINUOUS
 62
    7
 10
72.002395500000034
 20
475.65139799999997
 11
72.252395500000034
 21
475.54211399999997
  0
LINE
  8
_0-0_0
  6
CONTINUOUS
 62
    7
 10
72.002395500000034
 20
475.80899099999999
 11
72.252395500000034
 21
475.72717299999999
  0
LINE
  8
_0-0_0
  6
CONTINUOUS
 62
    7
 10
81.502395500000034
 20
475.93051199999996
 11
72.252395500000034
 21
475.93051199999996
  0
LINE
  8
_0-0_0
  6
CONTINUOUS
 62
    7
 10
72.002395500000034
 20
475.98400900000001
 11
72.252395500000034
 21
475.93051199999996
  0
LINE
  8
_0-0_0
  6
CONTINUOUS
 62
    7
 10
72.002395500000034
 20
476.37851000000001
 11
72.252395500000034
 21
476.38314800000001
  0
LINE
  8
_0-0_0
  6
CONTINUOUS
 62
    7
 10
81.752395500000034
 20
476.37851000000001
 11
72.002395500000034
 21
476.37851000000001
  0
LINE
  8
_0-0_0
  6
CONTINUOUS
 62
    7
 10
72.002395500000034
 20
476.593659
 11
72.252395500000034
 21
476.62744199999997
  0
LINE
  8
_0-0_0
  6
CONTINUOUS
 62
    7
 10
72.002395500000034
 20
476.81765799999999
 11
72.252395500000034
 21
476.88021900000001
  0
LINE
  8
_0-0_0
  6
CONTINUOUS
 62
    7
 10
72.002395500000034
 20
477.04800399999999
 11
72.252395500000034
 21
477.13867199999999
  0
LINE
  8
_0-0_0
  6
CONTINUOUS
 62
    7
 10
72.002395500000034
 20
477.28222699999998
 11
72.252395500000034
 21
477.39999399999999
  0
LINE
  8
_0-0_0
  6
CONTINUOUS
 62
    7
 10
72.002395500000034
 20
477.51773099999997
 11
72.252395500000034
 21
477.661316
  0
LINE
  8
_0-0_0
  6
CONTINUOUS
 62
    7
 10
72.002395500000034
 20
477.75195300000001
 11
72.252395500000034
 21
477.91976899999997
  0
LINE
  8
_0-0_0
  6
CONTINUOUS
 62
    7
 10
72.002395500000034
 20
477.98232999999999
 11
72.252395500000034
 21
478.17251599999997
  0
LINE
  8
_0-0_0
  6
CONTINUOUS
 62
    7
 10
72.002395500000034
 20
478.20632899999998
 11
72.252395500000034
 21
478.41683999999998
  0
LINE
  8
_0-0_0
  6
CONTINUOUS
 62
    7
 10
72.002395500000034
 20
478.42147799999998
 11
72.252395500000034
 21
478.64999399999999
  0
LINE
  8
_0-0_0
  6
CONTINUOUS
 62
    7
 10
72.002395500000034
 20
478.625427
 11
72.252395500000034
 21
478.86944599999998
  0
LINE
  8
_0-0_0
  6
CONTINUOUS
 62
    7
 10
72.002395500000034
 20
478.81594899999999
 11
72.252395500000034
 21
479.07281499999999
  0
LINE
  8
_0-0_0
  6
CONTINUOUS
 62
    7
 10
72.002395500000034
 20
478.99096700000001
 11
72.252395500000034
 21
479.25784299999998
  0
LINE
  8
_0-0_0
  6
CONTINUOUS
 62
    7
 10
72.002395500000034
 20
479.14855999999997
 11
72.252395500000034
 21
479.42251599999997
  0
LINE
  8
_0-0_0
  6
CONTINUOUS
 62
    7
 10
72.002395500000034
 20
476.17456099999998
 11
72.252395500000034
 21
475.93051199999996
  0
LINE
  8
_0-0_0
  6
CONTINUOUS
 62
    7
 10
72.002395500000034
 20
476.37851000000001
 11
72.252395500000034
 21
476.14999399999999
  0
LINE
  8
_0-0_0
  6
CONTINUOUS
 62
    7
 10
72.002395500000034
 20
462.686981
 11
72.252395500000034
 21
462.965057
  0
LINE
  8
_0-0_0
  6
CONTINUOUS
 62
    7
 10
82.002395500000034
 20
462.55514499999998
 11
82.002395500000034
 21
462.79998799999998
  0
LINE
  8
_0-0_0
  6
CONTINUOUS
 62
    7
 10
72.002395500000034
 20
458.55306999999999
 11
72.252395500000034
 21
458.31369000000001
  0
LINE
  8
_0-0_0
  6
CONTINUOUS
 62
    7
 10
72.002395500000034
 20
458.577698
 11
72.252395500000034
 21
458.35461399999997
  0
LINE
  8
_0-0_0
  6
CONTINUOUS
 62
    7
 10
72.002395500000034
 20
458.62664799999999
 11
72.252395500000034
 21
458.42233299999998
  0
LINE
  8
_0-0_0
  6
CONTINUOUS
 62
    7
 10
72.002395500000034
 20
458.699432
 11
72.252395500000034
 21
458.51611300000002
  0
LINE
  8
_0-0_0
  6
CONTINUOUS
 62
    7
 10
72.002395500000034
 20
458.79522700000001
 11
72.252395500000034
 21
458.63491799999997
  0
LINE
  8
_0-0_0
  6
CONTINUOUS
 62
    7
 10
72.002395500000034
 20
458.91299399999997
 11
72.252395500000034
 21
458.77743499999997
  0
LINE
  8
_0-0_0
  6
CONTINUOUS
 62
    7
 10
72.002395500000034
 20
459.051422
 11
72.252395500000034
 21
458.94210800000002
  0
LINE
  8
_0-0_0
  6
CONTINUOUS
 62
    7
 10
72.002395500000034
 20
459.20898399999999
 11
72.252395500000034
 21
459.12716699999999
  0
LINE
  8
_0-0_0
  6
CONTINUOUS
 62
    7
 10
81.502395500000034
 20
459.330536
 11
72.252395500000034
 21
459.330536
  0
LINE
  8
_0-0_0
  6
CONTINUOUS
 62
    7
 10
72.002395500000034
 20
459.38400300000001
 11
72.252395500000034
 21
459.330536
  0
LINE
  8
_0-0_0
  6
CONTINUOUS
 62
    7
 10
72.002395500000034
 20
459.778504
 11
72.252395500000034
 21
459.783142
  0
LINE
  8
_0-0_0
  6
CONTINUOUS
 62
    7
 10
81.752395500000034
 20
459.778504
 11
72.002395500000034
 21
459.778504
  0
LINE
  8
_0-0_0
  6
CONTINUOUS
 62
    7
 10
72.002395500000034
 20
459.993652
 11
72.252395500000034
 21
460.02743499999997
  0
LINE
  8
_0-0_0
  6
CONTINUOUS
 62
    7
 10
72.002395500000034
 20
460.21765099999999
 11
72.252395500000034
 21
460.280213
  0
LINE
  8
_0-0_0
  6
CONTINUOUS
 62
    7
 10
72.002395500000034
 20
460.44799799999998
 11
72.252395500000034
 21
460.53866599999998
  0
LINE
  8
_0-0_0
  6
CONTINUOUS
 62
    7
 10
72.002395500000034
 20
460.68222099999997
 11
72.252395500000034
 21
460.79998799999998
  0
LINE
  8
_0-0_0
  6
CONTINUOUS
 62
    7
 10
72.002395500000034
 20
460.917755
 11
72.252395500000034
 21
461.06130999999999
  0
LINE
  8
_0-0_0
  6
CONTINUOUS
 62
    7
 10
72.002395500000034
 20
461.15197799999999
 11
72.252395500000034
 21
461.31976299999997
  0
LINE
  8
_0-0_0
  6
CONTINUOUS
 62
    7
 10
72.002395500000034
 20
461.38232399999998
 11
72.252395500000034
 21
461.57254
  0
LINE
  8
_0-0_0
  6
CONTINUOUS
 62
    7
 10
72.002395500000034
 20
461.60632299999997
 11
72.252395500000034
 21
461.81683399999997
  0
LINE
  8
_0-0_0
  6
CONTINUOUS
 62
    7
 10
72.002395500000034
 20
461.82147199999997
 11
72.252395500000034
 21
462.04998799999998
  0
LINE
  8
_0-0_0
  6
CONTINUOUS
 62
    7
 10
72.002395500000034
 20
462.02542099999999
 11
72.252395500000034
 21
462.26943999999997
  0
LINE
  8
_0-0_0
  6
CONTINUOUS
 62
    7
 10
72.002395500000034
 20
462.21597300000002
 11
72.252395500000034
 21
462.47280899999998
  0
LINE
  8
_0-0_0
  6
CONTINUOUS
 62
    7
 10
72.002395500000034
 20
462.390961
 11
72.252395500000034
 21
462.65783699999997
  0
LINE
  8
_0-0_0
  6
CONTINUOUS
 62
    7
 10
72.002395500000034
 20
462.54855399999997
 11
72.252395500000034
 21
462.82254
  0
LINE
  8
_0-0_0
  6
CONTINUOUS
 62
    7
 10
72.002395500000034
 20
459.57455499999998
 11
72.252395500000034
 21
459.330536
  0
LINE
  8
_0-0_0
  6
CONTINUOUS
 62
    7
 10
72.002395500000034
 20
459.778504
 11
72.252395500000034
 21
459.54998799999998
  0
LINE
  8
_0-0_0
  6
CONTINUOUS
 62
    7
 10
69.202407500000049
 20
464.56185899999997
 11
69.202407500000049
 21
466.83093300000002
  0
LINE
  8
_0-0_0
  6
CONTINUOUS
 62
    7
 10
69.202407500000049
 20
466.83093300000002
 11
69.202407500000049
 21
473.63809199999997
  0
LINE
  8
_0-0_0
  6
CONTINUOUS
 62
    7
 10
72.002395500000034
 20
476.37851000000001
 11
72.002395500000034
 21
476.593659
  0
LINE
  8
_0-0_0
  6
CONTINUOUS
 62
    7
 10
72.002395500000034
 20
476.593659
 11
72.002395500000034
 21
476.81765799999999
  0
LINE
  8
_0-0_0
  6
CONTINUOUS
 62
    7
 10
72.002395500000034
 20
476.81765799999999
 11
72.002395500000034
 21
477.04800399999999
  0
LINE
  8
_0-0_0
  6
CONTINUOUS
 62
    7
 10
72.002395500000034
 20
477.04800399999999
 11
72.002395500000034
 21
477.28222699999998
  0
LINE
  8
_0-0_0
  6
CONTINUOUS
 62
    7
 10
72.002395500000034
 20
477.28222699999998
 11
72.002395500000034
 21
477.51773099999997
  0
LINE
  8
_0-0_0
  6
CONTINUOUS
 62
    7
 10
72.002395500000034
 20
477.51773099999997
 11
72.002395500000034
 21
477.75195300000001
  0
LINE
  8
_0-0_0
  6
CONTINUOUS
 62
    7
 10
72.002395500000034
 20
477.75195300000001
 11
72.002395500000034
 21
477.98232999999999
  0
LINE
  8
_0-0_0
  6
CONTINUOUS
 62
    7
 10
72.002395500000034
 20
477.98232999999999
 11
72.002395500000034
 21
478.20632899999998
  0
LINE
  8
_0-0_0
  6
CONTINUOUS
 62
    7
 10
72.002395500000034
 20
478.20632899999998
 11
72.002395500000034
 21
478.42147799999998
  0
LINE
  8
_0-0_0
  6
CONTINUOUS
 62
    7
 10
72.002395500000034
 20
478.42147799999998
 11
72.002395500000034
 21
478.625427
  0
LINE
  8
_0-0_0
  6
CONTINUOUS
 62
    7
 10
72.002395500000034
 20
478.625427
 11
72.002395500000034
 21
478.81594899999999
  0
LINE
  8
_0-0_0
  6
CONTINUOUS
 62
    7
 10
72.002395500000034
 20
478.81594899999999
 11
72.002395500000034
 21
478.99096700000001
  0
LINE
  8
_0-0_0
  6
CONTINUOUS
 62
    7
 10
72.002395500000034
 20
478.99096700000001
 11
72.002395500000034
 21
479.14855999999997
  0
LINE
  8
_0-0_0
  6
CONTINUOUS
 62
    7
 10
72.002395500000034
 20
479.14855999999997
 11
72.002395500000034
 21
479.28698700000001
  0
LINE
  8
_0-0_0
  6
CONTINUOUS
 62
    7
 10
72.002395500000034
 20
479.28698700000001
 11
72.002395500000034
 21
479.37454200000002
  0
LINE
  8
_0-0_0
  6
CONTINUOUS
 62
    7
 10
72.002395500000034
 20
479.37454200000002
 11
72.002395500000034
 21
479.40475499999997
  0
LINE
  8
_0-0_0
  6
CONTINUOUS
 62
    7
 10
72.002395500000034
 20
479.40475499999997
 11
72.002395500000034
 21
479.50054899999998
  0
LINE
  8
_0-0_0
  6
CONTINUOUS
 62
    7
 10
72.002395500000034
 20
479.50054899999998
 11
72.002395500000034
 21
479.57333399999999
  0
LINE
  8
_0-0_0
  6
CONTINUOUS
 62
    7
 10
72.002395500000034
 20
479.57333399999999
 11
72.002395500000034
 21
479.64999399999999
  0
LINE
  8
_0-0_0
  6
CONTINUOUS
 62
    7
 10
72.002395500000034
 20
479.62228399999998
 11
72.002395500000034
 21
479.64691199999999
  0
LINE
  8
_0-0_0
  6
CONTINUOUS
 62
    7
 10
72.002395500000034
 20
479.64691199999999
 11
72.002395500000034
 21
479.64999399999999
  0
LINE
  8
_0-0_0
  6
CONTINUOUS
 62
    7
 10
72.002395500000034
 20
475.14999399999999
 11
72.002395500000034
 21
475.153076
  0
LINE
  8
_0-0_0
  6
CONTINUOUS
 62
    7
 10
72.002395500000034
 20
475.153076
 11
72.002395500000034
 21
475.17767299999997
  0
LINE
  8
_0-0_0
  6
CONTINUOUS
 62
    7
 10
72.002395500000034
 20
475.17767299999997
 11
72.002395500000034
 21
475.226654
  0
LINE
  8
_0-0_0
  6
CONTINUOUS
 62
    7
 10
72.002395500000034
 20
475.14999399999999
 11
72.002395500000034
 21
475.29943900000001
  0
LINE
  8
_0-0_0
  6
CONTINUOUS
 62
    7
 10
72.002395500000034
 20
475.29943900000001
 11
72.002395500000034
 21
475.39523300000002
  0
LINE
  8
_0-0_0
  6
CONTINUOUS
 62
    7
 10
72.002395500000034
 20
475.39523300000002
 11
72.002395500000034
 21
475.51297
  0
LINE
  8
_0-0_0
  6
CONTINUOUS
 62
    7
 10
72.002395500000034
 20
475.51297
 11
72.002395500000034
 21
475.65139799999997
  0
LINE
  8
_0-0_0
  6
CONTINUOUS
 62
    7
 10
72.002395500000034
 20
475.65139799999997
 11
72.002395500000034
 21
475.80899099999999
  0
LINE
  8
_0-0_0
  6
CONTINUOUS
 62
    7
 10
72.002395500000034
 20
475.80899099999999
 11
72.002395500000034
 21
475.98400900000001
  0
LINE
  8
_0-0_0
  6
CONTINUOUS
 62
    7
 10
72.002395500000034
 20
475.98400900000001
 11
72.002395500000034
 21
476.17456099999998
  0
LINE
  8
_0-0_0
  6
CONTINUOUS
 62
    7
 10
72.002395500000034
 20
476.32128899999998
 11
72.002395500000034
 21
476.37851000000001
  0
LINE
  8
_0-0_0
  6
CONTINUOUS
 62
    7
 10
72.002395500000034
 20
476.17456099999998
 11
72.002395500000034
 21
476.32128899999998
  0
LINE
  8
_0-0_0
  6
CONTINUOUS
 62
    7
 10
72.002395500000034
 20
459.778504
 11
72.002395500000034
 21
459.993652
  0
LINE
  8
_0-0_0
  6
CONTINUOUS
 62
    7
 10
72.002395500000034
 20
459.993652
 11
72.002395500000034
 21
460.21765099999999
  0
LINE
  8
_0-0_0
  6
CONTINUOUS
 62
    7
 10
72.002395500000034
 20
460.21765099999999
 11
72.002395500000034
 21
460.44799799999998
  0
LINE
  8
_0-0_0
  6
CONTINUOUS
 62
    7
 10
72.002395500000034
 20
460.44799799999998
 11
72.002395500000034
 21
460.68222099999997
  0
LINE
  8
_0-0_0
  6
CONTINUOUS
 62
    7
 10
72.002395500000034
 20
460.68222099999997
 11
72.002395500000034
 21
460.917755
  0
LINE
  8
_0-0_0
  6
CONTINUOUS
 62
    7
 10
72.002395500000034
 20
460.917755
 11
72.002395500000034
 21
461.15197799999999
  0
LINE
  8
_0-0_0
  6
CONTINUOUS
 62
    7
 10
72.002395500000034
 20
461.15197799999999
 11
72.002395500000034
 21
461.38232399999998
  0
LINE
  8
_0-0_0
  6
CONTINUOUS
 62
    7
 10
72.002395500000034
 20
461.38232399999998
 11
72.002395500000034
 21
461.60632299999997
  0
LINE
  8
_0-0_0
  6
CONTINUOUS
 62
    7
 10
72.002395500000034
 20
461.60632299999997
 11
72.002395500000034
 21
461.82147199999997
  0
LINE
  8
_0-0_0
  6
CONTINUOUS
 62
    7
 10
72.002395500000034
 20
461.82147199999997
 11
72.002395500000034
 21
462.02542099999999
  0
LINE
  8
_0-0_0
  6
CONTINUOUS
 62
    7
 10
72.002395500000034
 20
462.02542099999999
 11
72.002395500000034
 21
462.21597300000002
  0
LINE
  8
_0-0_0
  6
CONTINUOUS
 62
    7
 10
72.002395500000034
 20
462.21597300000002
 11
72.002395500000034
 21
462.390961
  0
LINE
  8
_0-0_0
  6
CONTINUOUS
 62
    7
 10
72.002395500000034
 20
462.390961
 11
72.002395500000034
 21
462.54855399999997
  0
LINE
  8
_0-0_0
  6
CONTINUOUS
 62
    7
 10
72.002395500000034
 20
462.54855399999997
 11
72.002395500000034
 21
462.686981
  0
LINE
  8
_0-0_0
  6
CONTINUOUS
 62
    7
 10
72.002395500000034
 20
462.686981
 11
72.002395500000034
 21
462.77453600000001
  0
LINE
  8
_0-0_0
  6
CONTINUOUS
 62
    7
 10
72.002395500000034
 20
462.77453600000001
 11
72.002395500000034
 21
462.80474900000002
  0
LINE
  8
_0-0_0
  6
CONTINUOUS
 62
    7
 10
72.002395500000034
 20
462.80474900000002
 11
72.002395500000034
 21
462.90054299999997
  0
LINE
  8
_0-0_0
  6
CONTINUOUS
 62
    7
 10
72.002395500000034
 20
462.90054299999997
 11
72.002395500000034
 21
462.97332799999998
  0
LINE
  8
_0-0_0
  6
CONTINUOUS
 62
    7
 10
72.002395500000034
 20
462.97332799999998
 11
72.002395500000034
 21
463.04998799999998
  0
LINE
  8
_0-0_0
  6
CONTINUOUS
 62
    7
 10
72.002395500000034
 20
463.02227799999997
 11
72.002395500000034
 21
463.04690599999998
  0
LINE
  8
_0-0_0
  6
CONTINUOUS
 62
    7
 10
72.002395500000034
 20
463.04690599999998
 11
72.002395500000034
 21
463.04998799999998
  0
LINE
  8
_0-0_0
  6
CONTINUOUS
 62
    7
 10
72.002395500000034
 20
458.54998799999998
 11
72.002395500000034
 21
458.55306999999999
  0
LINE
  8
_0-0_0
  6
CONTINUOUS
 62
    7
 10
72.002395500000034
 20
458.55306999999999
 11
72.002395500000034
 21
458.577698
  0
LINE
  8
_0-0_0
  6
CONTINUOUS
 62
    7
 10
72.002395500000034
 20
458.54998799999998
 11
72.002395500000034
 21
458.62664799999999
  0
LINE
  8
_0-0_0
  6
CONTINUOUS
 62
    7
 10
72.002395500000034
 20
458.62664799999999
 11
72.002395500000034
 21
458.699432
  0
LINE
  8
_0-0_0
  6
CONTINUOUS
 62
    7
 10
72.002395500000034
 20
458.699432
 11
72.002395500000034
 21
458.79522700000001
  0
LINE
  8
_0-0_0
  6
CONTINUOUS
 62
    7
 10
72.002395500000034
 20
458.79522700000001
 11
72.002395500000034
 21
458.91299399999997
  0
LINE
  8
_0-0_0
  6
CONTINUOUS
 62
    7
 10
72.002395500000034
 20
458.91299399999997
 11
72.002395500000034
 21
459.051422
  0
LINE
  8
_0-0_0
  6
CONTINUOUS
 62
    7
 10
72.002395500000034
 20
459.051422
 11
72.002395500000034
 21
459.20898399999999
  0
LINE
  8
_0-0_0
  6
CONTINUOUS
 62
    7
 10
72.002395500000034
 20
459.20898399999999
 11
72.002395500000034
 21
459.38400300000001
  0
LINE
  8
_0-0_0
  6
CONTINUOUS
 62
    7
 10
72.002395500000034
 20
459.38400300000001
 11
72.002395500000034
 21
459.57455499999998
  0
LINE
  8
_0-0_0
  6
CONTINUOUS
 62
    7
 10
72.002395500000034
 20
459.72128299999997
 11
72.002395500000034
 21
459.778504
  0
LINE
  8
_0-0_0
  6
CONTINUOUS
 62
    7
 10
72.002395500000034
 20
459.57455499999998
 11
72.002395500000034
 21
459.72128299999997
  0
LINE
  8
_0-0_0
  6
CONTINUOUS
 62
    7
 10
68.402389500000027
 20
466.59997599999997
 11
68.402389500000027
 21
474.09997599999997
  0
LINE
  8
_0-0_0
  6
CONTINUOUS
 62
    7
 10
68.402389500000027
 20
464.09997599999997
 11
68.402389500000027
 21
466.59997599999997
  0
LINE
  8
_0-0_0
  6
CONTINUOUS
 62
    7
 10
57.002395500000034
 20
475.59997599999997
 11
66.710220499999991
 21
475.59997599999997
  0
LINE
  8
_0-0_0
  6
CONTINUOUS
 62
    7
 10
66.752395500000034
 20
475.59997599999997
 11
66.710220499999991
 21
475.59997599999997
  0
LINE
  8
_0-0_0
  6
CONTINUOUS
 62
    7
 10
56.702407500000049
 20
466.88797
 11
56.761215500000048
 21
466.64111300000002
  0
LINE
  8
_0-0_0
  6
CONTINUOUS
 62
    7
 10
56.761215500000048
 20
466.64111300000002
 11
56.81095849999997
 21
466.44879199999997
  0
LINE
  8
_0-0_0
  6
CONTINUOUS
 62
    7
 10
56.81095849999997
 20
466.44879199999997
 11
56.882095499999991
 21
466.18304499999999
  0
LINE
  8
_0-0_0
  6
CONTINUOUS
 62
    7
 10
56.882095499999991
 20
466.18304499999999
 11
56.915054499999997
 21
466.05633599999999
  0
LINE
  8
_0-0_0
  6
CONTINUOUS
 62
    7
 10
56.915054499999997
 20
466.05633599999999
 11
56.940292499999998
 21
465.95291099999997
  0
LINE
  8
_0-0_0
  6
CONTINUOUS
 62
    7
 10
56.940292499999998
 20
465.95291099999997
 11
56.96232550000002
 21
465.852936
  0
LINE
  8
_0-0_0
  6
CONTINUOUS
 62
    7
 10
56.96232550000002
 20
465.852936
 11
56.983718500000009
 21
465.73523
  0
LINE
  8
_0-0_0
  6
CONTINUOUS
 62
    7
 10
56.983718500000009
 20
465.73523
 11
56.992294500000014
 21
465.67309599999999
  0
LINE
  8
_0-0_0
  6
CONTINUOUS
 62
    7
 10
56.992294500000014
 20
465.67309599999999
 11
56.998367499999972
 21
465.61248799999998
  0
LINE
  8
_0-0_0
  6
CONTINUOUS
 62
    7
 10
56.998367499999972
 20
465.61248799999998
 11
57.001388500000019
 21
465.56326300000001
  0
LINE
  8
_0-0_0
  6
CONTINUOUS
 62
    7
 10
57.001388500000019
 20
465.56326300000001
 11
57.002395500000034
 21
465.51504499999999
  0
LINE
  8
_0-0_0
  6
CONTINUOUS
 62
    7
 10
56.702407500000049
 20
471.311981
 11
56.761184500000013
 21
471.558807
  0
LINE
  8
_0-0_0
  6
CONTINUOUS
 62
    7
 10
56.761184500000013
 20
471.558807
 11
56.81095849999997
 21
471.75115999999997
  0
LINE
  8
_0-0_0
  6
CONTINUOUS
 62
    7
 10
56.81095849999997
 20
471.75115999999997
 11
56.882095499999991
 21
472.01693699999998
  0
LINE
  8
_0-0_0
  6
CONTINUOUS
 62
    7
 10
56.882095499999991
 20
472.01693699999998
 11
56.915054499999997
 21
472.14367699999997
  0
LINE
  8
_0-0_0
  6
CONTINUOUS
 62
    7
 10
56.915054499999997
 20
472.14367699999997
 11
56.940322499999979
 21
472.24707000000001
  0
LINE
  8
_0-0_0
  6
CONTINUOUS
 62
    7
 10
56.940322499999979
 20
472.24707000000001
 11
56.96232550000002
 21
472.347015
  0
LINE
  8
_0-0_0
  6
CONTINUOUS
 62
    7
 10
56.96232550000002
 20
472.347015
 11
56.983718500000009
 21
472.46472199999999
  0
LINE
  8
_0-0_0
  6
CONTINUOUS
 62
    7
 10
56.983718500000009
 20
472.46472199999999
 11
56.992294500000014
 21
472.52685600000001
  0
LINE
  8
_0-0_0
  6
CONTINUOUS
 62
    7
 10
56.992294500000014
 20
472.52685600000001
 11
56.998367499999972
 21
472.58746300000001
  0
LINE
  8
_0-0_0
  6
CONTINUOUS
 62
    7
 10
56.998367499999972
 20
472.58746300000001
 11
57.001388500000019
 21
472.63671899999997
  0
LINE
  8
_0-0_0
  6
CONTINUOUS
 62
    7
 10
57.001388500000019
 20
472.63671899999997
 11
57.002395500000034
 21
472.68493699999999
  0
LINE
  8
_0-0_0
  6
CONTINUOUS
 62
    7
 10
57.002395500000034
 20
467.53793300000001
 11
57.002395500000034
 21
466.492279
  0
LINE
  8
_0-0_0
  6
CONTINUOUS
 62
    7
 10
57.002395500000034
 20
465.207672
 11
57.002395500000034
 21
466.492279
  0
LINE
  8
_0-0_0
  6
CONTINUOUS
 62
    7
 10
57.002395500000034
 20
465.092285
 11
57.002395500000034
 21
465.207672
  0
ARC
  8
_0-0_0
  6
CONTINUOUS
 62
    7
 10
55.002395500000034
 20
476.45846599999999
 40
2
 50
0
 51
71.565000999999995
  0
LINE
  8
_0-0_0
  6
CONTINUOUS
 62
    7
 10
66.710220499999991
 20
475.59997599999997
 11
66.7647245
 21
475.53005999999999
  0
LINE
  8
_0-0_0
  6
CONTINUOUS
 62
    7
 10
66.7647245
 20
475.53005999999999
 11
66.815811499999995
 21
475.46121199999999
  0
LINE
  8
_0-0_0
  6
CONTINUOUS
 62
    7
 10
66.815811499999995
 20
475.46121199999999
 11
66.863449500000002
 21
475.39370700000001
  0
LINE
  8
_0-0_0
  6
CONTINUOUS
 62
    7
 10
66.863449500000002
 20
475.39370700000001
 11
66.907943499999988
 21
475.327179
  0
LINE
  8
_0-0_0
  6
CONTINUOUS
 62
    7
 10
66.907943499999988
 20
475.327179
 11
66.962661499999967
 21
475.23962399999999
  0
LINE
  8
_0-0_0
  6
CONTINUOUS
 62
    7
 10
66.962661499999967
 20
475.23962399999999
 11
67.012191499999972
 21
475.15353399999998
  0
LINE
  8
_0-0_0
  6
CONTINUOUS
 62
    7
 10
67.012191499999972
 20
475.15353399999998
 11
67.056655500000033
 21
475.06869499999999
  0
LINE
  8
_0-0_0
  6
CONTINUOUS
 62
    7
 10
67.056655500000033
 20
475.06869499999999
 11
67.103622500000029
 21
474.96838400000001
  0
LINE
  8
_0-0_0
  6
CONTINUOUS
 62
    7
 10
67.103622500000029
 20
474.96838400000001
 11
67.143814500000019
 21
474.86944599999998
  0
LINE
  8
_0-0_0
  6
CONTINUOUS
 62
    7
 10
67.143814500000019
 20
474.86944599999998
 11
67.177474500000017
 21
474.77169800000001
  0
LINE
  8
_0-0_0
  6
CONTINUOUS
 62
    7
 10
67.177474500000017
 20
474.77169800000001
 11
67.204788500000006
 21
474.67489599999999
  0
LINE
  8
_0-0_0
  6
CONTINUOUS
 62
    7
 10
67.204788500000006
 20
474.67489599999999
 11
67.225814500000013
 21
474.57882699999999
  0
LINE
  8
_0-0_0
  6
CONTINUOUS
 62
    7
 10
67.225814500000013
 20
474.57882699999999
 11
67.241744499999982
 21
474.47497599999997
  0
LINE
  8
_0-0_0
  6
CONTINUOUS
 62
    7
 10
67.241744499999982
 20
474.47497599999997
 11
67.250503500000036
 21
474.37155200000001
  0
LINE
  8
_0-0_0
  6
CONTINUOUS
 62
    7
 10
67.250503500000036
 20
474.37155200000001
 11
67.252151499999968
 21
474.26831099999998
  0
LINE
  8
_0-0_0
  6
CONTINUOUS
 62
    7
 10
67.252151499999968
 20
474.26831099999998
 11
67.246688500000005
 21
474.16503899999998
  0
LINE
  8
_0-0_0
  6
CONTINUOUS
 62
    7
 10
67.246688500000005
 20
474.16503899999998
 11
67.234054500000013
 21
474.06143199999997
  0
LINE
  8
_0-0_0
  6
CONTINUOUS
 62
    7
 10
67.234054500000013
 20
474.06143199999997
 11
67.214248499999997
 21
473.95727499999998
  0
LINE
  8
_0-0_0
  6
CONTINUOUS
 62
    7
 10
67.214248499999997
 20
473.95727499999998
 11
67.187118499999997
 21
473.85232600000001
  0
LINE
  8
_0-0_0
  6
CONTINUOUS
 62
    7
 10
67.187118499999997
 20
473.85232600000001
 11
67.152450499999986
 21
473.746307
  0
LINE
  8
_0-0_0
  6
CONTINUOUS
 62
    7
 10
67.152450499999986
 20
473.746307
 11
67.110122499999989
 21
473.63891599999999
  0
LINE
  8
_0-0_0
  6
CONTINUOUS
 62
    7
 10
67.110122499999989
 20
473.63891599999999
 11
67.059799499999997
 21
473.52990699999998
  0
LINE
  8
_0-0_0
  6
CONTINUOUS
 62
    7
 10
67.059799499999997
 20
473.52990699999998
 11
67.0055385
 21
473.42678799999999
  0
LINE
  8
_0-0_0
  6
CONTINUOUS
 62
    7
 10
67.0055385
 20
473.42678799999999
 11
66.943832499999985
 21
473.32171599999998
  0
LINE
  8
_0-0_0
  6
CONTINUOUS
 62
    7
 10
66.943832499999985
 20
473.32171599999998
 11
66.874313499999971
 21
473.21447799999999
  0
LINE
  8
_0-0_0
  6
CONTINUOUS
 62
    7
 10
66.874313499999971
 20
473.21447799999999
 11
66.79661550000003
 21
473.10476699999998
  0
LINE
  8
_0-0_0
  6
CONTINUOUS
 62
    7
 10
66.79661550000003
 20
473.10476699999998
 11
66.710220499999991
 21
472.992279
  0
LINE
  8
_0-0_0
  6
CONTINUOUS
 62
    7
 10
57.002395500000034
 20
473.10766599999999
 11
57.002395500000034
 21
472.992279
  0
LINE
  8
_0-0_0
  6
CONTINUOUS
 62
    7
 10
57.002395500000034
 20
471.707672
 11
57.002395500000034
 21
470.66204799999997
  0
LINE
  8
_0-0_0
  6
CONTINUOUS
 62
    7
 10
57.002395500000034
 20
466.492279
 11
66.710220499999991
 21
466.492279
  0
LINE
  8
_0-0_0
  6
CONTINUOUS
 62
    7
 10
57.002395500000034
 20
465.207672
 11
66.710220499999991
 21
465.207672
  0
LINE
  8
_0-0_0
  6
CONTINUOUS
 62
    7
 10
68.002395500000034
 20
471.83154300000001
 11
68.002395500000034
 21
474.34997599999997
  0
LINE
  8
_0-0_0
  6
CONTINUOUS
 62
    7
 10
57.002395500000034
 20
476.45846599999999
 11
57.002395500000034
 21
473.10766599999999
  0
LINE
  8
_0-0_0
  6
CONTINUOUS
 62
    7
 10
46.002395500000034
 20
458.29998799999998
 11
46.002395500000034
 21
458.550049
  0
LINE
  8
_0-0_0
  6
CONTINUOUS
 62
    7
 10
21.502395500000034
 20
478.39999399999999
 11
16.502395500000034
 21
478.39999399999999
  0
ARC
  8
_0-0_0
  6
CONTINUOUS
 62
    7
 10
16.502395500000034
 20
473.89999399999999
 40
4.5
 50
90.000003000000007
 51
269.99999700000006
  0
LINE
  8
_0-0_0
  6
CONTINUOUS
 62
    7
 10
21.502395500000034
 20
469.39999399999999
 11
16.502395500000034
 21
469.39999399999999
  0
ARC
  8
_0-0_0
  6
CONTINUOUS
 62
    7
 10
21.502395500000034
 20
473.89999399999999
 40
4.5
 50
269.99999700000001
 51
90.000002999999992
  0
LINE
  8
_0-0_0
  6
CONTINUOUS
 62
    7
 10
-34.497604499999966
 20
478.39999399999999
 11
-39.497604499999966
 21
478.39999399999999
  0
ARC
  8
_0-0_0
  6
CONTINUOUS
 62
    7
 10
-39.497604499999966
 20
473.89999399999999
 40
4.5
 50
90.000003000000007
 51
269.99999700000006
  0
LINE
  8
_0-0_0
  6
CONTINUOUS
 62
    7
 10
-34.497604499999966
 20
469.39999399999999
 11
-39.497604499999966
 21
469.39999399999999
  0
ARC
  8
_0-0_0
  6
CONTINUOUS
 62
    7
 10
-34.497604499999966
 20
473.89999399999999
 40
4.5
 50
269.99999700000001
 51
90.000002999999992
  0
LINE
  8
_0-0_0
  6
CONTINUOUS
 62
    7
 10
-9.1850895000000037
 20
477.96963499999998
 11
-10.485092499999951
 21
474.46963499999998
  0
LINE
  8
_0-0_0
  6
CONTINUOUS
 62
    7
 10
-10.297592499999951
 20
474.19998199999998
 11
-7.6976015000000189
 21
474.19998199999998
  0
ARC
  8
_0-0_0
  6
CONTINUOUS
 62
    7
 10
-7.6976015000000189
 20
474.39999399999999
 40
0.2
 50
269.99999700000001
 51
20.376435000000019
  0
ARC
  8
_0-0_0
  6
CONTINUOUS
 62
    7
 10
-8.9976044999999658
 20
477.89999399999999
 40
0.2
 50
20.376434999999997
 51
159.62357000000003
  0
LINE
  8
_0-0_0
  6
CONTINUOUS
 62
    7
 10
46.002395500000034
 20
458.29998799999998
 11
46.002395500000034
 21
460.29998799999998
  0
ARC
  8
_0-0_0
  6
CONTINUOUS
 62
    7
 10
12.002395500000034
 20
464.69998199999998
 40
3
 50
180.00000900000003
 51
269.99999700000001
  0
LINE
  8
_0-0_0
  6
CONTINUOUS
 62
    7
 10
12.002395500000034
 20
461.69998199999998
 11
27.002395500000034
 21
461.69998199999998
  0
ARC
  8
_0-0_0
  6
CONTINUOUS
 62
    7
 10
27.002395500000034
 20
464.69998199999998
 40
3
 50
269.99999700000001
 51
0
  0
ARC
  8
_0-0_0
  6
CONTINUOUS
 62
    7
 10
27.002395500000034
 20
478.29998799999998
 40
3
 50
0
 51
90.000003000000007
  0
LINE
  8
_0-0_0
  6
CONTINUOUS
 62
    7
 10
27.002395500000034
 20
481.29998799999998
 11
12.002395500000034
 21
481.29998799999998
  0
ARC
  8
_0-0_0
  6
CONTINUOUS
 62
    7
 10
12.002395500000034
 20
478.29998799999998
 40
3
 50
90.000003000000007
 51
180.00000900000001
  0
ARC
  8
_0-0_0
  6
CONTINUOUS
 62
    7
 10
-41.907928500000025
 20
466.78967299999999
 40
5.089683
 50
180.00000900000003
 51
269.99999700000001
  0
LINE
  8
_0-0_0
  6
CONTINUOUS
 62
    7
 10
-41.907928500000025
 20
461.69998199999998
 11
-30.64059450000002
 21
461.69998199999998
  0
ARC
  8
_0-0_0
  6
CONTINUOUS
 62
    7
 10
-30.64059450000002
 20
465.34298699999999
 40
3.6429879999999999
 50
269.99999700000001
 51
0.0000099999999886
  0
LINE
  8
_0-0_0
  6
CONTINUOUS
 62
    7
 10
-29.997604499999966
 20
481.29998799999998
 11
-43.331543500000009
 21
481.29998799999998
  0
ARC
  8
_0-0_0
  6
CONTINUOUS
 62
    7
 10
-43.331543500000009
 20
480.29998799999998
 40
1
 50
90.000003000000007
 51
172.23356100000001
  0
ARC
  8
_0-0_0
  6
CONTINUOUS
 62
    7
 10
-45.997604499999966
 20
477.23767099999998
 40
1
 50
105.68034800000001
 51
180.00000900000001
  0
LINE
  8
_0-0_0
  6
CONTINUOUS
 62
    7
 10
11.402389500000027
 20
481.29998799999998
 11
11.402389500000027
 21
481.23937999999998
  0
LINE
  8
_0-0_0
  6
CONTINUOUS
 62
    7
 10
-29.997604499999966
 20
461.75717199999997
 11
-29.997604499999966
 21
461.704071
  0
LINE
  8
_0-0_0
  6
CONTINUOUS
 62
    7
 10
11.402389500000027
 20
461.76058999999998
 11
11.402389500000027
 21
461.704071
  0
LINE
  8
_0-0_0
  6
CONTINUOUS
 62
    7
 10
68.002395500000034
 20
463.84997599999997
 11
67.202407500000049
 21
463.04998799999998
  0
LINE
  8
_0-0_0
  6
CONTINUOUS
 62
    7
 10
82.002395500000034
 20
458.79998799999998
 11
81.502578500000027
 21
458.30014
  0
LINE
  8
_0-0_0
  6
CONTINUOUS
 62
    7
 10
82.002395500000034
 20
475.39999399999999
 11
81.502578500000027
 21
474.900147
  0
LINE
  8
_0-0_0
  6
CONTINUOUS
 62
    7
 10
69.202407500000049
 20
473.09997599999997
 11
127.20239250000003
 21
473.09997599999997
  0
LINE
  8
_0-0_0
  6
CONTINUOUS
 62
    7
 10
69.202407500000049
 20
465.09997599999997
 11
127.20239250000003
 21
465.09997599999997
  0
LINE
  8
_0-0_0
  6
CONTINUOUS
 62
    7
 10
82.002395500000034
 20
479.39999399999999
 11
81.502578500000027
 21
479.89984099999998
  0
LINE
  8
_0-0_0
  6
CONTINUOUS
 62
    7
 10
82.002395500000034
 20
462.79998799999998
 11
81.502578500000027
 21
463.29983499999997
  0
LINE
  8
_0-0_0
  6
CONTINUOUS
 62
    7
 10
72.002395500000034
 20
479.64999399999999
 11
72.252395500000034
 21
479.89999399999999
  0
LINE
  8
_0-0_0
  6
CONTINUOUS
 62
    7
 10
72.002395500000034
 20
475.14999399999999
 11
72.252395500000034
 21
474.89999399999999
  0
LINE
  8
_0-0_0
  6
CONTINUOUS
 62
    7
 10
72.002395500000034
 20
463.04998799999998
 11
72.252395500000034
 21
463.29998799999998
  0
LINE
  8
_0-0_0
  6
CONTINUOUS
 62
    7
 10
72.002395500000034
 20
458.54998799999998
 11
72.252395500000034
 21
458.29998799999998
  0
LINE
  8
_0-0_0
  6
CONTINUOUS
 62
    7
 10
69.202407500000049
 20
473.63809199999997
 11
68.402389500000027
 21
474.09997599999997
  0
LINE
  8
_0-0_0
  6
CONTINUOUS
 62
    7
 10
69.202407500000049
 20
464.56185899999997
 11
68.402389500000027
 21
464.09997599999997
  0
LINE
  8
_0-0_0
  6
CONTINUOUS
 62
    7
 10
51.752365499999996
 20
479.64999399999999
 11
72.002395500000034
 21
479.64999399999999
  0
LINE
  8
_0-0_0
  6
CONTINUOUS
 62
    7
 10
67.202407500000049
 20
475.14999399999999
 11
72.002395500000034
 21
475.14999399999999
  0
LINE
  8
_0-0_0
  6
CONTINUOUS
 62
    7
 10
46.002395500000034
 20
463.04998799999998
 11
72.002395500000034
 21
463.04998799999998
  0
LINE
  8
_0-0_0
  6
CONTINUOUS
 62
    7
 10
46.002395500000034
 20
458.54998799999998
 11
72.002395500000034
 21
458.54998799999998
  0
LINE
  8
_0-0_0
  6
CONTINUOUS
 62
    7
 10
68.002395500000034
 20
474.09997599999997
 11
68.402389500000027
 21
474.09997599999997
  0
LINE
  8
_0-0_0
  6
CONTINUOUS
 62
    7
 10
68.002395500000034
 20
464.09997599999997
 11
68.402389500000027
 21
464.09997599999997
  0
LINE
  8
_0-0_0
  6
CONTINUOUS
 62
    7
 10
68.002395500000034
 20
474.34997599999997
 11
66.752395500000034
 21
475.59997599999997
  0
ARC
  8
_0-0_0
  6
CONTINUOUS
 62
    7
 10
-53.997604499999966
 20
502.59997599999997
 40
8
 50
215.099627
 51
324.90037799999999
  0
LINE
  8
_0-0_0
  6
CONTINUOUS
 62
    7
 10
-62.997604499999966
 20
497.99997000000002
 11
-60.542831499999977
 21
497.99997000000002
  0
LINE
  8
_0-0_0
  6
CONTINUOUS
 62
    7
 10
-62.997604499999966
 20
484.79998799999998
 11
-62.997604499999966
 21
497.99997000000002
  0
LINE
  8
_0-0_0
  6
CONTINUOUS
 62
    7
 10
990.00250249999999
 20
484.79998799999998
 11
990.00250249999999
 21
497.99997000000002
  0
LINE
  8
_0-0_0
  6
CONTINUOUS
 62
    7
 10
987.54779050000002
 20
497.99997000000002
 11
990.00250249999999
 21
497.99997000000002
  0
ARC
  8
_0-0_0
  6
CONTINUOUS
 62
    7
 10
981.00250249999999
 20
502.59997599999997
 40
8
 50
215.099627
 51
324.90037799999999
  0
LINE
  8
_0-0_0
  6
CONTINUOUS
 62
    7
 10
-47.452377500000011
 20
497.99997000000002
 11
974.45721449999996
 21
497.99997000000002
  0
LINE
  8
_0-0_0
  6
CONTINUOUS
 62
    7
 10
-47.452377500000011
 20
497.99997000000002
 11
-47.363388499999985
 21
498.12927300000001
  0
LINE
  8
_0-0_0
  6
CONTINUOUS
 62
    7
 10
974.45721449999996
 20
497.99997000000002
 11
974.36834750000003
 21
498.12927300000001
  0
LINE
  8
_0-0_0
  6
CONTINUOUS
 62
    7
 10
987.7297974999999
 20
498.270691
 11
987.81134049999991
 21
498.39999399999999
  0
ARC
  8
_0-0_0
  6
CONTINUOUS
 62
    7
 10
981.00250249999999
 20
502.59997599999997
 40
8
 50
328.33175599999993
 51
334.05550899999992
  0
LINE
  8
_0-0_0
  6
CONTINUOUS
 62
    7
 10
988.19622750000008
 20
499.09997599999997
 11
988.29022250000003
 21
499.29998799999998
  0
LINE
  8
_0-0_0
  6
CONTINUOUS
 62
    7
 10
988.29022250000003
 20
499.29998799999998
 11
988.37750249999999
 21
499.49997000000002
  0
ARC
  8
_0-0_0
  6
CONTINUOUS
 62
    7
 10
981.00250249999999
 20
502.59997599999997
 40
8
 50
337.20097500000003
 51
342.54240199999998
  0
LINE
  8
_0-0_0
  6
CONTINUOUS
 62
    7
 10
988.63397250000003
 20
500.19998199999998
 11
988.69403050000005
 21
500.39999399999999
  0
LINE
  8
_0-0_0
  6
CONTINUOUS
 62
    7
 10
988.69403050000005
 20
500.39999399999999
 11
988.74847449999993
 21
500.59997599999997
  0
ARC
  8
_0-0_0
  6
CONTINUOUS
 62
    7
 10
981.00250249999999
 20
502.59997599999997
 40
8
 50
345.52249499999999
 51
350.64797900000002
  0
LINE
  8
_0-0_0
  6
CONTINUOUS
 62
    7
 10
988.89617950000002
 20
501.29998799999998
 11
988.92657450000002
 21
501.49997000000002
  0
LINE
  8
_0-0_0
  6
CONTINUOUS
 62
    7
 10
988.92657450000002
 20
501.49997000000002
 11
988.95172150000008
 21
501.69998199999998
  0
ARC
  8
_0-0_0
  6
CONTINUOUS
 62
    7
 10
981.00250249999999
 20
502.59997599999997
 40
8
 50
353.54056400000002
 51
358.56744600000002
  0
LINE
  8
_0-0_0
  6
CONTINUOUS
 62
    7
 10
989.00006050000002
 20
502.39999399999999
 11
989.00250249999999
 21
502.59997599999997
  0
LINE
  8
_0-0_0
  6
CONTINUOUS
 62
    7
 10
973.00494350000008
 20
502.39999399999999
 11
973.00250249999999
 21
502.59997599999997
  0
ARC
  8
_0-0_0
  6
CONTINUOUS
 62
    7
 10
981.00250249999999
 20
502.59997599999997
 40
8
 50
181.432545
 51
186.45945499999999
  0
LINE
  8
_0-0_0
  6
CONTINUOUS
 62
    7
 10
973.07843049999997
 20
501.49997000000002
 11
973.05328349999991
 21
501.69998199999998
  0
LINE
  8
_0-0_0
  6
CONTINUOUS
 62
    7
 10
973.10882549999997
 20
501.29998799999998
 11
973.07843049999997
 21
501.49997000000002
  0
ARC
  8
_0-0_0
  6
CONTINUOUS
 62
    7
 10
981.00250249999999
 20
502.59997599999997
 40
8
 50
189.35203999999999
 51
194.47751
  0
LINE
  8
_0-0_0
  6
CONTINUOUS
 62
    7
 10
973.31097449999993
 20
500.39999399999999
 11
973.25653050000005
 21
500.59997599999997
  0
LINE
  8
_0-0_0
  6
CONTINUOUS
 62
    7
 10
973.37103249999996
 20
500.19998199999998
 11
973.31097449999993
 21
500.39999399999999
  0
ARC
  8
_0-0_0
  6
CONTINUOUS
 62
    7
 10
981.00250249999999
 20
502.59997599999997
 40
8
 50
197.45760300000001
 51
202.79902999999999
  0
LINE
  8
_0-0_0
  6
CONTINUOUS
 62
    7
 10
973.71478249999996
 20
499.29998799999998
 11
973.62750249999999
 21
499.49997000000002
  0
LINE
  8
_0-0_0
  6
CONTINUOUS
 62
    7
 10
973.80877650000002
 20
499.09997599999997
 11
973.71478249999996
 21
499.29998799999998
  0
ARC
  8
_0-0_0
  6
CONTINUOUS
 62
    7
 10
981.00250249999999
 20
502.59997599999997
 40
8
 50
205.94448199999999
 51
211.66823500000001
  0
LINE
  8
_0-0_0
  6
CONTINUOUS
 62
    7
 10
974.27520750000008
 20
498.270691
 11
974.19366450000007
 21
498.39999399999999
  0
LINE
  8
_0-0_0
  6
CONTINUOUS
 62
    7
 10
974.27520750000008
 20
498.270691
 11
974.36834750000003
 21
498.12927300000001
  0
LINE
  8
_0-0_0
  6
CONTINUOUS
 62
    7
 10
987.54779050000002
 20
497.99997000000002
 11
987.63665749999996
 21
498.12927300000001
  0
LINE
  8
_0-0_0
  6
CONTINUOUS
 62
    7
 10
987.7297974999999
 20
498.270691
 11
987.63665749999996
 21
498.12927300000001
  0
LINE
  8
_0-0_0
  6
CONTINUOUS
 62
    7
 10
990.00250249999999
 20
498.12927300000001
 11
990.00250249999999
 21
497.99997000000002
  0
LINE
  8
_0-0_0
  6
CONTINUOUS
 62
    7
 10
990.00250249999999
 20
506.92929099999998
 11
990.00250249999999
 21
507.07070899999997
  0
LINE
  8
_0-0_0
  6
CONTINUOUS
 62
    7
 10
990.00250249999999
 20
506.92929099999998
 11
990.00250249999999
 21
506.79998799999998
  0
LINE
  8
_0-0_0
  6
CONTINUOUS
 62
    7
 10
990.00250249999999
 20
506.09997599999997
 11
990.00250249999999
 21
506.79998799999998
  0
LINE
  8
_0-0_0
  6
CONTINUOUS
 62
    7
 10
990.00250249999999
 20
505.89999399999999
 11
990.00250249999999
 21
506.09997599999997
  0
LINE
  8
_0-0_0
  6
CONTINUOUS
 62
    7
 10
990.00250249999999
 20
505.89999399999999
 11
990.00250249999999
 21
505.69998199999998
  0
LINE
  8
_0-0_0
  6
CONTINUOUS
 62
    7
 10
990.00250249999999
 20
504.99997000000002
 11
990.00250249999999
 21
505.69998199999998
  0
LINE
  8
_0-0_0
  6
CONTINUOUS
 62
    7
 10
990.00250249999999
 20
504.79998799999998
 11
990.00250249999999
 21
504.99997000000002
  0
LINE
  8
_0-0_0
  6
CONTINUOUS
 62
    7
 10
990.00250249999999
 20
504.79998799999998
 11
990.00250249999999
 21
504.59997599999997
  0
LINE
  8
_0-0_0
  6
CONTINUOUS
 62
    7
 10
990.00250249999999
 20
503.89999399999999
 11
990.00250249999999
 21
504.59997599999997
  0
LINE
  8
_0-0_0
  6
CONTINUOUS
 62
    7
 10
990.00250249999999
 20
503.69998199999998
 11
990.00250249999999
 21
503.89999399999999
  0
LINE
  8
_0-0_0
  6
CONTINUOUS
 62
    7
 10
990.00250249999999
 20
503.69998199999998
 11
990.00250249999999
 21
503.49997000000002
  0
LINE
  8
_0-0_0
  6
CONTINUOUS
 62
    7
 10
990.00250249999999
 20
502.79998799999998
 11
990.00250249999999
 21
503.49997000000002
  0
LINE
  8
_0-0_0
  6
CONTINUOUS
 62
    7
 10
990.00250249999999
 20
502.59997599999997
 11
990.00250249999999
 21
502.79998799999998
  0
LINE
  8
_0-0_0
  6
CONTINUOUS
 62
    7
 10
990.00250249999999
 20
502.59997599999997
 11
990.00250249999999
 21
502.39999399999999
  0
LINE
  8
_0-0_0
  6
CONTINUOUS
 62
    7
 10
990.00250249999999
 20
501.69998199999998
 11
990.00250249999999
 21
502.39999399999999
  0
LINE
  8
_0-0_0
  6
CONTINUOUS
 62
    7
 10
990.00250249999999
 20
501.49997000000002
 11
990.00250249999999
 21
501.69998199999998
  0
LINE
  8
_0-0_0
  6
CONTINUOUS
 62
    7
 10
990.00250249999999
 20
501.49997000000002
 11
990.00250249999999
 21
501.29998799999998
  0
LINE
  8
_0-0_0
  6
CONTINUOUS
 62
    7
 10
990.00250249999999
 20
500.59997599999997
 11
990.00250249999999
 21
501.29998799999998
  0
LINE
  8
_0-0_0
  6
CONTINUOUS
 62
    7
 10
990.00250249999999
 20
500.39999399999999
 11
990.00250249999999
 21
500.59997599999997
  0
LINE
  8
_0-0_0
  6
CONTINUOUS
 62
    7
 10
990.00250249999999
 20
500.39999399999999
 11
990.00250249999999
 21
500.19998199999998
  0
LINE
  8
_0-0_0
  6
CONTINUOUS
 62
    7
 10
990.00250249999999
 20
499.49997000000002
 11
990.00250249999999
 21
500.19998199999998
  0
LINE
  8
_0-0_0
  6
CONTINUOUS
 62
    7
 10
990.00250249999999
 20
499.29998799999998
 11
990.00250249999999
 21
499.49997000000002
  0
LINE
  8
_0-0_0
  6
CONTINUOUS
 62
    7
 10
990.00250249999999
 20
499.29998799999998
 11
990.00250249999999
 21
499.09997599999997
  0
LINE
  8
_0-0_0
  6
CONTINUOUS
 62
    7
 10
990.00250249999999
 20
498.39999399999999
 11
990.00250249999999
 21
499.09997599999997
  0
LINE
  8
_0-0_0
  6
CONTINUOUS
 62
    7
 10
990.00250249999999
 20
498.270691
 11
990.00250249999999
 21
498.39999399999999
  0
LINE
  8
_0-0_0
  6
CONTINUOUS
 62
    7
 10
990.00250249999999
 20
498.12927300000001
 11
990.00250249999999
 21
498.270691
  0
LINE
  8
_0-0_0
  6
CONTINUOUS
 62
    7
 10
990.00250249999999
 20
484.29998799999998
 11
990.00250249999999
 21
484.79998799999998
  0
LINE
  8
_0-0_0
  6
CONTINUOUS
 62
    7
 10
990.00250249999999
 20
512.79998799999998
 11
990.00250249999999
 21
512.20602400000007
  0
LINE
  8
_0-0_0
  6
CONTINUOUS
 62
    7
 10
990.00250249999999
 20
507.19998199999998
 11
990.00250249999999
 21
512.20602400000007
  0
LINE
  8
_0-0_0
  6
CONTINUOUS
 62
    7
 10
990.00250249999999
 20
507.07070899999997
 11
990.00250249999999
 21
507.19998199999998
  0
LINE
  8
_0-0_0
  6
CONTINUOUS
 62
    7
 10
-62.997604499999966
 20
484.29998799999998
 11
-62.997604499999966
 21
484.79998799999998
  0
LINE
  8
_0-0_0
  6
CONTINUOUS
 62
    7
 10
-62.997604499999966
 20
484.29998799999998
 11
990.00250249999999
 21
484.29998799999998
  0
LINE
  8
_0-0_0
  6
CONTINUOUS
 62
    7
 10
-62.997604499999966
 20
498.12927300000001
 11
-62.997604499999966
 21
498.270691
  0
LINE
  8
_0-0_0
  6
CONTINUOUS
 62
    7
 10
-62.997604499999966
 20
498.12927300000001
 11
-62.997604499999966
 21
497.99997000000002
  0
LINE
  8
_0-0_0
  6
CONTINUOUS
 62
    7
 10
-62.997604499999966
 20
512.79998799999998
 11
-62.997604499999966
 21
512.20602400000007
  0
LINE
  8
_0-0_0
  6
CONTINUOUS
 62
    7
 10
-62.997604499999966
 20
507.19998199999998
 11
-62.997604499999966
 21
512.20602400000007
  0
LINE
  8
_0-0_0
  6
CONTINUOUS
 62
    7
 10
-62.997604499999966
 20
507.07070899999997
 11
-62.997604499999966
 21
507.19998199999998
  0
LINE
  8
_0-0_0
  6
CONTINUOUS
 62
    7
 10
-62.997604499999966
 20
506.92929099999998
 11
-62.997604499999966
 21
507.07070899999997
  0
LINE
  8
_0-0_0
  6
CONTINUOUS
 62
    7
 10
-62.997604499999966
 20
506.92929099999998
 11
-62.997604499999966
 21
506.79998799999998
  0
LINE
  8
_0-0_0
  6
CONTINUOUS
 62
    7
 10
-62.997604499999966
 20
506.09997599999997
 11
-62.997604499999966
 21
506.79998799999998
  0
LINE
  8
_0-0_0
  6
CONTINUOUS
 62
    7
 10
-62.997604499999966
 20
505.97070300000001
 11
-62.997604499999966
 21
506.09997599999997
  0
LINE
  8
_0-0_0
  6
CONTINUOUS
 62
    7
 10
-62.997604499999966
 20
505.82928499999997
 11
-62.997604499999966
 21
505.97070300000001
  0
LINE
  8
_0-0_0
  6
CONTINUOUS
 62
    7
 10
-62.997604499999966
 20
505.82928499999997
 11
-62.997604499999966
 21
505.69998199999998
  0
LINE
  8
_0-0_0
  6
CONTINUOUS
 62
    7
 10
-62.997604499999966
 20
504.99997000000002
 11
-62.997604499999966
 21
505.69998199999998
  0
LINE
  8
_0-0_0
  6
CONTINUOUS
 62
    7
 10
-62.997604499999966
 20
504.87069700000001
 11
-62.997604499999966
 21
504.99997000000002
  0
LINE
  8
_0-0_0
  6
CONTINUOUS
 62
    7
 10
-62.997604499999966
 20
504.72927900000002
 11
-62.997604499999966
 21
504.87069700000001
  0
LINE
  8
_0-0_0
  6
CONTINUOUS
 62
    7
 10
-62.997604499999966
 20
504.72927900000002
 11
-62.997604499999966
 21
504.59997599999997
  0
LINE
  8
_0-0_0
  6
CONTINUOUS
 62
    7
 10
-62.997604499999966
 20
503.89999399999999
 11
-62.997604499999966
 21
504.59997599999997
  0
LINE
  8
_0-0_0
  6
CONTINUOUS
 62
    7
 10
-62.997604499999966
 20
503.770691
 11
-62.997604499999966
 21
503.89999399999999
  0
LINE
  8
_0-0_0
  6
CONTINUOUS
 62
    7
 10
-62.997604499999966
 20
503.62927300000001
 11
-62.997604499999966
 21
503.770691
  0
LINE
  8
_0-0_0
  6
CONTINUOUS
 62
    7
 10
-62.997604499999966
 20
503.62927300000001
 11
-62.997604499999966
 21
503.49997000000002
  0
LINE
  8
_0-0_0
  6
CONTINUOUS
 62
    7
 10
-62.997604499999966
 20
502.79998799999998
 11
-62.997604499999966
 21
503.49997000000002
  0
LINE
  8
_0-0_0
  6
CONTINUOUS
 62
    7
 10
-62.997604499999966
 20
502.67068499999999
 11
-62.997604499999966
 21
502.79998799999998
  0
LINE
  8
_0-0_0
  6
CONTINUOUS
 62
    7
 10
-62.997604499999966
 20
502.52926600000001
 11
-62.997604499999966
 21
502.67068499999999
  0
LINE
  8
_0-0_0
  6
CONTINUOUS
 62
    7
 10
-62.997604499999966
 20
502.52926600000001
 11
-62.997604499999966
 21
502.39999399999999
  0
LINE
  8
_0-0_0
  6
CONTINUOUS
 62
    7
 10
-62.997604499999966
 20
501.69998199999998
 11
-62.997604499999966
 21
502.39999399999999
  0
LINE
  8
_0-0_0
  6
CONTINUOUS
 62
    7
 10
-62.997604499999966
 20
501.57070899999997
 11
-62.997604499999966
 21
501.69998199999998
  0
LINE
  8
_0-0_0
  6
CONTINUOUS
 62
    7
 10
-62.997604499999966
 20
501.42929099999998
 11
-62.997604499999966
 21
501.57070899999997
  0
LINE
  8
_0-0_0
  6
CONTINUOUS
 62
    7
 10
-62.997604499999966
 20
501.42929099999998
 11
-62.997604499999966
 21
501.29998799999998
  0
LINE
  8
_0-0_0
  6
CONTINUOUS
 62
    7
 10
-62.997604499999966
 20
500.59997599999997
 11
-62.997604499999966
 21
501.29998799999998
  0
LINE
  8
_0-0_0
  6
CONTINUOUS
 62
    7
 10
-62.997604499999966
 20
500.47070300000001
 11
-62.997604499999966
 21
500.59997599999997
  0
LINE
  8
_0-0_0
  6
CONTINUOUS
 62
    7
 10
-62.997604499999966
 20
500.32928499999997
 11
-62.997604499999966
 21
500.47070300000001
  0
LINE
  8
_0-0_0
  6
CONTINUOUS
 62
    7
 10
-62.997604499999966
 20
500.32928499999997
 11
-62.997604499999966
 21
500.19998199999998
  0
LINE
  8
_0-0_0
  6
CONTINUOUS
 62
    7
 10
-62.997604499999966
 20
499.49997000000002
 11
-62.997604499999966
 21
500.19998199999998
  0
LINE
  8
_0-0_0
  6
CONTINUOUS
 62
    7
 10
-62.997604499999966
 20
499.37069700000001
 11
-62.997604499999966
 21
499.49997000000002
  0
LINE
  8
_0-0_0
  6
CONTINUOUS
 62
    7
 10
-62.997604499999966
 20
499.22927900000002
 11
-62.997604499999966
 21
499.37069700000001
  0
LINE
  8
_0-0_0
  6
CONTINUOUS
 62
    7
 10
-62.997604499999966
 20
499.22927900000002
 11
-62.997604499999966
 21
499.09997599999997
  0
LINE
  8
_0-0_0
  6
CONTINUOUS
 62
    7
 10
-62.997604499999966
 20
498.39999399999999
 11
-62.997604499999966
 21
499.09997599999997
  0
LINE
  8
_0-0_0
  6
CONTINUOUS
 62
    7
 10
-62.997604499999966
 20
498.270691
 11
-62.997604499999966
 21
498.39999399999999
  0
LINE
  8
_0-0_0
  6
CONTINUOUS
 62
    7
 10
-60.542831499999977
 20
497.99997000000002
 11
-60.631805499999984
 21
498.12927300000001
  0
LINE
  8
_0-0_0
  6
CONTINUOUS
 62
    7
 10
-47.27024849999998
 20
498.270691
 11
-47.363388499999985
 21
498.12927300000001
  0
LINE
  8
_0-0_0
  6
CONTINUOUS
 62
    7
 10
-47.27024849999998
 20
498.270691
 11
-47.188781500000005
 21
498.39999399999999
  0
ARC
  8
_0-0_0
  6
CONTINUOUS
 62
    7
 10
-53.997604499999966
 20
502.59997599999997
 40
8
 50
328.33175599999993
 51
334.05550899999992
  0
LINE
  8
_0-0_0
  6
CONTINUOUS
 62
    7
 10
-46.803848499999958
 20
499.09997599999997
 11
-46.709945500000003
 21
499.29998799999998
  0
LINE
  8
_0-0_0
  6
CONTINUOUS
 62
    7
 10
-46.709945500000003
 20
499.29998799999998
 11
-46.622650499999963
 21
499.49997000000002
  0
ARC
  8
_0-0_0
  6
CONTINUOUS
 62
    7
 10
-53.997604499999966
 20
502.59997599999997
 40
8
 50
337.20097500000003
 51
342.54240199999998
  0
LINE
  8
_0-0_0
  6
CONTINUOUS
 62
    7
 10
-46.366088499999989
 20
500.19998199999998
 11
-46.306045499999982
 21
500.39999399999999
  0
LINE
  8
_0-0_0
  6
CONTINUOUS
 62
    7
 10
-46.306045499999982
 20
500.39999399999999
 11
-46.251632499999971
 21
500.59997599999997
  0
ARC
  8
_0-0_0
  6
CONTINUOUS
 62
    7
 10
-53.997604499999966
 20
502.59997599999997
 40
8
 50
345.52249499999999
 51
350.64797900000002
  0
LINE
  8
_0-0_0
  6
CONTINUOUS
 62
    7
 10
-46.103927499999998
 20
501.29998799999998
 11
-46.073593500000015
 21
501.49997000000002
  0
LINE
  8
_0-0_0
  6
CONTINUOUS
 62
    7
 10
-46.073593500000015
 20
501.49997000000002
 11
-46.048385499999995
 21
501.69998199999998
  0
ARC
  8
_0-0_0
  6
CONTINUOUS
 62
    7
 10
-53.997604499999966
 20
502.59997599999997
 40
8
 50
353.54056400000002
 51
358.56744600000002
  0
LINE
  8
_0-0_0
  6
CONTINUOUS
 62
    7
 10
-46.000106500000015
 20
502.39999399999999
 11
-45.997604499999966
 21
502.59997599999997
  0
LINE
  8
_0-0_0
  6
CONTINUOUS
 62
    7
 10
-61.99728349999998
 20
502.52926600000001
 11
-61.997604499999966
 21
502.59997599999997
  0
LINE
  8
_0-0_0
  6
CONTINUOUS
 62
    7
 10
-61.995101499999976
 20
502.39999399999999
 11
-61.99728349999998
 21
502.52926600000001
  0
ARC
  8
_0-0_0
  6
CONTINUOUS
 62
    7
 10
-53.997604499999966
 20
502.59997599999997
 40
8
 50
181.432545
 51
186.45945499999999
  0
LINE
  8
_0-0_0
  6
CONTINUOUS
 62
    7
 10
-61.931106499999999
 20
501.57070899999997
 11
-61.946823499999994
 21
501.69998199999998
  0
LINE
  8
_0-0_0
  6
CONTINUOUS
 62
    7
 10
-61.931106499999999
 20
501.57070899999997
 11
-61.911483499999974
 21
501.42929099999998
  0
LINE
  8
_0-0_0
  6
CONTINUOUS
 62
    7
 10
-61.891265499999975
 20
501.29998799999998
 11
-61.911483499999974
 21
501.42929099999998
  0
ARC
  8
_0-0_0
  6
CONTINUOUS
 62
    7
 10
-53.997604499999966
 20
502.59997599999997
 40
8
 50
189.35203999999999
 51
194.47751
  0
LINE
  8
_0-0_0
  6
CONTINUOUS
 62
    7
 10
-61.709030499999983
 20
500.47070300000001
 11
-61.743576500000017
 21
500.59997599999997
  0
LINE
  8
_0-0_0
  6
CONTINUOUS
 62
    7
 10
-61.709030499999983
 20
500.47070300000001
 11
-61.668579499999964
 21
500.32928499999997
  0
LINE
  8
_0-0_0
  6
CONTINUOUS
 62
    7
 10
-61.629119500000002
 20
500.19998199999998
 11
-61.668579499999964
 21
500.32928499999997
  0
ARC
  8
_0-0_0
  6
CONTINUOUS
 62
    7
 10
-53.997604499999966
 20
502.59997599999997
 40
8
 50
197.45760300000001
 51
202.79902999999999
  0
LINE
  8
_0-0_0
  6
CONTINUOUS
 62
    7
 10
-61.316864500000008
 20
499.37069700000001
 11
-61.372558499999968
 21
499.49997000000002
  0
LINE
  8
_0-0_0
  6
CONTINUOUS
 62
    7
 10
-61.316864500000008
 20
499.37069700000001
 11
-61.252822499999979
 21
499.22927900000002
  0
LINE
  8
_0-0_0
  6
CONTINUOUS
 62
    7
 10
-61.191345500000011
 20
499.09997599999997
 11
-61.252822499999979
 21
499.22927900000002
  0
ARC
  8
_0-0_0
  6
CONTINUOUS
 62
    7
 10
-53.997604499999966
 20
502.59997599999997
 40
8
 50
205.94448199999999
 51
211.66823500000001
  0
LINE
  8
_0-0_0
  6
CONTINUOUS
 62
    7
 10
-60.724960500000009
 20
498.270691
 11
-60.806427499999984
 21
498.39999399999999
  0
LINE
  8
_0-0_0
  6
CONTINUOUS
 62
    7
 10
-60.724960500000009
 20
498.270691
 11
-60.631805499999984
 21
498.12927300000001
  0
LINE
  8
_0-0_0
  6
CONTINUOUS
 62
    7
 10
907.50238050000007
 20
490.29998799999998
 11
914.50238050000007
 21
490.29998799999998
  0
ARC
  8
_0-0_0
  6
CONTINUOUS
 62
    7
 10
907.50238050000007
 20
489.79998799999998
 40
0.5
 50
90.000003000000007
 51
180.00000900000001
  0
LINE
  8
_0-0_0
  6
CONTINUOUS
 62
    7
 10
907.00238050000007
 20
489.79998799999998
 11
907.00238050000007
 21
485.79998799999998
  0
ARC
  8
_0-0_0
  6
CONTINUOUS
 62
    7
 10
907.50238050000007
 20
485.79998799999998
 40
0.5
 50
180.00000900000003
 51
269.99999700000001
  0
LINE
  8
_0-0_0
  6
CONTINUOUS
 62
    7
 10
914.50238050000007
 20
485.29998799999998
 11
907.50238050000007
 21
485.29998799999998
  0
ARC
  8
_0-0_0
  6
CONTINUOUS
 62
    7
 10
914.50238050000007
 20
485.79998799999998
 40
0.5
 50
269.99999700000001
 51
0
  0
LINE
  8
_0-0_0
  6
CONTINUOUS
 62
    7
 10
915.00238050000007
 20
485.79998799999998
 11
915.00238050000007
 21
489.79998799999998
  0
ARC
  8
_0-0_0
  6
CONTINUOUS
 62
    7
 10
914.50238050000007
 20
489.79998799999998
 40
0.5
 50
0
 51
90.000003000000007
  0
ARC
  8
_0-0_0
  6
CONTINUOUS
 62
    7
 10
-12.497604499999966
 20
489.79998799999998
 40
0.5
 50
90.000003000000007
 51
180.00000900000001
  0
LINE
  8
_0-0_0
  6
CONTINUOUS
 62
    7
 10
-12.997604499999966
 20
489.79998799999998
 11
-12.997604499999966
 21
485.79998799999998
  0
ARC
  8
_0-0_0
  6
CONTINUOUS
 62
    7
 10
-12.497604499999966
 20
485.79998799999998
 40
0.5
 50
180.00000900000003
 51
269.99999700000001
  0
LINE
  8
_0-0_0
  6
CONTINUOUS
 62
    7
 10
-5.4976044999999658
 20
485.29998799999998
 11
-12.497604499999966
 21
485.29998799999998
  0
ARC
  8
_0-0_0
  6
CONTINUOUS
 62
    7
 10
-5.4976044999999658
 20
485.79998799999998
 40
0.5
 50
269.99999700000001
 51
0
  0
LINE
  8
_0-0_0
  6
CONTINUOUS
 62
    7
 10
-4.9976044999999658
 20
485.79998799999998
 11
-4.9976044999999658
 21
489.79998799999998
  0
ARC
  8
_0-0_0
  6
CONTINUOUS
 62
    7
 10
-5.4976044999999658
 20
489.79998799999998
 40
0.5
 50
0
 51
90.000003000000007
  0
LINE
  8
_0-0_0
  6
CONTINUOUS
 62
    7
 10
-12.497604499999966
 20
490.29998799999998
 11
-5.4976044999999658
 21
490.29998799999998
  0
LINE
  8
_0-0_0
  6
CONTINUOUS
 62
    7
 10
-47.188781500000005
 20
498.39999399999999
 11
974.19366450000007
 21
498.39999399999999
  0
LINE
  8
_0-0_0
  6
CONTINUOUS
 62
    7
 10
-46.803848499999958
 20
499.09997599999997
 11
973.80877650000002
 21
499.09997599999997
  0
LINE
  8
_0-0_0
  6
CONTINUOUS
 62
    7
 10
-46.709945500000003
 20
499.29998799999998
 11
973.71478249999996
 21
499.29998799999998
  0
LINE
  8
_0-0_0
  6
CONTINUOUS
 62
    7
 10
-46.622650499999963
 20
499.49997000000002
 11
973.62750249999999
 21
499.49997000000002
  0
LINE
  8
_0-0_0
  6
CONTINUOUS
 62
    7
 10
-46.366088499999989
 20
500.19998199999998
 11
973.37103249999996
 21
500.19998199999998
  0
LINE
  8
_0-0_0
  6
CONTINUOUS
 62
    7
 10
-46.306045499999982
 20
500.39999399999999
 11
973.31097449999993
 21
500.39999399999999
  0
LINE
  8
_0-0_0
  6
CONTINUOUS
 62
    7
 10
-46.251632499999971
 20
500.59997599999997
 11
973.25653050000005
 21
500.59997599999997
  0
LINE
  8
_0-0_0
  6
CONTINUOUS
 62
    7
 10
-46.103927499999998
 20
501.29998799999998
 11
973.10882549999997
 21
501.29998799999998
  0
LINE
  8
_0-0_0
  6
CONTINUOUS
 62
    7
 10
-46.073593500000015
 20
501.49997000000002
 11
973.07843049999997
 21
501.49997000000002
  0
LINE
  8
_0-0_0
  6
CONTINUOUS
 62
    7
 10
-46.048385499999995
 20
501.69998199999998
 11
973.05328349999991
 21
501.69998199999998
  0
LINE
  8
_0-0_0
  6
CONTINUOUS
 62
    7
 10
-46.000106500000015
 20
502.39999399999999
 11
973.00494350000008
 21
502.39999399999999
  0
LINE
  8
_0-0_0
  6
CONTINUOUS
 62
    7
 10
-45.997604499999966
 20
502.59997599999997
 11
973.00250249999999
 21
502.59997599999997
  0
LINE
  8
_0-0_0
  6
CONTINUOUS
 62
    7
 10
987.54779050000002
 20
507.19998199999998
 11
987.63665749999996
 21
507.07070899999997
  0
ARC
  8
_0-0_0
  6
CONTINUOUS
 62
    7
 10
981.00250249999999
 20
502.59997599999997
 40
8
 50
35.099632
 51
144.900373
  0
LINE
  8
_0-0_0
  6
CONTINUOUS
 62
    7
 10
974.45721449999996
 20
507.19998199999998
 11
974.36834750000003
 21
507.07070899999997
  0
LINE
  8
_0-0_0
  6
CONTINUOUS
 62
    7
 10
974.27520750000008
 20
506.92929099999998
 11
974.36834750000003
 21
507.07070899999997
  0
LINE
  8
_0-0_0
  6
CONTINUOUS
 62
    7
 10
974.27520750000008
 20
506.92929099999998
 11
974.19366450000007
 21
506.79998799999998
  0
ARC
  8
_0-0_0
  6
CONTINUOUS
 62
    7
 10
981.00250249999999
 20
502.59997599999997
 40
8
 50
148.33176499999999
 51
154.05551800000001
  0
LINE
  8
_0-0_0
  6
CONTINUOUS
 62
    7
 10
973.80877650000002
 20
506.09997599999997
 11
973.71478249999996
 21
505.89999399999999
  0
LINE
  8
_0-0_0
  6
CONTINUOUS
 62
    7
 10
973.71478249999996
 20
505.89999399999999
 11
973.62750249999999
 21
505.69998199999998
  0
ARC
  8
_0-0_0
  6
CONTINUOUS
 62
    7
 10
981.00250249999999
 20
502.59997599999997
 40
8
 50
157.20097000000001
 51
162.54239699999999
  0
LINE
  8
_0-0_0
  6
CONTINUOUS
 62
    7
 10
973.37103249999996
 20
504.99997000000002
 11
973.31097449999993
 21
504.79998799999998
  0
LINE
  8
_0-0_0
  6
CONTINUOUS
 62
    7
 10
973.31097449999993
 20
504.79998799999998
 11
973.25653050000005
 21
504.59997599999997
  0
ARC
  8
_0-0_0
  6
CONTINUOUS
 62
    7
 10
981.00250249999999
 20
502.59997599999997
 40
8
 50
165.52249
 51
170.64796000000001
  0
LINE
  8
_0-0_0
  6
CONTINUOUS
 62
    7
 10
973.10882549999997
 20
503.89999399999999
 11
973.07843049999997
 21
503.69998199999998
  0
LINE
  8
_0-0_0
  6
CONTINUOUS
 62
    7
 10
973.07843049999997
 20
503.69998199999998
 11
973.05328349999991
 21
503.49997000000002
  0
ARC
  8
_0-0_0
  6
CONTINUOUS
 62
    7
 10
981.00250249999999
 20
502.59997599999997
 40
8
 50
173.54054500000001
 51
178.567455
  0
LINE
  8
_0-0_0
  6
CONTINUOUS
 62
    7
 10
973.00494350000008
 20
502.79998799999998
 11
973.00250249999999
 21
502.59997599999997
  0
LINE
  8
_0-0_0
  6
CONTINUOUS
 62
    7
 10
989.00006050000002
 20
502.79998799999998
 11
989.00250249999999
 21
502.59997599999997
  0
ARC
  8
_0-0_0
  6
CONTINUOUS
 62
    7
 10
981.00250249999999
 20
502.59997599999997
 40
8
 50
1.432544
 51
6.4594489999999993
  0
LINE
  8
_0-0_0
  6
CONTINUOUS
 62
    7
 10
988.92657450000002
 20
503.69998199999998
 11
988.95172150000008
 21
503.49997000000002
  0
LINE
  8
_0-0_0
  6
CONTINUOUS
 62
    7
 10
988.89617950000002
 20
503.89999399999999
 11
988.92657450000002
 21
503.69998199999998
  0
ARC
  8
_0-0_0
  6
CONTINUOUS
 62
    7
 10
981.00250249999999
 20
502.59997599999997
 40
8
 50
9.3520350000000008
 51
14.477510999999998
  0
LINE
  8
_0-0_0
  6
CONTINUOUS
 62
    7
 10
988.69403050000005
 20
504.79998799999998
 11
988.74847449999993
 21
504.59997599999997
  0
LINE
  8
_0-0_0
  6
CONTINUOUS
 62
    7
 10
988.63397250000003
 20
504.99997000000002
 11
988.69403050000005
 21
504.79998799999998
  0
ARC
  8
_0-0_0
  6
CONTINUOUS
 62
    7
 10
981.00250249999999
 20
502.59997599999997
 40
8
 50
17.457602999999999
 51
22.799030999999999
  0
LINE
  8
_0-0_0
  6
CONTINUOUS
 62
    7
 10
988.29022250000003
 20
505.89999399999999
 11
988.37750249999999
 21
505.69998199999998
  0
LINE
  8
_0-0_0
  6
CONTINUOUS
 62
    7
 10
988.19622750000008
 20
506.09997599999997
 11
988.29022250000003
 21
505.89999399999999
  0
ARC
  8
_0-0_0
  6
CONTINUOUS
 62
    7
 10
981.00250249999999
 20
502.59997599999997
 40
8
 50
25.944476999999999
 51
31.668240000000001
  0
LINE
  8
_0-0_0
  6
CONTINUOUS
 62
    7
 10
987.7297974999999
 20
506.92929099999998
 11
987.81134049999991
 21
506.79998799999998
  0
LINE
  8
_0-0_0
  6
CONTINUOUS
 62
    7
 10
987.7297974999999
 20
506.92929099999998
 11
987.63665749999996
 21
507.07070899999997
  0
CIRCLE
  8
_0-0_0
  6
CONTINUOUS
 62
    7
 10
981.00250249999999
 20
502.59997599999997
 40
7.5
  0
LINE
  8
_0-0_0
  6
CONTINUOUS
 62
    7
 10
989.00006050000002
 20
502.39999399999999
 11
990.00250249999999
 21
502.39999399999999
  0
LINE
  8
_0-0_0
  6
CONTINUOUS
 62
    7
 10
989.00250249999999
 20
502.59997599999997
 11
990.00250249999999
 21
502.59997599999997
  0
LINE
  8
_0-0_0
  6
CONTINUOUS
 62
    7
 10
988.95172150000008
 20
501.69998199999998
 11
990.00250249999999
 21
501.69998199999998
  0
LINE
  8
_0-0_0
  6
CONTINUOUS
 62
    7
 10
988.92657450000002
 20
501.49997000000002
 11
990.00250249999999
 21
501.49997000000002
  0
LINE
  8
_0-0_0
  6
CONTINUOUS
 62
    7
 10
988.89617950000002
 20
501.29998799999998
 11
990.00250249999999
 21
501.29998799999998
  0
LINE
  8
_0-0_0
  6
CONTINUOUS
 62
    7
 10
988.74847449999993
 20
500.59997599999997
 11
990.00250249999999
 21
500.59997599999997
  0
LINE
  8
_0-0_0
  6
CONTINUOUS
 62
    7
 10
988.69403050000005
 20
500.39999399999999
 11
990.00250249999999
 21
500.39999399999999
  0
LINE
  8
_0-0_0
  6
CONTINUOUS
 62
    7
 10
988.63397250000003
 20
500.19998199999998
 11
990.00250249999999
 21
500.19998199999998
  0
LINE
  8
_0-0_0
  6
CONTINUOUS
 62
    7
 10
988.37750249999999
 20
499.49997000000002
 11
990.00250249999999
 21
499.49997000000002
  0
LINE
  8
_0-0_0
  6
CONTINUOUS
 62
    7
 10
988.29022250000003
 20
499.29998799999998
 11
990.00250249999999
 21
499.29998799999998
  0
LINE
  8
_0-0_0
  6
CONTINUOUS
 62
    7
 10
988.19622750000008
 20
499.09997599999997
 11
990.00250249999999
 21
499.09997599999997
  0
LINE
  8
_0-0_0
  6
CONTINUOUS
 62
    7
 10
987.81134049999991
 20
498.39999399999999
 11
990.00250249999999
 21
498.39999399999999
  0
LINE
  8
_0-0_0
  6
CONTINUOUS
 62
    7
 10
987.81134049999991
 20
506.79998799999998
 11
990.00250249999999
 21
506.79998799999998
  0
LINE
  8
_0-0_0
  6
CONTINUOUS
 62
    7
 10
988.19622750000008
 20
506.09997599999997
 11
990.00250249999999
 21
506.09997599999997
  0
LINE
  8
_0-0_0
  6
CONTINUOUS
 62
    7
 10
988.29022250000003
 20
505.89999399999999
 11
990.00250249999999
 21
505.89999399999999
  0
LINE
  8
_0-0_0
  6
CONTINUOUS
 62
    7
 10
988.37750249999999
 20
505.69998199999998
 11
990.00250249999999
 21
505.69998199999998
  0
LINE
  8
_0-0_0
  6
CONTINUOUS
 62
    7
 10
988.63397250000003
 20
504.99997000000002
 11
990.00250249999999
 21
504.99997000000002
  0
LINE
  8
_0-0_0
  6
CONTINUOUS
 62
    7
 10
988.69403050000005
 20
504.79998799999998
 11
990.00250249999999
 21
504.79998799999998
  0
LINE
  8
_0-0_0
  6
CONTINUOUS
 62
    7
 10
988.74847449999993
 20
504.59997599999997
 11
990.00250249999999
 21
504.59997599999997
  0
LINE
  8
_0-0_0
  6
CONTINUOUS
 62
    7
 10
988.89617950000002
 20
503.89999399999999
 11
990.00250249999999
 21
503.89999399999999
  0
LINE
  8
_0-0_0
  6
CONTINUOUS
 62
    7
 10
988.92657450000002
 20
503.69998199999998
 11
990.00250249999999
 21
503.69998199999998
  0
LINE
  8
_0-0_0
  6
CONTINUOUS
 62
    7
 10
988.95172150000008
 20
503.49997000000002
 11
990.00250249999999
 21
503.49997000000002
  0
LINE
  8
_0-0_0
  6
CONTINUOUS
 62
    7
 10
989.00006050000002
 20
502.79998799999998
 11
990.00250249999999
 21
502.79998799999998
  0
LINE
  8
_0-0_0
  6
CONTINUOUS
 62
    7
 10
990.50250249999999
 20
486.09997599999997
 11
990.00250249999999
 21
486.09997599999997
  0
LINE
  8
_0-0_0
  6
CONTINUOUS
 62
    7
 10
990.50250249999999
 20
488.29998799999998
 11
990.00250249999999
 21
488.29998799999998
  0
LINE
  8
_0-0_0
  6
CONTINUOUS
 62
    7
 10
990.50250249999999
 20
490.59997599999997
 11
990.00250249999999
 21
490.59997599999997
  0
LINE
  8
_0-0_0
  6
CONTINUOUS
 62
    7
 10
-62.997604499999966
 20
490.59997599999997
 11
-63.497604499999966
 21
490.59997599999997
  0
LINE
  8
_0-0_0
  6
CONTINUOUS
 62
    7
 10
990.00250249999999
 20
492.89999399999999
 11
990.50250249999999
 21
492.89999399999999
  0
LINE
  8
_0-0_0
  6
CONTINUOUS
 62
    7
 10
990.50250249999999
 20
513.09997599999997
 11
990.50250249999999
 21
512.99997000000008
  0
LINE
  8
_0-0_0
  6
CONTINUOUS
 62
    7
 10
-63.497604499999966
 20
513.09997599999997
 11
-63.497604499999966
 21
512.99997000000008
  0
LINE
  8
_0-0_0
  6
CONTINUOUS
 62
    7
 10
-63.497604499999966
 20
492.89999399999999
 11
-62.997604499999966
 21
492.89999399999999
  0
LINE
  8
_0-0_0
  6
CONTINUOUS
 62
    7
 10
-62.997604499999966
 20
512.79998799999998
 11
990.00250249999999
 21
512.79998799999998
  0
LINE
  8
_0-0_0
  6
CONTINUOUS
 62
    7
 10
-62.997604499999966
 20
512.20602400000007
 11
990.00250249999999
 21
512.20602400000007
  0
LINE
  8
_0-0_0
  6
CONTINUOUS
 62
    7
 10
987.54779050000002
 20
507.19998199999998
 11
990.00250249999999
 21
507.19998199999998
  0
LINE
  8
_0-0_0
  6
CONTINUOUS
 62
    7
 10
-62.997604499999966
 20
507.19998199999998
 11
-60.542831499999977
 21
507.19998199999998
  0
ARC
  8
_0-0_0
  6
CONTINUOUS
 62
    7
 10
-53.997604499999966
 20
502.59997599999997
 40
8
 50
35.099632
 51
144.900373
  0
LINE
  8
_0-0_0
  6
CONTINUOUS
 62
    7
 10
-47.452377500000011
 20
507.19998199999998
 11
974.45721449999996
 21
507.19998199999998
  0
LINE
  8
_0-0_0
  6
CONTINUOUS
 62
    7
 10
-63.497604499999966
 20
486.09997599999997
 11
-62.997604499999966
 21
486.09997599999997
  0
LINE
  8
_0-0_0
  6
CONTINUOUS
 62
    7
 10
-62.997604499999966
 20
488.29998799999998
 11
-63.497604499999966
 21
488.29998799999998
  0
LINE
  8
_0-0_0
  6
CONTINUOUS
 62
    7
 10
-60.542831499999977
 20
507.19998199999998
 11
-60.631805499999984
 21
507.07070899999997
  0
LINE
  8
_0-0_0
  6
CONTINUOUS
 62
    7
 10
-60.724960500000009
 20
506.92929099999998
 11
-60.631805499999984
 21
507.07070899999997
  0
LINE
  8
_0-0_0
  6
CONTINUOUS
 62
    7
 10
-62.997604499999966
 20
506.79998799999998
 11
-60.806427499999984
 21
506.79998799999998
  0
LINE
  8
_0-0_0
  6
CONTINUOUS
 62
    7
 10
-60.724960500000009
 20
506.92929099999998
 11
-60.806427499999984
 21
506.79998799999998
  0
ARC
  8
_0-0_0
  6
CONTINUOUS
 62
    7
 10
-53.997604499999966
 20
502.59997599999997
 40
8
 50
148.33176499999999
 51
154.05551800000001
  0
LINE
  8
_0-0_0
  6
CONTINUOUS
 62
    7
 10
-62.997604499999966
 20
506.09997599999997
 11
-61.191345500000011
 21
506.09997599999997
  0
LINE
  8
_0-0_0
  6
CONTINUOUS
 62
    7
 10
-61.191345500000011
 20
506.09997599999997
 11
-61.252822499999979
 21
505.97070300000001
  0
LINE
  8
_0-0_0
  6
CONTINUOUS
 62
    7
 10
-61.316864500000008
 20
505.82928499999997
 11
-61.252822499999979
 21
505.97070300000001
  0
LINE
  8
_0-0_0
  6
CONTINUOUS
 62
    7
 10
-62.997604499999966
 20
505.69998199999998
 11
-61.372558499999968
 21
505.69998199999998
  0
LINE
  8
_0-0_0
  6
CONTINUOUS
 62
    7
 10
-61.316864500000008
 20
505.82928499999997
 11
-61.372558499999968
 21
505.69998199999998
  0
ARC
  8
_0-0_0
  6
CONTINUOUS
 62
    7
 10
-53.997604499999966
 20
502.59997599999997
 40
8
 50
157.20097000000001
 51
162.54239699999999
  0
LINE
  8
_0-0_0
  6
CONTINUOUS
 62
    7
 10
-62.997604499999966
 20
504.99997000000002
 11
-61.629119500000002
 21
504.99997000000002
  0
LINE
  8
_0-0_0
  6
CONTINUOUS
 62
    7
 10
-61.629119500000002
 20
504.99997000000002
 11
-61.668579499999964
 21
504.87069700000001
  0
LINE
  8
_0-0_0
  6
CONTINUOUS
 62
    7
 10
-61.709030499999983
 20
504.72927900000002
 11
-61.668579499999964
 21
504.87069700000001
  0
LINE
  8
_0-0_0
  6
CONTINUOUS
 62
    7
 10
-62.997604499999966
 20
504.59997599999997
 11
-61.743576500000017
 21
504.59997599999997
  0
LINE
  8
_0-0_0
  6
CONTINUOUS
 62
    7
 10
-61.709030499999983
 20
504.72927900000002
 11
-61.743576500000017
 21
504.59997599999997
  0
ARC
  8
_0-0_0
  6
CONTINUOUS
 62
    7
 10
-53.997604499999966
 20
502.59997599999997
 40
8
 50
165.52249
 51
170.64796000000001
  0
LINE
  8
_0-0_0
  6
CONTINUOUS
 62
    7
 10
-62.997604499999966
 20
503.89999399999999
 11
-61.891265499999975
 21
503.89999399999999
  0
LINE
  8
_0-0_0
  6
CONTINUOUS
 62
    7
 10
-61.891265499999975
 20
503.89999399999999
 11
-61.911483499999974
 21
503.770691
  0
LINE
  8
_0-0_0
  6
CONTINUOUS
 62
    7
 10
-61.931106499999999
 20
503.62927300000001
 11
-61.911483499999974
 21
503.770691
  0
LINE
  8
_0-0_0
  6
CONTINUOUS
 62
    7
 10
-62.997604499999966
 20
503.49997000000002
 11
-61.946823499999994
 21
503.49997000000002
  0
LINE
  8
_0-0_0
  6
CONTINUOUS
 62
    7
 10
-61.931106499999999
 20
503.62927300000001
 11
-61.946823499999994
 21
503.49997000000002
  0
ARC
  8
_0-0_0
  6
CONTINUOUS
 62
    7
 10
-53.997604499999966
 20
502.59997599999997
 40
8
 50
173.54054500000001
 51
178.567455
  0
LINE
  8
_0-0_0
  6
CONTINUOUS
 62
    7
 10
-62.997604499999966
 20
502.79998799999998
 11
-61.995101499999976
 21
502.79998799999998
  0
LINE
  8
_0-0_0
  6
CONTINUOUS
 62
    7
 10
-61.995101499999976
 20
502.79998799999998
 11
-61.99728349999998
 21
502.67068499999999
  0
LINE
  8
_0-0_0
  6
CONTINUOUS
 62
    7
 10
-61.997604499999966
 20
502.59997599999997
 11
-61.99728349999998
 21
502.67068499999999
  0
LINE
  8
_0-0_0
  6
CONTINUOUS
 62
    7
 10
-62.997604499999966
 20
502.39999399999999
 11
-61.995101499999976
 21
502.39999399999999
  0
LINE
  8
_0-0_0
  6
CONTINUOUS
 62
    7
 10
-62.997604499999966
 20
501.69998199999998
 11
-61.946823499999994
 21
501.69998199999998
  0
LINE
  8
_0-0_0
  6
CONTINUOUS
 62
    7
 10
-62.997604499999966
 20
501.29998799999998
 11
-61.891265499999975
 21
501.29998799999998
  0
LINE
  8
_0-0_0
  6
CONTINUOUS
 62
    7
 10
-62.997604499999966
 20
500.59997599999997
 11
-61.743576500000017
 21
500.59997599999997
  0
LINE
  8
_0-0_0
  6
CONTINUOUS
 62
    7
 10
-62.997604499999966
 20
500.19998199999998
 11
-61.629119500000002
 21
500.19998199999998
  0
LINE
  8
_0-0_0
  6
CONTINUOUS
 62
    7
 10
-62.997604499999966
 20
499.49997000000002
 11
-61.372558499999968
 21
499.49997000000002
  0
LINE
  8
_0-0_0
  6
CONTINUOUS
 62
    7
 10
-62.997604499999966
 20
499.09997599999997
 11
-61.191345500000011
 21
499.09997599999997
  0
LINE
  8
_0-0_0
  6
CONTINUOUS
 62
    7
 10
-62.997604499999966
 20
498.39999399999999
 11
-60.806427499999984
 21
498.39999399999999
  0
LINE
  8
_0-0_0
  6
CONTINUOUS
 62
    7
 10
-46.000106500000015
 20
502.79998799999998
 11
-45.997604499999966
 21
502.59997599999997
  0
ARC
  8
_0-0_0
  6
CONTINUOUS
 62
    7
 10
-53.997604499999966
 20
502.59997599999997
 40
8
 50
1.432544
 51
6.4594489999999993
  0
LINE
  8
_0-0_0
  6
CONTINUOUS
 62
    7
 10
-46.073593500000015
 20
503.69998199999998
 11
-46.048385499999995
 21
503.49997000000002
  0
LINE
  8
_0-0_0
  6
CONTINUOUS
 62
    7
 10
-46.103927499999998
 20
503.89999399999999
 11
-46.073593500000015
 21
503.69998199999998
  0
ARC
  8
_0-0_0
  6
CONTINUOUS
 62
    7
 10
-53.997604499999966
 20
502.59997599999997
 40
8
 50
9.3520350000000008
 51
14.477510999999998
  0
LINE
  8
_0-0_0
  6
CONTINUOUS
 62
    7
 10
-46.306045499999982
 20
504.79998799999998
 11
-46.251632499999971
 21
504.59997599999997
  0
LINE
  8
_0-0_0
  6
CONTINUOUS
 62
    7
 10
-46.366088499999989
 20
504.99997000000002
 11
-46.306045499999982
 21
504.79998799999998
  0
ARC
  8
_0-0_0
  6
CONTINUOUS
 62
    7
 10
-53.997604499999966
 20
502.59997599999997
 40
8
 50
17.457602999999999
 51
22.799030999999999
  0
LINE
  8
_0-0_0
  6
CONTINUOUS
 62
    7
 10
-46.709945500000003
 20
505.89999399999999
 11
-46.622650499999963
 21
505.69998199999998
  0
LINE
  8
_0-0_0
  6
CONTINUOUS
 62
    7
 10
-46.803848499999958
 20
506.09997599999997
 11
-46.709945500000003
 21
505.89999399999999
  0
ARC
  8
_0-0_0
  6
CONTINUOUS
 62
    7
 10
-53.997604499999966
 20
502.59997599999997
 40
8
 50
25.944476999999999
 51
31.668240000000001
  0
LINE
  8
_0-0_0
  6
CONTINUOUS
 62
    7
 10
-47.27024849999998
 20
506.92929099999998
 11
-47.188781500000005
 21
506.79998799999998
  0
LINE
  8
_0-0_0
  6
CONTINUOUS
 62
    7
 10
-47.27024849999998
 20
506.92929099999998
 11
-47.363388499999985
 21
507.07070899999997
  0
LINE
  8
_0-0_0
  6
CONTINUOUS
 62
    7
 10
-47.452377500000011
 20
507.19998199999998
 11
-47.363388499999985
 21
507.07070899999997
  0
CIRCLE
  8
_0-0_0
  6
CONTINUOUS
 62
    7
 10
-53.997604499999966
 20
502.59997599999997
 40
7.5
  0
LINE
  8
_0-0_0
  6
CONTINUOUS
 62
    7
 10
-46.000106500000015
 20
502.79998799999998
 11
973.00494350000008
 21
502.79998799999998
  0
LINE
  8
_0-0_0
  6
CONTINUOUS
 62
    7
 10
-46.048385499999995
 20
503.49997000000002
 11
973.05328349999991
 21
503.49997000000002
  0
LINE
  8
_0-0_0
  6
CONTINUOUS
 62
    7
 10
-46.073593500000015
 20
503.69998199999998
 11
973.07843049999997
 21
503.69998199999998
  0
LINE
  8
_0-0_0
  6
CONTINUOUS
 62
    7
 10
-46.103927499999998
 20
503.89999399999999
 11
973.10882549999997
 21
503.89999399999999
  0
LINE
  8
_0-0_0
  6
CONTINUOUS
 62
    7
 10
-46.251632499999971
 20
504.59997599999997
 11
973.25653050000005
 21
504.59997599999997
  0
LINE
  8
_0-0_0
  6
CONTINUOUS
 62
    7
 10
-46.306045499999982
 20
504.79998799999998
 11
973.31097449999993
 21
504.79998799999998
  0
LINE
  8
_0-0_0
  6
CONTINUOUS
 62
    7
 10
-46.366088499999989
 20
504.99997000000002
 11
973.37103249999996
 21
504.99997000000002
  0
LINE
  8
_0-0_0
  6
CONTINUOUS
 62
    7
 10
-46.622650499999963
 20
505.69998199999998
 11
973.62750249999999
 21
505.69998199999998
  0
LINE
  8
_0-0_0
  6
CONTINUOUS
 62
    7
 10
-46.709945500000003
 20
505.89999399999999
 11
973.71478249999996
 21
505.89999399999999
  0
LINE
  8
_0-0_0
  6
CONTINUOUS
 62
    7
 10
-46.803848499999958
 20
506.09997599999997
 11
973.80877650000002
 21
506.09997599999997
  0
LINE
  8
_0-0_0
  6
CONTINUOUS
 62
    7
 10
-47.188781500000005
 20
506.79998799999998
 11
974.19366450000007
 21
506.79998799999998
  0
LINE
  8
_0-0_0
  6
CONTINUOUS
 62
    7
 10
990.50250249999999
 20
484.59997599999997
 11
990.00250249999999
 21
484.59997599999997
  0
LINE
  8
_0-0_0
  6
CONTINUOUS
 62
    7
 10
990.50250249999999
 20
512.19998199999998
 11
990.50250249999999
 21
512.99997000000008
  0
LINE
  8
_0-0_0
  6
CONTINUOUS
 62
    7
 10
990.50250249999999
 20
484.39999399999999
 11
990.50250249999999
 21
512.19998199999998
  0
ARC
  8
_0-0_0
  6
CONTINUOUS
 62
    7
 10
981.00250249999999
 20
503.29998799999998
 40
12.800000000000001
 50
73.932597000000001
 51
106.06740099999999
  0
LINE
  8
_0-0_0
  6
CONTINUOUS
 62
    7
 10
-63.497604499999966
 20
512.19998199999998
 11
-63.497604499999966
 21
512.99997000000008
  0
LINE
  8
_0-0_0
  6
CONTINUOUS
 62
    7
 10
-63.497604499999966
 20
484.39999399999999
 11
-63.497604499999966
 21
512.19998199999998
  0
ARC
  8
_0-0_0
  6
CONTINUOUS
 62
    7
 10
-53.997604499999966
 20
503.29998799999998
 40
12.800000000000001
 50
73.932597000000001
 51
106.06740099999999
  0
LINE
  8
_0-0_0
  6
CONTINUOUS
 62
    7
 10
454.00238049999996
 20
515.59997599999997
 11
454.00238049999996
 21
521.23989899999992
  0
LINE
  8
_0-0_0
  6
CONTINUOUS
 62
    7
 10
473.00238049999996
 20
521.23989899999992
 11
473.00238049999996
 21
515.59997599999997
  0
LINE
  8
_0-0_0
  6
CONTINUOUS
 62
    7
 10
990.50250249999999
 20
513.09997599999997
 11
990.50250249999999
 21
515.59997599999997
  0
LINE
  8
_0-0_0
  6
CONTINUOUS
 62
    7
 10
-63.497604499999966
 20
515.59997599999997
 11
990.50250249999999
 21
515.59997599999997
  0
LINE
  8
_0-0_0
  6
CONTINUOUS
 62
    7
 10
-63.497604499999966
 20
513.09997599999997
 11
-63.497604499999966
 21
515.59997599999997
  0
LINE
  8
_0-0_0
  6
CONTINUOUS
 62
    7
 10
-63.497604499999966
 20
484.59997599999997
 11
-62.997604499999966
 21
484.59997599999997
  0
ARC
  8
_0-0_0
  6
CONTINUOUS
 62
    7
 10
912.30242950000002
 20
489.49997000000002
 40
0.2
 50
339.62356199999999
 51
90.000002999999978
  0
LINE
  8
_0-0_0
  6
CONTINUOUS
 62
    7
 10
912.48992950000002
 20
489.43035900000001
 11
911.18988050000007
 21
485.93035900000001
  0
ARC
  8
_0-0_0
  6
CONTINUOUS
 62
    7
 10
911.00238050000007
 20
485.99997000000002
 40
0.2
 50
200.37643
 51
339.62356199999999
  0
LINE
  8
_0-0_0
  6
CONTINUOUS
 62
    7
 10
909.51495350000005
 20
489.43035900000001
 11
910.81488050000007
 21
485.93035900000001
  0
ARC
  8
_0-0_0
  6
CONTINUOUS
 62
    7
 10
909.70245350000005
 20
489.49997000000002
 40
0.2
 50
90.000003000000007
 51
200.37643
  0
LINE
  8
_0-0_0
  6
CONTINUOUS
 62
    7
 10
909.70245350000005
 20
489.69998199999998
 11
912.30242950000002
 21
489.69998199999998
  0
ARC
  8
_0-0_0
  6
CONTINUOUS
 62
    7
 10
-7.6976015000000189
 20
489.49997000000002
 40
0.2
 50
339.62356199999999
 51
90.000002999999978
  0
LINE
  8
_0-0_0
  6
CONTINUOUS
 62
    7
 10
-7.510116499999981
 20
489.43035900000001
 11
-8.8101194999999848
 21
485.93035900000001
  0
ARC
  8
_0-0_0
  6
CONTINUOUS
 62
    7
 10
-8.9976044999999658
 20
485.99997000000002
 40
0.2
 50
200.37643
 51
339.62356199999999
  0
LINE
  8
_0-0_0
  6
CONTINUOUS
 62
    7
 10
-10.485092499999951
 20
489.43035900000001
 11
-9.1850895000000037
 21
485.93035900000001
  0
ARC
  8
_0-0_0
  6
CONTINUOUS
 62
    7
 10
-10.297592499999951
 20
489.49997000000002
 40
0.2
 50
90.000003000000007
 51
200.37643
  0
LINE
  8
_0-0_0
  6
CONTINUOUS
 62
    7
 10
-10.297592499999951
 20
489.69998199999998
 11
-7.6976015000000189
 21
489.69998199999998
  0
LINE
  8
_0-0_0
  6
CONTINUOUS
 62
    7
 10
991.50250249999999
 20
512.19998199999998
 11
990.50250249999999
 21
512.19998199999998
  0
LINE
  8
_0-0_0
  6
CONTINUOUS
 62
    7
 10
991.50250249999999
 20
513.23696900000004
 11
990.50250249999999
 21
513.23696900000004
  0
LINE
  8
_0-0_0
  6
CONTINUOUS
 62
    7
 10
991.50250249999999
 20
484.39999399999999
 11
990.50250249999999
 21
484.39999399999999
  0
ARC
  8
_0-0_0
  6
CONTINUOUS
 62
    7
 10
463.50238049999996
 20
503.29998799999998
 40
20.299999
 50
62.096725999999997
 51
117.903272
  0
CIRCLE
  8
_0-0_0
  6
CONTINUOUS
 62
    7
 10
463.50238049999996
 20
519.59997599999997
 40
2.5
  0
LINE
  8
_0-0_0
  6
CONTINUOUS
 62
    7
 10
-64.497604499999966
 20
512.19998199999998
 11
-63.497604499999966
 21
512.19998199999998
  0
LINE
  8
_0-0_0
  6
CONTINUOUS
 62
    7
 10
-64.497604499999966
 20
513.19998199999998
 11
-63.497604499999966
 21
513.19998199999998
  0
LINE
  8
_0-0_0
  6
CONTINUOUS
 62
    7
 10
-64.497604499999966
 20
484.39999399999999
 11
-63.497604499999966
 21
484.39999399999999
  0
LINE
  8
_0-0_0
  6
CONTINUOUS
 62
    7
 10
991.50250249999999
 20
515.39999399999999
 11
990.50250249999999
 21
515.39999399999999
  0
LINE
  8
_0-0_0
  6
CONTINUOUS
 62
    7
 10
-64.497604499999966
 20
515.39999399999999
 11
-63.497604499999966
 21
515.39999399999999
  0
LINE
  8
_0-0_0
  6
CONTINUOUS
 62
    7
 10
992.50250249999999
 20
511.78576699999996
 11
992.50152550000007
 21
511.80429099999998
  0
LINE
  8
_0-0_0
  6
CONTINUOUS
 62
    7
 10
992.50152550000007
 20
511.80429099999998
 11
992.49847449999993
 21
511.822723
  0
LINE
  8
_0-0_0
  6
CONTINUOUS
 62
    7
 10
992.49847449999993
 20
511.822723
 11
992.49322550000011
 21
511.841858
  0
LINE
  8
_0-0_0
  6
CONTINUOUS
 62
    7
 10
992.49322550000011
 20
511.841858
 11
992.48590050000007
 21
511.86086999999998
  0
LINE
  8
_0-0_0
  6
CONTINUOUS
 62
    7
 10
992.48590050000007
 20
511.86086999999998
 11
992.46539350000012
 21
511.897583
  0
LINE
  8
_0-0_0
  6
CONTINUOUS
 62
    7
 10
992.46539350000012
 20
511.897583
 11
992.43695049999997
 21
511.93325799999997
  0
LINE
  8
_0-0_0
  6
CONTINUOUS
 62
    7
 10
992.43695049999997
 20
511.93325799999997
 11
992.40106149999997
 21
511.96755999999999
  0
LINE
  8
_0-0_0
  6
CONTINUOUS
 62
    7
 10
992.40106149999997
 20
511.96755999999999
 11
992.35247750000008
 21
512.00402800000006
  0
LINE
  8
_0-0_0
  6
CONTINUOUS
 62
    7
 10
992.35247750000008
 20
512.00402800000006
 11
992.29571549999991
 21
512.03802500000006
  0
LINE
  8
_0-0_0
  6
CONTINUOUS
 62
    7
 10
992.29571549999991
 20
512.03802500000006
 11
992.23150650000002
 21
512.06927500000006
  0
LINE
  8
_0-0_0
  6
CONTINUOUS
 62
    7
 10
992.23150650000002
 20
512.06927500000006
 11
992.1608275000001
 21
512.097534
  0
LINE
  8
_0-0_0
  6
CONTINUOUS
 62
    7
 10
992.1608275000001
 20
512.097534
 11
992.11273150000011
 21
512.11389199999996
  0
LINE
  8
_0-0_0
  6
CONTINUOUS
 62
    7
 10
992.11273150000011
 20
512.11389199999996
 11
992.06268350000005
 21
512.12887599999999
  0
LINE
  8
_0-0_0
  6
CONTINUOUS
 62
    7
 10
992.06268350000005
 20
512.12887599999999
 11
992.0059205
 21
512.14364599999999
  0
LINE
  8
_0-0_0
  6
CONTINUOUS
 62
    7
 10
992.0059205
 20
512.14364599999999
 11
991.94732649999992
 21
512.15673800000002
  0
LINE
  8
_0-0_0
  6
CONTINUOUS
 62
    7
 10
991.94732649999992
 20
512.15673800000002
 11
991.83050550000007
 21
512.17706299999998
  0
LINE
  8
_0-0_0
  6
CONTINUOUS
 62
    7
 10
991.83050550000007
 20
512.17706299999998
 11
991.72320549999995
 21
512.18978900000002
  0
LINE
  8
_0-0_0
  6
CONTINUOUS
 62
    7
 10
991.72320549999995
 20
512.18978900000002
 11
991.61334250000004
 21
512.19741799999997
  0
LINE
  8
_0-0_0
  6
CONTINUOUS
 62
    7
 10
991.61334250000004
 20
512.19741799999997
 11
991.50250249999999
 21
512.19998199999998
  0
LINE
  8
_0-0_0
  6
CONTINUOUS
 62
    7
 10
992.50250249999999
 20
511.78576699999996
 11
992.50250249999999
 21
512.78582800000004
  0
LINE
  8
_0-0_0
  6
CONTINUOUS
 62
    7
 10
992.50250249999999
 20
512.78582800000004
 11
992.49957250000011
 21
512.81741299999999
  0
LINE
  8
_0-0_0
  6
CONTINUOUS
 62
    7
 10
992.49957250000011
 20
512.81741299999999
 11
992.49090550000005
 21
512.84948699999995
  0
LINE
  8
_0-0_0
  6
CONTINUOUS
 62
    7
 10
992.49090550000005
 20
512.84948699999995
 11
992.47637950000012
 21
512.88174400000003
  0
LINE
  8
_0-0_0
  6
CONTINUOUS
 62
    7
 10
992.47637950000012
 20
512.88174400000003
 11
992.4561154999999
 21
512.91390999999999
  0
LINE
  8
_0-0_0
  6
CONTINUOUS
 62
    7
 10
992.4561154999999
 20
512.91390999999999
 11
992.43951450000009
 21
512.93515000000002
  0
LINE
  8
_0-0_0
  6
CONTINUOUS
 62
    7
 10
992.43951450000009
 20
512.93515000000002
 11
992.4205935
 21
512.95608500000003
  0
LINE
  8
_0-0_0
  6
CONTINUOUS
 62
    7
 10
992.4205935
 20
512.95608500000003
 11
992.3757935000001
 21
512.99688700000002
  0
LINE
  8
_0-0_0
  6
CONTINUOUS
 62
    7
 10
992.3757935000001
 20
512.99688700000002
 11
992.32257049999998
 21
513.03561400000001
  0
LINE
  8
_0-0_0
  6
CONTINUOUS
 62
    7
 10
992.32257049999998
 20
513.03561400000001
 11
992.27264349999996
 21
513.06582700000001
  0
LINE
  8
_0-0_0
  6
CONTINUOUS
 62
    7
 10
992.27264349999996
 20
513.06582700000001
 11
992.2179564999999
 21
513.09405500000003
  0
LINE
  8
_0-0_0
  6
CONTINUOUS
 62
    7
 10
992.2179564999999
 20
513.09405500000003
 11
992.15899650000006
 21
513.12008700000001
  0
LINE
  8
_0-0_0
  6
CONTINUOUS
 62
    7
 10
992.15899650000006
 20
513.12008700000001
 11
992.11224349999998
 21
513.13809199999992
  0
LINE
  8
_0-0_0
  6
CONTINUOUS
 62
    7
 10
992.11224349999998
 20
513.13809199999992
 11
992.06353749999994
 21
513.15469400000006
  0
LINE
  8
_0-0_0
  6
CONTINUOUS
 62
    7
 10
992.06353749999994
 20
513.15469400000006
 11
991.96112050000011
 21
513.18356300000005
  0
LINE
  8
_0-0_0
  6
CONTINUOUS
 62
    7
 10
991.96112050000011
 20
513.18356300000005
 11
991.8534545
 21
513.20639000000006
  0
LINE
  8
_0-0_0
  6
CONTINUOUS
 62
    7
 10
991.8534545
 20
513.20639000000006
 11
991.74176050000005
 21
513.22299199999998
  0
LINE
  8
_0-0_0
  6
CONTINUOUS
 62
    7
 10
991.74176050000005
 20
513.22299199999998
 11
991.62774650000006
 21
513.23318500000005
  0
LINE
  8
_0-0_0
  6
CONTINUOUS
 62
    7
 10
991.62774650000006
 20
513.23318500000005
 11
991.50250249999999
 21
513.23696900000004
  0
ARC
  8
_0-0_0
  6
CONTINUOUS
 62
    7
 10
991.50250249999999
 20
485.39999399999999
 40
1
 50
269.99999700000001
 51
0
  0
LINE
  8
_0-0_0
  6
CONTINUOUS
 62
    7
 10
992.50250249999999
 20
485.39999399999999
 11
992.50250249999999
 21
511.78576699999996
  0
LINE
  8
_0-0_0
  6
CONTINUOUS
 62
    7
 10
-65.497604499999966
 20
511.78576699999996
 11
-65.496597500000007
 21
511.80429099999998
  0
LINE
  8
_0-0_0
  6
CONTINUOUS
 62
    7
 10
-65.496597500000007
 20
511.80429099999998
 11
-65.493606499999999
 21
511.822723
  0
LINE
  8
_0-0_0
  6
CONTINUOUS
 62
    7
 10
-65.493606499999999
 20
511.822723
 11
-65.488372499999969
 21
511.841858
  0
LINE
  8
_0-0_0
  6
CONTINUOUS
 62
    7
 10
-65.488372499999969
 20
511.841858
 11
-65.480987499999969
 21
511.86086999999998
  0
LINE
  8
_0-0_0
  6
CONTINUOUS
 62
    7
 10
-65.480987499999969
 20
511.86086999999998
 11
-65.460434500000019
 21
511.897583
  0
LINE
  8
_0-0_0
  6
CONTINUOUS
 62
    7
 10
-65.460434500000019
 20
511.897583
 11
-65.432037499999979
 21
511.93325799999997
  0
LINE
  8
_0-0_0
  6
CONTINUOUS
 62
    7
 10
-65.432037499999979
 20
511.93325799999997
 11
-65.3961635
 21
511.96755999999999
  0
LINE
  8
_0-0_0
  6
CONTINUOUS
 62
    7
 10
-65.3961635
 20
511.96755999999999
 11
-65.347534499999995
 21
512.00402800000006
  0
LINE
  8
_0-0_0
  6
CONTINUOUS
 62
    7
 10
-65.347534499999995
 20
512.00402800000006
 11
-65.290756499999986
 21
512.03802500000006
  0
LINE
  8
_0-0_0
  6
CONTINUOUS
 62
    7
 10
-65.290756499999986
 20
512.03802500000006
 11
-65.226608499999998
 21
512.06927500000006
  0
LINE
  8
_0-0_0
  6
CONTINUOUS
 62
    7
 10
-65.226608499999998
 20
512.06927500000006
 11
-65.155960499999992
 21
512.097534
  0
LINE
  8
_0-0_0
  6
CONTINUOUS
 62
    7
 10
-65.155960499999992
 20
512.097534
 11
-65.107879499999967
 21
512.11389199999996
  0
LINE
  8
_0-0_0
  6
CONTINUOUS
 62
    7
 10
-65.107879499999967
 20
512.11389199999996
 11
-65.057754499999987
 21
512.12887599999999
  0
LINE
  8
_0-0_0
  6
CONTINUOUS
 62
    7
 10
-65.057754499999987
 20
512.12887599999999
 11
-65.001052500000014
 21
512.14364599999999
  0
LINE
  8
_0-0_0
  6
CONTINUOUS
 62
    7
 10
-65.001052500000014
 20
512.14364599999999
 11
-64.942443499999968
 21
512.15673800000002
  0
LINE
  8
_0-0_0
  6
CONTINUOUS
 62
    7
 10
-64.942443499999968
 20
512.15673800000002
 11
-64.825653499999987
 21
512.17706299999998
  0
LINE
  8
_0-0_0
  6
CONTINUOUS
 62
    7
 10
-64.825653499999987
 20
512.17706299999998
 11
-64.718246499999964
 21
512.18978900000002
  0
LINE
  8
_0-0_0
  6
CONTINUOUS
 62
    7
 10
-64.718246499999964
 20
512.18978900000002
 11
-64.608490500000016
 21
512.19741799999997
  0
LINE
  8
_0-0_0
  6
CONTINUOUS
 62
    7
 10
-64.608490500000016
 20
512.19741799999997
 11
-64.497604499999966
 21
512.19998199999998
  0
LINE
  8
_0-0_0
  6
CONTINUOUS
 62
    7
 10
-65.497604499999966
 20
512.75543199999993
 11
-65.494705500000009
 21
512.78634699999998
  0
LINE
  8
_0-0_0
  6
CONTINUOUS
 62
    7
 10
-65.494705500000009
 20
512.78634699999998
 11
-65.486007499999971
 21
512.81777999999997
  0
LINE
  8
_0-0_0
  6
CONTINUOUS
 62
    7
 10
-65.486007499999971
 20
512.81777999999997
 11
-65.471527499999979
 21
512.84945700000003
  0
LINE
  8
_0-0_0
  6
CONTINUOUS
 62
    7
 10
-65.471527499999979
 20
512.84945700000003
 11
-65.451370499999996
 21
512.88104299999998
  0
LINE
  8
_0-0_0
  6
CONTINUOUS
 62
    7
 10
-65.451370499999996
 20
512.88104299999998
 11
-65.434845499999994
 21
512.90191699999991
  0
LINE
  8
_0-0_0
  6
CONTINUOUS
 62
    7
 10
-65.434845499999994
 20
512.90191699999991
 11
-65.415939499999979
 21
512.92251599999997
  0
LINE
  8
_0-0_0
  6
CONTINUOUS
 62
    7
 10
-65.415939499999979
 20
512.92251599999997
 11
-65.371292499999981
 21
512.96267699999999
  0
LINE
  8
_0-0_0
  6
CONTINUOUS
 62
    7
 10
-65.371292499999981
 20
512.96267699999999
 11
-65.318176499999993
 21
513.00088499999993
  0
LINE
  8
_0-0_0
  6
CONTINUOUS
 62
    7
 10
-65.318176499999993
 20
513.00088499999993
 11
-65.268280500000003
 21
513.03070099999991
  0
LINE
  8
_0-0_0
  6
CONTINUOUS
 62
    7
 10
-65.268280500000003
 20
513.03070099999991
 11
-65.213607499999966
 21
513.05856300000005
  0
LINE
  8
_0-0_0
  6
CONTINUOUS
 62
    7
 10
-65.213607499999966
 20
513.05856300000005
 11
-65.154632499999991
 21
513.08431999999993
  0
LINE
  8
_0-0_0
  6
CONTINUOUS
 62
    7
 10
-65.154632499999991
 20
513.08431999999993
 11
-65.107864500000005
 21
513.102081
  0
LINE
  8
_0-0_0
  6
CONTINUOUS
 62
    7
 10
-65.107864500000005
 20
513.102081
 11
-65.059158499999967
 21
513.11852999999996
  0
LINE
  8
_0-0_0
  6
CONTINUOUS
 62
    7
 10
-65.059158499999967
 20
513.11852999999996
 11
-64.956726500000002
 21
513.14709500000004
  0
LINE
  8
_0-0_0
  6
CONTINUOUS
 62
    7
 10
-64.956726500000002
 20
513.14709500000004
 11
-64.848907499999996
 21
513.16970800000001
  0
LINE
  8
_0-0_0
  6
CONTINUOUS
 62
    7
 10
-64.848907499999996
 20
513.16970800000001
 11
-64.737228500000015
 21
513.18612699999994
  0
LINE
  8
_0-0_0
  6
CONTINUOUS
 62
    7
 10
-64.737228500000015
 20
513.18612699999994
 11
-64.623062500000003
 21
513.19622800000002
  0
LINE
  8
_0-0_0
  6
CONTINUOUS
 62
    7
 10
-64.623062500000003
 20
513.19622800000002
 11
-64.497604499999966
 21
513.19998199999998
  0
LINE
  8
_0-0_0
  6
CONTINUOUS
 62
    7
 10
-65.497604499999966
 20
511.78576699999996
 11
-65.497604499999966
 21
512.75543199999993
  0
ARC
  8
_0-0_0
  6
CONTINUOUS
 62
    7
 10
-64.497604499999966
 20
485.39999399999999
 40
1
 50
180.00000900000003
 51
269.99999700000001
  0
LINE
  8
_0-0_0
  6
CONTINUOUS
 62
    7
 10
-65.497604499999966
 20
485.39999399999999
 11
-65.497604499999966
 21
511.78576699999996
  0
CIRCLE
  8
_0-0_0
  6
CONTINUOUS
 62
    7
 10
-53.997604499999966
 20
502.59997599999997
 40
5
  0
CIRCLE
  8
_0-0_0
  6
CONTINUOUS
 62
    7
 10
981.00250249999999
 20
502.59997599999997
 40
5
  0
LINE
  8
_0-0_0
  6
CONTINUOUS
 62
    7
 10
992.50250249999999
 20
512.78582800000004
 11
992.50250249999999
 21
514.39999399999999
  0
ARC
  8
_0-0_0
  6
CONTINUOUS
 62
    7
 10
991.50250249999999
 20
514.39999399999999
 40
1
 50
0
 51
90.000003000000007
  0
ARC
  8
_0-0_0
  6
CONTINUOUS
 62
    7
 10
-64.497604499999966
 20
514.39999399999999
 40
1
 50
90.000003000000007
 51
180.00000900000001
  0
LINE
  8
_0-0_0
  6
CONTINUOUS
 62
    7
 10
-65.497604499999966
 20
512.75543199999993
 11
-65.497604499999966
 21
514.39999399999999
  0
LINE
  8
_0-0_0
  6
CONTINUOUS
 62
    7
 10
-93.407474500000035
 20
484.39999399999999
 11
-93.407474500000035
 21
483.79998799999998
  0
LINE
  8
_0-0_0
  6
CONTINUOUS
 62
    7
 10
-90.907474499999978
 20
478.55499299999997
 11
-90.907474499999978
 21
480.79998799999998
  0
LINE
  8
_0-0_0
  6
CONTINUOUS
 62
    7
 10
-89.907474499999978
 20
480.79998799999998
 11
-89.907474499999978
 21
482.79998799999998
  0
ARC
  8
_0-0_0
  6
CONTINUOUS
 62
    7
 10
-90.407474499999978
 20
482.79998799999998
 40
0.5
 50
0
 51
90.000003000000007
  0
LINE
  8
_0-0_0
  6
CONTINUOUS
 62
    7
 10
-90.407474499999978
 20
483.29998799999998
 11
-91.907474500000035
 21
483.29998799999998
  0
ARC
  8
_0-0_0
  6
CONTINUOUS
 62
    7
 10
-91.907474500000035
 20
484.29998799999998
 40
1
 50
180.00000900000003
 51
269.99999700000001
  0
LINE
  8
_0-0_0
  6
CONTINUOUS
 62
    7
 10
-92.907474500000035
 20
484.39999399999999
 11
-92.907474500000035
 21
484.29998799999998
  0
ARC
  8
_0-0_0
  6
CONTINUOUS
 62
    7
 10
-91.907474500000035
 20
483.79998799999998
 40
1.5
 50
180.00000900000003
 51
269.99999700000001
  0
LINE
  8
_0-0_0
  6
CONTINUOUS
 62
    7
 10
-91.907474500000035
 20
482.29998799999998
 11
-92.607475499999964
 21
482.29998799999998
  0
ARC
  8
_0-0_0
  6
CONTINUOUS
 62
    7
 10
-92.607475499999964
 20
483.29998799999998
 40
1
 50
180.00000900000003
 51
269.99999700000001
  0
LINE
  8
_0-0_0
  6
CONTINUOUS
 62
    7
 10
-93.607475499999964
 20
484.29998799999998
 11
-93.607475499999964
 21
483.29998799999998
  0
LINE
  8
_0-0_0
  6
CONTINUOUS
 62
    7
 10
-101.80747650000001
 20
483.29998799999998
 11
-101.80747650000001
 21
484.29998799999998
  0
ARC
  8
_0-0_0
  6
CONTINUOUS
 62
    7
 10
-102.80747650000001
 20
483.29998799999998
 40
1
 50
269.99999700000001
 51
0
  0
LINE
  8
_0-0_0
  6
CONTINUOUS
 62
    7
 10
-102.80747650000001
 20
482.29998799999998
 11
-103.00747349999995
 21
482.29998799999998
  0
ARC
  8
_0-0_0
  6
CONTINUOUS
 62
    7
 10
-103.00747349999995
 20
483.29998799999998
 40
1
 50
269.99999700000001
 51
0
  0
LINE
  8
_0-0_0
  6
CONTINUOUS
 62
    7
 10
-102.00747349999995
 20
483.29998799999998
 11
-102.00747349999995
 21
484.39999399999999
  0
LINE
  8
_0-0_0
  6
CONTINUOUS
 62
    7
 10
-102.50747349999995
 20
484.29998799999998
 11
-102.50747349999995
 21
484.39999399999999
  0
ARC
  8
_0-0_0
  6
CONTINUOUS
 62
    7
 10
-103.50747349999995
 20
484.29998799999998
 40
1
 50
269.99999700000001
 51
0
  0
LINE
  8
_0-0_0
  6
CONTINUOUS
 62
    7
 10
-103.50747349999995
 20
483.29998799999998
 11
-105.00747349999995
 21
483.29998799999998
  0
ARC
  8
_0-0_0
  6
CONTINUOUS
 62
    7
 10
-105.00747349999995
 20
482.79998799999998
 40
0.5
 50
90.000003000000007
 51
180.00000900000001
  0
LINE
  8
_0-0_0
  6
CONTINUOUS
 62
    7
 10
-105.50747349999995
 20
482.79998799999998
 11
-105.50747349999995
 21
480.79998799999998
  0
LINE
  8
_0-0_0
  6
CONTINUOUS
 62
    7
 10
-104.50747349999995
 20
478.55499299999997
 11
-104.50747349999995
 21
480.79998799999998
  0
LINE
  8
_0-0_0
  6
CONTINUOUS
 62
    7
 10
-106.40747450000003
 20
460.19998199999998
 11
-106.40747450000003
 21
478.55499299999997
  0
LINE
  8
_0-0_0
  6
CONTINUOUS
 62
    7
 10
-89.607475499999964
 20
460.19998199999998
 11
-89.607475499999964
 21
478.55499299999997
  0
CIRCLE
  8
_0-0_0
  6
CONTINUOUS
 62
    7
 10
-97.707473499999992
 20
480.79998799999998
 40
2.0499999999999998
  0
LINE
  8
_0-0_0
  6
CONTINUOUS
 62
    7
 10
-89.607475499999964
 20
482.29998799999998
 11
-89.607475499999964
 21
482.27499399999999
  0
LINE
  8
_0-0_0
  6
CONTINUOUS
 62
    7
 10
-89.607475499999964
 20
479.05493200000001
 11
-89.607475499999964
 21
479.32498199999998
  0
LINE
  8
_0-0_0
  6
CONTINUOUS
 62
    7
 10
-89.607475499999964
 20
478.55499299999997
 11
-89.607475499999964
 21
479.05499299999997
  0
LINE
  8
_0-0_0
  6
CONTINUOUS
 62
    7
 10
-89.607475499999964
 20
458.19998199999998
 11
-89.607475499999964
 21
460.19998199999998
  0
LINE
  8
_0-0_0
  6
CONTINUOUS
 62
    7
 10
-106.40747450000003
 20
458.19998199999998
 11
-106.40747450000003
 21
460.19998199999998
  0
LINE
  8
_0-0_0
  6
CONTINUOUS
 62
    7
 10
-106.40747450000003
 20
458.19998199999998
 11
-89.607475499999964
 21
458.19998199999998
  0
LINE
  8
_0-0_0
  6
CONTINUOUS
 62
    7
 10
-106.40747450000003
 20
482.29998799999998
 11
-106.40747450000003
 21
480.79998799999998
  0
LINE
  8
_0-0_0
  6
CONTINUOUS
 62
    7
 10
-106.40747450000003
 20
479.05499299999997
 11
-106.40747450000003
 21
480.79998799999998
  0
LINE
  8
_0-0_0
  6
CONTINUOUS
 62
    7
 10
-106.40747450000003
 20
478.55499299999997
 11
-106.40747450000003
 21
479.05499299999997
  0
LINE
  8
_0-0_0
  6
CONTINUOUS
 62
    7
 10
-105.50747349999995
 20
479.05505399999998
 11
-105.50747349999995
 21
480.79998799999998
  0
ARC
  8
_0-0_0
  6
CONTINUOUS
 62
    7
 10
-91.207477499999982
 20
460.29998799999998
 40
2
 50
323.13010300000002
 51
0.0000000000000127
  0
LINE
  8
_0-0_0
  6
CONTINUOUS
 62
    7
 10
-89.207477499999982
 20
460.29998799999998
 11
-89.207477499999982
 21
461.70004299999999
  0
LINE
  8
_0-0_0
  6
CONTINUOUS
 62
    7
 10
-88.907474499999978
 20
466.78967299999999
 11
-88.907474499999978
 21
477.23767099999998
  0
LINE
  8
_0-0_0
  6
CONTINUOUS
 62
    7
 10
-88.907474499999978
 20
478.20047
 11
-88.907474499999978
 21
480.43511999999998
  0
LINE
  8
_0-0_0
  6
CONTINUOUS
 62
    7
 10
-106.40747450000003
 20
482.29998799999998
 11
-105.50747349999995
 21
482.29998799999998
  0
LINE
  8
_0-0_0
  6
CONTINUOUS
 62
    7
 10
-106.50747349999995
 20
461.69998199999998
 11
-106.40747450000003
 21
461.69998199999998
  0
LINE
  8
_0-0_0
  6
CONTINUOUS
 62
    7
 10
-106.50747349999995
 20
461.69998199999998
 11
-106.50747349999995
 21
466.78967299999999
  0
LINE
  8
_0-0_0
  6
CONTINUOUS
 62
    7
 10
-106.50747349999995
 20
477.23767099999998
 11
-106.50747349999995
 21
478.20047
  0
LINE
  8
_0-0_0
  6
CONTINUOUS
 62
    7
 10
-106.50747349999995
 20
481.29998799999998
 11
-106.40747450000003
 21
481.29998799999998
  0
LINE
  8
_0-0_0
  6
CONTINUOUS
 62
    7
 10
-106.50747349999995
 20
480.43511999999998
 11
-106.50747349999995
 21
481.29998799999998
  0
LINE
  8
_0-0_0
  6
CONTINUOUS
 62
    7
 10
-106.50747349999995
 20
478.20047
 11
-106.50747349999995
 21
480.43511999999998
  0
LINE
  8
_0-0_0
  6
CONTINUOUS
 62
    7
 10
-106.50747349999995
 20
466.78967299999999
 11
-106.50747349999995
 21
477.23767099999998
  0
LINE
  8
_0-0_0
  6
CONTINUOUS
 62
    7
 10
-106.20747349999999
 20
480.18872099999999
 11
-106.20747349999999
 21
482.07498199999998
  0
LINE
  8
_0-0_0
  6
CONTINUOUS
 62
    7
 10
-106.20747349999999
 20
479.52499399999999
 11
-106.20747349999999
 21
480.18872099999999
  0
LINE
  8
_0-0_0
  6
CONTINUOUS
 62
    7
 10
-89.207477499999982
 20
481.41125499999998
 11
-89.207477499999982
 21
479.52529900000002
  0
LINE
  8
_0-0_0
  6
CONTINUOUS
 62
    7
 10
-89.207477499999982
 20
482.06662
 11
-89.207477499999982
 21
481.41125499999998
  0
LINE
  8
_0-0_0
  6
CONTINUOUS
 62
    7
 10
-88.907474499999978
 20
461.69998199999998
 11
-88.907474499999978
 21
466.78967299999999
  0
LINE
  8
_0-0_0
  6
CONTINUOUS
 62
    7
 10
-88.907474499999978
 20
480.43511999999998
 11
-88.907474499999978
 21
481.29998799999998
  0
LINE
  8
_0-0_0
  6
CONTINUOUS
 62
    7
 10
-88.907474499999978
 20
477.23767099999998
 11
-88.907474499999978
 21
478.20047
  0
LINE
  8
_0-0_0
  6
CONTINUOUS
 62
    7
 10
-88.907474499999978
 20
481.29998799999998
 11
-89.207477499999982
 21
481.29998799999998
  0
LINE
  8
_0-0_0
  6
CONTINUOUS
 62
    7
 10
-88.907474499999978
 20
461.69998199999998
 11
-89.607475499999964
 21
461.69998199999998
  0
LINE
  8
_0-0_0
  6
CONTINUOUS
 62
    7
 10
-89.607475499999964
 20
482.29998799999998
 11
-89.907474499999978
 21
482.29998799999998
  0
LINE
  8
_0-0_0
  6
CONTINUOUS
 62
    7
 10
-89.907474499999978
 20
480.79998799999998
 11
-89.907474499999978
 21
479.05505399999998
  0
LINE
  8
_0-0_0
  6
CONTINUOUS
 62
    7
 10
-93.607475499999964
 20
484.29998799999998
 11
-93.607475499999964
 21
484.40005500000001
  0
LINE
  8
_0-0_0
  6
CONTINUOUS
 62
    7
 10
-101.80747650000001
 20
484.40005500000001
 11
-101.80747650000001
 21
484.29998799999998
  0
LINE
  8
_0-0_0
  6
CONTINUOUS
 62
    7
 10
-90.907474499999978
 20
479.05499299999997
 11
-89.607475499999964
 21
479.05499299999997
  0
ARC
  8
_0-0_0
  6
CONTINUOUS
 62
    7
 10
-105.70747349999999
 20
482.07498199999998
 40
0.2
 50
359.91222800000003
 51
89.999948000000003
  0
ARC
  8
_0-0_0
  6
CONTINUOUS
 62
    7
 10
-105.70757649999996
 20
479.525147
 40
0.200169
 50
270.02985900000004
 51
2.3526610000000452
  0
LINE
  8
_0-0_0
  6
CONTINUOUS
 62
    7
 10
-106.00747349999995
 20
482.27499399999999
 11
-105.70747349999999
 21
482.27499399999999
  0
LINE
  8
_0-0_0
  6
CONTINUOUS
 62
    7
 10
-106.00747349999995
 20
479.32498199999998
 11
-105.70747349999999
 21
479.32498199999998
  0
ARC
  8
_0-0_0
  6
CONTINUOUS
 62
    7
 10
-106.00737049999998
 20
482.07482899999997
 40
0.200169
 50
90.029849999999996
 51
182.352667
  0
ARC
  8
_0-0_0
  6
CONTINUOUS
 62
    7
 10
-106.00747349999995
 20
479.52499399999999
 40
0.2
 50
179.912237
 51
269.99994299999997
  0
ARC
  8
_0-0_0
  6
CONTINUOUS
 62
    7
 10
-89.707370499999968
 20
479.525147
 40
0.200169
 50
177.647333
 51
269.97013600000002
  0
ARC
  8
_0-0_0
  6
CONTINUOUS
 62
    7
 10
-89.707473499999992
 20
482.07498199999998
 40
0.2
 50
90.000049999999987
 51
180.08776299999997
  0
LINE
  8
_0-0_0
  6
CONTINUOUS
 62
    7
 10
-89.407474499999978
 20
479.32498199999998
 11
-89.707477499999982
 21
479.32498199999998
  0
LINE
  8
_0-0_0
  6
CONTINUOUS
 62
    7
 10
-89.407474499999978
 20
482.27499399999999
 11
-89.707477499999982
 21
482.27499399999999
  0
ARC
  8
_0-0_0
  6
CONTINUOUS
 62
    7
 10
-89.407474499999978
 20
479.52499399999999
 40
0.2
 50
270.00005199999998
 51
0.0877600000000175
  0
ARC
  8
_0-0_0
  6
CONTINUOUS
 62
    7
 10
-89.407581499999992
 20
482.07482899999997
 40
0.200169
 50
357.64733799999999
 51
89.970147999999995
  0
LINE
  8
_0-0_0
  6
CONTINUOUS
 62
    7
 10
-106.40747450000003
 20
479.05499299999997
 11
-104.50747349999995
 21
479.05499299999997
  0
LINE
  8
_0-0_0
  6
CONTINUOUS
 62
    7
 10
-88.907474499999978
 20
484.79998799999998
 11
-88.907474499999978
 21
497.99997000000002
  0
ARC
  8
_0-0_0
  6
CONTINUOUS
 62
    7
 10
-89.407474499999978
 20
484.79998799999998
 40
0.5
 50
269.99999700000001
 51
0
  0
ARC
  8
_0-0_0
  6
CONTINUOUS
 62
    7
 10
-88.966053499999987
 20
498.19998199999998
 40
0.1
 50
135
 51
225
  0
LINE
  8
_0-0_0
  6
CONTINUOUS
 62
    7
 10
-89.036762500000009
 20
498.12927300000001
 11
-88.907474499999978
 21
497.99997000000002
  0
LINE
  8
_0-0_0
  6
CONTINUOUS
 62
    7
 10
-89.407474499999978
 20
484.29998799999998
 11
-91.307476500000007
 21
484.29998799999998
  0
ARC
  8
_0-0_0
  6
CONTINUOUS
 62
    7
 10
-91.307476500000007
 20
484.79998799999998
 40
0.5
 50
233.12990600000001
 51
269.99999700000001
  0
ARC
  8
_0-0_0
  6
CONTINUOUS
 62
    7
 10
-104.00747349999995
 20
484.79998799999998
 40
0.5
 50
269.99999700000001
 51
306.87009999999998
  0
LINE
  8
_0-0_0
  6
CONTINUOUS
 62
    7
 10
-104.00747349999995
 20
484.29998799999998
 11
-105.90747450000003
 21
484.29998799999998
  0
ARC
  8
_0-0_0
  6
CONTINUOUS
 62
    7
 10
-105.90747450000003
 20
484.79998799999998
 40
0.5
 50
180.00000900000003
 51
269.99999700000001
  0
LINE
  8
_0-0_0
  6
CONTINUOUS
 62
    7
 10
-106.40747450000003
 20
494.23498499999999
 11
-106.40747450000003
 21
484.79998799999998
  0
LINE
  8
_0-0_0
  6
CONTINUOUS
 62
    7
 10
-106.40747450000003
 20
494.23498499999999
 11
-105.70747349999999
 21
494.23498499999999
  0
LINE
  8
_0-0_0
  6
CONTINUOUS
 62
    7
 10
-89.707473499999992
 20
512.79998799999998
 11
-89.501445499999988
 21
512.79998799999998
  0
LINE
  8
_0-0_0
  6
CONTINUOUS
 62
    7
 10
-89.501445499999988
 20
512.79998799999998
 11
-88.907474499999978
 21
512.20602400000007
  0
LINE
  8
_0-0_0
  6
CONTINUOUS
 62
    7
 10
-88.907474499999978
 20
507.19998199999998
 11
-88.907474499999978
 21
512.20602400000007
  0
LINE
  8
_0-0_0
  6
CONTINUOUS
 62
    7
 10
-89.036762500000009
 20
507.07070899999997
 11
-88.907474499999978
 21
507.19998199999998
  0
ARC
  8
_0-0_0
  6
CONTINUOUS
 62
    7
 10
-88.966053499999987
 20
506.99997000000002
 40
0.1
 50
135
 51
225
  0
LINE
  8
_0-0_0
  6
CONTINUOUS
 62
    7
 10
-89.036762500000009
 20
506.92929099999998
 11
-88.907474499999978
 21
506.79998799999998
  0
LINE
  8
_0-0_0
  6
CONTINUOUS
 62
    7
 10
-88.907474499999978
 20
506.09997599999997
 11
-88.907474499999978
 21
506.79998799999998
  0
LINE
  8
_0-0_0
  6
CONTINUOUS
 62
    7
 10
-89.036762500000009
 20
505.97070300000001
 11
-88.907474499999978
 21
506.09997599999997
  0
ARC
  8
_0-0_0
  6
CONTINUOUS
 62
    7
 10
-88.966053499999987
 20
505.89999399999999
 40
0.1
 50
135
 51
225
  0
LINE
  8
_0-0_0
  6
CONTINUOUS
 62
    7
 10
-89.036762500000009
 20
505.82928499999997
 11
-88.907474499999978
 21
505.69998199999998
  0
LINE
  8
_0-0_0
  6
CONTINUOUS
 62
    7
 10
-88.907474499999978
 20
504.99997000000002
 11
-88.907474499999978
 21
505.69998199999998
  0
LINE
  8
_0-0_0
  6
CONTINUOUS
 62
    7
 10
-89.036762500000009
 20
504.87069700000001
 11
-88.907474499999978
 21
504.99997000000002
  0
ARC
  8
_0-0_0
  6
CONTINUOUS
 62
    7
 10
-88.966053499999987
 20
504.79998799999998
 40
0.1
 50
135
 51
225
  0
LINE
  8
_0-0_0
  6
CONTINUOUS
 62
    7
 10
-89.036762500000009
 20
504.72927900000002
 11
-88.907474499999978
 21
504.59997599999997
  0
LINE
  8
_0-0_0
  6
CONTINUOUS
 62
    7
 10
-88.907474499999978
 20
503.89999399999999
 11
-88.907474499999978
 21
504.59997599999997
  0
LINE
  8
_0-0_0
  6
CONTINUOUS
 62
    7
 10
-89.036762500000009
 20
503.770691
 11
-88.907474499999978
 21
503.89999399999999
  0
ARC
  8
_0-0_0
  6
CONTINUOUS
 62
    7
 10
-88.966053499999987
 20
503.69998199999998
 40
0.1
 50
135
 51
225
  0
LINE
  8
_0-0_0
  6
CONTINUOUS
 62
    7
 10
-89.036762500000009
 20
503.62927300000001
 11
-88.907474499999978
 21
503.49997000000002
  0
LINE
  8
_0-0_0
  6
CONTINUOUS
 62
    7
 10
-88.907474499999978
 20
502.79998799999998
 11
-88.907474499999978
 21
503.49997000000002
  0
LINE
  8
_0-0_0
  6
CONTINUOUS
 62
    7
 10
-89.036762500000009
 20
502.67068499999999
 11
-88.907474499999978
 21
502.79998799999998
  0
ARC
  8
_0-0_0
  6
CONTINUOUS
 62
    7
 10
-88.966053499999987
 20
502.59997599999997
 40
0.1
 50
135
 51
225
  0
LINE
  8
_0-0_0
  6
CONTINUOUS
 62
    7
 10
-89.036762500000009
 20
502.52926600000001
 11
-88.907474499999978
 21
502.39999399999999
  0
LINE
  8
_0-0_0
  6
CONTINUOUS
 62
    7
 10
-88.907474499999978
 20
501.69998199999998
 11
-88.907474499999978
 21
502.39999399999999
  0
LINE
  8
_0-0_0
  6
CONTINUOUS
 62
    7
 10
-89.036762500000009
 20
501.57070899999997
 11
-88.907474499999978
 21
501.69998199999998
  0
ARC
  8
_0-0_0
  6
CONTINUOUS
 62
    7
 10
-88.966053499999987
 20
501.49997000000002
 40
0.1
 50
135
 51
225
  0
LINE
  8
_0-0_0
  6
CONTINUOUS
 62
    7
 10
-89.036762500000009
 20
501.42929099999998
 11
-88.907474499999978
 21
501.29998799999998
  0
LINE
  8
_0-0_0
  6
CONTINUOUS
 62
    7
 10
-88.907474499999978
 20
500.59997599999997
 11
-88.907474499999978
 21
501.29998799999998
  0
LINE
  8
_0-0_0
  6
CONTINUOUS
 62
    7
 10
-89.036762500000009
 20
500.47070300000001
 11
-88.907474499999978
 21
500.59997599999997
  0
ARC
  8
_0-0_0
  6
CONTINUOUS
 62
    7
 10
-88.966053499999987
 20
500.39999399999999
 40
0.1
 50
135
 51
225
  0
LINE
  8
_0-0_0
  6
CONTINUOUS
 62
    7
 10
-89.036762500000009
 20
500.32928499999997
 11
-88.907474499999978
 21
500.19998199999998
  0
LINE
  8
_0-0_0
  6
CONTINUOUS
 62
    7
 10
-88.907474499999978
 20
499.49997000000002
 11
-88.907474499999978
 21
500.19998199999998
  0
LINE
  8
_0-0_0
  6
CONTINUOUS
 62
    7
 10
-89.036762500000009
 20
499.37069700000001
 11
-88.907474499999978
 21
499.49997000000002
  0
ARC
  8
_0-0_0
  6
CONTINUOUS
 62
    7
 10
-88.966053499999987
 20
499.29998799999998
 40
0.1
 50
135
 51
225
  0
LINE
  8
_0-0_0
  6
CONTINUOUS
 62
    7
 10
-89.036762500000009
 20
499.22927900000002
 11
-88.907474499999978
 21
499.09997599999997
  0
LINE
  8
_0-0_0
  6
CONTINUOUS
 62
    7
 10
-88.907474499999978
 20
498.39999399999999
 11
-88.907474499999978
 21
499.09997599999997
  0
LINE
  8
_0-0_0
  6
CONTINUOUS
 62
    7
 10
-89.036762500000009
 20
498.270691
 11
-88.907474499999978
 21
498.39999399999999
  0
LINE
  8
_0-0_0
  6
CONTINUOUS
 62
    7
 10
-88.907474499999978
 20
490.29998799999998
 11
-88.807476500000007
 21
490.29998799999998
  0
LINE
  8
_0-0_0
  6
CONTINUOUS
 62
    7
 10
-88.807476500000007
 20
489.79998799999998
 11
-88.807476500000007
 21
490.29998799999998
  0
LINE
  8
_0-0_0
  6
CONTINUOUS
 62
    7
 10
-88.807476500000007
 20
489.79998799999998
 11
-88.807476500000007
 21
485.79998799999998
  0
LINE
  8
_0-0_0
  6
CONTINUOUS
 62
    7
 10
-88.907474499999978
 20
485.29998799999998
 11
-88.807476500000007
 21
485.29998799999998
  0
LINE
  8
_0-0_0
  6
CONTINUOUS
 62
    7
 10
-88.807476500000007
 20
485.29998799999998
 11
-88.807476500000007
 21
485.79998799999998
  0
LINE
  8
_0-0_0
  6
CONTINUOUS
 62
    7
 10
-106.40747450000003
 20
494.29998799999998
 11
-106.40747450000003
 21
494.23498499999999
  0
LINE
  8
_0-0_0
  6
CONTINUOUS
 62
    7
 10
-89.907474499999978
 20
513.09997599999997
 11
-89.907474499999978
 21
512.99997000000008
  0
ARC
  8
_0-0_0
  6
CONTINUOUS
 62
    7
 10
-102.40747450000003
 20
513.09997599999997
 40
2.5
 50
90.000003000000007
 51
180.00000900000001
  0
LINE
  8
_0-0_0
  6
CONTINUOUS
 62
    7
 10
-106.50747349999995
 20
494.29998799999998
 11
-105.70747349999999
 21
494.29998799999998
  0
LINE
  8
_0-0_0
  6
CONTINUOUS
 62
    7
 10
-106.00747349999995
 20
516.09997599999997
 11
-106.00747349999995
 21
511.87844899999999
  0
LINE
  8
_0-0_0
  6
CONTINUOUS
 62
    7
 10
-104.90747450000003
 20
516.09997599999997
 11
-104.90747450000003
 21
513.09997599999997
  0
LINE
  8
_0-0_0
  6
CONTINUOUS
 62
    7
 10
-106.00747349999995
 20
511.87844899999999
 11
-105.70747349999999
 21
511.87844899999999
  0
LINE
  8
_0-0_0
  6
CONTINUOUS
 62
    7
 10
-106.00747349999995
 20
521.23989899999992
 11
-104.90747450000003
 21
521.23989899999992
  0
LINE
  8
_0-0_0
  6
CONTINUOUS
 62
    7
 10
-104.90747450000003
 20
516.10037199999999
 11
-104.90747450000003
 21
521.23989899999992
  0
LINE
  8
_0-0_0
  6
CONTINUOUS
 62
    7
 10
-106.50747349999995
 20
515.60070799999994
 11
-106.50747349999995
 21
520.67208899999991
  0
LINE
  8
_0-0_0
  6
CONTINUOUS
 62
    7
 10
-106.00747349999995
 20
521.23989899999992
 11
-106.50747349999995
 21
520.67208899999991
  0
ARC
  8
_0-0_0
  6
CONTINUOUS
 62
    7
 10
-92.407474500000035
 20
513.09997599999997
 40
2.5
 50
0
 51
90.000003000000007
  0
LINE
  8
_0-0_0
  6
CONTINUOUS
 62
    7
 10
-104.90747450000003
 20
513
 11
-104.90747450000003
 21
513.09997599999997
  0
LINE
  8
_0-0_0
  6
CONTINUOUS
 62
    7
 10
-92.407474500000035
 20
515.59997599999997
 11
-102.40747450000003
 21
515.59997599999997
  0
LINE
  8
_0-0_0
  6
CONTINUOUS
 62
    7
 10
-88.707477499999982
 20
485.79998799999998
 11
-88.707477499999982
 21
485.93035900000001
  0
LINE
  8
_0-0_0
  6
CONTINUOUS
 62
    7
 10
-88.707477499999982
 20
489.43035900000001
 11
-88.707477499999982
 21
485.93035900000001
  0
LINE
  8
_0-0_0
  6
CONTINUOUS
 62
    7
 10
-88.807476500000007
 20
489.69998199999998
 11
-88.707477499999982
 21
489.69998199999998
  0
LINE
  8
_0-0_0
  6
CONTINUOUS
 62
    7
 10
-88.707477499999982
 20
489.43035900000001
 11
-88.707477499999982
 21
489.69998199999998
  0
LINE
  8
_0-0_0
  6
CONTINUOUS
 62
    7
 10
-104.90747450000003
 20
523.60000600000001
 11
-104.90747450000003
 21
521.23989899999992
  0
LINE
  8
_0-0_0
  6
CONTINUOUS
 62
    7
 10
-89.107471499999974
 20
512.19998199999998
 11
-90.107471499999974
 21
513.19998199999998
  0
LINE
  8
_0-0_0
  6
CONTINUOUS
 62
    7
 10
-89.107475499999964
 20
484.39999399999999
 11
-89.107471499999974
 21
512.19998199999998
  0
LINE
  8
_0-0_0
  6
CONTINUOUS
 62
    7
 10
-105.70747349999999
 20
484.39999399999999
 11
-89.107475499999964
 21
484.39999399999999
  0
LINE
  8
_0-0_0
  6
CONTINUOUS
 62
    7
 10
-105.70747349999999
 20
512.19998199999998
 11
-105.70747349999999
 21
484.39999399999999
  0
LINE
  8
_0-0_0
  6
CONTINUOUS
 62
    7
 10
-106.50747349999995
 20
494.29998799999998
 11
-106.50747349999995
 21
511.11279300000001
  0
LINE
  8
_0-0_0
  6
CONTINUOUS
 62
    7
 10
-106.50747349999995
 20
515.59997599999997
 11
-106.50747349999995
 21
511.11279300000001
  0
ARC
  8
_0-0_0
  6
CONTINUOUS
 62
    7
 10
-75.055725499999994
 20
491.11779799999999
 40
37.269466000000001
 50
146.14857699999999
 51
147.55443399999999
  0
LINE
  8
_0-0_0
  6
CONTINUOUS
 62
    7
 10
-106.00747349999995
 20
523.60000600000001
 11
-106.00747349999995
 21
521.23989899999992
  0
LINE
  8
_0-0_0
  6
CONTINUOUS
 62
    7
 10
-106.50747349999995
 20
523.10000600000001
 11
-106.50747349999995
 21
520.67208899999991
  0
ARC
  8
_0-0_0
  6
CONTINUOUS
 62
    7
 10
-92.676521500000035
 20
512.79998799999998
 40
2.6000000000000001
 50
8.8498839999999994
 51
90.000002999999992
  0
LINE
  8
_0-0_0
  6
CONTINUOUS
 62
    7
 10
-92.676521500000035
 20
515.39999399999999
 11
-102.13842750000003
 21
515.39999399999999
  0
ARC
  8
_0-0_0
  6
CONTINUOUS
 62
    7
 10
-102.13842750000003
 20
512.79998799999998
 40
2.6000000000000001
 50
90.000003000000007
 51
171.150115
  0
LINE
  8
_0-0_0
  6
CONTINUOUS
 62
    7
 10
-105.70747349999999
 20
512.19998199999998
 11
-104.70747349999999
 21
513.19998199999998
  0
LINE
  8
_0-0_0
  6
CONTINUOUS
 62
    7
 10
-90.107471499999974
 20
511.78576699999996
 11
-89.107471499999974
 21
512.19998199999998
  0
ARC
  8
_0-0_0
  6
CONTINUOUS
 62
    7
 10
-95.6500135
 20
523.98611499999993
 40
12.126564999999999
 50
292.155034
 51
297.19674500000002
  0
LINE
  8
_0-0_0
  6
CONTINUOUS
 62
    7
 10
-90.107475499999964
 20
485.39999399999999
 11
-89.107475499999964
 21
484.39999399999999
  0
LINE
  8
_0-0_0
  6
CONTINUOUS
 62
    7
 10
-104.70747349999999
 20
485.39999399999999
 11
-105.70747349999999
 21
484.39999399999999
  0
LINE
  8
_0-0_0
  6
CONTINUOUS
 62
    7
 10
-104.70747349999999
 20
511.78576699999996
 11
-105.70747349999999
 21
512.19998199999998
  0
ARC
  8
_0-0_0
  6
CONTINUOUS
 62
    7
 10
-99.164936499999953
 20
523.98611499999993
 40
12.126567
 50
242.80325699999997
 51
247.84494000000001
  0
CIRCLE
  8
_0-0_0
  6
CONTINUOUS
 62
    7
 10
-97.407474500000035
 20
492.59997599999997
 40
2.0670000000000002
  0
LINE
  8
_0-0_0
  6
CONTINUOUS
 62
    7
 10
-104.90747450000003
 20
516.09997599999997
 11
-106.00747349999995
 21
516.09997599999997
  0
LINE
  8
_0-0_0
  6
CONTINUOUS
 62
    7
 10
-88.807476500000007
 20
485.79998799999998
 11
-88.707477499999982
 21
485.79998799999998
  0
LINE
  8
_0-0_0
  6
CONTINUOUS
 62
    7
 10
-88.807476500000007
 20
485.79998799999998
 11
-88.707477499999982
 21
485.79998799999998
  0
LINE
  8
_0-0_0
  6
CONTINUOUS
 62
    7
 10
-106.50747349999995
 20
515.59997599999997
 11
-106.00747349999995
 21
516.09997599999997
  0
LINE
  8
_0-0_0
  6
CONTINUOUS
 62
    7
 10
-104.90747450000003
 20
523.60000600000001
 11
-106.00747349999995
 21
523.60000600000001
  0
LINE
  8
_0-0_0
  6
CONTINUOUS
 62
    7
 10
-106.50747349999995
 20
523.10000600000001
 11
-106.00747349999995
 21
523.60000600000001
  0
ENDSEC
  0
EOF
