  0
SECTION
  2
HEADER
  9
$ACADVER
  1
AC1009
  9
$INSBASE
 10
0
 20
0
 30
0
  9
$EXTMIN
 10
0
 20
0
  9
$EXTMAX
 10
841
 20
594
  9
$LIMMIN
 10
0
 20
0
  9
$LIMMAX
 10
841
 20
594
  9
$LTSCALE
 40
1
  0
ENDSEC
  0
SECTION
  2
TABLES
  0
TABLE
  2
LTYPE
 70
     9
  0
LTYPE
  2
CONTINUOUS
 70
    64
  3
実線
 72
    65
 73
     0
 40
0.0
  0
LTYPE
  2
DASHED1
 70
    64
  3
--  --  --  --  --  --  --  --  
 72
    65
 73
     2
 40
2.5
 49
1.25
 49
-1.25
  0
LTYPE
  2
DASHED2
 70
    64
  3
----    ----    ----    ----    
 72
    65
 73
     2
 40
5.0
 49
2.5
 49
-2.5
  0
LTYPE
  2
DASHED3
 70
    64
  3
------  ------  ------  ------  
 72
    65
 73
     2
 40
5.0
 49
3.75
 49
-1.25
  0
LTYPE
  2
CENTER1
 70
    64
  3
----- - ----- - ----- - ----- - 
 72
    65
 73
     4
 40
10.0
 49
6.25
 49
-1.25
 49
1.25
 49
-1.25
  0
LTYPE
  2
CENTER2
 70
    64
  3
----------  --  ----------  --  
 72
    65
 73
     4
 40
20.0
 49
12.5
 49
-2.5
 49
2.5
 49
-2.5
  0
LTYPE
  2
PHANTOM1
 70
    64
  3
--- - - --- - - --- - - --- - - 
 72
    65
 73
     6
 40
10.0
 49
3.25
 49
-1.25
 49
1.25
 49
-1.25
 49
1.25
 49
-1.25
  0
LTYPE
  2
PHANTOM2
 70
    64
  3
--------  -  -  --------  -  -  
 72
    65
 73
     6
 40
20.0
 49
10.0
 49
-2.5
 49
1.25
 49
-2.5
 49
1.25
 49
-2.5
  0
LTYPE
  2
DOT
 70
    64
  3
-   -   -   -   -   -   -   -   
 72
    65
 73
     2
 40
2.5
 49
0.625
 49
-1.875
  0
LTYPE
  2
DUMMY
 70
    64
  3
ダミー
 72
    65
 73
     0
 40
0.0
  0
LTYPE
  2
RAND1
 70
    64
  3
ランダム線1
 72
    65
 73
     4
 40
10.0
 49
1.0
 49
-2.0
 49
3.0
 49
-4.0
  0
LTYPE
  2
RAND2
 70
    64
  3
ランダム線2
 72
    65
 73
     4
 40
14.0
 49
2.0
 49
-3.0
 49
4.0
 49
-5.0
  0
LTYPE
  2
RAND3
 70
    64
  3
ランダム線3
 72
    65
 73
     4
 40
18.0
 49
3.0
 49
-4.0
 49
5.0
 49
-6.0
  0
LTYPE
  2
RAND4
 70
    64
  3
ランダム線4
 72
    65
 73
     4
 40
22.0
 49
4.0
 49
-5.0
 49
6.0
 49
-7.0
  0
LTYPE
  2
RAND5
 70
    64
  3
ランダム線5
 72
    65
 73
     4
 40
26.0
 49
5.0
 49
-6.0
 49
7.0
 49
-8.0
  0
LTYPE
  2
LONG1
 70
    64
  3
----------  --  ----------  --  
 72
    65
 73
     4
 40
40.0
 49
32.5
 49
-2.5
 49
2.5
 49
-2.5
  0
LTYPE
  2
LONG2
 70
    64
  3
--------  -  -  --------  -  -  
 72
    65
 73
     6
 40
40.0
 49
30.0
 49
-2.5
 49
1.25
 49
-2.5
 49
1.25
 49
-2.5
  0
LTYPE
  2
LONG3
 70
    64
  3
+++++++++++++++..+++++++++++++++
 72
    65
 73
     2
 40
40.0
 49
37.5
 49
-2.5
  0
LTYPE
  2
LONG4
 70
    64
  3
+++++++++++++++..+++++++++++++++
 72
    65
 73
     2
 40
80.0
 49
75.0
 49
-5.0
  0
LTYPE
  2
LONG5
 70
    64
  3
----------  --  ----------  --  
 72
    65
 73
     4
 40
60.0
 49
37.5
 49
-7.5
 49
7.5
 49
-7.5
  0
LTYPE
  2
dashed
 70
   64
  3
-------   -------------   ------
 72
   65
 73
    2
 40
7.5
 49
6
 49
-1.5
  0
LTYPE
  2
dashed_spaced
 70
   64
  3
----        --------        ----
 72
   65
 73
    2
 40
12
 49
6
 49
-6
  0
LTYPE
  2
long_dashed_dotted
 70
   64
  3
------------- --- --------------
 72
   65
 73
    4
 40
15.25
 49
12
 49
-1.5
 49
0.25
 49
-1.5
  0
LTYPE
  2
long_dashed_double-dotted
 70
   64
  3
----------- --- --- ------------
 72
   65
 73
    6
 40
17
 49
12
 49
-1.5
 49
0.25
 49
-1.5
 49
0.25
 49
-1.5
  0
LTYPE
  2
long_dashed_triplicate-dotted
 70
   64
  3
--------- --- --- --- ----------
 72
   65
 73
    8
 40
18.75
 49
12
 49
-1.5
 49
0.25
 49
-1.5
 49
0.25
 49
-1.5
 49
0.25
 49
-1.5
  0
LTYPE
  2
dotted
 70
   64
  3
   -       -       -       -    
 72
   65
 73
    2
 40
1.75
 49
0.25
 49
-1.5
  0
LTYPE
  2
chain
 70
   64
  3
-------------- -- --------------
 72
   65
 73
    4
 40
18.5
 49
12
 49
-1.5
 49
3.5
 49
-1.5
  0
LTYPE
  2
chain_double_dash
 70
   64
  3
------------ -- -- -------------
 72
   65
 73
    6
 40
23.5
 49
12
 49
-1.5
 49
3.5
 49
-1.5
 49
3.5
 49
-1.5
  0
LTYPE
  2
dashed_dotted
 70
   64
  3
-----------     -     ----------
 72
   65
 73
    4
 40
9.25
 49
6
 49
-1.5
 49
0.25
 49
-1.5
  0
LTYPE
  2
double-dashed_dotted
 70
   64
  3
------   -----------   -   -----
 72
   65
 73
    6
 40
16.75
 49
6
 49
-1.5
 49
6
 49
-1.5
 49
0.25
 49
-1.5
  0
LTYPE
  2
dashed_double-dotted
 70
   64
  3
---------    -    -    ---------
 72
   65
 73
    6
 40
11
 49
6
 49
-1.5
 49
0.25
 49
-1.5
 49
0.25
 49
-1.5
  0
LTYPE
  2
double-dashed_double-dotted
 70
   64
  3
-----   ---------   -   -   ----
 72
   65
 73
    8
 40
18.5
 49
6
 49
-1.5
 49
6
 49
-1.5
 49
0.25
 49
-1.5
 49
0.25
 49
-1.5
  0
LTYPE
  2
dashed_triplicate-dotted
 70
   64
  3
-------    -    -    -    ------
 72
   65
 73
    8
 40
12.75
 49
6
 49
-1.5
 49
0.25
 49
-1.5
 49
0.25
 49
-1.5
 49
0.25
 49
-1.5
  0
LTYPE
  2
double-dashed_triplicate-dotted
 70
   64
  3
-----  ---------  -  -  -  -----
 72
   65
 73
   10
 40
20.25
 49
6
 49
-1.5
 49
6
 49
-1.5
 49
0.25
 49
-1.5
 49
0.25
 49
-1.5
 49
0.25
 49
-1.5
  0
LTYPE
  2
undefined
 70
   64
  3
--------------------------------
 72
   65
 73
    0
 40
0
  0
ENDTAB
  0
TABLE
  2
STYLE
  5
3
100
AcDbSymbolTable
 70
     1
  0
STYLE
  5
10
100
AcDbSymbolTableRecord
100
AcDbTextStyleTableRecord
  2
STANDARD
 70
     0
 40
0.0
 41
1.0
 50
0.0
 71
     0
 42
0.2
  3
txt
  4
bigfont.shx
  0
STYLE
  5
26
100
AcDbSymbolTableRecord
100
AcDbTextStyleTableRecord
  2
TATEGAKI
 70
    68
 40
0.0
 41
1.0
 50
0.0
 71
     0
 42
1.0
  3
txt
  4
bigfont.shx
  0
ENDTAB
  0
TABLE
  2
LAYER
 70
    2
  0
LAYER
  2
_0-0_0
 70
   64
 62
    7
  6
CONTINUOUS
  0
LAYER
  2
ADD_LINE
 70
   64
 62
    7
  6
CONTINUOUS
  0
ENDTAB
  0
ENDSEC
  0
SECTION
  2
BLOCKS
  0
ENDSEC
  0
SECTION
  2
ENTITIES
  0
POINT
  8
_0-0_0
 62
    7
 10
106.50253249999997
 20
471.89999399999999
  0
LINE
  8
_0-0_0
  6
CONTINUOUS
 62
    7
 10
-0.4974675000000274
 20
512.90048200000001
 11
-0.4974675000000274
 21
512.89947499999994
  0
LINE
  8
_0-0_0
  6
CONTINUOUS
 62
    7
 10
26.002532499999973
 20
478.55499299999997
 11
26.002532499999973
 21
480.79998799999998
  0
LINE
  8
_0-0_0
  6
CONTINUOUS
 62
    7
 10
26.002532499999973
 20
480.79998799999998
 11
26.002532499999973
 21
482.79998799999998
  0
LINE
  8
_0-0_0
  6
CONTINUOUS
 62
    7
 10
26.002532499999973
 20
482.79998799999998
 11
26.002532499999973
 21
483.29998799999998
  0
LINE
  8
_0-0_0
  6
CONTINUOUS
 62
    7
 10
26.002532499999973
 20
483.29998799999998
 11
26.002532499999973
 21
484.29998799999998
  0
LINE
  8
_0-0_0
  6
CONTINUOUS
 62
    7
 10
26.002532499999973
 20
460.19998199999998
 11
26.002532499999973
 21
478.55499299999997
  0
LINE
  8
_0-0_0
  6
CONTINUOUS
 62
    7
 10
122.50253249999997
 20
482.29998799999998
 11
122.50253249999997
 21
482.79998799999998
  0
LINE
  8
_0-0_0
  6
CONTINUOUS
 62
    7
 10
122.50253249999997
 20
483.29998799999998
 11
122.50253249999997
 21
484.29998799999998
  0
LINE
  8
_0-0_0
  6
CONTINUOUS
 62
    7
 10
122.50253249999997
 20
482.79998799999998
 11
122.50253249999997
 21
483.29998799999998
  0
ARC
  8
_0-0_0
  6
CONTINUOUS
 62
    7
 10
108.50253249999997
 20
478.55499299999997
 40
0.5
 50
0
 51
123.74898500000002
  0
ARC
  8
_0-0_0
  6
CONTINUOUS
 62
    7
 10
107.00253249999997
 20
480.79998799999998
 40
2.2000000000000002
 50
180.00000900000003
 51
303.74900400000001
  0
LINE
  8
_0-0_0
  6
CONTINUOUS
 62
    7
 10
104.80255149999994
 20
480.79998799999998
 11
104.80255149999994
 21
482.29998799999998
  0
LINE
  8
_0-0_0
  6
CONTINUOUS
 62
    7
 10
30.202545499999928
 20
482.29998799999998
 11
104.80255149999994
 21
482.29998799999998
  0
LINE
  8
_0-0_0
  6
CONTINUOUS
 62
    7
 10
30.202545499999928
 20
482.29998799999998
 11
30.202545499999928
 21
480.79998799999998
  0
ARC
  8
_0-0_0
  6
CONTINUOUS
 62
    7
 10
28.002532499999973
 20
480.79998799999998
 40
2.2000000000000002
 50
236.25102899999999
 51
0
  0
ARC
  8
_0-0_0
  6
CONTINUOUS
 62
    7
 10
26.502532499999973
 20
478.55499299999997
 40
0.5
 50
56.251010000000008
 51
180.00000900000001
  0
ARC
  8
_0-0_0
  6
CONTINUOUS
 62
    7
 10
28.002532499999973
 20
460.19998199999998
 40
2
 50
180.00000900000003
 51
269.99999700000001
  0
LINE
  8
_0-0_0
  6
CONTINUOUS
 62
    7
 10
28.002532499999973
 20
458.19998199999998
 11
29.002532499999973
 21
458.19998199999998
  0
LINE
  8
_0-0_0
  6
CONTINUOUS
 62
    7
 10
29.002532499999973
 20
458.19998199999998
 11
29.002532499999973
 21
459.79998799999998
  0
ARC
  8
_0-0_0
  6
CONTINUOUS
 62
    7
 10
29.502532499999973
 20
459.79998799999998
 40
0.5
 50
90.000003000000007
 51
180.00000900000001
  0
LINE
  8
_0-0_0
  6
CONTINUOUS
 62
    7
 10
29.702545499999928
 20
460.29998799999998
 11
29.502532499999973
 21
460.29998799999998
  0
ARC
  8
_0-0_0
  6
CONTINUOUS
 62
    7
 10
29.702545499999928
 20
459.79998799999998
 40
0.5
 50
90.000003000000007
 51
180.00000900000001
  0
LINE
  8
_0-0_0
  6
CONTINUOUS
 62
    7
 10
29.202545499999928
 20
458.29998799999998
 11
29.202545499999928
 21
459.79998799999998
  0
LINE
  8
_0-0_0
  6
CONTINUOUS
 62
    7
 10
98.802551499999936
 20
458.29998799999998
 11
29.202545499999928
 21
458.29998799999998
  0
LINE
  8
_0-0_0
  6
CONTINUOUS
 62
    7
 10
98.802551499999936
 20
458.29998799999998
 11
98.802551499999936
 21
459.79998799999998
  0
ARC
  8
_0-0_0
  6
CONTINUOUS
 62
    7
 10
98.302551499999936
 20
459.79998799999998
 40
0.5
 50
0
 51
90.000003000000007
  0
LINE
  8
_0-0_0
  6
CONTINUOUS
 62
    7
 10
98.502532499999973
 20
460.29998799999998
 11
98.302551499999936
 21
460.29998799999998
  0
ARC
  8
_0-0_0
  6
CONTINUOUS
 62
    7
 10
98.502532499999973
 20
459.79998799999998
 40
0.5
 50
0
 51
90.000003000000007
  0
LINE
  8
_0-0_0
  6
CONTINUOUS
 62
    7
 10
99.002532499999973
 20
459.79998799999998
 11
99.002532499999973
 21
458.19998199999998
  0
LINE
  8
_0-0_0
  6
CONTINUOUS
 62
    7
 10
99.002532499999973
 20
458.19998199999998
 11
109.00253249999997
 21
458.19998199999998
  0
LINE
  8
_0-0_0
  6
CONTINUOUS
 62
    7
 10
109.00253249999997
 20
458.19998199999998
 11
109.00253249999997
 21
459.09997599999997
  0
LINE
  8
_0-0_0
  6
CONTINUOUS
 62
    7
 10
45.002532499999973
 20
461.704071
 11
86.402526499999965
 21
461.704071
  0
LINE
  8
_0-0_0
  6
CONTINUOUS
 62
    7
 10
45.002532499999973
 20
481.29998799999998
 11
86.402526499999965
 21
481.29998799999998
  0
ARC
  8
_0-0_0
  6
CONTINUOUS
 62
    7
 10
97.702545499999928
 20
460.49997000000002
 40
0.2
 50
180.00000900000003
 51
269.99999700000001
  0
LINE
  8
_0-0_0
  6
CONTINUOUS
 62
    7
 10
97.702545499999928
 20
460.29998799999998
 11
30.302535499999976
 21
460.29998799999998
  0
ARC
  8
_0-0_0
  6
CONTINUOUS
 62
    7
 10
30.302535499999976
 20
460.49997000000002
 40
0.2
 50
269.99999700000001
 51
0
  0
ARC
  8
_0-0_0
  6
CONTINUOUS
 62
    7
 10
30.702545499999928
 20
460.49997000000002
 40
0.2
 50
90.000003000000007
 51
180.00000900000001
  0
LINE
  8
_0-0_0
  6
CONTINUOUS
 62
    7
 10
30.702545499999928
 20
460.69998199999998
 11
97.302551499999936
 21
460.69998199999998
  0
ARC
  8
_0-0_0
  6
CONTINUOUS
 62
    7
 10
97.302551499999936
 20
460.49997000000002
 40
0.2
 50
0
 51
90.000003000000007
  0
LINE
  8
_0-0_0
  6
CONTINUOUS
 62
    7
 10
26.002532499999973
 20
483.29998799999998
 11
122.50253249999997
 21
483.29998799999998
  0
LINE
  8
_0-0_0
  6
CONTINUOUS
 62
    7
 10
122.00253249999997
 20
482.29998799999998
 11
122.50253249999997
 21
482.29998799999998
  0
LINE
  8
_0-0_0
  6
CONTINUOUS
 62
    7
 10
109.00253249999997
 20
460.29998799999998
 11
109.00253249999997
 21
459.09997599999997
  0
LINE
  8
_0-0_0
  6
CONTINUOUS
 62
    7
 10
109.00253249999997
 20
460.29998799999998
 11
109.00253249999997
 21
477.89999399999999
  0
LINE
  8
_0-0_0
  6
CONTINUOUS
 62
    7
 10
109.00253249999997
 20
479.87734999999998
 11
109.00253249999997
 21
477.89999399999999
  0
LINE
  8
_0-0_0
  6
CONTINUOUS
 62
    7
 10
28.002532499999973
 20
466.78967299999999
 11
28.002532499999973
 21
477.23767099999998
  0
ARC
  8
_0-0_0
  6
CONTINUOUS
 62
    7
 10
28.002532499999973
 20
480.79998799999998
 40
2.7000000000000002
 50
285.68033600000007
 51
352.23356600000005
  0
LINE
  8
_0-0_0
  6
CONTINUOUS
 62
    7
 10
105.00253249999997
 20
478.29998799999998
 11
105.00253249999997
 21
464.69998199999998
  0
LINE
  8
_0-0_0
  6
CONTINUOUS
 62
    7
 10
30.002532499999973
 20
482.29998799999998
 11
30.202545499999928
 21
482.29998799999998
  0
LINE
  8
_0-0_0
  6
CONTINUOUS
 62
    7
 10
30.002532499999973
 20
482.29998799999998
 11
30.002532499999973
 21
480.79998799999998
  0
ARC
  8
_0-0_0
  6
CONTINUOUS
 62
    7
 10
28.002532499999973
 20
480.79998799999998
 40
2
 50
180.00000900000003
 51
0.0000000000000254
  0
LINE
  8
_0-0_0
  6
CONTINUOUS
 62
    7
 10
122.00253249999997
 20
482.29998799999998
 11
122.00253249999997
 21
480.59997599999997
  0
LINE
  8
_0-0_0
  6
CONTINUOUS
 62
    7
 10
109.00253249999997
 20
458.29998799999998
 11
121.00253249999997
 21
458.29998799999998
  0
LINE
  8
_0-0_0
  6
CONTINUOUS
 62
    7
 10
121.00253249999997
 20
458.29998799999998
 11
125.67797849999999
 21
458.29998799999998
  0
LINE
  8
_0-0_0
  6
CONTINUOUS
 62
    7
 10
121.00253249999997
 20
463.79998799999998
 11
121.00253249999997
 21
460.79998799999998
  0
LINE
  8
_0-0_0
  6
CONTINUOUS
 62
    7
 10
121.00253249999997
 20
460.79998799999998
 11
121.00253249999997
 21
460.29998799999998
  0
LINE
  8
_0-0_0
  6
CONTINUOUS
 62
    7
 10
121.00253249999997
 20
463.79998799999998
 11
121.00253249999997
 21
464.29998799999998
  0
ARC
  8
_0-0_0
  6
CONTINUOUS
 62
    7
 10
115.00253249999997
 20
463.60000600000001
 40
0.500016
 50
180.00117
 51
359.995611
  0
LINE
  8
_0-0_0
  6
CONTINUOUS
 62
    7
 10
115.50253249999997
 20
463.59997599999997
 11
115.50253249999997
 21
475.59997599999997
  0
ARC
  8
_0-0_0
  6
CONTINUOUS
 62
    7
 10
115.00253249999997
 20
475.59997599999997
 40
0.500016
 50
0.001164
 51
179.99560600000004
  0
LINE
  8
_0-0_0
  6
CONTINUOUS
 62
    7
 10
114.50253249999997
 20
463.59997599999997
 11
114.50253249999997
 21
475.59997599999997
  0
ARC
  8
_0-0_0
  6
CONTINUOUS
 62
    7
 10
116.50253249999997
 20
463.60000600000001
 40
0.500016
 50
180.00117
 51
359.995611
  0
LINE
  8
_0-0_0
  6
CONTINUOUS
 62
    7
 10
117.00253249999997
 20
463.59997599999997
 11
117.00253249999997
 21
475.59997599999997
  0
ARC
  8
_0-0_0
  6
CONTINUOUS
 62
    7
 10
116.50253249999997
 20
475.59997599999997
 40
0.500016
 50
0.001164
 51
179.99560600000004
  0
LINE
  8
_0-0_0
  6
CONTINUOUS
 62
    7
 10
116.00253249999997
 20
463.59997599999997
 11
116.00253249999997
 21
475.59997599999997
  0
ARC
  8
_0-0_0
  6
CONTINUOUS
 62
    7
 10
118.00253249999997
 20
463.60000600000001
 40
0.500016
 50
180.00117
 51
359.995611
  0
LINE
  8
_0-0_0
  6
CONTINUOUS
 62
    7
 10
118.50253249999997
 20
463.59997599999997
 11
118.50253249999997
 21
475.59997599999997
  0
ARC
  8
_0-0_0
  6
CONTINUOUS
 62
    7
 10
118.00253249999997
 20
475.59997599999997
 40
0.500016
 50
0.001164
 51
179.99560600000004
  0
LINE
  8
_0-0_0
  6
CONTINUOUS
 62
    7
 10
117.50253249999997
 20
463.59997599999997
 11
117.50253249999997
 21
475.59997599999997
  0
ARC
  8
_0-0_0
  6
CONTINUOUS
 62
    7
 10
119.50253249999997
 20
463.60000600000001
 40
0.500016
 50
180.00117
 51
359.995611
  0
LINE
  8
_0-0_0
  6
CONTINUOUS
 62
    7
 10
120.00253249999997
 20
463.59997599999997
 11
120.00253249999997
 21
475.59997599999997
  0
ARC
  8
_0-0_0
  6
CONTINUOUS
 62
    7
 10
119.50253249999997
 20
475.59997599999997
 40
0.500016
 50
0.001164
 51
179.99560600000004
  0
LINE
  8
_0-0_0
  6
CONTINUOUS
 62
    7
 10
119.00253249999997
 20
463.59997599999997
 11
119.00253249999997
 21
475.59997599999997
  0
LINE
  8
_0-0_0
  6
CONTINUOUS
 62
    7
 10
109.00253249999997
 20
480.59997599999997
 11
109.00253249999997
 21
479.87734999999998
  0
LINE
  8
_0-0_0
  6
CONTINUOUS
 62
    7
 10
122.00253249999997
 20
480.59997599999997
 11
109.00253249999997
 21
480.59997599999997
  0
LINE
  8
_0-0_0
  6
CONTINUOUS
 62
    7
 10
109.00253249999997
 20
482.29998799999998
 11
122.00253249999997
 21
482.29998799999998
  0
LINE
  8
_0-0_0
  6
CONTINUOUS
 62
    7
 10
109.00253249999997
 20
482.29998799999998
 11
109.00253249999997
 21
480.59997599999997
  0
LINE
  8
_0-0_0
  6
CONTINUOUS
 62
    7
 10
98.452545499999928
 20
460.27694700000001
 11
98.452545499999928
 21
460.29998799999998
  0
ARC
  8
_0-0_0
  6
CONTINUOUS
 62
    7
 10
125.67797849999999
 20
460.29998799999998
 40
2
 50
269.99999700000001
 51
288.43501300000003
  0
LINE
  8
_0-0_0
  6
CONTINUOUS
 62
    7
 10
104.80255149999994
 20
482.29998799999998
 11
105.00253249999997
 21
482.29998799999998
  0
ARC
  8
_0-0_0
  6
CONTINUOUS
 62
    7
 10
107.00253249999997
 20
480.79998799999998
 40
2
 50
180.00000900000003
 51
0.0000000000000254
  0
LINE
  8
_0-0_0
  6
CONTINUOUS
 62
    7
 10
105.00253249999997
 20
480.79998799999998
 11
105.00253249999997
 21
482.29998799999998
  0
LINE
  8
_0-0_0
  6
CONTINUOUS
 62
    7
 10
126.75253249999997
 20
458.54998799999998
 11
126.31042449999995
 21
458.40261900000002
  0
ARC
  8
_0-0_0
  6
CONTINUOUS
 62
    7
 10
96.002532499999973
 20
473.89999399999999
 40
2.25
 50
269.99999700000001
 51
90.000002999999992
  0
LINE
  8
_0-0_0
  6
CONTINUOUS
 62
    7
 10
92.002532499999973
 20
471.64999399999999
 11
96.002532499999973
 21
471.64999399999999
  0
ARC
  8
_0-0_0
  6
CONTINUOUS
 62
    7
 10
92.002532499999973
 20
473.89999399999999
 40
2.25
 50
90.000003000000007
 51
269.99999700000006
  0
ARC
  8
_0-0_0
  6
CONTINUOUS
 62
    7
 10
40.002532499999973
 20
473.89999399999999
 40
2.25
 50
269.99999700000001
 51
90.000002999999992
  0
LINE
  8
_0-0_0
  6
CONTINUOUS
 62
    7
 10
36.002532499999973
 20
471.64999399999999
 11
40.002532499999973
 21
471.64999399999999
  0
ARC
  8
_0-0_0
  6
CONTINUOUS
 62
    7
 10
36.002532499999973
 20
473.89999399999999
 40
2.25
 50
90.000003000000007
 51
269.99999700000006
  0
LINE
  8
_0-0_0
  6
CONTINUOUS
 62
    7
 10
92.002532499999973
 20
476.14999399999999
 11
96.002532499999973
 21
476.14999399999999
  0
LINE
  8
_0-0_0
  6
CONTINUOUS
 62
    7
 10
36.002532499999973
 20
476.14999399999999
 11
40.002532499999973
 21
476.14999399999999
  0
LINE
  8
_0-0_0
  6
CONTINUOUS
 62
    7
 10
98.243133499999999
 20
469.89999399999999
 11
89.761932499999944
 21
469.89999399999999
  0
LINE
  8
_0-0_0
  6
CONTINUOUS
 62
    7
 10
98.243133499999999
 20
469.89999399999999
 11
100.55255149999994
 21
473.89999399999999
  0
LINE
  8
_0-0_0
  6
CONTINUOUS
 62
    7
 10
100.55255149999994
 20
473.89999399999999
 11
98.243133499999999
 21
477.89999399999999
  0
LINE
  8
_0-0_0
  6
CONTINUOUS
 62
    7
 10
89.761932499999944
 20
477.89999399999999
 11
98.243133499999999
 21
477.89999399999999
  0
LINE
  8
_0-0_0
  6
CONTINUOUS
 62
    7
 10
87.452529499999969
 20
473.89999399999999
 11
89.761932499999944
 21
477.89999399999999
  0
LINE
  8
_0-0_0
  6
CONTINUOUS
 62
    7
 10
89.761932499999944
 20
469.89999399999999
 11
87.452529499999969
 21
473.89999399999999
  0
LINE
  8
_0-0_0
  6
CONTINUOUS
 62
    7
 10
42.243133499999999
 20
469.89999399999999
 11
33.761932499999944
 21
469.89999399999999
  0
LINE
  8
_0-0_0
  6
CONTINUOUS
 62
    7
 10
44.552535499999976
 20
473.89999399999999
 11
42.243133499999999
 21
469.89999399999999
  0
LINE
  8
_0-0_0
  6
CONTINUOUS
 62
    7
 10
44.552535499999976
 20
473.89999399999999
 11
42.243133499999999
 21
477.89999399999999
  0
LINE
  8
_0-0_0
  6
CONTINUOUS
 62
    7
 10
33.761932499999944
 20
477.89999399999999
 11
42.243133499999999
 21
477.89999399999999
  0
LINE
  8
_0-0_0
  6
CONTINUOUS
 62
    7
 10
31.452545499999928
 20
473.89999399999999
 11
33.761932499999944
 21
477.89999399999999
  0
LINE
  8
_0-0_0
  6
CONTINUOUS
 62
    7
 10
31.452545499999928
 20
473.89999399999999
 11
33.761932499999944
 21
469.89999399999999
  0
CIRCLE
  8
_0-0_0
  6
CONTINUOUS
 62
    7
 10
107.00253249999997
 20
480.79998799999998
 40
1.4750000000000001
  0
CIRCLE
  8
_0-0_0
  6
CONTINUOUS
 62
    7
 10
28.002532499999973
 20
480.79998799999998
 40
1.4750000000000001
  0
LINE
  8
_0-0_0
  6
CONTINUOUS
 62
    7
 10
107.45254549999993
 20
480.59997599999997
 11
108.10253849999998
 21
480.59997599999997
  0
ARC
  8
_0-0_0
  6
CONTINUOUS
 62
    7
 10
107.45254549999993
 20
480.34997599999997
 40
0.25
 50
90.000003000000007
 51
180.00000900000001
  0
LINE
  8
_0-0_0
  6
CONTINUOUS
 62
    7
 10
107.20254549999993
 20
480.34997599999997
 11
107.20254549999993
 21
479.69998199999998
  0
LINE
  8
_0-0_0
  6
CONTINUOUS
 62
    7
 10
106.80255149999994
 20
479.69998199999998
 11
107.20254549999993
 21
479.69998199999998
  0
LINE
  8
_0-0_0
  6
CONTINUOUS
 62
    7
 10
106.80255149999994
 20
479.69998199999998
 11
106.80255149999994
 21
480.34997599999997
  0
ARC
  8
_0-0_0
  6
CONTINUOUS
 62
    7
 10
106.55255149999994
 20
480.34997599999997
 40
0.25
 50
0
 51
90.000003000000007
  0
LINE
  8
_0-0_0
  6
CONTINUOUS
 62
    7
 10
105.90252649999996
 20
480.59997599999997
 11
106.55255149999994
 21
480.59997599999997
  0
LINE
  8
_0-0_0
  6
CONTINUOUS
 62
    7
 10
105.90252649999996
 20
480.59997599999997
 11
105.90252649999996
 21
481
  0
LINE
  8
_0-0_0
  6
CONTINUOUS
 62
    7
 10
106.55255149999994
 20
481
 11
105.90252649999996
 21
481
  0
ARC
  8
_0-0_0
  6
CONTINUOUS
 62
    7
 10
106.55255149999994
 20
481.25
 40
0.25
 50
269.99999700000001
 51
0
  0
LINE
  8
_0-0_0
  6
CONTINUOUS
 62
    7
 10
106.80255149999994
 20
481.25
 11
106.80255149999994
 21
481.89999399999999
  0
LINE
  8
_0-0_0
  6
CONTINUOUS
 62
    7
 10
107.20254549999993
 20
481.89999399999999
 11
106.80255149999994
 21
481.89999399999999
  0
LINE
  8
_0-0_0
  6
CONTINUOUS
 62
    7
 10
107.20254549999993
 20
481.89999399999999
 11
107.20254549999993
 21
481.25
  0
ARC
  8
_0-0_0
  6
CONTINUOUS
 62
    7
 10
107.45254549999993
 20
481.25
 40
0.25
 50
180.00000900000003
 51
269.99999700000001
  0
LINE
  8
_0-0_0
  6
CONTINUOUS
 62
    7
 10
108.10253849999998
 20
481
 11
107.45254549999993
 21
481
  0
LINE
  8
_0-0_0
  6
CONTINUOUS
 62
    7
 10
108.10253849999998
 20
481
 11
108.10253849999998
 21
480.59997599999997
  0
LINE
  8
_0-0_0
  6
CONTINUOUS
 62
    7
 10
28.452545499999928
 20
480.59997599999997
 11
29.10253849999998
 21
480.59997599999997
  0
ARC
  8
_0-0_0
  6
CONTINUOUS
 62
    7
 10
28.452545499999928
 20
480.34997599999997
 40
0.25
 50
90.000003000000007
 51
180.00000900000001
  0
LINE
  8
_0-0_0
  6
CONTINUOUS
 62
    7
 10
28.202545499999928
 20
480.34997599999997
 11
28.202545499999928
 21
479.69998199999998
  0
LINE
  8
_0-0_0
  6
CONTINUOUS
 62
    7
 10
27.802535499999976
 20
479.69998199999998
 11
28.202545499999928
 21
479.69998199999998
  0
LINE
  8
_0-0_0
  6
CONTINUOUS
 62
    7
 10
27.802535499999976
 20
479.69998199999998
 11
27.802535499999976
 21
480.34997599999997
  0
ARC
  8
_0-0_0
  6
CONTINUOUS
 62
    7
 10
27.552535499999976
 20
480.34997599999997
 40
0.25
 50
0
 51
90.000003000000007
  0
LINE
  8
_0-0_0
  6
CONTINUOUS
 62
    7
 10
26.902526499999965
 20
480.59997599999997
 11
27.552535499999976
 21
480.59997599999997
  0
LINE
  8
_0-0_0
  6
CONTINUOUS
 62
    7
 10
26.902526499999965
 20
480.59997599999997
 11
26.902526499999965
 21
481
  0
LINE
  8
_0-0_0
  6
CONTINUOUS
 62
    7
 10
27.552535499999976
 20
481
 11
26.902526499999965
 21
481
  0
ARC
  8
_0-0_0
  6
CONTINUOUS
 62
    7
 10
27.552535499999976
 20
481.25
 40
0.25
 50
269.99999700000001
 51
0
  0
LINE
  8
_0-0_0
  6
CONTINUOUS
 62
    7
 10
27.802535499999976
 20
481.25
 11
27.802535499999976
 21
481.89999399999999
  0
LINE
  8
_0-0_0
  6
CONTINUOUS
 62
    7
 10
28.202545499999928
 20
481.89999399999999
 11
27.802535499999976
 21
481.89999399999999
  0
LINE
  8
_0-0_0
  6
CONTINUOUS
 62
    7
 10
28.202545499999928
 20
481.89999399999999
 11
28.202545499999928
 21
481.25
  0
ARC
  8
_0-0_0
  6
CONTINUOUS
 62
    7
 10
28.452545499999928
 20
481.25
 40
0.25
 50
180.00000900000003
 51
269.99999700000001
  0
LINE
  8
_0-0_0
  6
CONTINUOUS
 62
    7
 10
29.10253849999998
 20
481
 11
28.452545499999928
 21
481
  0
LINE
  8
_0-0_0
  6
CONTINUOUS
 62
    7
 10
29.10253849999998
 20
481
 11
29.10253849999998
 21
480.59997599999997
  0
LINE
  8
_0-0_0
  6
CONTINUOUS
 62
    7
 10
29.552535499999976
 20
460.27694700000001
 11
29.552535499999976
 21
460.29998799999998
  0
LINE
  8
_0-0_0
  6
CONTINUOUS
 62
    7
 10
48.002532499999973
 20
478.29998799999998
 11
48.002532499999973
 21
465.34298699999999
  0
ARC
  8
_0-0_0
  6
CONTINUOUS
 62
    7
 10
45.002532499999973
 20
478.29998799999998
 40
3
 50
0
 51
90.000003000000007
  0
LINE
  8
_0-0_0
  6
CONTINUOUS
 62
    7
 10
84.002532499999973
 20
464.69998199999998
 11
84.002532499999973
 21
478.29998799999998
  0
LINE
  8
_0-0_0
  6
CONTINUOUS
 62
    7
 10
67.490020499999957
 20
474.46963499999998
 11
66.190017499999954
 21
477.96963499999998
  0
ARC
  8
_0-0_0
  6
CONTINUOUS
 62
    7
 10
64.702545499999928
 20
474.39999399999999
 40
0.2
 50
159.62357
 51
269.99999700000001
  0
LINE
  8
_0-0_0
  6
CONTINUOUS
 62
    7
 10
109.00253249999997
 20
479.89999399999999
 11
125.67797849999999
 21
479.89999399999999
  0
ARC
  8
_0-0_0
  6
CONTINUOUS
 62
    7
 10
125.67797849999999
 20
477.89999399999999
 40
2
 50
71.565000999999995
 51
90.000003000000007
  0
LINE
  8
_0-0_0
  6
CONTINUOUS
 62
    7
 10
126.31045549999999
 20
479.79736300000002
 11
126.19094849999999
 21
479.83297699999997
  0
LINE
  8
_0-0_0
  6
CONTINUOUS
 62
    7
 10
126.19094849999999
 20
479.83297699999997
 11
126.06939649999998
 21
479.86084
  0
LINE
  8
_0-0_0
  6
CONTINUOUS
 62
    7
 10
126.06939649999998
 20
479.86084
 11
125.9462585
 21
479.88088999999997
  0
LINE
  8
_0-0_0
  6
CONTINUOUS
 62
    7
 10
125.9462585
 20
479.88088999999997
 11
125.82205149999993
 21
479.89300500000002
  0
LINE
  8
_0-0_0
  6
CONTINUOUS
 62
    7
 10
125.82205149999993
 20
479.89300500000002
 11
125.6972045
 21
479.89712500000002
  0
LINE
  8
_0-0_0
  6
CONTINUOUS
 62
    7
 10
125.6972045
 20
479.89712500000002
 11
125.67797849999999
 21
479.897064
  0
LINE
  8
_0-0_0
  6
CONTINUOUS
 62
    7
 10
130.63497949999999
 20
478.35583500000001
 11
126.31042449999995
 21
479.79736300000002
  0
LINE
  8
_0-0_0
  6
CONTINUOUS
 62
    7
 10
130.47686749999997
 20
463.79998799999998
 11
131.17022649999996
 21
463.79998799999998
  0
LINE
  8
_0-0_0
  6
CONTINUOUS
 62
    7
 10
130.47686749999997
 20
463.79998799999998
 11
126.15231349999999
 21
463.79998799999998
  0
LINE
  8
_0-0_0
  6
CONTINUOUS
 62
    7
 10
125.67797849999999
 20
463.79998799999998
 11
126.15231349999999
 21
463.79998799999998
  0
LINE
  8
_0-0_0
  6
CONTINUOUS
 62
    7
 10
121.00253249999997
 20
463.79998799999998
 11
125.67797849999999
 21
463.79998799999998
  0
LINE
  8
_0-0_0
  6
CONTINUOUS
 62
    7
 10
132.00253249999997
 20
463.04995700000001
 11
132.00253249999997
 21
464.17095999999998
  0
LINE
  8
_0-0_0
  6
CONTINUOUS
 62
    7
 10
132.00253249999997
 20
465.092285
 11
132.00253249999997
 21
464.17095999999998
  0
LINE
  8
_0-0_0
  6
CONTINUOUS
 62
    7
 10
143.00253249999997
 20
463.84997599999997
 11
143.00253249999997
 21
471.83154300000001
  0
ARC
  8
_0-0_0
  6
CONTINUOUS
 62
    7
 10
136.82864349999994
 20
472.35086100000001
 40
4.9238749999999998
 50
352.49423299999995
 51
1.5359699999999901
  0
LINE
  8
_0-0_0
  6
CONTINUOUS
 62
    7
 10
141.71035749999999
 20
466.492279
 11
141.80468749999994
 21
466.738922
  0
LINE
  8
_0-0_0
  6
CONTINUOUS
 62
    7
 10
141.80468749999994
 20
466.738922
 11
141.88864149999995
 21
466.978882
  0
LINE
  8
_0-0_0
  6
CONTINUOUS
 62
    7
 10
141.88864149999995
 20
466.978882
 11
141.96279849999996
 21
467.21301299999999
  0
LINE
  8
_0-0_0
  6
CONTINUOUS
 62
    7
 10
141.96279849999996
 20
467.21301299999999
 11
142.02767949999998
 21
467.442047
  0
LINE
  8
_0-0_0
  6
CONTINUOUS
 62
    7
 10
142.02767949999998
 20
467.442047
 11
142.08374049999998
 21
467.666718
  0
LINE
  8
_0-0_0
  6
CONTINUOUS
 62
    7
 10
142.08374049999998
 20
467.666718
 11
142.13128649999999
 21
467.88769500000001
  0
LINE
  8
_0-0_0
  6
CONTINUOUS
 62
    7
 10
142.13128649999999
 20
467.88769500000001
 11
142.17068449999999
 21
468.10562099999999
  0
LINE
  8
_0-0_0
  6
CONTINUOUS
 62
    7
 10
142.17068449999999
 20
468.10562099999999
 11
142.20217849999995
 21
468.32104499999997
  0
LINE
  8
_0-0_0
  6
CONTINUOUS
 62
    7
 10
142.20217849999995
 20
468.32104499999997
 11
142.22595249999995
 21
468.53457700000001
  0
LINE
  8
_0-0_0
  6
CONTINUOUS
 62
    7
 10
142.22595249999995
 20
468.53457700000001
 11
142.24188249999997
 21
468.74230999999997
  0
LINE
  8
_0-0_0
  6
CONTINUOUS
 62
    7
 10
142.24188249999997
 20
468.74230999999997
 11
142.25064049999997
 21
468.94915800000001
  0
LINE
  8
_0-0_0
  6
CONTINUOUS
 62
    7
 10
142.25064049999997
 20
468.94915800000001
 11
142.25228849999996
 21
469.15560899999997
  0
LINE
  8
_0-0_0
  6
CONTINUOUS
 62
    7
 10
142.25228849999996
 20
469.15560899999997
 11
142.24682649999994
 21
469.362213
  0
LINE
  8
_0-0_0
  6
CONTINUOUS
 62
    7
 10
142.24682649999994
 20
469.362213
 11
142.23419149999995
 21
469.56939699999998
  0
LINE
  8
_0-0_0
  6
CONTINUOUS
 62
    7
 10
142.23419149999995
 20
469.56939699999998
 11
142.21438549999999
 21
469.77767999999998
  0
LINE
  8
_0-0_0
  6
CONTINUOUS
 62
    7
 10
142.21438549999999
 20
469.77767999999998
 11
142.18725549999999
 21
469.98761000000002
  0
LINE
  8
_0-0_0
  6
CONTINUOUS
 62
    7
 10
142.18725549999999
 20
469.98761000000002
 11
142.15258749999998
 21
470.19967700000001
  0
LINE
  8
_0-0_0
  6
CONTINUOUS
 62
    7
 10
142.15258749999998
 20
470.19967700000001
 11
142.11025949999998
 21
470.41442899999998
  0
LINE
  8
_0-0_0
  6
CONTINUOUS
 62
    7
 10
142.11025949999998
 20
470.41442899999998
 11
142.05993649999999
 21
470.63241599999998
  0
LINE
  8
_0-0_0
  6
CONTINUOUS
 62
    7
 10
142.05993649999999
 20
470.63241599999998
 11
142.00567649999999
 21
470.83871499999998
  0
LINE
  8
_0-0_0
  6
CONTINUOUS
 62
    7
 10
142.00567649999999
 20
470.83871499999998
 11
141.94396949999998
 21
471.04882800000001
  0
LINE
  8
_0-0_0
  6
CONTINUOUS
 62
    7
 10
141.94396949999998
 20
471.04882800000001
 11
141.87445049999997
 21
471.26327499999996
  0
LINE
  8
_0-0_0
  6
CONTINUOUS
 62
    7
 10
141.87445049999997
 20
471.26327499999996
 11
141.79675249999997
 21
471.48269699999997
  0
LINE
  8
_0-0_0
  6
CONTINUOUS
 62
    7
 10
141.79675249999997
 20
471.48269699999997
 11
141.71035749999999
 21
471.707672
  0
ARC
  8
_0-0_0
  6
CONTINUOUS
 62
    7
 10
136.83880649999998
 20
465.84997599999997
 40
4.9136889999999998
 50
352.48898799999995
 51
7.5110139999999577
  0
LINE
  8
_0-0_0
  6
CONTINUOUS
 62
    7
 10
141.71035749999999
 20
465.207672
 11
141.76486149999999
 21
465.13775599999997
  0
LINE
  8
_0-0_0
  6
CONTINUOUS
 62
    7
 10
141.76486149999999
 20
465.13775599999997
 11
141.81594849999999
 21
465.06890900000002
  0
LINE
  8
_0-0_0
  6
CONTINUOUS
 62
    7
 10
141.81594849999999
 20
465.06890900000002
 11
141.86358649999994
 21
465.00140399999998
  0
LINE
  8
_0-0_0
  6
CONTINUOUS
 62
    7
 10
141.86358649999994
 20
465.00140399999998
 11
141.90808049999998
 21
464.93487599999997
  0
LINE
  8
_0-0_0
  6
CONTINUOUS
 62
    7
 10
141.90808049999998
 20
464.93487599999997
 11
141.96279849999996
 21
464.84732099999997
  0
LINE
  8
_0-0_0
  6
CONTINUOUS
 62
    7
 10
141.96279849999996
 20
464.84732099999997
 11
142.01232949999996
 21
464.76123100000001
  0
LINE
  8
_0-0_0
  6
CONTINUOUS
 62
    7
 10
142.01232949999996
 20
464.76123100000001
 11
142.05679349999997
 21
464.67639199999996
  0
LINE
  8
_0-0_0
  6
CONTINUOUS
 62
    7
 10
142.05679349999997
 20
464.67639199999996
 11
142.10375949999997
 21
464.57607999999999
  0
LINE
  8
_0-0_0
  6
CONTINUOUS
 62
    7
 10
142.10375949999997
 20
464.57607999999999
 11
142.14395149999996
 21
464.47714200000001
  0
LINE
  8
_0-0_0
  6
CONTINUOUS
 62
    7
 10
142.14395149999996
 20
464.47714200000001
 11
142.17761249999995
 21
464.37939499999999
  0
LINE
  8
_0-0_0
  6
CONTINUOUS
 62
    7
 10
142.17761249999995
 20
464.37939499999999
 11
142.20492549999994
 21
464.28259300000002
  0
LINE
  8
_0-0_0
  6
CONTINUOUS
 62
    7
 10
142.20492549999994
 20
464.28259300000002
 11
142.22595249999995
 21
464.18652400000002
  0
LINE
  8
_0-0_0
  6
CONTINUOUS
 62
    7
 10
142.22595249999995
 20
464.18652400000002
 11
142.24188249999997
 21
464.082672
  0
LINE
  8
_0-0_0
  6
CONTINUOUS
 62
    7
 10
142.24188249999997
 20
464.082672
 11
142.25064049999997
 21
463.97924799999998
  0
LINE
  8
_0-0_0
  6
CONTINUOUS
 62
    7
 10
142.25064049999997
 20
463.97924799999998
 11
142.25228849999996
 21
463.87600700000002
  0
LINE
  8
_0-0_0
  6
CONTINUOUS
 62
    7
 10
142.25228849999996
 20
463.87600700000002
 11
142.24682649999994
 21
463.77273600000001
  0
LINE
  8
_0-0_0
  6
CONTINUOUS
 62
    7
 10
142.24682649999994
 20
463.77273600000001
 11
142.23419149999995
 21
463.669129
  0
LINE
  8
_0-0_0
  6
CONTINUOUS
 62
    7
 10
142.23419149999995
 20
463.669129
 11
142.21438549999999
 21
463.56497200000001
  0
LINE
  8
_0-0_0
  6
CONTINUOUS
 62
    7
 10
142.21438549999999
 20
463.56497200000001
 11
142.18725549999999
 21
463.46002199999998
  0
LINE
  8
_0-0_0
  6
CONTINUOUS
 62
    7
 10
142.18725549999999
 20
463.46002199999998
 11
142.15258749999998
 21
463.35400399999997
  0
LINE
  8
_0-0_0
  6
CONTINUOUS
 62
    7
 10
142.15258749999998
 20
463.35400399999997
 11
142.11025949999998
 21
463.24661299999997
  0
LINE
  8
_0-0_0
  6
CONTINUOUS
 62
    7
 10
142.11025949999998
 20
463.24661299999997
 11
142.05993649999999
 21
463.13760400000001
  0
LINE
  8
_0-0_0
  6
CONTINUOUS
 62
    7
 10
142.05993649999999
 20
463.13760400000001
 11
142.01425149999994
 21
463.04995700000001
  0
LINE
  8
_0-0_0
  6
CONTINUOUS
 62
    7
 10
132.00253249999997
 20
472.992279
 11
141.71035749999999
 21
472.992279
  0
LINE
  8
_0-0_0
  6
CONTINUOUS
 62
    7
 10
132.00253249999997
 20
471.707672
 11
132.00253249999997
 21
472.992279
  0
LINE
  8
_0-0_0
  6
CONTINUOUS
 62
    7
 10
132.00253249999997
 20
471.707672
 11
141.71035749999999
 21
471.707672
  0
ARC
  8
_0-0_0
  6
CONTINUOUS
 62
    7
 10
136.79061849999999
 20
472.34591699999999
 40
4.9620009999999999
 50
1.5813010000000001
 51
7.4847919999999997
  0
LINE
  8
_0-0_0
  6
CONTINUOUS
 62
    7
 10
131.70254549999999
 20
466.88797
 11
131.61907949999994
 21
467.26663200000002
  0
LINE
  8
_0-0_0
  6
CONTINUOUS
 62
    7
 10
131.61907949999994
 20
467.26663200000002
 11
131.57897949999995
 21
467.45816100000002
  0
LINE
  8
_0-0_0
  6
CONTINUOUS
 62
    7
 10
131.57897949999995
 20
467.45816100000002
 11
131.52288849999997
 21
467.7482
  0
LINE
  8
_0-0_0
  6
CONTINUOUS
 62
    7
 10
131.52288849999997
 20
467.7482
 11
131.48529049999996
 21
467.96777400000002
  0
LINE
  8
_0-0_0
  6
CONTINUOUS
 62
    7
 10
131.48529049999996
 20
467.96777400000002
 11
131.45266749999996
 21
468.18902600000001
  0
LINE
  8
_0-0_0
  6
CONTINUOUS
 62
    7
 10
131.45266749999996
 20
468.18902600000001
 11
131.42550649999998
 21
468.41583300000002
  0
LINE
  8
_0-0_0
  6
CONTINUOUS
 62
    7
 10
131.42550649999998
 20
468.41583300000002
 11
131.40542549999998
 21
468.64321899999999
  0
LINE
  8
_0-0_0
  6
CONTINUOUS
 62
    7
 10
131.40542549999998
 20
468.64321899999999
 11
131.39828449999999
 21
468.756958
  0
LINE
  8
_0-0_0
  6
CONTINUOUS
 62
    7
 10
131.39828449999999
 20
468.756958
 11
131.39312749999999
 21
468.87063599999999
  0
LINE
  8
_0-0_0
  6
CONTINUOUS
 62
    7
 10
131.39312749999999
 20
468.87063599999999
 11
131.38940449999996
 21
469.022064
  0
LINE
  8
_0-0_0
  6
CONTINUOUS
 62
    7
 10
131.38940449999996
 20
469.022064
 11
131.3893435
 21
469.17334
  0
LINE
  8
_0-0_0
  6
CONTINUOUS
 62
    7
 10
131.3893435
 20
469.17334
 11
131.39291349999996
 21
469.32437099999999
  0
LINE
  8
_0-0_0
  6
CONTINUOUS
 62
    7
 10
131.39291349999996
 20
469.32437099999999
 11
131.40243549999997
 21
469.51294000000001
  0
LINE
  8
_0-0_0
  6
CONTINUOUS
 62
    7
 10
131.40243549999997
 20
469.51294000000001
 11
131.41729749999996
 21
469.70117199999999
  0
LINE
  8
_0-0_0
  6
CONTINUOUS
 62
    7
 10
131.41729749999996
 20
469.70117199999999
 11
131.43722549999995
 21
469.88912999999997
  0
LINE
  8
_0-0_0
  6
CONTINUOUS
 62
    7
 10
131.43722549999995
 20
469.88912999999997
 11
131.45361349999996
 21
470.01800500000002
  0
LINE
  8
_0-0_0
  6
CONTINUOUS
 62
    7
 10
131.45361349999996
 20
470.01800500000002
 11
131.47201549999994
 21
470.146637
  0
LINE
  8
_0-0_0
  6
CONTINUOUS
 62
    7
 10
131.47201549999994
 20
470.146637
 11
131.49618549999997
 21
470.29858400000001
  0
LINE
  8
_0-0_0
  6
CONTINUOUS
 62
    7
 10
131.49618549999997
 20
470.29858400000001
 11
131.52258249999994
 21
470.44992100000002
  0
LINE
  8
_0-0_0
  6
CONTINUOUS
 62
    7
 10
131.52258249999994
 20
470.44992100000002
 11
131.57873549999999
 21
470.74054000000001
  0
LINE
  8
_0-0_0
  6
CONTINUOUS
 62
    7
 10
131.57873549999999
 20
470.74054000000001
 11
131.61889649999995
 21
470.93249500000002
  0
LINE
  8
_0-0_0
  6
CONTINUOUS
 62
    7
 10
131.61889649999995
 20
470.93249500000002
 11
131.70254549999999
 21
471.311981
  0
LINE
  8
_0-0_0
  6
CONTINUOUS
 62
    7
 10
132.00253249999997
 20
467.53793300000001
 11
132.00253249999997
 21
470.66204799999997
  0
LINE
  8
_0-0_0
  6
CONTINUOUS
 62
    7
 10
156.75253249999997
 20
459.57455499999998
 11
156.50253249999997
 21
459.54998799999998
  0
LINE
  8
_0-0_0
  6
CONTINUOUS
 62
    7
 10
156.50253249999997
 20
459.54998799999998
 11
147.25253249999997
 21
459.54998799999998
  0
LINE
  8
_0-0_0
  6
CONTINUOUS
 62
    7
 10
147.00253249999997
 20
459.57455499999998
 11
147.25253249999997
 21
459.54998799999998
  0
LINE
  8
_0-0_0
  6
CONTINUOUS
 62
    7
 10
156.75253249999997
 20
462.54855399999997
 11
156.50253249999997
 21
462.82254
  0
LINE
  8
_0-0_0
  6
CONTINUOUS
 62
    7
 10
156.75253249999997
 20
462.54855399999997
 11
156.50253249999997
 21
462.65783699999997
  0
LINE
  8
_0-0_0
  6
CONTINUOUS
 62
    7
 10
156.75253249999997
 20
462.390961
 11
156.50253249999997
 21
462.65783699999997
  0
LINE
  8
_0-0_0
  6
CONTINUOUS
 62
    7
 10
156.75253249999997
 20
462.390961
 11
156.50253249999997
 21
462.47280899999998
  0
LINE
  8
_0-0_0
  6
CONTINUOUS
 62
    7
 10
156.75253249999997
 20
462.21597300000002
 11
156.50253249999997
 21
462.47280899999998
  0
LINE
  8
_0-0_0
  6
CONTINUOUS
 62
    7
 10
156.75253249999997
 20
462.21597300000002
 11
156.50253249999997
 21
462.26943999999997
  0
LINE
  8
_0-0_0
  6
CONTINUOUS
 62
    7
 10
156.75253249999997
 20
462.02542099999999
 11
156.50253249999997
 21
462.26943999999997
  0
LINE
  8
_0-0_0
  6
CONTINUOUS
 62
    7
 10
156.75253249999997
 20
462.02542099999999
 11
156.50253249999997
 21
462.04998799999998
  0
LINE
  8
_0-0_0
  6
CONTINUOUS
 62
    7
 10
156.75253249999997
 20
461.82147199999997
 11
156.50253249999997
 21
462.04998799999998
  0
LINE
  8
_0-0_0
  6
CONTINUOUS
 62
    7
 10
156.75253249999997
 20
461.82147199999997
 11
156.50253249999997
 21
461.81683399999997
  0
LINE
  8
_0-0_0
  6
CONTINUOUS
 62
    7
 10
156.75253249999997
 20
461.60632299999997
 11
156.50253249999997
 21
461.81683399999997
  0
LINE
  8
_0-0_0
  6
CONTINUOUS
 62
    7
 10
156.75253249999997
 20
461.60632299999997
 11
156.50253249999997
 21
461.57254
  0
LINE
  8
_0-0_0
  6
CONTINUOUS
 62
    7
 10
156.75253249999997
 20
461.38232399999998
 11
156.50253249999997
 21
461.57254
  0
LINE
  8
_0-0_0
  6
CONTINUOUS
 62
    7
 10
156.75253249999997
 20
461.38232399999998
 11
156.50253249999997
 21
461.31976299999997
  0
LINE
  8
_0-0_0
  6
CONTINUOUS
 62
    7
 10
156.75253249999997
 20
461.15197799999999
 11
156.50253249999997
 21
461.31976299999997
  0
LINE
  8
_0-0_0
  6
CONTINUOUS
 62
    7
 10
156.75253249999997
 20
461.15197799999999
 11
156.50253249999997
 21
461.06130999999999
  0
LINE
  8
_0-0_0
  6
CONTINUOUS
 62
    7
 10
156.75253249999997
 20
460.917755
 11
156.50253249999997
 21
461.06130999999999
  0
LINE
  8
_0-0_0
  6
CONTINUOUS
 62
    7
 10
156.75253249999997
 20
460.917755
 11
156.50253249999997
 21
460.79998799999998
  0
LINE
  8
_0-0_0
  6
CONTINUOUS
 62
    7
 10
156.75253249999997
 20
460.68222099999997
 11
156.50253249999997
 21
460.79998799999998
  0
LINE
  8
_0-0_0
  6
CONTINUOUS
 62
    7
 10
156.75253249999997
 20
460.68222099999997
 11
156.50253249999997
 21
460.53866599999998
  0
LINE
  8
_0-0_0
  6
CONTINUOUS
 62
    7
 10
156.75253249999997
 20
460.44799799999998
 11
156.50253249999997
 21
460.53866599999998
  0
LINE
  8
_0-0_0
  6
CONTINUOUS
 62
    7
 10
156.75253249999997
 20
460.44799799999998
 11
156.50253249999997
 21
460.280213
  0
LINE
  8
_0-0_0
  6
CONTINUOUS
 62
    7
 10
156.75253249999997
 20
460.21765099999999
 11
156.50253249999997
 21
460.280213
  0
LINE
  8
_0-0_0
  6
CONTINUOUS
 62
    7
 10
156.75253249999997
 20
460.21765099999999
 11
156.50253249999997
 21
460.02743499999997
  0
LINE
  8
_0-0_0
  6
CONTINUOUS
 62
    7
 10
156.75253249999997
 20
459.993652
 11
156.50253249999997
 21
460.02743499999997
  0
LINE
  8
_0-0_0
  6
CONTINUOUS
 62
    7
 10
156.75253249999997
 20
459.993652
 11
156.50253249999997
 21
459.783142
  0
LINE
  8
_0-0_0
  6
CONTINUOUS
 62
    7
 10
156.75253249999997
 20
459.778504
 11
156.50253249999997
 21
459.783142
  0
LINE
  8
_0-0_0
  6
CONTINUOUS
 62
    7
 10
156.75253249999997
 20
459.778504
 11
156.50253249999997
 21
459.54998799999998
  0
LINE
  8
_0-0_0
  6
CONTINUOUS
 62
    7
 10
156.75253249999997
 20
459.57455499999998
 11
156.50253249999997
 21
459.330536
  0
LINE
  8
_0-0_0
  6
CONTINUOUS
 62
    7
 10
156.75253249999997
 20
459.38400300000001
 11
156.50253249999997
 21
459.330536
  0
LINE
  8
_0-0_0
  6
CONTINUOUS
 62
    7
 10
156.75253249999997
 20
459.38400300000001
 11
156.50253249999997
 21
459.12716699999999
  0
LINE
  8
_0-0_0
  6
CONTINUOUS
 62
    7
 10
156.75253249999997
 20
459.20898399999999
 11
156.50253249999997
 21
459.12716699999999
  0
LINE
  8
_0-0_0
  6
CONTINUOUS
 62
    7
 10
156.75253249999997
 20
459.20898399999999
 11
156.50253249999997
 21
458.94210800000002
  0
LINE
  8
_0-0_0
  6
CONTINUOUS
 62
    7
 10
156.75253249999997
 20
459.051422
 11
156.50253249999997
 21
458.94210800000002
  0
LINE
  8
_0-0_0
  6
CONTINUOUS
 62
    7
 10
156.75253249999997
 20
459.051422
 11
156.50253249999997
 21
458.77743499999997
  0
LINE
  8
_0-0_0
  6
CONTINUOUS
 62
    7
 10
156.75253249999997
 20
458.91299399999997
 11
156.50253249999997
 21
458.77743499999997
  0
LINE
  8
_0-0_0
  6
CONTINUOUS
 62
    7
 10
156.75253249999997
 20
458.91299399999997
 11
156.50253249999997
 21
458.63491799999997
  0
LINE
  8
_0-0_0
  6
CONTINUOUS
 62
    7
 10
156.75253249999997
 20
458.79522700000001
 11
156.50253249999997
 21
458.63491799999997
  0
LINE
  8
_0-0_0
  6
CONTINUOUS
 62
    7
 10
156.75253249999997
 20
458.79522700000001
 11
156.50253249999997
 21
458.51611300000002
  0
LINE
  8
_0-0_0
  6
CONTINUOUS
 62
    7
 10
156.75253249999997
 20
458.699432
 11
156.50253249999997
 21
458.51611300000002
  0
LINE
  8
_0-0_0
  6
CONTINUOUS
 62
    7
 10
156.75253249999997
 20
458.699432
 11
156.50253249999997
 21
458.42233299999998
  0
LINE
  8
_0-0_0
  6
CONTINUOUS
 62
    7
 10
156.75253249999997
 20
458.62664799999999
 11
156.50253249999997
 21
458.42233299999998
  0
LINE
  8
_0-0_0
  6
CONTINUOUS
 62
    7
 10
156.75253249999997
 20
458.62664799999999
 11
156.50253249999997
 21
458.35461399999997
  0
LINE
  8
_0-0_0
  6
CONTINUOUS
 62
    7
 10
156.75253249999997
 20
458.577698
 11
156.50253249999997
 21
458.35461399999997
  0
LINE
  8
_0-0_0
  6
CONTINUOUS
 62
    7
 10
156.75253249999997
 20
458.577698
 11
156.50253249999997
 21
458.31369000000001
  0
LINE
  8
_0-0_0
  6
CONTINUOUS
 62
    7
 10
156.75253249999997
 20
458.55306999999999
 11
156.50253249999997
 21
458.31369000000001
  0
LINE
  8
_0-0_0
  6
CONTINUOUS
 62
    7
 10
156.75253249999997
 20
458.55306999999999
 11
156.50253249999997
 21
458.29998799999998
  0
LINE
  8
_0-0_0
  6
CONTINUOUS
 62
    7
 10
157.00253249999997
 20
458.79998799999998
 11
157.00253249999997
 21
462.55514499999998
  0
LINE
  8
_0-0_0
  6
CONTINUOUS
 62
    7
 10
156.62258949999995
 20
462.88861099999997
 11
156.50253249999997
 21
462.965057
  0
LINE
  8
_0-0_0
  6
CONTINUOUS
 62
    7
 10
156.75253249999997
 20
462.686981
 11
156.50253249999997
 21
462.965057
  0
LINE
  8
_0-0_0
  6
CONTINUOUS
 62
    7
 10
156.75253249999997
 20
462.686981
 11
156.50253249999997
 21
462.82254
  0
LINE
  8
_0-0_0
  6
CONTINUOUS
 62
    7
 10
156.50253249999997
 20
462.65783699999997
 11
147.25253249999997
 21
462.65783699999997
  0
LINE
  8
_0-0_0
  6
CONTINUOUS
 62
    7
 10
147.00253249999997
 20
462.54855399999997
 11
147.25253249999997
 21
462.65783699999997
  0
LINE
  8
_0-0_0
  6
CONTINUOUS
 62
    7
 10
156.50253249999997
 20
462.47280899999998
 11
147.25253249999997
 21
462.47280899999998
  0
LINE
  8
_0-0_0
  6
CONTINUOUS
 62
    7
 10
147.00253249999997
 20
462.390961
 11
147.25253249999997
 21
462.47280899999998
  0
LINE
  8
_0-0_0
  6
CONTINUOUS
 62
    7
 10
156.50253249999997
 20
462.26943999999997
 11
147.25253249999997
 21
462.26943999999997
  0
LINE
  8
_0-0_0
  6
CONTINUOUS
 62
    7
 10
147.00253249999997
 20
462.21597300000002
 11
147.25253249999997
 21
462.26943999999997
  0
LINE
  8
_0-0_0
  6
CONTINUOUS
 62
    7
 10
156.50253249999997
 20
462.04998799999998
 11
147.25253249999997
 21
462.04998799999998
  0
LINE
  8
_0-0_0
  6
CONTINUOUS
 62
    7
 10
147.00253249999997
 20
462.02542099999999
 11
147.25253249999997
 21
462.04998799999998
  0
LINE
  8
_0-0_0
  6
CONTINUOUS
 62
    7
 10
156.50253249999997
 20
461.81683399999997
 11
147.25253249999997
 21
461.81683399999997
  0
LINE
  8
_0-0_0
  6
CONTINUOUS
 62
    7
 10
156.75253249999997
 20
461.82147199999997
 11
147.00253249999997
 21
461.82147199999997
  0
LINE
  8
_0-0_0
  6
CONTINUOUS
 62
    7
 10
147.00253249999997
 20
461.82147199999997
 11
147.25253249999997
 21
461.81683399999997
  0
LINE
  8
_0-0_0
  6
CONTINUOUS
 62
    7
 10
156.50253249999997
 20
461.57254
 11
147.25253249999997
 21
461.57254
  0
LINE
  8
_0-0_0
  6
CONTINUOUS
 62
    7
 10
156.75253249999997
 20
461.60632299999997
 11
147.00253249999997
 21
461.60632299999997
  0
LINE
  8
_0-0_0
  6
CONTINUOUS
 62
    7
 10
147.00253249999997
 20
461.60632299999997
 11
147.25253249999997
 21
461.57254
  0
LINE
  8
_0-0_0
  6
CONTINUOUS
 62
    7
 10
156.50253249999997
 20
461.31976299999997
 11
147.25253249999997
 21
461.31976299999997
  0
LINE
  8
_0-0_0
  6
CONTINUOUS
 62
    7
 10
156.75253249999997
 20
461.38232399999998
 11
147.00253249999997
 21
461.38232399999998
  0
LINE
  8
_0-0_0
  6
CONTINUOUS
 62
    7
 10
147.00253249999997
 20
461.38232399999998
 11
147.25253249999997
 21
461.31976299999997
  0
LINE
  8
_0-0_0
  6
CONTINUOUS
 62
    7
 10
156.50253249999997
 20
461.06130999999999
 11
147.25253249999997
 21
461.06130999999999
  0
LINE
  8
_0-0_0
  6
CONTINUOUS
 62
    7
 10
156.75253249999997
 20
461.15197799999999
 11
147.00253249999997
 21
461.15197799999999
  0
LINE
  8
_0-0_0
  6
CONTINUOUS
 62
    7
 10
147.00253249999997
 20
461.15197799999999
 11
147.25253249999997
 21
461.06130999999999
  0
LINE
  8
_0-0_0
  6
CONTINUOUS
 62
    7
 10
156.50253249999997
 20
460.79998799999998
 11
147.25253249999997
 21
460.79998799999998
  0
LINE
  8
_0-0_0
  6
CONTINUOUS
 62
    7
 10
156.75253249999997
 20
460.917755
 11
147.00253249999997
 21
460.917755
  0
LINE
  8
_0-0_0
  6
CONTINUOUS
 62
    7
 10
147.00253249999997
 20
460.917755
 11
147.25253249999997
 21
460.79998799999998
  0
LINE
  8
_0-0_0
  6
CONTINUOUS
 62
    7
 10
156.50253249999997
 20
460.53866599999998
 11
147.25253249999997
 21
460.53866599999998
  0
LINE
  8
_0-0_0
  6
CONTINUOUS
 62
    7
 10
156.75253249999997
 20
460.68222099999997
 11
147.00253249999997
 21
460.68222099999997
  0
LINE
  8
_0-0_0
  6
CONTINUOUS
 62
    7
 10
147.00253249999997
 20
460.68222099999997
 11
147.25253249999997
 21
460.53866599999998
  0
LINE
  8
_0-0_0
  6
CONTINUOUS
 62
    7
 10
156.50253249999997
 20
460.280213
 11
147.25253249999997
 21
460.280213
  0
LINE
  8
_0-0_0
  6
CONTINUOUS
 62
    7
 10
156.75253249999997
 20
460.44799799999998
 11
147.00253249999997
 21
460.44799799999998
  0
LINE
  8
_0-0_0
  6
CONTINUOUS
 62
    7
 10
147.00253249999997
 20
460.44799799999998
 11
147.25253249999997
 21
460.280213
  0
LINE
  8
_0-0_0
  6
CONTINUOUS
 62
    7
 10
156.50253249999997
 20
460.02743499999997
 11
147.25253249999997
 21
460.02743499999997
  0
LINE
  8
_0-0_0
  6
CONTINUOUS
 62
    7
 10
156.75253249999997
 20
460.21765099999999
 11
147.00253249999997
 21
460.21765099999999
  0
LINE
  8
_0-0_0
  6
CONTINUOUS
 62
    7
 10
147.00253249999997
 20
460.21765099999999
 11
147.25253249999997
 21
460.02743499999997
  0
LINE
  8
_0-0_0
  6
CONTINUOUS
 62
    7
 10
156.50253249999997
 20
459.783142
 11
147.25253249999997
 21
459.783142
  0
LINE
  8
_0-0_0
  6
CONTINUOUS
 62
    7
 10
156.75253249999997
 20
459.993652
 11
147.00253249999997
 21
459.993652
  0
LINE
  8
_0-0_0
  6
CONTINUOUS
 62
    7
 10
147.00253249999997
 20
459.993652
 11
147.25253249999997
 21
459.783142
  0
LINE
  8
_0-0_0
  6
CONTINUOUS
 62
    7
 10
156.50253249999997
 20
459.12716699999999
 11
147.25253249999997
 21
459.12716699999999
  0
LINE
  8
_0-0_0
  6
CONTINUOUS
 62
    7
 10
147.00253249999997
 20
459.38400300000001
 11
147.25253249999997
 21
459.12716699999999
  0
LINE
  8
_0-0_0
  6
CONTINUOUS
 62
    7
 10
156.50253249999997
 20
458.94210800000002
 11
147.25253249999997
 21
458.94210800000002
  0
LINE
  8
_0-0_0
  6
CONTINUOUS
 62
    7
 10
147.00253249999997
 20
459.20898399999999
 11
147.25253249999997
 21
458.94210800000002
  0
LINE
  8
_0-0_0
  6
CONTINUOUS
 62
    7
 10
156.50253249999997
 20
458.77743499999997
 11
147.25253249999997
 21
458.77743499999997
  0
LINE
  8
_0-0_0
  6
CONTINUOUS
 62
    7
 10
147.00253249999997
 20
459.051422
 11
147.25253249999997
 21
458.77743499999997
  0
LINE
  8
_0-0_0
  6
CONTINUOUS
 62
    7
 10
156.50253249999997
 20
458.63491799999997
 11
147.25253249999997
 21
458.63491799999997
  0
LINE
  8
_0-0_0
  6
CONTINUOUS
 62
    7
 10
147.00253249999997
 20
458.91299399999997
 11
147.25253249999997
 21
458.63491799999997
  0
LINE
  8
_0-0_0
  6
CONTINUOUS
 62
    7
 10
156.50253249999997
 20
458.51611300000002
 11
147.25253249999997
 21
458.51611300000002
  0
LINE
  8
_0-0_0
  6
CONTINUOUS
 62
    7
 10
147.00253249999997
 20
458.79522700000001
 11
147.25253249999997
 21
458.51611300000002
  0
LINE
  8
_0-0_0
  6
CONTINUOUS
 62
    7
 10
156.50253249999997
 20
458.42233299999998
 11
147.25253249999997
 21
458.42233299999998
  0
LINE
  8
_0-0_0
  6
CONTINUOUS
 62
    7
 10
147.00253249999997
 20
458.699432
 11
147.25253249999997
 21
458.42233299999998
  0
LINE
  8
_0-0_0
  6
CONTINUOUS
 62
    7
 10
156.50253249999997
 20
458.35461399999997
 11
147.25253249999997
 21
458.35461399999997
  0
LINE
  8
_0-0_0
  6
CONTINUOUS
 62
    7
 10
147.00253249999997
 20
458.62664799999999
 11
147.25253249999997
 21
458.35461399999997
  0
LINE
  8
_0-0_0
  6
CONTINUOUS
 62
    7
 10
156.50253249999997
 20
458.31369000000001
 11
147.25253249999997
 21
458.31369000000001
  0
LINE
  8
_0-0_0
  6
CONTINUOUS
 62
    7
 10
147.00253249999997
 20
458.577698
 11
147.25253249999997
 21
458.31369000000001
  0
LINE
  8
_0-0_0
  6
CONTINUOUS
 62
    7
 10
156.50253249999997
 20
458.29998799999998
 11
147.25253249999997
 21
458.29998799999998
  0
LINE
  8
_0-0_0
  6
CONTINUOUS
 62
    7
 10
147.00253249999997
 20
458.55306999999999
 11
147.25253249999997
 21
458.29998799999998
  0
LINE
  8
_0-0_0
  6
CONTINUOUS
 62
    7
 10
156.50253249999997
 20
462.965057
 11
147.25253249999997
 21
462.965057
  0
LINE
  8
_0-0_0
  6
CONTINUOUS
 62
    7
 10
156.75253249999997
 20
462.80474900000002
 11
156.62258949999995
 21
462.88861099999997
  0
LINE
  8
_0-0_0
  6
CONTINUOUS
 62
    7
 10
147.00253249999997
 20
462.80474900000002
 11
147.13250749999997
 21
462.88861099999997
  0
LINE
  8
_0-0_0
  6
CONTINUOUS
 62
    7
 10
147.13250749999997
 20
462.88861099999997
 11
147.25253249999997
 21
462.965057
  0
LINE
  8
_0-0_0
  6
CONTINUOUS
 62
    7
 10
156.50253249999997
 20
462.82254
 11
147.25253249999997
 21
462.82254
  0
LINE
  8
_0-0_0
  6
CONTINUOUS
 62
    7
 10
147.00253249999997
 20
462.686981
 11
147.25253249999997
 21
462.82254
  0
LINE
  8
_0-0_0
  6
CONTINUOUS
 62
    7
 10
156.75253249999997
 20
462.80474900000002
 11
156.50253249999997
 21
463.08386200000001
  0
LINE
  8
_0-0_0
  6
CONTINUOUS
 62
    7
 10
156.50253249999997
 20
463.08386200000001
 11
147.25253249999997
 21
463.08386200000001
  0
LINE
  8
_0-0_0
  6
CONTINUOUS
 62
    7
 10
147.00253249999997
 20
462.80474900000002
 11
147.25253249999997
 21
463.08386200000001
  0
LINE
  8
_0-0_0
  6
CONTINUOUS
 62
    7
 10
156.75253249999997
 20
462.90054299999997
 11
156.50253249999997
 21
463.08386200000001
  0
LINE
  8
_0-0_0
  6
CONTINUOUS
 62
    7
 10
147.00253249999997
 20
462.90054299999997
 11
147.25253249999997
 21
463.08386200000001
  0
LINE
  8
_0-0_0
  6
CONTINUOUS
 62
    7
 10
156.75253249999997
 20
462.90054299999997
 11
156.50253249999997
 21
463.17764299999999
  0
LINE
  8
_0-0_0
  6
CONTINUOUS
 62
    7
 10
156.50253249999997
 20
463.17764299999999
 11
147.25253249999997
 21
463.17764299999999
  0
LINE
  8
_0-0_0
  6
CONTINUOUS
 62
    7
 10
147.00253249999997
 20
462.90054299999997
 11
147.25253249999997
 21
463.17764299999999
  0
LINE
  8
_0-0_0
  6
CONTINUOUS
 62
    7
 10
156.75253249999997
 20
462.97332799999998
 11
156.50253249999997
 21
463.17764299999999
  0
LINE
  8
_0-0_0
  6
CONTINUOUS
 62
    7
 10
147.00253249999997
 20
462.97332799999998
 11
147.25253249999997
 21
463.17764299999999
  0
LINE
  8
_0-0_0
  6
CONTINUOUS
 62
    7
 10
156.75253249999997
 20
462.97332799999998
 11
156.50253249999997
 21
463.245361
  0
LINE
  8
_0-0_0
  6
CONTINUOUS
 62
    7
 10
156.50253249999997
 20
463.245361
 11
147.25253249999997
 21
463.245361
  0
LINE
  8
_0-0_0
  6
CONTINUOUS
 62
    7
 10
147.00253249999997
 20
462.97332799999998
 11
147.25253249999997
 21
463.245361
  0
LINE
  8
_0-0_0
  6
CONTINUOUS
 62
    7
 10
156.75253249999997
 20
463.02227799999997
 11
156.50253249999997
 21
463.245361
  0
LINE
  8
_0-0_0
  6
CONTINUOUS
 62
    7
 10
147.00253249999997
 20
463.02227799999997
 11
147.25253249999997
 21
463.245361
  0
LINE
  8
_0-0_0
  6
CONTINUOUS
 62
    7
 10
156.75253249999997
 20
463.02227799999997
 11
156.50253249999997
 21
463.28628600000002
  0
LINE
  8
_0-0_0
  6
CONTINUOUS
 62
    7
 10
156.50253249999997
 20
463.28628600000002
 11
147.25253249999997
 21
463.28628600000002
  0
LINE
  8
_0-0_0
  6
CONTINUOUS
 62
    7
 10
147.00253249999997
 20
463.02227799999997
 11
147.25253249999997
 21
463.28628600000002
  0
LINE
  8
_0-0_0
  6
CONTINUOUS
 62
    7
 10
156.75253249999997
 20
463.04690599999998
 11
156.50253249999997
 21
463.28628600000002
  0
LINE
  8
_0-0_0
  6
CONTINUOUS
 62
    7
 10
147.00253249999997
 20
463.04690599999998
 11
147.25253249999997
 21
463.28628600000002
  0
LINE
  8
_0-0_0
  6
CONTINUOUS
 62
    7
 10
156.75253249999997
 20
463.04690599999998
 11
156.50253249999997
 21
463.29998799999998
  0
LINE
  8
_0-0_0
  6
CONTINUOUS
 62
    7
 10
156.50253249999997
 20
463.29998799999998
 11
147.25253249999997
 21
463.29998799999998
  0
LINE
  8
_0-0_0
  6
CONTINUOUS
 62
    7
 10
147.00253249999997
 20
463.04690599999998
 11
147.25253249999997
 21
463.29998799999998
  0
LINE
  8
_0-0_0
  6
CONTINUOUS
 62
    7
 10
156.75253249999997
 20
476.17456099999998
 11
156.50253249999997
 21
476.14999399999999
  0
LINE
  8
_0-0_0
  6
CONTINUOUS
 62
    7
 10
156.50253249999997
 20
476.14999399999999
 11
147.25253249999997
 21
476.14999399999999
  0
LINE
  8
_0-0_0
  6
CONTINUOUS
 62
    7
 10
147.00253249999997
 20
476.17456099999998
 11
147.25253249999997
 21
476.14999399999999
  0
LINE
  8
_0-0_0
  6
CONTINUOUS
 62
    7
 10
156.75253249999997
 20
479.14855999999997
 11
156.50253249999997
 21
479.42251599999997
  0
LINE
  8
_0-0_0
  6
CONTINUOUS
 62
    7
 10
156.75253249999997
 20
479.14855999999997
 11
156.50253249999997
 21
479.25784299999998
  0
LINE
  8
_0-0_0
  6
CONTINUOUS
 62
    7
 10
156.75253249999997
 20
478.99096700000001
 11
156.50253249999997
 21
479.25784299999998
  0
LINE
  8
_0-0_0
  6
CONTINUOUS
 62
    7
 10
156.75253249999997
 20
478.99096700000001
 11
156.50253249999997
 21
479.07281499999999
  0
LINE
  8
_0-0_0
  6
CONTINUOUS
 62
    7
 10
156.75253249999997
 20
478.81594899999999
 11
156.50253249999997
 21
479.07281499999999
  0
LINE
  8
_0-0_0
  6
CONTINUOUS
 62
    7
 10
156.75253249999997
 20
478.81594899999999
 11
156.50253249999997
 21
478.86944599999998
  0
LINE
  8
_0-0_0
  6
CONTINUOUS
 62
    7
 10
156.75253249999997
 20
478.625427
 11
156.50253249999997
 21
478.86944599999998
  0
LINE
  8
_0-0_0
  6
CONTINUOUS
 62
    7
 10
156.75253249999997
 20
478.625427
 11
156.50253249999997
 21
478.64999399999999
  0
LINE
  8
_0-0_0
  6
CONTINUOUS
 62
    7
 10
156.75253249999997
 20
478.42147799999998
 11
156.50253249999997
 21
478.64999399999999
  0
LINE
  8
_0-0_0
  6
CONTINUOUS
 62
    7
 10
156.75253249999997
 20
478.42147799999998
 11
156.50253249999997
 21
478.41683999999998
  0
LINE
  8
_0-0_0
  6
CONTINUOUS
 62
    7
 10
156.75253249999997
 20
478.20632899999998
 11
156.50253249999997
 21
478.41683999999998
  0
LINE
  8
_0-0_0
  6
CONTINUOUS
 62
    7
 10
156.75253249999997
 20
478.20632899999998
 11
156.50253249999997
 21
478.17251599999997
  0
LINE
  8
_0-0_0
  6
CONTINUOUS
 62
    7
 10
156.75253249999997
 20
477.98232999999999
 11
156.50253249999997
 21
478.17251599999997
  0
LINE
  8
_0-0_0
  6
CONTINUOUS
 62
    7
 10
156.75253249999997
 20
477.98232999999999
 11
156.50253249999997
 21
477.91976899999997
  0
LINE
  8
_0-0_0
  6
CONTINUOUS
 62
    7
 10
156.75253249999997
 20
477.75195300000001
 11
156.50253249999997
 21
477.91976899999997
  0
LINE
  8
_0-0_0
  6
CONTINUOUS
 62
    7
 10
156.75253249999997
 20
477.75195300000001
 11
156.50253249999997
 21
477.661316
  0
LINE
  8
_0-0_0
  6
CONTINUOUS
 62
    7
 10
156.75253249999997
 20
477.51773099999997
 11
156.50253249999997
 21
477.661316
  0
LINE
  8
_0-0_0
  6
CONTINUOUS
 62
    7
 10
156.75253249999997
 20
477.51773099999997
 11
156.50253249999997
 21
477.39999399999999
  0
LINE
  8
_0-0_0
  6
CONTINUOUS
 62
    7
 10
156.75253249999997
 20
477.28222699999998
 11
156.50253249999997
 21
477.39999399999999
  0
LINE
  8
_0-0_0
  6
CONTINUOUS
 62
    7
 10
156.75253249999997
 20
477.28222699999998
 11
156.50253249999997
 21
477.13867199999999
  0
LINE
  8
_0-0_0
  6
CONTINUOUS
 62
    7
 10
156.75253249999997
 20
477.04800399999999
 11
156.50253249999997
 21
477.13867199999999
  0
LINE
  8
_0-0_0
  6
CONTINUOUS
 62
    7
 10
156.75253249999997
 20
477.04800399999999
 11
156.50253249999997
 21
476.88021900000001
  0
LINE
  8
_0-0_0
  6
CONTINUOUS
 62
    7
 10
156.75253249999997
 20
476.81765799999999
 11
156.50253249999997
 21
476.88021900000001
  0
LINE
  8
_0-0_0
  6
CONTINUOUS
 62
    7
 10
156.75253249999997
 20
476.81765799999999
 11
156.50253249999997
 21
476.62744199999997
  0
LINE
  8
_0-0_0
  6
CONTINUOUS
 62
    7
 10
156.75253249999997
 20
476.593659
 11
156.50253249999997
 21
476.62744199999997
  0
LINE
  8
_0-0_0
  6
CONTINUOUS
 62
    7
 10
156.75253249999997
 20
476.593659
 11
156.50253249999997
 21
476.38314800000001
  0
LINE
  8
_0-0_0
  6
CONTINUOUS
 62
    7
 10
156.75253249999997
 20
476.37851000000001
 11
156.50253249999997
 21
476.38314800000001
  0
LINE
  8
_0-0_0
  6
CONTINUOUS
 62
    7
 10
156.75253249999997
 20
476.37851000000001
 11
156.50253249999997
 21
476.14999399999999
  0
LINE
  8
_0-0_0
  6
CONTINUOUS
 62
    7
 10
156.75253249999997
 20
476.17456099999998
 11
156.50253249999997
 21
475.93051199999996
  0
LINE
  8
_0-0_0
  6
CONTINUOUS
 62
    7
 10
156.75253249999997
 20
475.98400900000001
 11
156.50253249999997
 21
475.93051199999996
  0
LINE
  8
_0-0_0
  6
CONTINUOUS
 62
    7
 10
156.75253249999997
 20
475.98400900000001
 11
156.50253249999997
 21
475.72717299999999
  0
LINE
  8
_0-0_0
  6
CONTINUOUS
 62
    7
 10
156.75253249999997
 20
475.80899099999999
 11
156.50253249999997
 21
475.72717299999999
  0
LINE
  8
_0-0_0
  6
CONTINUOUS
 62
    7
 10
156.75253249999997
 20
475.80899099999999
 11
156.50253249999997
 21
475.54211399999997
  0
LINE
  8
_0-0_0
  6
CONTINUOUS
 62
    7
 10
156.75253249999997
 20
475.65139799999997
 11
156.50253249999997
 21
475.54211399999997
  0
LINE
  8
_0-0_0
  6
CONTINUOUS
 62
    7
 10
156.75253249999997
 20
475.65139799999997
 11
156.50253249999997
 21
475.37744199999997
  0
LINE
  8
_0-0_0
  6
CONTINUOUS
 62
    7
 10
156.75253249999997
 20
475.51297
 11
156.50253249999997
 21
475.37744199999997
  0
LINE
  8
_0-0_0
  6
CONTINUOUS
 62
    7
 10
156.75253249999997
 20
475.51297
 11
156.50253249999997
 21
475.23492399999998
  0
LINE
  8
_0-0_0
  6
CONTINUOUS
 62
    7
 10
156.75253249999997
 20
475.39523300000002
 11
156.50253249999997
 21
475.23492399999998
  0
LINE
  8
_0-0_0
  6
CONTINUOUS
 62
    7
 10
156.75253249999997
 20
475.39523300000002
 11
156.50253249999997
 21
475.11611899999997
  0
LINE
  8
_0-0_0
  6
CONTINUOUS
 62
    7
 10
156.75253249999997
 20
475.29943900000001
 11
156.50253249999997
 21
475.11611899999997
  0
LINE
  8
_0-0_0
  6
CONTINUOUS
 62
    7
 10
156.75253249999997
 20
475.29943900000001
 11
156.50253249999997
 21
475.02233899999999
  0
LINE
  8
_0-0_0
  6
CONTINUOUS
 62
    7
 10
156.75253249999997
 20
475.226654
 11
156.50253249999997
 21
475.02233899999999
  0
LINE
  8
_0-0_0
  6
CONTINUOUS
 62
    7
 10
156.75253249999997
 20
475.226654
 11
156.50253249999997
 21
474.95461999999998
  0
LINE
  8
_0-0_0
  6
CONTINUOUS
 62
    7
 10
156.75253249999997
 20
475.17767299999997
 11
156.50253249999997
 21
474.95461999999998
  0
LINE
  8
_0-0_0
  6
CONTINUOUS
 62
    7
 10
156.75253249999997
 20
475.17767299999997
 11
156.50253249999997
 21
474.91366599999998
  0
LINE
  8
_0-0_0
  6
CONTINUOUS
 62
    7
 10
156.75253249999997
 20
475.153076
 11
156.50253249999997
 21
474.91366599999998
  0
LINE
  8
_0-0_0
  6
CONTINUOUS
 62
    7
 10
156.75253249999997
 20
475.153076
 11
156.50253249999997
 21
474.89999399999999
  0
LINE
  8
_0-0_0
  6
CONTINUOUS
 62
    7
 10
157.00253249999997
 20
475.39999399999999
 11
157.00253249999997
 21
479.15515099999999
  0
LINE
  8
_0-0_0
  6
CONTINUOUS
 62
    7
 10
156.62258949999995
 20
479.48861699999998
 11
156.50253249999997
 21
479.56506400000001
  0
LINE
  8
_0-0_0
  6
CONTINUOUS
 62
    7
 10
156.75253249999997
 20
479.28698700000001
 11
156.50253249999997
 21
479.56506400000001
  0
LINE
  8
_0-0_0
  6
CONTINUOUS
 62
    7
 10
156.75253249999997
 20
479.28698700000001
 11
156.50253249999997
 21
479.42251599999997
  0
LINE
  8
_0-0_0
  6
CONTINUOUS
 62
    7
 10
156.50253249999997
 20
479.25784299999998
 11
147.25253249999997
 21
479.25784299999998
  0
LINE
  8
_0-0_0
  6
CONTINUOUS
 62
    7
 10
147.00253249999997
 20
479.14855999999997
 11
147.25253249999997
 21
479.25784299999998
  0
LINE
  8
_0-0_0
  6
CONTINUOUS
 62
    7
 10
156.50253249999997
 20
479.07281499999999
 11
147.25253249999997
 21
479.07281499999999
  0
LINE
  8
_0-0_0
  6
CONTINUOUS
 62
    7
 10
147.00253249999997
 20
478.99096700000001
 11
147.25253249999997
 21
479.07281499999999
  0
LINE
  8
_0-0_0
  6
CONTINUOUS
 62
    7
 10
156.50253249999997
 20
478.86944599999998
 11
147.25253249999997
 21
478.86944599999998
  0
LINE
  8
_0-0_0
  6
CONTINUOUS
 62
    7
 10
147.00253249999997
 20
478.81594899999999
 11
147.25253249999997
 21
478.86944599999998
  0
LINE
  8
_0-0_0
  6
CONTINUOUS
 62
    7
 10
156.50253249999997
 20
478.64999399999999
 11
147.25253249999997
 21
478.64999399999999
  0
LINE
  8
_0-0_0
  6
CONTINUOUS
 62
    7
 10
147.00253249999997
 20
478.625427
 11
147.25253249999997
 21
478.64999399999999
  0
LINE
  8
_0-0_0
  6
CONTINUOUS
 62
    7
 10
156.50253249999997
 20
478.41683999999998
 11
147.25253249999997
 21
478.41683999999998
  0
LINE
  8
_0-0_0
  6
CONTINUOUS
 62
    7
 10
156.75253249999997
 20
478.42147799999998
 11
147.00253249999997
 21
478.42147799999998
  0
LINE
  8
_0-0_0
  6
CONTINUOUS
 62
    7
 10
147.00253249999997
 20
478.42147799999998
 11
147.25253249999997
 21
478.41683999999998
  0
LINE
  8
_0-0_0
  6
CONTINUOUS
 62
    7
 10
156.50253249999997
 20
478.17251599999997
 11
147.25253249999997
 21
478.17251599999997
  0
LINE
  8
_0-0_0
  6
CONTINUOUS
 62
    7
 10
156.75253249999997
 20
478.20632899999998
 11
147.00253249999997
 21
478.20632899999998
  0
LINE
  8
_0-0_0
  6
CONTINUOUS
 62
    7
 10
147.00253249999997
 20
478.20632899999998
 11
147.25253249999997
 21
478.17251599999997
  0
LINE
  8
_0-0_0
  6
CONTINUOUS
 62
    7
 10
156.50253249999997
 20
477.91976899999997
 11
147.25253249999997
 21
477.91976899999997
  0
LINE
  8
_0-0_0
  6
CONTINUOUS
 62
    7
 10
156.75253249999997
 20
477.98232999999999
 11
147.00253249999997
 21
477.98232999999999
  0
LINE
  8
_0-0_0
  6
CONTINUOUS
 62
    7
 10
147.00253249999997
 20
477.98232999999999
 11
147.25253249999997
 21
477.91976899999997
  0
LINE
  8
_0-0_0
  6
CONTINUOUS
 62
    7
 10
156.50253249999997
 20
477.661316
 11
147.25253249999997
 21
477.661316
  0
LINE
  8
_0-0_0
  6
CONTINUOUS
 62
    7
 10
156.75253249999997
 20
477.75195300000001
 11
147.00253249999997
 21
477.75195300000001
  0
LINE
  8
_0-0_0
  6
CONTINUOUS
 62
    7
 10
147.00253249999997
 20
477.75195300000001
 11
147.25253249999997
 21
477.661316
  0
LINE
  8
_0-0_0
  6
CONTINUOUS
 62
    7
 10
156.50253249999997
 20
477.39999399999999
 11
147.25253249999997
 21
477.39999399999999
  0
LINE
  8
_0-0_0
  6
CONTINUOUS
 62
    7
 10
156.75253249999997
 20
477.51773099999997
 11
147.00253249999997
 21
477.51773099999997
  0
LINE
  8
_0-0_0
  6
CONTINUOUS
 62
    7
 10
147.00253249999997
 20
477.51773099999997
 11
147.25253249999997
 21
477.39999399999999
  0
LINE
  8
_0-0_0
  6
CONTINUOUS
 62
    7
 10
156.50253249999997
 20
477.13867199999999
 11
147.25253249999997
 21
477.13867199999999
  0
LINE
  8
_0-0_0
  6
CONTINUOUS
 62
    7
 10
156.75253249999997
 20
477.28222699999998
 11
147.00253249999997
 21
477.28222699999998
  0
LINE
  8
_0-0_0
  6
CONTINUOUS
 62
    7
 10
147.00253249999997
 20
477.28222699999998
 11
147.25253249999997
 21
477.13867199999999
  0
LINE
  8
_0-0_0
  6
CONTINUOUS
 62
    7
 10
156.50253249999997
 20
476.88021900000001
 11
147.25253249999997
 21
476.88021900000001
  0
LINE
  8
_0-0_0
  6
CONTINUOUS
 62
    7
 10
156.75253249999997
 20
477.04800399999999
 11
147.00253249999997
 21
477.04800399999999
  0
LINE
  8
_0-0_0
  6
CONTINUOUS
 62
    7
 10
147.00253249999997
 20
477.04800399999999
 11
147.25253249999997
 21
476.88021900000001
  0
LINE
  8
_0-0_0
  6
CONTINUOUS
 62
    7
 10
156.50253249999997
 20
476.62744199999997
 11
147.25253249999997
 21
476.62744199999997
  0
LINE
  8
_0-0_0
  6
CONTINUOUS
 62
    7
 10
156.75253249999997
 20
476.81765799999999
 11
147.00253249999997
 21
476.81765799999999
  0
LINE
  8
_0-0_0
  6
CONTINUOUS
 62
    7
 10
147.00253249999997
 20
476.81765799999999
 11
147.25253249999997
 21
476.62744199999997
  0
LINE
  8
_0-0_0
  6
CONTINUOUS
 62
    7
 10
156.50253249999997
 20
476.38314800000001
 11
147.25253249999997
 21
476.38314800000001
  0
LINE
  8
_0-0_0
  6
CONTINUOUS
 62
    7
 10
156.75253249999997
 20
476.593659
 11
147.00253249999997
 21
476.593659
  0
LINE
  8
_0-0_0
  6
CONTINUOUS
 62
    7
 10
147.00253249999997
 20
476.593659
 11
147.25253249999997
 21
476.38314800000001
  0
LINE
  8
_0-0_0
  6
CONTINUOUS
 62
    7
 10
156.50253249999997
 20
475.72717299999999
 11
147.25253249999997
 21
475.72717299999999
  0
LINE
  8
_0-0_0
  6
CONTINUOUS
 62
    7
 10
147.00253249999997
 20
475.98400900000001
 11
147.25253249999997
 21
475.72717299999999
  0
LINE
  8
_0-0_0
  6
CONTINUOUS
 62
    7
 10
156.50253249999997
 20
475.54211399999997
 11
147.25253249999997
 21
475.54211399999997
  0
LINE
  8
_0-0_0
  6
CONTINUOUS
 62
    7
 10
147.00253249999997
 20
475.80899099999999
 11
147.25253249999997
 21
475.54211399999997
  0
LINE
  8
_0-0_0
  6
CONTINUOUS
 62
    7
 10
156.50253249999997
 20
475.37744199999997
 11
147.25253249999997
 21
475.37744199999997
  0
LINE
  8
_0-0_0
  6
CONTINUOUS
 62
    7
 10
147.00253249999997
 20
475.65139799999997
 11
147.25253249999997
 21
475.37744199999997
  0
LINE
  8
_0-0_0
  6
CONTINUOUS
 62
    7
 10
156.50253249999997
 20
475.23492399999998
 11
147.25253249999997
 21
475.23492399999998
  0
LINE
  8
_0-0_0
  6
CONTINUOUS
 62
    7
 10
147.00253249999997
 20
475.51297
 11
147.25253249999997
 21
475.23492399999998
  0
LINE
  8
_0-0_0
  6
CONTINUOUS
 62
    7
 10
156.50253249999997
 20
475.11611899999997
 11
147.25253249999997
 21
475.11611899999997
  0
LINE
  8
_0-0_0
  6
CONTINUOUS
 62
    7
 10
147.00253249999997
 20
475.39523300000002
 11
147.25253249999997
 21
475.11611899999997
  0
LINE
  8
_0-0_0
  6
CONTINUOUS
 62
    7
 10
156.50253249999997
 20
475.02233899999999
 11
147.25253249999997
 21
475.02233899999999
  0
LINE
  8
_0-0_0
  6
CONTINUOUS
 62
    7
 10
147.00253249999997
 20
475.29943900000001
 11
147.25253249999997
 21
475.02233899999999
  0
LINE
  8
_0-0_0
  6
CONTINUOUS
 62
    7
 10
156.50253249999997
 20
474.95461999999998
 11
147.25253249999997
 21
474.95461999999998
  0
LINE
  8
_0-0_0
  6
CONTINUOUS
 62
    7
 10
147.00253249999997
 20
475.226654
 11
147.25253249999997
 21
474.95461999999998
  0
LINE
  8
_0-0_0
  6
CONTINUOUS
 62
    7
 10
156.50253249999997
 20
474.91366599999998
 11
147.25253249999997
 21
474.91366599999998
  0
LINE
  8
_0-0_0
  6
CONTINUOUS
 62
    7
 10
147.00253249999997
 20
475.17767299999997
 11
147.25253249999997
 21
474.91366599999998
  0
LINE
  8
_0-0_0
  6
CONTINUOUS
 62
    7
 10
156.50253249999997
 20
474.89999399999999
 11
147.25253249999997
 21
474.89999399999999
  0
LINE
  8
_0-0_0
  6
CONTINUOUS
 62
    7
 10
147.00253249999997
 20
475.153076
 11
147.25253249999997
 21
474.89999399999999
  0
LINE
  8
_0-0_0
  6
CONTINUOUS
 62
    7
 10
156.50253249999997
 20
479.56506400000001
 11
147.25253249999997
 21
479.56506400000001
  0
LINE
  8
_0-0_0
  6
CONTINUOUS
 62
    7
 10
156.75253249999997
 20
479.40475499999997
 11
156.62258949999995
 21
479.48861699999998
  0
LINE
  8
_0-0_0
  6
CONTINUOUS
 62
    7
 10
147.00253249999997
 20
479.40475499999997
 11
147.13250749999997
 21
479.48861699999998
  0
LINE
  8
_0-0_0
  6
CONTINUOUS
 62
    7
 10
147.13250749999997
 20
479.48861699999998
 11
147.25253249999997
 21
479.56506400000001
  0
LINE
  8
_0-0_0
  6
CONTINUOUS
 62
    7
 10
156.50253249999997
 20
479.42251599999997
 11
147.25253249999997
 21
479.42251599999997
  0
LINE
  8
_0-0_0
  6
CONTINUOUS
 62
    7
 10
147.00253249999997
 20
479.28698700000001
 11
147.25253249999997
 21
479.42251599999997
  0
LINE
  8
_0-0_0
  6
CONTINUOUS
 62
    7
 10
156.75253249999997
 20
479.40475499999997
 11
156.50253249999997
 21
479.68383799999998
  0
LINE
  8
_0-0_0
  6
CONTINUOUS
 62
    7
 10
156.50253249999997
 20
479.68383799999998
 11
147.25253249999997
 21
479.68383799999998
  0
LINE
  8
_0-0_0
  6
CONTINUOUS
 62
    7
 10
147.00253249999997
 20
479.40475499999997
 11
147.25253249999997
 21
479.68383799999998
  0
LINE
  8
_0-0_0
  6
CONTINUOUS
 62
    7
 10
156.75253249999997
 20
479.50054899999998
 11
156.50253249999997
 21
479.68383799999998
  0
LINE
  8
_0-0_0
  6
CONTINUOUS
 62
    7
 10
147.00253249999997
 20
479.50054899999998
 11
147.25253249999997
 21
479.68383799999998
  0
LINE
  8
_0-0_0
  6
CONTINUOUS
 62
    7
 10
156.75253249999997
 20
479.50054899999998
 11
156.50253249999997
 21
479.77761900000002
  0
LINE
  8
_0-0_0
  6
CONTINUOUS
 62
    7
 10
156.50253249999997
 20
479.77761900000002
 11
147.25253249999997
 21
479.77761900000002
  0
LINE
  8
_0-0_0
  6
CONTINUOUS
 62
    7
 10
147.00253249999997
 20
479.50054899999998
 11
147.25253249999997
 21
479.77761900000002
  0
LINE
  8
_0-0_0
  6
CONTINUOUS
 62
    7
 10
156.75253249999997
 20
479.57333399999999
 11
156.50253249999997
 21
479.77761900000002
  0
LINE
  8
_0-0_0
  6
CONTINUOUS
 62
    7
 10
147.00253249999997
 20
479.57333399999999
 11
147.25253249999997
 21
479.77761900000002
  0
LINE
  8
_0-0_0
  6
CONTINUOUS
 62
    7
 10
156.75253249999997
 20
479.57333399999999
 11
156.50253249999997
 21
479.84536800000001
  0
LINE
  8
_0-0_0
  6
CONTINUOUS
 62
    7
 10
156.50253249999997
 20
479.84536800000001
 11
147.25253249999997
 21
479.84536800000001
  0
LINE
  8
_0-0_0
  6
CONTINUOUS
 62
    7
 10
147.00253249999997
 20
479.57333399999999
 11
147.25253249999997
 21
479.84536800000001
  0
LINE
  8
_0-0_0
  6
CONTINUOUS
 62
    7
 10
156.75253249999997
 20
479.62228399999998
 11
156.50253249999997
 21
479.84536800000001
  0
LINE
  8
_0-0_0
  6
CONTINUOUS
 62
    7
 10
147.00253249999997
 20
479.62228399999998
 11
147.25253249999997
 21
479.84536800000001
  0
LINE
  8
_0-0_0
  6
CONTINUOUS
 62
    7
 10
156.75253249999997
 20
479.62228399999998
 11
156.50253249999997
 21
479.88629199999997
  0
LINE
  8
_0-0_0
  6
CONTINUOUS
 62
    7
 10
156.50253249999997
 20
479.88629199999997
 11
147.25253249999997
 21
479.88629199999997
  0
LINE
  8
_0-0_0
  6
CONTINUOUS
 62
    7
 10
147.00253249999997
 20
479.62228399999998
 11
147.25253249999997
 21
479.88629199999997
  0
LINE
  8
_0-0_0
  6
CONTINUOUS
 62
    7
 10
156.75253249999997
 20
479.64691199999999
 11
156.50253249999997
 21
479.88629199999997
  0
LINE
  8
_0-0_0
  6
CONTINUOUS
 62
    7
 10
147.00253249999997
 20
479.64691199999999
 11
147.25253249999997
 21
479.88629199999997
  0
LINE
  8
_0-0_0
  6
CONTINUOUS
 62
    7
 10
156.75253249999997
 20
479.64691199999999
 11
156.50253249999997
 21
479.89999399999999
  0
LINE
  8
_0-0_0
  6
CONTINUOUS
 62
    7
 10
156.50253249999997
 20
479.89999399999999
 11
147.25253249999997
 21
479.89999399999999
  0
LINE
  8
_0-0_0
  6
CONTINUOUS
 62
    7
 10
147.00253249999997
 20
479.64691199999999
 11
147.25253249999997
 21
479.89999399999999
  0
LINE
  8
_0-0_0
  6
CONTINUOUS
 62
    7
 10
202.20254549999999
 20
465.09997599999997
 11
202.20254549999999
 21
465.10134899999997
  0
LINE
  8
_0-0_0
  6
CONTINUOUS
 62
    7
 10
202.20254549999999
 20
465.10134899999997
 11
202.20254549999999
 21
473.09997599999997
  0
LINE
  8
_0-0_0
  6
CONTINUOUS
 62
    7
 10
147.00253249999997
 20
479.28698700000001
 11
147.25253249999997
 21
479.56506400000001
  0
LINE
  8
_0-0_0
  6
CONTINUOUS
 62
    7
 10
157.00253249999997
 20
479.15515099999999
 11
157.00253249999997
 21
479.39999399999999
  0
LINE
  8
_0-0_0
  6
CONTINUOUS
 62
    7
 10
147.00253249999997
 20
475.153076
 11
147.25253249999997
 21
474.91366599999998
  0
LINE
  8
_0-0_0
  6
CONTINUOUS
 62
    7
 10
147.00253249999997
 20
475.17767299999997
 11
147.25253249999997
 21
474.95461999999998
  0
LINE
  8
_0-0_0
  6
CONTINUOUS
 62
    7
 10
147.00253249999997
 20
475.226654
 11
147.25253249999997
 21
475.02233899999999
  0
LINE
  8
_0-0_0
  6
CONTINUOUS
 62
    7
 10
147.00253249999997
 20
475.29943900000001
 11
147.25253249999997
 21
475.11611899999997
  0
LINE
  8
_0-0_0
  6
CONTINUOUS
 62
    7
 10
147.00253249999997
 20
475.39523300000002
 11
147.25253249999997
 21
475.23492399999998
  0
LINE
  8
_0-0_0
  6
CONTINUOUS
 62
    7
 10
147.00253249999997
 20
475.51297
 11
147.25253249999997
 21
475.37744199999997
  0
LINE
  8
_0-0_0
  6
CONTINUOUS
 62
    7
 10
147.00253249999997
 20
475.65139799999997
 11
147.25253249999997
 21
475.54211399999997
  0
LINE
  8
_0-0_0
  6
CONTINUOUS
 62
    7
 10
147.00253249999997
 20
475.80899099999999
 11
147.25253249999997
 21
475.72717299999999
  0
LINE
  8
_0-0_0
  6
CONTINUOUS
 62
    7
 10
156.50253249999997
 20
475.93051199999996
 11
147.25253249999997
 21
475.93051199999996
  0
LINE
  8
_0-0_0
  6
CONTINUOUS
 62
    7
 10
147.00253249999997
 20
475.98400900000001
 11
147.25253249999997
 21
475.93051199999996
  0
LINE
  8
_0-0_0
  6
CONTINUOUS
 62
    7
 10
147.00253249999997
 20
476.37851000000001
 11
147.25253249999997
 21
476.38314800000001
  0
LINE
  8
_0-0_0
  6
CONTINUOUS
 62
    7
 10
156.75253249999997
 20
476.37851000000001
 11
147.00253249999997
 21
476.37851000000001
  0
LINE
  8
_0-0_0
  6
CONTINUOUS
 62
    7
 10
147.00253249999997
 20
476.593659
 11
147.25253249999997
 21
476.62744199999997
  0
LINE
  8
_0-0_0
  6
CONTINUOUS
 62
    7
 10
147.00253249999997
 20
476.81765799999999
 11
147.25253249999997
 21
476.88021900000001
  0
LINE
  8
_0-0_0
  6
CONTINUOUS
 62
    7
 10
147.00253249999997
 20
477.04800399999999
 11
147.25253249999997
 21
477.13867199999999
  0
LINE
  8
_0-0_0
  6
CONTINUOUS
 62
    7
 10
147.00253249999997
 20
477.28222699999998
 11
147.25253249999997
 21
477.39999399999999
  0
LINE
  8
_0-0_0
  6
CONTINUOUS
 62
    7
 10
147.00253249999997
 20
477.51773099999997
 11
147.25253249999997
 21
477.661316
  0
LINE
  8
_0-0_0
  6
CONTINUOUS
 62
    7
 10
147.00253249999997
 20
477.75195300000001
 11
147.25253249999997
 21
477.91976899999997
  0
LINE
  8
_0-0_0
  6
CONTINUOUS
 62
    7
 10
147.00253249999997
 20
477.98232999999999
 11
147.25253249999997
 21
478.17251599999997
  0
LINE
  8
_0-0_0
  6
CONTINUOUS
 62
    7
 10
147.00253249999997
 20
478.20632899999998
 11
147.25253249999997
 21
478.41683999999998
  0
LINE
  8
_0-0_0
  6
CONTINUOUS
 62
    7
 10
147.00253249999997
 20
478.42147799999998
 11
147.25253249999997
 21
478.64999399999999
  0
LINE
  8
_0-0_0
  6
CONTINUOUS
 62
    7
 10
147.00253249999997
 20
478.625427
 11
147.25253249999997
 21
478.86944599999998
  0
LINE
  8
_0-0_0
  6
CONTINUOUS
 62
    7
 10
147.00253249999997
 20
478.81594899999999
 11
147.25253249999997
 21
479.07281499999999
  0
LINE
  8
_0-0_0
  6
CONTINUOUS
 62
    7
 10
147.00253249999997
 20
478.99096700000001
 11
147.25253249999997
 21
479.25784299999998
  0
LINE
  8
_0-0_0
  6
CONTINUOUS
 62
    7
 10
147.00253249999997
 20
479.14855999999997
 11
147.25253249999997
 21
479.42251599999997
  0
LINE
  8
_0-0_0
  6
CONTINUOUS
 62
    7
 10
147.00253249999997
 20
476.17456099999998
 11
147.25253249999997
 21
475.93051199999996
  0
LINE
  8
_0-0_0
  6
CONTINUOUS
 62
    7
 10
147.00253249999997
 20
476.37851000000001
 11
147.25253249999997
 21
476.14999399999999
  0
LINE
  8
_0-0_0
  6
CONTINUOUS
 62
    7
 10
147.00253249999997
 20
462.686981
 11
147.25253249999997
 21
462.965057
  0
LINE
  8
_0-0_0
  6
CONTINUOUS
 62
    7
 10
157.00253249999997
 20
462.55514499999998
 11
157.00253249999997
 21
462.79998799999998
  0
LINE
  8
_0-0_0
  6
CONTINUOUS
 62
    7
 10
147.00253249999997
 20
458.55306999999999
 11
147.25253249999997
 21
458.31369000000001
  0
LINE
  8
_0-0_0
  6
CONTINUOUS
 62
    7
 10
147.00253249999997
 20
458.577698
 11
147.25253249999997
 21
458.35461399999997
  0
LINE
  8
_0-0_0
  6
CONTINUOUS
 62
    7
 10
147.00253249999997
 20
458.62664799999999
 11
147.25253249999997
 21
458.42233299999998
  0
LINE
  8
_0-0_0
  6
CONTINUOUS
 62
    7
 10
147.00253249999997
 20
458.699432
 11
147.25253249999997
 21
458.51611300000002
  0
LINE
  8
_0-0_0
  6
CONTINUOUS
 62
    7
 10
147.00253249999997
 20
458.79522700000001
 11
147.25253249999997
 21
458.63491799999997
  0
LINE
  8
_0-0_0
  6
CONTINUOUS
 62
    7
 10
147.00253249999997
 20
458.91299399999997
 11
147.25253249999997
 21
458.77743499999997
  0
LINE
  8
_0-0_0
  6
CONTINUOUS
 62
    7
 10
147.00253249999997
 20
459.051422
 11
147.25253249999997
 21
458.94210800000002
  0
LINE
  8
_0-0_0
  6
CONTINUOUS
 62
    7
 10
147.00253249999997
 20
459.20898399999999
 11
147.25253249999997
 21
459.12716699999999
  0
LINE
  8
_0-0_0
  6
CONTINUOUS
 62
    7
 10
156.50253249999997
 20
459.330536
 11
147.25253249999997
 21
459.330536
  0
LINE
  8
_0-0_0
  6
CONTINUOUS
 62
    7
 10
147.00253249999997
 20
459.38400300000001
 11
147.25253249999997
 21
459.330536
  0
LINE
  8
_0-0_0
  6
CONTINUOUS
 62
    7
 10
147.00253249999997
 20
459.778504
 11
147.25253249999997
 21
459.783142
  0
LINE
  8
_0-0_0
  6
CONTINUOUS
 62
    7
 10
156.75253249999997
 20
459.778504
 11
147.00253249999997
 21
459.778504
  0
LINE
  8
_0-0_0
  6
CONTINUOUS
 62
    7
 10
147.00253249999997
 20
459.993652
 11
147.25253249999997
 21
460.02743499999997
  0
LINE
  8
_0-0_0
  6
CONTINUOUS
 62
    7
 10
147.00253249999997
 20
460.21765099999999
 11
147.25253249999997
 21
460.280213
  0
LINE
  8
_0-0_0
  6
CONTINUOUS
 62
    7
 10
147.00253249999997
 20
460.44799799999998
 11
147.25253249999997
 21
460.53866599999998
  0
LINE
  8
_0-0_0
  6
CONTINUOUS
 62
    7
 10
147.00253249999997
 20
460.68222099999997
 11
147.25253249999997
 21
460.79998799999998
  0
LINE
  8
_0-0_0
  6
CONTINUOUS
 62
    7
 10
147.00253249999997
 20
460.917755
 11
147.25253249999997
 21
461.06130999999999
  0
LINE
  8
_0-0_0
  6
CONTINUOUS
 62
    7
 10
147.00253249999997
 20
461.15197799999999
 11
147.25253249999997
 21
461.31976299999997
  0
LINE
  8
_0-0_0
  6
CONTINUOUS
 62
    7
 10
147.00253249999997
 20
461.38232399999998
 11
147.25253249999997
 21
461.57254
  0
LINE
  8
_0-0_0
  6
CONTINUOUS
 62
    7
 10
147.00253249999997
 20
461.60632299999997
 11
147.25253249999997
 21
461.81683399999997
  0
LINE
  8
_0-0_0
  6
CONTINUOUS
 62
    7
 10
147.00253249999997
 20
461.82147199999997
 11
147.25253249999997
 21
462.04998799999998
  0
LINE
  8
_0-0_0
  6
CONTINUOUS
 62
    7
 10
147.00253249999997
 20
462.02542099999999
 11
147.25253249999997
 21
462.26943999999997
  0
LINE
  8
_0-0_0
  6
CONTINUOUS
 62
    7
 10
147.00253249999997
 20
462.21597300000002
 11
147.25253249999997
 21
462.47280899999998
  0
LINE
  8
_0-0_0
  6
CONTINUOUS
 62
    7
 10
147.00253249999997
 20
462.390961
 11
147.25253249999997
 21
462.65783699999997
  0
LINE
  8
_0-0_0
  6
CONTINUOUS
 62
    7
 10
147.00253249999997
 20
462.54855399999997
 11
147.25253249999997
 21
462.82254
  0
LINE
  8
_0-0_0
  6
CONTINUOUS
 62
    7
 10
147.00253249999997
 20
459.57455499999998
 11
147.25253249999997
 21
459.330536
  0
LINE
  8
_0-0_0
  6
CONTINUOUS
 62
    7
 10
147.00253249999997
 20
459.778504
 11
147.25253249999997
 21
459.54998799999998
  0
LINE
  8
_0-0_0
  6
CONTINUOUS
 62
    7
 10
144.20254549999999
 20
464.56185899999997
 11
144.20254549999999
 21
466.83093300000002
  0
LINE
  8
_0-0_0
  6
CONTINUOUS
 62
    7
 10
144.20254549999999
 20
466.83093300000002
 11
144.20254549999999
 21
473.63809199999997
  0
LINE
  8
_0-0_0
  6
CONTINUOUS
 62
    7
 10
147.00253249999997
 20
476.37851000000001
 11
147.00253249999997
 21
476.593659
  0
LINE
  8
_0-0_0
  6
CONTINUOUS
 62
    7
 10
147.00253249999997
 20
476.593659
 11
147.00253249999997
 21
476.81765799999999
  0
LINE
  8
_0-0_0
  6
CONTINUOUS
 62
    7
 10
147.00253249999997
 20
476.81765799999999
 11
147.00253249999997
 21
477.04800399999999
  0
LINE
  8
_0-0_0
  6
CONTINUOUS
 62
    7
 10
147.00253249999997
 20
477.04800399999999
 11
147.00253249999997
 21
477.28222699999998
  0
LINE
  8
_0-0_0
  6
CONTINUOUS
 62
    7
 10
147.00253249999997
 20
477.28222699999998
 11
147.00253249999997
 21
477.51773099999997
  0
LINE
  8
_0-0_0
  6
CONTINUOUS
 62
    7
 10
147.00253249999997
 20
477.51773099999997
 11
147.00253249999997
 21
477.75195300000001
  0
LINE
  8
_0-0_0
  6
CONTINUOUS
 62
    7
 10
147.00253249999997
 20
477.75195300000001
 11
147.00253249999997
 21
477.98232999999999
  0
LINE
  8
_0-0_0
  6
CONTINUOUS
 62
    7
 10
147.00253249999997
 20
477.98232999999999
 11
147.00253249999997
 21
478.20632899999998
  0
LINE
  8
_0-0_0
  6
CONTINUOUS
 62
    7
 10
147.00253249999997
 20
478.20632899999998
 11
147.00253249999997
 21
478.42147799999998
  0
LINE
  8
_0-0_0
  6
CONTINUOUS
 62
    7
 10
147.00253249999997
 20
478.42147799999998
 11
147.00253249999997
 21
478.625427
  0
LINE
  8
_0-0_0
  6
CONTINUOUS
 62
    7
 10
147.00253249999997
 20
478.625427
 11
147.00253249999997
 21
478.81594899999999
  0
LINE
  8
_0-0_0
  6
CONTINUOUS
 62
    7
 10
147.00253249999997
 20
478.81594899999999
 11
147.00253249999997
 21
478.99096700000001
  0
LINE
  8
_0-0_0
  6
CONTINUOUS
 62
    7
 10
147.00253249999997
 20
478.99096700000001
 11
147.00253249999997
 21
479.14855999999997
  0
LINE
  8
_0-0_0
  6
CONTINUOUS
 62
    7
 10
147.00253249999997
 20
479.14855999999997
 11
147.00253249999997
 21
479.28698700000001
  0
LINE
  8
_0-0_0
  6
CONTINUOUS
 62
    7
 10
147.00253249999997
 20
479.28698700000001
 11
147.00253249999997
 21
479.37454200000002
  0
LINE
  8
_0-0_0
  6
CONTINUOUS
 62
    7
 10
147.00253249999997
 20
479.37454200000002
 11
147.00253249999997
 21
479.40475499999997
  0
LINE
  8
_0-0_0
  6
CONTINUOUS
 62
    7
 10
147.00253249999997
 20
479.40475499999997
 11
147.00253249999997
 21
479.50054899999998
  0
LINE
  8
_0-0_0
  6
CONTINUOUS
 62
    7
 10
147.00253249999997
 20
479.50054899999998
 11
147.00253249999997
 21
479.57333399999999
  0
LINE
  8
_0-0_0
  6
CONTINUOUS
 62
    7
 10
147.00253249999997
 20
479.57333399999999
 11
147.00253249999997
 21
479.64999399999999
  0
LINE
  8
_0-0_0
  6
CONTINUOUS
 62
    7
 10
147.00253249999997
 20
479.62228399999998
 11
147.00253249999997
 21
479.64691199999999
  0
LINE
  8
_0-0_0
  6
CONTINUOUS
 62
    7
 10
147.00253249999997
 20
479.64691199999999
 11
147.00253249999997
 21
479.64999399999999
  0
LINE
  8
_0-0_0
  6
CONTINUOUS
 62
    7
 10
147.00253249999997
 20
475.14999399999999
 11
147.00253249999997
 21
475.153076
  0
LINE
  8
_0-0_0
  6
CONTINUOUS
 62
    7
 10
147.00253249999997
 20
475.153076
 11
147.00253249999997
 21
475.17767299999997
  0
LINE
  8
_0-0_0
  6
CONTINUOUS
 62
    7
 10
147.00253249999997
 20
475.17767299999997
 11
147.00253249999997
 21
475.226654
  0
LINE
  8
_0-0_0
  6
CONTINUOUS
 62
    7
 10
147.00253249999997
 20
475.14999399999999
 11
147.00253249999997
 21
475.29943900000001
  0
LINE
  8
_0-0_0
  6
CONTINUOUS
 62
    7
 10
147.00253249999997
 20
475.29943900000001
 11
147.00253249999997
 21
475.39523300000002
  0
LINE
  8
_0-0_0
  6
CONTINUOUS
 62
    7
 10
147.00253249999997
 20
475.39523300000002
 11
147.00253249999997
 21
475.51297
  0
LINE
  8
_0-0_0
  6
CONTINUOUS
 62
    7
 10
147.00253249999997
 20
475.51297
 11
147.00253249999997
 21
475.65139799999997
  0
LINE
  8
_0-0_0
  6
CONTINUOUS
 62
    7
 10
147.00253249999997
 20
475.65139799999997
 11
147.00253249999997
 21
475.80899099999999
  0
LINE
  8
_0-0_0
  6
CONTINUOUS
 62
    7
 10
147.00253249999997
 20
475.80899099999999
 11
147.00253249999997
 21
475.98400900000001
  0
LINE
  8
_0-0_0
  6
CONTINUOUS
 62
    7
 10
147.00253249999997
 20
475.98400900000001
 11
147.00253249999997
 21
476.17456099999998
  0
LINE
  8
_0-0_0
  6
CONTINUOUS
 62
    7
 10
147.00253249999997
 20
476.32128899999998
 11
147.00253249999997
 21
476.37851000000001
  0
LINE
  8
_0-0_0
  6
CONTINUOUS
 62
    7
 10
147.00253249999997
 20
476.17456099999998
 11
147.00253249999997
 21
476.32128899999998
  0
LINE
  8
_0-0_0
  6
CONTINUOUS
 62
    7
 10
147.00253249999997
 20
459.778504
 11
147.00253249999997
 21
459.993652
  0
LINE
  8
_0-0_0
  6
CONTINUOUS
 62
    7
 10
147.00253249999997
 20
459.993652
 11
147.00253249999997
 21
460.21765099999999
  0
LINE
  8
_0-0_0
  6
CONTINUOUS
 62
    7
 10
147.00253249999997
 20
460.21765099999999
 11
147.00253249999997
 21
460.44799799999998
  0
LINE
  8
_0-0_0
  6
CONTINUOUS
 62
    7
 10
147.00253249999997
 20
460.44799799999998
 11
147.00253249999997
 21
460.68222099999997
  0
LINE
  8
_0-0_0
  6
CONTINUOUS
 62
    7
 10
147.00253249999997
 20
460.68222099999997
 11
147.00253249999997
 21
460.917755
  0
LINE
  8
_0-0_0
  6
CONTINUOUS
 62
    7
 10
147.00253249999997
 20
460.917755
 11
147.00253249999997
 21
461.15197799999999
  0
LINE
  8
_0-0_0
  6
CONTINUOUS
 62
    7
 10
147.00253249999997
 20
461.15197799999999
 11
147.00253249999997
 21
461.38232399999998
  0
LINE
  8
_0-0_0
  6
CONTINUOUS
 62
    7
 10
147.00253249999997
 20
461.38232399999998
 11
147.00253249999997
 21
461.60632299999997
  0
LINE
  8
_0-0_0
  6
CONTINUOUS
 62
    7
 10
147.00253249999997
 20
461.60632299999997
 11
147.00253249999997
 21
461.82147199999997
  0
LINE
  8
_0-0_0
  6
CONTINUOUS
 62
    7
 10
147.00253249999997
 20
461.82147199999997
 11
147.00253249999997
 21
462.02542099999999
  0
LINE
  8
_0-0_0
  6
CONTINUOUS
 62
    7
 10
147.00253249999997
 20
462.02542099999999
 11
147.00253249999997
 21
462.21597300000002
  0
LINE
  8
_0-0_0
  6
CONTINUOUS
 62
    7
 10
147.00253249999997
 20
462.21597300000002
 11
147.00253249999997
 21
462.390961
  0
LINE
  8
_0-0_0
  6
CONTINUOUS
 62
    7
 10
147.00253249999997
 20
462.390961
 11
147.00253249999997
 21
462.54855399999997
  0
LINE
  8
_0-0_0
  6
CONTINUOUS
 62
    7
 10
147.00253249999997
 20
462.54855399999997
 11
147.00253249999997
 21
462.686981
  0
LINE
  8
_0-0_0
  6
CONTINUOUS
 62
    7
 10
147.00253249999997
 20
462.686981
 11
147.00253249999997
 21
462.77453600000001
  0
LINE
  8
_0-0_0
  6
CONTINUOUS
 62
    7
 10
147.00253249999997
 20
462.77453600000001
 11
147.00253249999997
 21
462.80474900000002
  0
LINE
  8
_0-0_0
  6
CONTINUOUS
 62
    7
 10
147.00253249999997
 20
462.80474900000002
 11
147.00253249999997
 21
462.90054299999997
  0
LINE
  8
_0-0_0
  6
CONTINUOUS
 62
    7
 10
147.00253249999997
 20
462.90054299999997
 11
147.00253249999997
 21
462.97332799999998
  0
LINE
  8
_0-0_0
  6
CONTINUOUS
 62
    7
 10
147.00253249999997
 20
462.97332799999998
 11
147.00253249999997
 21
463.04998799999998
  0
LINE
  8
_0-0_0
  6
CONTINUOUS
 62
    7
 10
147.00253249999997
 20
463.02227799999997
 11
147.00253249999997
 21
463.04690599999998
  0
LINE
  8
_0-0_0
  6
CONTINUOUS
 62
    7
 10
147.00253249999997
 20
463.04690599999998
 11
147.00253249999997
 21
463.04998799999998
  0
LINE
  8
_0-0_0
  6
CONTINUOUS
 62
    7
 10
147.00253249999997
 20
458.54998799999998
 11
147.00253249999997
 21
458.55306999999999
  0
LINE
  8
_0-0_0
  6
CONTINUOUS
 62
    7
 10
147.00253249999997
 20
458.55306999999999
 11
147.00253249999997
 21
458.577698
  0
LINE
  8
_0-0_0
  6
CONTINUOUS
 62
    7
 10
147.00253249999997
 20
458.577698
 11
147.00253249999997
 21
458.62664799999999
  0
LINE
  8
_0-0_0
  6
CONTINUOUS
 62
    7
 10
147.00253249999997
 20
458.54998799999998
 11
147.00253249999997
 21
458.699432
  0
LINE
  8
_0-0_0
  6
CONTINUOUS
 62
    7
 10
147.00253249999997
 20
458.699432
 11
147.00253249999997
 21
458.79522700000001
  0
LINE
  8
_0-0_0
  6
CONTINUOUS
 62
    7
 10
147.00253249999997
 20
458.79522700000001
 11
147.00253249999997
 21
458.91299399999997
  0
LINE
  8
_0-0_0
  6
CONTINUOUS
 62
    7
 10
147.00253249999997
 20
458.91299399999997
 11
147.00253249999997
 21
459.051422
  0
LINE
  8
_0-0_0
  6
CONTINUOUS
 62
    7
 10
147.00253249999997
 20
459.051422
 11
147.00253249999997
 21
459.20898399999999
  0
LINE
  8
_0-0_0
  6
CONTINUOUS
 62
    7
 10
147.00253249999997
 20
459.20898399999999
 11
147.00253249999997
 21
459.38400300000001
  0
LINE
  8
_0-0_0
  6
CONTINUOUS
 62
    7
 10
147.00253249999997
 20
459.38400300000001
 11
147.00253249999997
 21
459.57455499999998
  0
LINE
  8
_0-0_0
  6
CONTINUOUS
 62
    7
 10
147.00253249999997
 20
459.72128299999997
 11
147.00253249999997
 21
459.778504
  0
LINE
  8
_0-0_0
  6
CONTINUOUS
 62
    7
 10
147.00253249999997
 20
459.57455499999998
 11
147.00253249999997
 21
459.72128299999997
  0
LINE
  8
_0-0_0
  6
CONTINUOUS
 62
    7
 10
143.40252649999996
 20
466.59997599999997
 11
143.40252649999996
 21
474.09997599999997
  0
LINE
  8
_0-0_0
  6
CONTINUOUS
 62
    7
 10
143.40252649999996
 20
464.09997599999997
 11
143.40252649999996
 21
466.59997599999997
  0
LINE
  8
_0-0_0
  6
CONTINUOUS
 62
    7
 10
132.00253249999997
 20
475.59997599999997
 11
141.71035749999999
 21
475.59997599999997
  0
LINE
  8
_0-0_0
  6
CONTINUOUS
 62
    7
 10
141.75253249999997
 20
475.59997599999997
 11
141.71035749999999
 21
475.59997599999997
  0
LINE
  8
_0-0_0
  6
CONTINUOUS
 62
    7
 10
131.70254549999999
 20
466.88797
 11
131.76135249999999
 21
466.64111300000002
  0
LINE
  8
_0-0_0
  6
CONTINUOUS
 62
    7
 10
131.76135249999999
 20
466.64111300000002
 11
131.81109649999996
 21
466.44879199999997
  0
LINE
  8
_0-0_0
  6
CONTINUOUS
 62
    7
 10
131.81109649999996
 20
466.44879199999997
 11
131.88223249999999
 21
466.18304499999999
  0
LINE
  8
_0-0_0
  6
CONTINUOUS
 62
    7
 10
131.88223249999999
 20
466.18304499999999
 11
131.91519149999999
 21
466.05633599999999
  0
LINE
  8
_0-0_0
  6
CONTINUOUS
 62
    7
 10
131.91519149999999
 20
466.05633599999999
 11
131.94042949999999
 21
465.95291099999997
  0
LINE
  8
_0-0_0
  6
CONTINUOUS
 62
    7
 10
131.94042949999999
 20
465.95291099999997
 11
131.96246349999996
 21
465.852936
  0
LINE
  8
_0-0_0
  6
CONTINUOUS
 62
    7
 10
131.96246349999996
 20
465.852936
 11
131.98385649999994
 21
465.73523
  0
LINE
  8
_0-0_0
  6
CONTINUOUS
 62
    7
 10
131.98385649999994
 20
465.73523
 11
131.99243149999995
 21
465.67309599999999
  0
LINE
  8
_0-0_0
  6
CONTINUOUS
 62
    7
 10
131.99243149999995
 20
465.67309599999999
 11
131.99850449999997
 21
465.61248799999998
  0
LINE
  8
_0-0_0
  6
CONTINUOUS
 62
    7
 10
131.99850449999997
 20
465.61248799999998
 11
132.00152549999996
 21
465.56326300000001
  0
LINE
  8
_0-0_0
  6
CONTINUOUS
 62
    7
 10
132.00152549999996
 20
465.56326300000001
 11
132.00253249999997
 21
465.51504499999999
  0
LINE
  8
_0-0_0
  6
CONTINUOUS
 62
    7
 10
131.70254549999999
 20
471.311981
 11
131.76132149999995
 21
471.558807
  0
LINE
  8
_0-0_0
  6
CONTINUOUS
 62
    7
 10
131.76132149999995
 20
471.558807
 11
131.81109649999996
 21
471.75115999999997
  0
LINE
  8
_0-0_0
  6
CONTINUOUS
 62
    7
 10
131.81109649999996
 20
471.75115999999997
 11
131.88223249999999
 21
472.01693699999998
  0
LINE
  8
_0-0_0
  6
CONTINUOUS
 62
    7
 10
131.88223249999999
 20
472.01693699999998
 11
131.91519149999999
 21
472.14367699999997
  0
LINE
  8
_0-0_0
  6
CONTINUOUS
 62
    7
 10
131.91519149999999
 20
472.14367699999997
 11
131.94046049999997
 21
472.24707000000001
  0
LINE
  8
_0-0_0
  6
CONTINUOUS
 62
    7
 10
131.94046049999997
 20
472.24707000000001
 11
131.96246349999996
 21
472.347015
  0
LINE
  8
_0-0_0
  6
CONTINUOUS
 62
    7
 10
131.96246349999996
 20
472.347015
 11
131.98385649999994
 21
472.46472199999999
  0
LINE
  8
_0-0_0
  6
CONTINUOUS
 62
    7
 10
131.98385649999994
 20
472.46472199999999
 11
131.99243149999995
 21
472.52685600000001
  0
LINE
  8
_0-0_0
  6
CONTINUOUS
 62
    7
 10
131.99243149999995
 20
472.52685600000001
 11
131.99850449999997
 21
472.58746300000001
  0
LINE
  8
_0-0_0
  6
CONTINUOUS
 62
    7
 10
131.99850449999997
 20
472.58746300000001
 11
132.00152549999996
 21
472.63671899999997
  0
LINE
  8
_0-0_0
  6
CONTINUOUS
 62
    7
 10
132.00152549999996
 20
472.63671899999997
 11
132.00253249999997
 21
472.68493699999999
  0
LINE
  8
_0-0_0
  6
CONTINUOUS
 62
    7
 10
132.00253249999997
 20
467.53793300000001
 11
132.00253249999997
 21
466.492279
  0
LINE
  8
_0-0_0
  6
CONTINUOUS
 62
    7
 10
132.00253249999997
 20
465.207672
 11
132.00253249999997
 21
466.492279
  0
LINE
  8
_0-0_0
  6
CONTINUOUS
 62
    7
 10
132.00253249999997
 20
465.092285
 11
132.00253249999997
 21
465.207672
  0
ARC
  8
_0-0_0
  6
CONTINUOUS
 62
    7
 10
130.00253249999997
 20
476.45846599999999
 40
2
 50
0
 51
71.565000999999995
  0
LINE
  8
_0-0_0
  6
CONTINUOUS
 62
    7
 10
141.71035749999999
 20
475.59997599999997
 11
141.76486149999999
 21
475.53005999999999
  0
LINE
  8
_0-0_0
  6
CONTINUOUS
 62
    7
 10
141.76486149999999
 20
475.53005999999999
 11
141.81594849999999
 21
475.46121199999999
  0
LINE
  8
_0-0_0
  6
CONTINUOUS
 62
    7
 10
141.81594849999999
 20
475.46121199999999
 11
141.86358649999994
 21
475.39370700000001
  0
LINE
  8
_0-0_0
  6
CONTINUOUS
 62
    7
 10
141.86358649999994
 20
475.39370700000001
 11
141.90808049999998
 21
475.327179
  0
LINE
  8
_0-0_0
  6
CONTINUOUS
 62
    7
 10
141.90808049999998
 20
475.327179
 11
141.96279849999996
 21
475.23962399999999
  0
LINE
  8
_0-0_0
  6
CONTINUOUS
 62
    7
 10
141.96279849999996
 20
475.23962399999999
 11
142.01232949999996
 21
475.15353399999998
  0
LINE
  8
_0-0_0
  6
CONTINUOUS
 62
    7
 10
142.01232949999996
 20
475.15353399999998
 11
142.05679349999997
 21
475.06869499999999
  0
LINE
  8
_0-0_0
  6
CONTINUOUS
 62
    7
 10
142.05679349999997
 20
475.06869499999999
 11
142.10375949999997
 21
474.96838400000001
  0
LINE
  8
_0-0_0
  6
CONTINUOUS
 62
    7
 10
142.10375949999997
 20
474.96838400000001
 11
142.14395149999996
 21
474.86944599999998
  0
LINE
  8
_0-0_0
  6
CONTINUOUS
 62
    7
 10
142.14395149999996
 20
474.86944599999998
 11
142.17761249999995
 21
474.77169800000001
  0
LINE
  8
_0-0_0
  6
CONTINUOUS
 62
    7
 10
142.17761249999995
 20
474.77169800000001
 11
142.20492549999994
 21
474.67489599999999
  0
LINE
  8
_0-0_0
  6
CONTINUOUS
 62
    7
 10
142.20492549999994
 20
474.67489599999999
 11
142.22595249999995
 21
474.57882699999999
  0
LINE
  8
_0-0_0
  6
CONTINUOUS
 62
    7
 10
142.22595249999995
 20
474.57882699999999
 11
142.24188249999997
 21
474.47497599999997
  0
LINE
  8
_0-0_0
  6
CONTINUOUS
 62
    7
 10
142.24188249999997
 20
474.47497599999997
 11
142.25064049999997
 21
474.37155200000001
  0
LINE
  8
_0-0_0
  6
CONTINUOUS
 62
    7
 10
142.25064049999997
 20
474.37155200000001
 11
142.25228849999996
 21
474.26831099999998
  0
LINE
  8
_0-0_0
  6
CONTINUOUS
 62
    7
 10
142.25228849999996
 20
474.26831099999998
 11
142.24682649999994
 21
474.16503899999998
  0
LINE
  8
_0-0_0
  6
CONTINUOUS
 62
    7
 10
142.24682649999994
 20
474.16503899999998
 11
142.23419149999995
 21
474.06143199999997
  0
LINE
  8
_0-0_0
  6
CONTINUOUS
 62
    7
 10
142.23419149999995
 20
474.06143199999997
 11
142.21438549999999
 21
473.95727499999998
  0
LINE
  8
_0-0_0
  6
CONTINUOUS
 62
    7
 10
142.21438549999999
 20
473.95727499999998
 11
142.18725549999999
 21
473.85232600000001
  0
LINE
  8
_0-0_0
  6
CONTINUOUS
 62
    7
 10
142.18725549999999
 20
473.85232600000001
 11
142.15258749999998
 21
473.746307
  0
LINE
  8
_0-0_0
  6
CONTINUOUS
 62
    7
 10
142.15258749999998
 20
473.746307
 11
142.11025949999998
 21
473.63891599999999
  0
LINE
  8
_0-0_0
  6
CONTINUOUS
 62
    7
 10
142.11025949999998
 20
473.63891599999999
 11
142.05993649999999
 21
473.52990699999998
  0
LINE
  8
_0-0_0
  6
CONTINUOUS
 62
    7
 10
142.05993649999999
 20
473.52990699999998
 11
142.00567649999999
 21
473.42678799999999
  0
LINE
  8
_0-0_0
  6
CONTINUOUS
 62
    7
 10
142.00567649999999
 20
473.42678799999999
 11
141.94396949999998
 21
473.32171599999998
  0
LINE
  8
_0-0_0
  6
CONTINUOUS
 62
    7
 10
141.94396949999998
 20
473.32171599999998
 11
141.87445049999997
 21
473.21447799999999
  0
LINE
  8
_0-0_0
  6
CONTINUOUS
 62
    7
 10
141.87445049999997
 20
473.21447799999999
 11
141.79675249999997
 21
473.10476699999998
  0
LINE
  8
_0-0_0
  6
CONTINUOUS
 62
    7
 10
141.79675249999997
 20
473.10476699999998
 11
141.71035749999999
 21
472.992279
  0
LINE
  8
_0-0_0
  6
CONTINUOUS
 62
    7
 10
132.00253249999997
 20
473.10766599999999
 11
132.00253249999997
 21
472.992279
  0
LINE
  8
_0-0_0
  6
CONTINUOUS
 62
    7
 10
132.00253249999997
 20
471.707672
 11
132.00253249999997
 21
470.66204799999997
  0
LINE
  8
_0-0_0
  6
CONTINUOUS
 62
    7
 10
132.00253249999997
 20
466.492279
 11
141.71035749999999
 21
466.492279
  0
LINE
  8
_0-0_0
  6
CONTINUOUS
 62
    7
 10
132.00253249999997
 20
465.207672
 11
141.71035749999999
 21
465.207672
  0
LINE
  8
_0-0_0
  6
CONTINUOUS
 62
    7
 10
143.00253249999997
 20
471.83154300000001
 11
143.00253249999997
 21
474.34997599999997
  0
LINE
  8
_0-0_0
  6
CONTINUOUS
 62
    7
 10
132.00253249999997
 20
476.45846599999999
 11
132.00253249999997
 21
473.10766599999999
  0
LINE
  8
_0-0_0
  6
CONTINUOUS
 62
    7
 10
121.00253249999997
 20
458.29998799999998
 11
121.00253249999997
 21
458.550049
  0
LINE
  8
_0-0_0
  6
CONTINUOUS
 62
    7
 10
96.502532499999973
 20
478.39999399999999
 11
91.502532499999973
 21
478.39999399999999
  0
ARC
  8
_0-0_0
  6
CONTINUOUS
 62
    7
 10
91.502532499999973
 20
473.89999399999999
 40
4.5
 50
90.000003000000007
 51
269.99999700000006
  0
LINE
  8
_0-0_0
  6
CONTINUOUS
 62
    7
 10
96.502532499999973
 20
469.39999399999999
 11
91.502532499999973
 21
469.39999399999999
  0
ARC
  8
_0-0_0
  6
CONTINUOUS
 62
    7
 10
96.502532499999973
 20
473.89999399999999
 40
4.5
 50
269.99999700000001
 51
90.000002999999992
  0
LINE
  8
_0-0_0
  6
CONTINUOUS
 62
    7
 10
40.502532499999973
 20
478.39999399999999
 11
35.502532499999973
 21
478.39999399999999
  0
ARC
  8
_0-0_0
  6
CONTINUOUS
 62
    7
 10
35.502532499999973
 20
473.89999399999999
 40
4.5
 50
90.000003000000007
 51
269.99999700000006
  0
LINE
  8
_0-0_0
  6
CONTINUOUS
 62
    7
 10
40.502532499999973
 20
469.39999399999999
 11
35.502532499999973
 21
469.39999399999999
  0
ARC
  8
_0-0_0
  6
CONTINUOUS
 62
    7
 10
40.502532499999973
 20
473.89999399999999
 40
4.5
 50
269.99999700000001
 51
90.000002999999992
  0
LINE
  8
_0-0_0
  6
CONTINUOUS
 62
    7
 10
65.815048499999989
 20
477.96963499999998
 11
64.515045499999928
 21
474.46963499999998
  0
LINE
  8
_0-0_0
  6
CONTINUOUS
 62
    7
 10
64.702545499999928
 20
474.19998199999998
 11
67.302535499999976
 21
474.19998199999998
  0
ARC
  8
_0-0_0
  6
CONTINUOUS
 62
    7
 10
67.302535499999976
 20
474.39999399999999
 40
0.2
 50
269.99999700000001
 51
20.376435000000019
  0
ARC
  8
_0-0_0
  6
CONTINUOUS
 62
    7
 10
66.002532499999973
 20
477.89999399999999
 40
0.2
 50
20.376434999999997
 51
159.62357000000003
  0
LINE
  8
_0-0_0
  6
CONTINUOUS
 62
    7
 10
121.00253249999997
 20
458.29998799999998
 11
121.00253249999997
 21
460.29998799999998
  0
ARC
  8
_0-0_0
  6
CONTINUOUS
 62
    7
 10
87.002532499999973
 20
464.69998199999998
 40
3
 50
180.00000900000003
 51
269.99999700000001
  0
LINE
  8
_0-0_0
  6
CONTINUOUS
 62
    7
 10
87.002532499999973
 20
461.69998199999998
 11
102.00253249999997
 21
461.69998199999998
  0
ARC
  8
_0-0_0
  6
CONTINUOUS
 62
    7
 10
102.00253249999997
 20
464.69998199999998
 40
3
 50
269.99999700000001
 51
0
  0
ARC
  8
_0-0_0
  6
CONTINUOUS
 62
    7
 10
102.00253249999997
 20
478.29998799999998
 40
3
 50
0
 51
90.000003000000007
  0
LINE
  8
_0-0_0
  6
CONTINUOUS
 62
    7
 10
102.00253249999997
 20
481.29998799999998
 11
87.002532499999973
 21
481.29998799999998
  0
ARC
  8
_0-0_0
  6
CONTINUOUS
 62
    7
 10
87.002532499999973
 20
478.29998799999998
 40
3
 50
90.000003000000007
 51
180.00000900000001
  0
ARC
  8
_0-0_0
  6
CONTINUOUS
 62
    7
 10
33.092224499999929
 20
466.78967299999999
 40
5.089683
 50
180.00000900000003
 51
269.99999700000001
  0
LINE
  8
_0-0_0
  6
CONTINUOUS
 62
    7
 10
33.092224499999929
 20
461.69998199999998
 11
44.359542499999975
 21
461.69998199999998
  0
ARC
  8
_0-0_0
  6
CONTINUOUS
 62
    7
 10
44.359542499999975
 20
465.34298699999999
 40
3.6429879999999999
 50
269.99999700000001
 51
0.0000099999999886
  0
LINE
  8
_0-0_0
  6
CONTINUOUS
 62
    7
 10
45.002532499999973
 20
481.29998799999998
 11
31.668594499999926
 21
481.29998799999998
  0
ARC
  8
_0-0_0
  6
CONTINUOUS
 62
    7
 10
31.668594499999926
 20
480.29998799999998
 40
1
 50
90.000003000000007
 51
172.23356100000001
  0
ARC
  8
_0-0_0
  6
CONTINUOUS
 62
    7
 10
29.002532499999973
 20
477.23767099999998
 40
1
 50
105.68034800000001
 51
180.00000900000001
  0
LINE
  8
_0-0_0
  6
CONTINUOUS
 62
    7
 10
86.402526499999965
 20
481.29998799999998
 11
86.402526499999965
 21
481.23937999999998
  0
LINE
  8
_0-0_0
  6
CONTINUOUS
 62
    7
 10
45.002532499999973
 20
461.75717199999997
 11
45.002532499999973
 21
461.704071
  0
LINE
  8
_0-0_0
  6
CONTINUOUS
 62
    7
 10
86.402526499999965
 20
461.76058999999998
 11
86.402526499999965
 21
461.704071
  0
LINE
  8
_0-0_0
  6
CONTINUOUS
 62
    7
 10
143.00253249999997
 20
463.84997599999997
 11
142.20254549999999
 21
463.04998799999998
  0
LINE
  8
_0-0_0
  6
CONTINUOUS
 62
    7
 10
157.00253249999997
 20
458.79998799999998
 11
156.50271549999997
 21
458.30014
  0
LINE
  8
_0-0_0
  6
CONTINUOUS
 62
    7
 10
157.00253249999997
 20
475.39999399999999
 11
156.50271549999997
 21
474.900147
  0
LINE
  8
_0-0_0
  6
CONTINUOUS
 62
    7
 10
144.20254549999999
 20
473.09997599999997
 11
202.20254549999999
 21
473.09997599999997
  0
LINE
  8
_0-0_0
  6
CONTINUOUS
 62
    7
 10
144.20254549999999
 20
465.09997599999997
 11
202.20254549999999
 21
465.09997599999997
  0
LINE
  8
_0-0_0
  6
CONTINUOUS
 62
    7
 10
157.00253249999997
 20
479.39999399999999
 11
156.50271549999997
 21
479.89984099999998
  0
LINE
  8
_0-0_0
  6
CONTINUOUS
 62
    7
 10
157.00253249999997
 20
462.79998799999998
 11
156.50271549999997
 21
463.29983499999997
  0
LINE
  8
_0-0_0
  6
CONTINUOUS
 62
    7
 10
147.00253249999997
 20
479.64999399999999
 11
147.25253249999997
 21
479.89999399999999
  0
LINE
  8
_0-0_0
  6
CONTINUOUS
 62
    7
 10
147.00253249999997
 20
475.14999399999999
 11
147.25253249999997
 21
474.89999399999999
  0
LINE
  8
_0-0_0
  6
CONTINUOUS
 62
    7
 10
147.00253249999997
 20
463.04998799999998
 11
147.25253249999997
 21
463.29998799999998
  0
LINE
  8
_0-0_0
  6
CONTINUOUS
 62
    7
 10
147.00253249999997
 20
458.54998799999998
 11
147.25253249999997
 21
458.29998799999998
  0
LINE
  8
_0-0_0
  6
CONTINUOUS
 62
    7
 10
144.20254549999999
 20
473.63809199999997
 11
143.40252649999996
 21
474.09997599999997
  0
LINE
  8
_0-0_0
  6
CONTINUOUS
 62
    7
 10
144.20254549999999
 20
464.56185899999997
 11
143.40252649999996
 21
464.09997599999997
  0
LINE
  8
_0-0_0
  6
CONTINUOUS
 62
    7
 10
126.75250249999999
 20
479.64999399999999
 11
147.00253249999997
 21
479.64999399999999
  0
LINE
  8
_0-0_0
  6
CONTINUOUS
 62
    7
 10
142.20254549999999
 20
475.14999399999999
 11
147.00253249999997
 21
475.14999399999999
  0
LINE
  8
_0-0_0
  6
CONTINUOUS
 62
    7
 10
121.00253249999997
 20
463.04998799999998
 11
147.00253249999997
 21
463.04998799999998
  0
LINE
  8
_0-0_0
  6
CONTINUOUS
 62
    7
 10
121.00253249999997
 20
458.54998799999998
 11
147.00253249999997
 21
458.54998799999998
  0
LINE
  8
_0-0_0
  6
CONTINUOUS
 62
    7
 10
143.00253249999997
 20
474.09997599999997
 11
143.40252649999996
 21
474.09997599999997
  0
LINE
  8
_0-0_0
  6
CONTINUOUS
 62
    7
 10
143.00253249999997
 20
464.09997599999997
 11
143.40252649999996
 21
464.09997599999997
  0
LINE
  8
_0-0_0
  6
CONTINUOUS
 62
    7
 10
143.00253249999997
 20
474.34997599999997
 11
141.75253249999997
 21
475.59997599999997
  0
ARC
  8
_0-0_0
  6
CONTINUOUS
 62
    7
 10
21.002532499999973
 20
502.59997599999997
 40
8
 50
215.099627
 51
324.90037799999999
  0
LINE
  8
_0-0_0
  6
CONTINUOUS
 62
    7
 10
12.002532499999973
 20
497.99997000000002
 11
14.457305499999961
 21
497.99997000000002
  0
LINE
  8
_0-0_0
  6
CONTINUOUS
 62
    7
 10
12.002532499999973
 20
484.79998799999998
 11
12.002532499999973
 21
497.99997000000002
  0
LINE
  8
_0-0_0
  6
CONTINUOUS
 62
    7
 10
965.00244150000003
 20
484.79998799999998
 11
965.00244150000003
 21
497.99997000000002
  0
LINE
  8
_0-0_0
  6
CONTINUOUS
 62
    7
 10
962.54772950000006
 20
497.99997000000002
 11
965.00244150000003
 21
497.99997000000002
  0
ARC
  8
_0-0_0
  6
CONTINUOUS
 62
    7
 10
956.00244150000003
 20
502.59997599999997
 40
8
 50
215.099627
 51
324.90037799999999
  0
LINE
  8
_0-0_0
  6
CONTINUOUS
 62
    7
 10
27.547759499999984
 20
497.99997000000002
 11
949.45727549999992
 21
497.99997000000002
  0
LINE
  8
_0-0_0
  6
CONTINUOUS
 62
    7
 10
27.547759499999984
 20
497.99997000000002
 11
27.636749499999951
 21
498.12927300000001
  0
LINE
  8
_0-0_0
  6
CONTINUOUS
 62
    7
 10
949.45727549999992
 20
497.99997000000002
 11
949.36828650000007
 21
498.12927300000001
  0
LINE
  8
_0-0_0
  6
CONTINUOUS
 62
    7
 10
962.72985849999986
 20
498.270691
 11
962.81127949999996
 21
498.39999399999999
  0
ARC
  8
_0-0_0
  6
CONTINUOUS
 62
    7
 10
956.00244150000003
 20
502.59997599999997
 40
8
 50
328.33175599999993
 51
334.05550899999992
  0
LINE
  8
_0-0_0
  6
CONTINUOUS
 62
    7
 10
963.19616649999989
 20
499.09997599999997
 11
963.29016150000007
 21
499.29998799999998
  0
LINE
  8
_0-0_0
  6
CONTINUOUS
 62
    7
 10
963.29016150000007
 20
499.29998799999998
 11
963.37744150000003
 21
499.49997000000002
  0
ARC
  8
_0-0_0
  6
CONTINUOUS
 62
    7
 10
956.00244150000003
 20
502.59997599999997
 40
8
 50
337.20097500000003
 51
342.54240199999998
  0
LINE
  8
_0-0_0
  6
CONTINUOUS
 62
    7
 10
963.63403349999999
 20
500.19998199999998
 11
963.69396949999987
 21
500.39999399999999
  0
LINE
  8
_0-0_0
  6
CONTINUOUS
 62
    7
 10
963.69396949999987
 20
500.39999399999999
 11
963.74841249999986
 21
500.59997599999997
  0
ARC
  8
_0-0_0
  6
CONTINUOUS
 62
    7
 10
956.00244150000003
 20
502.59997599999997
 40
8
 50
345.52249499999999
 51
350.64797900000002
  0
LINE
  8
_0-0_0
  6
CONTINUOUS
 62
    7
 10
963.89611850000006
 20
501.29998799999998
 11
963.92651350000006
 21
501.49997000000002
  0
LINE
  8
_0-0_0
  6
CONTINUOUS
 62
    7
 10
963.92651350000006
 20
501.49997000000002
 11
963.95166049999989
 21
501.69998199999998
  0
ARC
  8
_0-0_0
  6
CONTINUOUS
 62
    7
 10
956.00244150000003
 20
502.59997599999997
 40
8
 50
353.54056400000002
 51
358.56744600000002
  0
LINE
  8
_0-0_0
  6
CONTINUOUS
 62
    7
 10
963.99999950000006
 20
502.39999399999999
 11
964.00244150000003
 21
502.59997599999997
  0
LINE
  8
_0-0_0
  6
CONTINUOUS
 62
    7
 10
948.00500450000004
 20
502.39999399999999
 11
948.00244150000003
 21
502.59997599999997
  0
ARC
  8
_0-0_0
  6
CONTINUOUS
 62
    7
 10
956.00244150000003
 20
502.59997599999997
 40
8
 50
181.432545
 51
186.45945499999999
  0
LINE
  8
_0-0_0
  6
CONTINUOUS
 62
    7
 10
948.07849149999993
 20
501.49997000000002
 11
948.05322249999995
 21
501.69998199999998
  0
LINE
  8
_0-0_0
  6
CONTINUOUS
 62
    7
 10
948.10876450000001
 20
501.29998799999998
 11
948.07849149999993
 21
501.49997000000002
  0
ARC
  8
_0-0_0
  6
CONTINUOUS
 62
    7
 10
956.00244150000003
 20
502.59997599999997
 40
8
 50
189.35203999999999
 51
194.47751
  0
LINE
  8
_0-0_0
  6
CONTINUOUS
 62
    7
 10
948.31091249999986
 20
500.39999399999999
 11
948.25646949999987
 21
500.59997599999997
  0
LINE
  8
_0-0_0
  6
CONTINUOUS
 62
    7
 10
948.3709715
 20
500.19998199999998
 11
948.31091249999986
 21
500.39999399999999
  0
ARC
  8
_0-0_0
  6
CONTINUOUS
 62
    7
 10
956.00244150000003
 20
502.59997599999997
 40
8
 50
197.45760300000001
 51
202.79902999999999
  0
LINE
  8
_0-0_0
  6
CONTINUOUS
 62
    7
 10
948.71484349999992
 20
499.29998799999998
 11
948.62756349999995
 21
499.49997000000002
  0
LINE
  8
_0-0_0
  6
CONTINUOUS
 62
    7
 10
948.80871550000006
 20
499.09997599999997
 11
948.71484349999992
 21
499.29998799999998
  0
ARC
  8
_0-0_0
  6
CONTINUOUS
 62
    7
 10
956.00244150000003
 20
502.59997599999997
 40
8
 50
205.94448199999999
 51
211.66823500000001
  0
LINE
  8
_0-0_0
  6
CONTINUOUS
 62
    7
 10
949.27514649999989
 20
498.270691
 11
949.19360349999988
 21
498.39999399999999
  0
LINE
  8
_0-0_0
  6
CONTINUOUS
 62
    7
 10
949.27514649999989
 20
498.270691
 11
949.36828650000007
 21
498.12927300000001
  0
LINE
  8
_0-0_0
  6
CONTINUOUS
 62
    7
 10
962.54772950000006
 20
497.99997000000002
 11
962.63671849999992
 21
498.12927300000001
  0
LINE
  8
_0-0_0
  6
CONTINUOUS
 62
    7
 10
962.72985849999986
 20
498.270691
 11
962.63671849999992
 21
498.12927300000001
  0
LINE
  8
_0-0_0
  6
CONTINUOUS
 62
    7
 10
965.00244150000003
 20
498.12927300000001
 11
965.00244150000003
 21
497.99997000000002
  0
LINE
  8
_0-0_0
  6
CONTINUOUS
 62
    7
 10
965.00244150000003
 20
506.92929099999998
 11
965.00244150000003
 21
507.07070899999997
  0
LINE
  8
_0-0_0
  6
CONTINUOUS
 62
    7
 10
965.00244150000003
 20
506.92929099999998
 11
965.00244150000003
 21
506.79998799999998
  0
LINE
  8
_0-0_0
  6
CONTINUOUS
 62
    7
 10
965.00244150000003
 20
506.09997599999997
 11
965.00244150000003
 21
506.79998799999998
  0
LINE
  8
_0-0_0
  6
CONTINUOUS
 62
    7
 10
965.00244150000003
 20
505.89999399999999
 11
965.00244150000003
 21
506.09997599999997
  0
LINE
  8
_0-0_0
  6
CONTINUOUS
 62
    7
 10
965.00244150000003
 20
505.89999399999999
 11
965.00244150000003
 21
505.69998199999998
  0
LINE
  8
_0-0_0
  6
CONTINUOUS
 62
    7
 10
965.00244150000003
 20
504.99997000000002
 11
965.00244150000003
 21
505.69998199999998
  0
LINE
  8
_0-0_0
  6
CONTINUOUS
 62
    7
 10
965.00244150000003
 20
504.79998799999998
 11
965.00244150000003
 21
504.99997000000002
  0
LINE
  8
_0-0_0
  6
CONTINUOUS
 62
    7
 10
965.00244150000003
 20
504.79998799999998
 11
965.00244150000003
 21
504.59997599999997
  0
LINE
  8
_0-0_0
  6
CONTINUOUS
 62
    7
 10
965.00244150000003
 20
503.89999399999999
 11
965.00244150000003
 21
504.59997599999997
  0
LINE
  8
_0-0_0
  6
CONTINUOUS
 62
    7
 10
965.00244150000003
 20
503.69998199999998
 11
965.00244150000003
 21
503.89999399999999
  0
LINE
  8
_0-0_0
  6
CONTINUOUS
 62
    7
 10
965.00244150000003
 20
503.69998199999998
 11
965.00244150000003
 21
503.49997000000002
  0
LINE
  8
_0-0_0
  6
CONTINUOUS
 62
    7
 10
965.00244150000003
 20
502.79998799999998
 11
965.00244150000003
 21
503.49997000000002
  0
LINE
  8
_0-0_0
  6
CONTINUOUS
 62
    7
 10
965.00244150000003
 20
502.59997599999997
 11
965.00244150000003
 21
502.79998799999998
  0
LINE
  8
_0-0_0
  6
CONTINUOUS
 62
    7
 10
965.00244150000003
 20
502.59997599999997
 11
965.00244150000003
 21
502.39999399999999
  0
LINE
  8
_0-0_0
  6
CONTINUOUS
 62
    7
 10
965.00244150000003
 20
501.69998199999998
 11
965.00244150000003
 21
502.39999399999999
  0
LINE
  8
_0-0_0
  6
CONTINUOUS
 62
    7
 10
965.00244150000003
 20
501.49997000000002
 11
965.00244150000003
 21
501.69998199999998
  0
LINE
  8
_0-0_0
  6
CONTINUOUS
 62
    7
 10
965.00244150000003
 20
501.49997000000002
 11
965.00244150000003
 21
501.29998799999998
  0
LINE
  8
_0-0_0
  6
CONTINUOUS
 62
    7
 10
965.00244150000003
 20
500.59997599999997
 11
965.00244150000003
 21
501.29998799999998
  0
LINE
  8
_0-0_0
  6
CONTINUOUS
 62
    7
 10
965.00244150000003
 20
500.39999399999999
 11
965.00244150000003
 21
500.59997599999997
  0
LINE
  8
_0-0_0
  6
CONTINUOUS
 62
    7
 10
965.00244150000003
 20
500.39999399999999
 11
965.00244150000003
 21
500.19998199999998
  0
LINE
  8
_0-0_0
  6
CONTINUOUS
 62
    7
 10
965.00244150000003
 20
499.49997000000002
 11
965.00244150000003
 21
500.19998199999998
  0
LINE
  8
_0-0_0
  6
CONTINUOUS
 62
    7
 10
965.00244150000003
 20
499.29998799999998
 11
965.00244150000003
 21
499.49997000000002
  0
LINE
  8
_0-0_0
  6
CONTINUOUS
 62
    7
 10
965.00244150000003
 20
499.29998799999998
 11
965.00244150000003
 21
499.09997599999997
  0
LINE
  8
_0-0_0
  6
CONTINUOUS
 62
    7
 10
965.00244150000003
 20
498.39999399999999
 11
965.00244150000003
 21
499.09997599999997
  0
LINE
  8
_0-0_0
  6
CONTINUOUS
 62
    7
 10
965.00244150000003
 20
498.270691
 11
965.00244150000003
 21
498.39999399999999
  0
LINE
  8
_0-0_0
  6
CONTINUOUS
 62
    7
 10
965.00244150000003
 20
498.12927300000001
 11
965.00244150000003
 21
498.270691
  0
LINE
  8
_0-0_0
  6
CONTINUOUS
 62
    7
 10
965.00244150000003
 20
484.29998799999998
 11
965.00244150000003
 21
484.79998799999998
  0
LINE
  8
_0-0_0
  6
CONTINUOUS
 62
    7
 10
965.00244150000003
 20
512.79998799999998
 11
965.00244150000003
 21
512.20602400000007
  0
LINE
  8
_0-0_0
  6
CONTINUOUS
 62
    7
 10
965.00244150000003
 20
507.19998199999998
 11
965.00244150000003
 21
512.20602400000007
  0
LINE
  8
_0-0_0
  6
CONTINUOUS
 62
    7
 10
965.00244150000003
 20
507.07070899999997
 11
965.00244150000003
 21
507.19998199999998
  0
LINE
  8
_0-0_0
  6
CONTINUOUS
 62
    7
 10
12.002532499999973
 20
484.29998799999998
 11
12.002532499999973
 21
484.79998799999998
  0
LINE
  8
_0-0_0
  6
CONTINUOUS
 62
    7
 10
12.002532499999973
 20
484.29998799999998
 11
965.00244150000003
 21
484.29998799999998
  0
LINE
  8
_0-0_0
  6
CONTINUOUS
 62
    7
 10
12.002532499999973
 20
498.12927300000001
 11
12.002532499999973
 21
498.270691
  0
LINE
  8
_0-0_0
  6
CONTINUOUS
 62
    7
 10
12.002532499999973
 20
498.12927300000001
 11
12.002532499999973
 21
497.99997000000002
  0
LINE
  8
_0-0_0
  6
CONTINUOUS
 62
    7
 10
12.002532499999973
 20
512.79998799999998
 11
12.002532499999973
 21
512.20602400000007
  0
LINE
  8
_0-0_0
  6
CONTINUOUS
 62
    7
 10
12.002532499999973
 20
507.19998199999998
 11
12.002532499999973
 21
512.20602400000007
  0
LINE
  8
_0-0_0
  6
CONTINUOUS
 62
    7
 10
12.002532499999973
 20
507.07070899999997
 11
12.002532499999973
 21
507.19998199999998
  0
LINE
  8
_0-0_0
  6
CONTINUOUS
 62
    7
 10
12.002532499999973
 20
506.92929099999998
 11
12.002532499999973
 21
507.07070899999997
  0
LINE
  8
_0-0_0
  6
CONTINUOUS
 62
    7
 10
12.002532499999973
 20
506.92929099999998
 11
12.002532499999973
 21
506.79998799999998
  0
LINE
  8
_0-0_0
  6
CONTINUOUS
 62
    7
 10
12.002532499999973
 20
506.09997599999997
 11
12.002532499999973
 21
506.79998799999998
  0
LINE
  8
_0-0_0
  6
CONTINUOUS
 62
    7
 10
12.002532499999973
 20
505.97070300000001
 11
12.002532499999973
 21
506.09997599999997
  0
LINE
  8
_0-0_0
  6
CONTINUOUS
 62
    7
 10
12.002532499999973
 20
505.82928499999997
 11
12.002532499999973
 21
505.97070300000001
  0
LINE
  8
_0-0_0
  6
CONTINUOUS
 62
    7
 10
12.002532499999973
 20
505.82928499999997
 11
12.002532499999973
 21
505.69998199999998
  0
LINE
  8
_0-0_0
  6
CONTINUOUS
 62
    7
 10
12.002532499999973
 20
504.99997000000002
 11
12.002532499999973
 21
505.69998199999998
  0
LINE
  8
_0-0_0
  6
CONTINUOUS
 62
    7
 10
12.002532499999973
 20
504.87069700000001
 11
12.002532499999973
 21
504.99997000000002
  0
LINE
  8
_0-0_0
  6
CONTINUOUS
 62
    7
 10
12.002532499999973
 20
504.72927900000002
 11
12.002532499999973
 21
504.87069700000001
  0
LINE
  8
_0-0_0
  6
CONTINUOUS
 62
    7
 10
12.002532499999973
 20
504.72927900000002
 11
12.002532499999973
 21
504.59997599999997
  0
LINE
  8
_0-0_0
  6
CONTINUOUS
 62
    7
 10
12.002532499999973
 20
503.89999399999999
 11
12.002532499999973
 21
504.59997599999997
  0
LINE
  8
_0-0_0
  6
CONTINUOUS
 62
    7
 10
12.002532499999973
 20
503.770691
 11
12.002532499999973
 21
503.89999399999999
  0
LINE
  8
_0-0_0
  6
CONTINUOUS
 62
    7
 10
12.002532499999973
 20
503.62927300000001
 11
12.002532499999973
 21
503.770691
  0
LINE
  8
_0-0_0
  6
CONTINUOUS
 62
    7
 10
12.002532499999973
 20
503.62927300000001
 11
12.002532499999973
 21
503.49997000000002
  0
LINE
  8
_0-0_0
  6
CONTINUOUS
 62
    7
 10
12.002532499999973
 20
502.79998799999998
 11
12.002532499999973
 21
503.49997000000002
  0
LINE
  8
_0-0_0
  6
CONTINUOUS
 62
    7
 10
12.002532499999973
 20
502.67068499999999
 11
12.002532499999973
 21
502.79998799999998
  0
LINE
  8
_0-0_0
  6
CONTINUOUS
 62
    7
 10
12.002532499999973
 20
502.52926600000001
 11
12.002532499999973
 21
502.67068499999999
  0
LINE
  8
_0-0_0
  6
CONTINUOUS
 62
    7
 10
12.002532499999973
 20
502.52926600000001
 11
12.002532499999973
 21
502.39999399999999
  0
LINE
  8
_0-0_0
  6
CONTINUOUS
 62
    7
 10
12.002532499999973
 20
501.69998199999998
 11
12.002532499999973
 21
502.39999399999999
  0
LINE
  8
_0-0_0
  6
CONTINUOUS
 62
    7
 10
12.002532499999973
 20
501.57070899999997
 11
12.002532499999973
 21
501.69998199999998
  0
LINE
  8
_0-0_0
  6
CONTINUOUS
 62
    7
 10
12.002532499999973
 20
501.42929099999998
 11
12.002532499999973
 21
501.57070899999997
  0
LINE
  8
_0-0_0
  6
CONTINUOUS
 62
    7
 10
12.002532499999973
 20
501.42929099999998
 11
12.002532499999973
 21
501.29998799999998
  0
LINE
  8
_0-0_0
  6
CONTINUOUS
 62
    7
 10
12.002532499999973
 20
500.59997599999997
 11
12.002532499999973
 21
501.29998799999998
  0
LINE
  8
_0-0_0
  6
CONTINUOUS
 62
    7
 10
12.002532499999973
 20
500.47070300000001
 11
12.002532499999973
 21
500.59997599999997
  0
LINE
  8
_0-0_0
  6
CONTINUOUS
 62
    7
 10
12.002532499999973
 20
500.32928499999997
 11
12.002532499999973
 21
500.47070300000001
  0
LINE
  8
_0-0_0
  6
CONTINUOUS
 62
    7
 10
12.002532499999973
 20
500.32928499999997
 11
12.002532499999973
 21
500.19998199999998
  0
LINE
  8
_0-0_0
  6
CONTINUOUS
 62
    7
 10
12.002532499999973
 20
499.49997000000002
 11
12.002532499999973
 21
500.19998199999998
  0
LINE
  8
_0-0_0
  6
CONTINUOUS
 62
    7
 10
12.002532499999973
 20
499.37069700000001
 11
12.002532499999973
 21
499.49997000000002
  0
LINE
  8
_0-0_0
  6
CONTINUOUS
 62
    7
 10
12.002532499999973
 20
499.22927900000002
 11
12.002532499999973
 21
499.37069700000001
  0
LINE
  8
_0-0_0
  6
CONTINUOUS
 62
    7
 10
12.002532499999973
 20
499.22927900000002
 11
12.002532499999973
 21
499.09997599999997
  0
LINE
  8
_0-0_0
  6
CONTINUOUS
 62
    7
 10
12.002532499999973
 20
498.39999399999999
 11
12.002532499999973
 21
499.09997599999997
  0
LINE
  8
_0-0_0
  6
CONTINUOUS
 62
    7
 10
12.002532499999973
 20
498.270691
 11
12.002532499999973
 21
498.39999399999999
  0
LINE
  8
_0-0_0
  6
CONTINUOUS
 62
    7
 10
14.457305499999961
 20
497.99997000000002
 11
14.368331499999954
 21
498.12927300000001
  0
LINE
  8
_0-0_0
  6
CONTINUOUS
 62
    7
 10
27.729888499999959
 20
498.270691
 11
27.636749499999951
 21
498.12927300000001
  0
LINE
  8
_0-0_0
  6
CONTINUOUS
 62
    7
 10
27.729888499999959
 20
498.270691
 11
27.811355499999991
 21
498.39999399999999
  0
ARC
  8
_0-0_0
  6
CONTINUOUS
 62
    7
 10
21.002532499999973
 20
502.59997599999997
 40
8
 50
328.33175599999993
 51
334.05550899999992
  0
LINE
  8
_0-0_0
  6
CONTINUOUS
 62
    7
 10
28.19628849999998
 20
499.09997599999997
 11
28.290191499999992
 21
499.29998799999998
  0
LINE
  8
_0-0_0
  6
CONTINUOUS
 62
    7
 10
28.290191499999992
 20
499.29998799999998
 11
28.377502499999991
 21
499.49997000000002
  0
ARC
  8
_0-0_0
  6
CONTINUOUS
 62
    7
 10
21.002532499999973
 20
502.59997599999997
 40
8
 50
337.20097500000003
 51
342.54240199999998
  0
LINE
  8
_0-0_0
  6
CONTINUOUS
 62
    7
 10
28.634048499999949
 20
500.19998199999998
 11
28.694091499999956
 21
500.39999399999999
  0
LINE
  8
_0-0_0
  6
CONTINUOUS
 62
    7
 10
28.694091499999956
 20
500.39999399999999
 11
28.748504499999967
 21
500.59997599999997
  0
ARC
  8
_0-0_0
  6
CONTINUOUS
 62
    7
 10
21.002532499999973
 20
502.59997599999997
 40
8
 50
345.52249499999999
 51
350.64797900000002
  0
LINE
  8
_0-0_0
  6
CONTINUOUS
 62
    7
 10
28.896209499999941
 20
501.29998799999998
 11
28.926544499999977
 21
501.49997000000002
  0
LINE
  8
_0-0_0
  6
CONTINUOUS
 62
    7
 10
28.926544499999977
 20
501.49997000000002
 11
28.9517515
 21
501.69998199999998
  0
ARC
  8
_0-0_0
  6
CONTINUOUS
 62
    7
 10
21.002532499999973
 20
502.59997599999997
 40
8
 50
353.54056400000002
 51
358.56744600000002
  0
LINE
  8
_0-0_0
  6
CONTINUOUS
 62
    7
 10
29.00003049999998
 20
502.39999399999999
 11
29.002532499999973
 21
502.59997599999997
  0
LINE
  8
_0-0_0
  6
CONTINUOUS
 62
    7
 10
13.002853499999958
 20
502.52926600000001
 11
13.002532499999973
 21
502.59997599999997
  0
LINE
  8
_0-0_0
  6
CONTINUOUS
 62
    7
 10
13.005035499999963
 20
502.39999399999999
 11
13.002853499999958
 21
502.52926600000001
  0
ARC
  8
_0-0_0
  6
CONTINUOUS
 62
    7
 10
21.002532499999973
 20
502.59997599999997
 40
8
 50
181.432545
 51
186.45945499999999
  0
LINE
  8
_0-0_0
  6
CONTINUOUS
 62
    7
 10
13.06903049999994
 20
501.57070899999997
 11
13.053314499999942
 21
501.69998199999998
  0
LINE
  8
_0-0_0
  6
CONTINUOUS
 62
    7
 10
13.06903049999994
 20
501.57070899999997
 11
13.088653499999964
 21
501.42929099999998
  0
LINE
  8
_0-0_0
  6
CONTINUOUS
 62
    7
 10
13.108871499999964
 20
501.29998799999998
 11
13.088653499999964
 21
501.42929099999998
  0
ARC
  8
_0-0_0
  6
CONTINUOUS
 62
    7
 10
21.002532499999973
 20
502.59997599999997
 40
8
 50
189.35203999999999
 51
194.47751
  0
LINE
  8
_0-0_0
  6
CONTINUOUS
 62
    7
 10
13.291107499999953
 20
500.47070300000001
 11
13.256561499999975
 21
500.59997599999997
  0
LINE
  8
_0-0_0
  6
CONTINUOUS
 62
    7
 10
13.291107499999953
 20
500.47070300000001
 11
13.331558499999971
 21
500.32928499999997
  0
LINE
  8
_0-0_0
  6
CONTINUOUS
 62
    7
 10
13.371032499999956
 20
500.19998199999998
 11
13.331558499999971
 21
500.32928499999997
  0
ARC
  8
_0-0_0
  6
CONTINUOUS
 62
    7
 10
21.002532499999973
 20
502.59997599999997
 40
8
 50
197.45760300000001
 51
202.79902999999999
  0
LINE
  8
_0-0_0
  6
CONTINUOUS
 62
    7
 10
13.683273499999927
 20
499.37069700000001
 11
13.62757849999997
 21
499.49997000000002
  0
LINE
  8
_0-0_0
  6
CONTINUOUS
 62
    7
 10
13.683273499999927
 20
499.37069700000001
 11
13.747314499999959
 21
499.22927900000002
  0
LINE
  8
_0-0_0
  6
CONTINUOUS
 62
    7
 10
13.808792499999981
 20
499.09997599999997
 11
13.747314499999959
 21
499.22927900000002
  0
ARC
  8
_0-0_0
  6
CONTINUOUS
 62
    7
 10
21.002532499999973
 20
502.59997599999997
 40
8
 50
205.94448199999999
 51
211.66823500000001
  0
LINE
  8
_0-0_0
  6
CONTINUOUS
 62
    7
 10
14.27517649999993
 20
498.270691
 11
14.193725499999971
 21
498.39999399999999
  0
LINE
  8
_0-0_0
  6
CONTINUOUS
 62
    7
 10
14.27517649999993
 20
498.270691
 11
14.368331499999954
 21
498.12927300000001
  0
LINE
  8
_0-0_0
  6
CONTINUOUS
 62
    7
 10
882.50250249999999
 20
490.29998799999998
 11
889.50250249999999
 21
490.29998799999998
  0
ARC
  8
_0-0_0
  6
CONTINUOUS
 62
    7
 10
882.50250249999999
 20
489.79998799999998
 40
0.5
 50
90.000003000000007
 51
180.00000900000001
  0
LINE
  8
_0-0_0
  6
CONTINUOUS
 62
    7
 10
882.00250249999999
 20
489.79998799999998
 11
882.00250249999999
 21
485.79998799999998
  0
ARC
  8
_0-0_0
  6
CONTINUOUS
 62
    7
 10
882.50250249999999
 20
485.79998799999998
 40
0.5
 50
180.00000900000003
 51
269.99999700000001
  0
LINE
  8
_0-0_0
  6
CONTINUOUS
 62
    7
 10
889.50250249999999
 20
485.29998799999998
 11
882.50250249999999
 21
485.29998799999998
  0
ARC
  8
_0-0_0
  6
CONTINUOUS
 62
    7
 10
889.50250249999999
 20
485.79998799999998
 40
0.5
 50
269.99999700000001
 51
0
  0
LINE
  8
_0-0_0
  6
CONTINUOUS
 62
    7
 10
890.00250249999999
 20
485.79998799999998
 11
890.00250249999999
 21
489.79998799999998
  0
ARC
  8
_0-0_0
  6
CONTINUOUS
 62
    7
 10
889.50250249999999
 20
489.79998799999998
 40
0.5
 50
0
 51
90.000003000000007
  0
ARC
  8
_0-0_0
  6
CONTINUOUS
 62
    7
 10
62.502532499999973
 20
489.79998799999998
 40
0.5
 50
90.000003000000007
 51
180.00000900000001
  0
LINE
  8
_0-0_0
  6
CONTINUOUS
 62
    7
 10
62.002532499999973
 20
489.79998799999998
 11
62.002532499999973
 21
485.79998799999998
  0
ARC
  8
_0-0_0
  6
CONTINUOUS
 62
    7
 10
62.502532499999973
 20
485.79998799999998
 40
0.5
 50
180.00000900000003
 51
269.99999700000001
  0
LINE
  8
_0-0_0
  6
CONTINUOUS
 62
    7
 10
69.502532499999973
 20
485.29998799999998
 11
62.502532499999973
 21
485.29998799999998
  0
ARC
  8
_0-0_0
  6
CONTINUOUS
 62
    7
 10
69.502532499999973
 20
485.79998799999998
 40
0.5
 50
269.99999700000001
 51
0
  0
LINE
  8
_0-0_0
  6
CONTINUOUS
 62
    7
 10
70.002532499999973
 20
485.79998799999998
 11
70.002532499999973
 21
489.79998799999998
  0
ARC
  8
_0-0_0
  6
CONTINUOUS
 62
    7
 10
69.502532499999973
 20
489.79998799999998
 40
0.5
 50
0
 51
90.000003000000007
  0
LINE
  8
_0-0_0
  6
CONTINUOUS
 62
    7
 10
62.502532499999973
 20
490.29998799999998
 11
69.502532499999973
 21
490.29998799999998
  0
LINE
  8
_0-0_0
  6
CONTINUOUS
 62
    7
 10
27.811355499999991
 20
498.39999399999999
 11
949.19360349999988
 21
498.39999399999999
  0
LINE
  8
_0-0_0
  6
CONTINUOUS
 62
    7
 10
28.19628849999998
 20
499.09997599999997
 11
948.80871550000006
 21
499.09997599999997
  0
LINE
  8
_0-0_0
  6
CONTINUOUS
 62
    7
 10
28.290191499999992
 20
499.29998799999998
 11
948.71484349999992
 21
499.29998799999998
  0
LINE
  8
_0-0_0
  6
CONTINUOUS
 62
    7
 10
28.377502499999991
 20
499.49997000000002
 11
948.62756349999995
 21
499.49997000000002
  0
LINE
  8
_0-0_0
  6
CONTINUOUS
 62
    7
 10
28.634048499999949
 20
500.19998199999998
 11
948.3709715
 21
500.19998199999998
  0
LINE
  8
_0-0_0
  6
CONTINUOUS
 62
    7
 10
28.694091499999956
 20
500.39999399999999
 11
948.31091249999986
 21
500.39999399999999
  0
LINE
  8
_0-0_0
  6
CONTINUOUS
 62
    7
 10
28.748504499999967
 20
500.59997599999997
 11
948.25646949999987
 21
500.59997599999997
  0
LINE
  8
_0-0_0
  6
CONTINUOUS
 62
    7
 10
28.896209499999941
 20
501.29998799999998
 11
948.10876450000001
 21
501.29998799999998
  0
LINE
  8
_0-0_0
  6
CONTINUOUS
 62
    7
 10
28.926544499999977
 20
501.49997000000002
 11
948.07849149999993
 21
501.49997000000002
  0
LINE
  8
_0-0_0
  6
CONTINUOUS
 62
    7
 10
28.9517515
 20
501.69998199999998
 11
948.05322249999995
 21
501.69998199999998
  0
LINE
  8
_0-0_0
  6
CONTINUOUS
 62
    7
 10
29.00003049999998
 20
502.39999399999999
 11
948.00500450000004
 21
502.39999399999999
  0
LINE
  8
_0-0_0
  6
CONTINUOUS
 62
    7
 10
29.002532499999973
 20
502.59997599999997
 11
948.00244150000003
 21
502.59997599999997
  0
LINE
  8
_0-0_0
  6
CONTINUOUS
 62
    7
 10
962.54772950000006
 20
507.19998199999998
 11
962.63671849999992
 21
507.07070899999997
  0
ARC
  8
_0-0_0
  6
CONTINUOUS
 62
    7
 10
956.00244150000003
 20
502.59997599999997
 40
8
 50
35.099632
 51
144.900373
  0
LINE
  8
_0-0_0
  6
CONTINUOUS
 62
    7
 10
949.45727549999992
 20
507.19998199999998
 11
949.36828650000007
 21
507.07070899999997
  0
LINE
  8
_0-0_0
  6
CONTINUOUS
 62
    7
 10
949.27514649999989
 20
506.92929099999998
 11
949.36828650000007
 21
507.07070899999997
  0
LINE
  8
_0-0_0
  6
CONTINUOUS
 62
    7
 10
949.27514649999989
 20
506.92929099999998
 11
949.19360349999988
 21
506.79998799999998
  0
ARC
  8
_0-0_0
  6
CONTINUOUS
 62
    7
 10
956.00244150000003
 20
502.59997599999997
 40
8
 50
148.33176499999999
 51
154.05551800000001
  0
LINE
  8
_0-0_0
  6
CONTINUOUS
 62
    7
 10
948.80871550000006
 20
506.09997599999997
 11
948.71484349999992
 21
505.89999399999999
  0
LINE
  8
_0-0_0
  6
CONTINUOUS
 62
    7
 10
948.71484349999992
 20
505.89999399999999
 11
948.62756349999995
 21
505.69998199999998
  0
ARC
  8
_0-0_0
  6
CONTINUOUS
 62
    7
 10
956.00244150000003
 20
502.59997599999997
 40
8
 50
157.20097000000001
 51
162.54239699999999
  0
LINE
  8
_0-0_0
  6
CONTINUOUS
 62
    7
 10
948.3709715
 20
504.99997000000002
 11
948.31091249999986
 21
504.79998799999998
  0
LINE
  8
_0-0_0
  6
CONTINUOUS
 62
    7
 10
948.31091249999986
 20
504.79998799999998
 11
948.25646949999987
 21
504.59997599999997
  0
ARC
  8
_0-0_0
  6
CONTINUOUS
 62
    7
 10
956.00244150000003
 20
502.59997599999997
 40
8
 50
165.52249
 51
170.64796000000001
  0
LINE
  8
_0-0_0
  6
CONTINUOUS
 62
    7
 10
948.10876450000001
 20
503.89999399999999
 11
948.07849149999993
 21
503.69998199999998
  0
LINE
  8
_0-0_0
  6
CONTINUOUS
 62
    7
 10
948.07849149999993
 20
503.69998199999998
 11
948.05322249999995
 21
503.49997000000002
  0
ARC
  8
_0-0_0
  6
CONTINUOUS
 62
    7
 10
956.00244150000003
 20
502.59997599999997
 40
8
 50
173.54054500000001
 51
178.567455
  0
LINE
  8
_0-0_0
  6
CONTINUOUS
 62
    7
 10
948.00500450000004
 20
502.79998799999998
 11
948.00244150000003
 21
502.59997599999997
  0
LINE
  8
_0-0_0
  6
CONTINUOUS
 62
    7
 10
963.99999950000006
 20
502.79998799999998
 11
964.00244150000003
 21
502.59997599999997
  0
ARC
  8
_0-0_0
  6
CONTINUOUS
 62
    7
 10
956.00244150000003
 20
502.59997599999997
 40
8
 50
1.432544
 51
6.4594489999999993
  0
LINE
  8
_0-0_0
  6
CONTINUOUS
 62
    7
 10
963.92651350000006
 20
503.69998199999998
 11
963.95166049999989
 21
503.49997000000002
  0
LINE
  8
_0-0_0
  6
CONTINUOUS
 62
    7
 10
963.89611850000006
 20
503.89999399999999
 11
963.92651350000006
 21
503.69998199999998
  0
ARC
  8
_0-0_0
  6
CONTINUOUS
 62
    7
 10
956.00244150000003
 20
502.59997599999997
 40
8
 50
9.3520350000000008
 51
14.477510999999998
  0
LINE
  8
_0-0_0
  6
CONTINUOUS
 62
    7
 10
963.69396949999987
 20
504.79998799999998
 11
963.74841249999986
 21
504.59997599999997
  0
LINE
  8
_0-0_0
  6
CONTINUOUS
 62
    7
 10
963.63403349999999
 20
504.99997000000002
 11
963.69396949999987
 21
504.79998799999998
  0
ARC
  8
_0-0_0
  6
CONTINUOUS
 62
    7
 10
956.00244150000003
 20
502.59997599999997
 40
8
 50
17.457602999999999
 51
22.799030999999999
  0
LINE
  8
_0-0_0
  6
CONTINUOUS
 62
    7
 10
963.29016150000007
 20
505.89999399999999
 11
963.37744150000003
 21
505.69998199999998
  0
LINE
  8
_0-0_0
  6
CONTINUOUS
 62
    7
 10
963.19616649999989
 20
506.09997599999997
 11
963.29016150000007
 21
505.89999399999999
  0
ARC
  8
_0-0_0
  6
CONTINUOUS
 62
    7
 10
956.00244150000003
 20
502.59997599999997
 40
8
 50
25.944476999999999
 51
31.668240000000001
  0
LINE
  8
_0-0_0
  6
CONTINUOUS
 62
    7
 10
962.72985849999986
 20
506.92929099999998
 11
962.81127949999996
 21
506.79998799999998
  0
LINE
  8
_0-0_0
  6
CONTINUOUS
 62
    7
 10
962.72985849999986
 20
506.92929099999998
 11
962.63671849999992
 21
507.07070899999997
  0
CIRCLE
  8
_0-0_0
  6
CONTINUOUS
 62
    7
 10
956.00244150000003
 20
502.59997599999997
 40
7.5
  0
LINE
  8
_0-0_0
  6
CONTINUOUS
 62
    7
 10
963.99999950000006
 20
502.39999399999999
 11
965.00244150000003
 21
502.39999399999999
  0
LINE
  8
_0-0_0
  6
CONTINUOUS
 62
    7
 10
964.00244150000003
 20
502.59997599999997
 11
965.00244150000003
 21
502.59997599999997
  0
LINE
  8
_0-0_0
  6
CONTINUOUS
 62
    7
 10
963.95166049999989
 20
501.69998199999998
 11
965.00244150000003
 21
501.69998199999998
  0
LINE
  8
_0-0_0
  6
CONTINUOUS
 62
    7
 10
963.92651350000006
 20
501.49997000000002
 11
965.00244150000003
 21
501.49997000000002
  0
LINE
  8
_0-0_0
  6
CONTINUOUS
 62
    7
 10
963.89611850000006
 20
501.29998799999998
 11
965.00244150000003
 21
501.29998799999998
  0
LINE
  8
_0-0_0
  6
CONTINUOUS
 62
    7
 10
963.74841249999986
 20
500.59997599999997
 11
965.00244150000003
 21
500.59997599999997
  0
LINE
  8
_0-0_0
  6
CONTINUOUS
 62
    7
 10
963.69396949999987
 20
500.39999399999999
 11
965.00244150000003
 21
500.39999399999999
  0
LINE
  8
_0-0_0
  6
CONTINUOUS
 62
    7
 10
963.63403349999999
 20
500.19998199999998
 11
965.00244150000003
 21
500.19998199999998
  0
LINE
  8
_0-0_0
  6
CONTINUOUS
 62
    7
 10
963.37744150000003
 20
499.49997000000002
 11
965.00244150000003
 21
499.49997000000002
  0
LINE
  8
_0-0_0
  6
CONTINUOUS
 62
    7
 10
963.29016150000007
 20
499.29998799999998
 11
965.00244150000003
 21
499.29998799999998
  0
LINE
  8
_0-0_0
  6
CONTINUOUS
 62
    7
 10
963.19616649999989
 20
499.09997599999997
 11
965.00244150000003
 21
499.09997599999997
  0
LINE
  8
_0-0_0
  6
CONTINUOUS
 62
    7
 10
962.81127949999996
 20
498.39999399999999
 11
965.00244150000003
 21
498.39999399999999
  0
LINE
  8
_0-0_0
  6
CONTINUOUS
 62
    7
 10
962.81127949999996
 20
506.79998799999998
 11
965.00244150000003
 21
506.79998799999998
  0
LINE
  8
_0-0_0
  6
CONTINUOUS
 62
    7
 10
963.19616649999989
 20
506.09997599999997
 11
965.00244150000003
 21
506.09997599999997
  0
LINE
  8
_0-0_0
  6
CONTINUOUS
 62
    7
 10
963.29016150000007
 20
505.89999399999999
 11
965.00244150000003
 21
505.89999399999999
  0
LINE
  8
_0-0_0
  6
CONTINUOUS
 62
    7
 10
963.37744150000003
 20
505.69998199999998
 11
965.00244150000003
 21
505.69998199999998
  0
LINE
  8
_0-0_0
  6
CONTINUOUS
 62
    7
 10
963.63403349999999
 20
504.99997000000002
 11
965.00244150000003
 21
504.99997000000002
  0
LINE
  8
_0-0_0
  6
CONTINUOUS
 62
    7
 10
963.69396949999987
 20
504.79998799999998
 11
965.00244150000003
 21
504.79998799999998
  0
LINE
  8
_0-0_0
  6
CONTINUOUS
 62
    7
 10
963.74841249999986
 20
504.59997599999997
 11
965.00244150000003
 21
504.59997599999997
  0
LINE
  8
_0-0_0
  6
CONTINUOUS
 62
    7
 10
963.89611850000006
 20
503.89999399999999
 11
965.00244150000003
 21
503.89999399999999
  0
LINE
  8
_0-0_0
  6
CONTINUOUS
 62
    7
 10
963.92651350000006
 20
503.69998199999998
 11
965.00244150000003
 21
503.69998199999998
  0
LINE
  8
_0-0_0
  6
CONTINUOUS
 62
    7
 10
963.95166049999989
 20
503.49997000000002
 11
965.00244150000003
 21
503.49997000000002
  0
LINE
  8
_0-0_0
  6
CONTINUOUS
 62
    7
 10
963.99999950000006
 20
502.79998799999998
 11
965.00244150000003
 21
502.79998799999998
  0
LINE
  8
_0-0_0
  6
CONTINUOUS
 62
    7
 10
965.50244150000003
 20
486.09997599999997
 11
965.00244150000003
 21
486.09997599999997
  0
LINE
  8
_0-0_0
  6
CONTINUOUS
 62
    7
 10
965.50244150000003
 20
488.29998799999998
 11
965.00244150000003
 21
488.29998799999998
  0
LINE
  8
_0-0_0
  6
CONTINUOUS
 62
    7
 10
965.50244150000003
 20
490.59997599999997
 11
965.00244150000003
 21
490.59997599999997
  0
LINE
  8
_0-0_0
  6
CONTINUOUS
 62
    7
 10
12.002532499999973
 20
490.59997599999997
 11
11.502532499999973
 21
490.59997599999997
  0
LINE
  8
_0-0_0
  6
CONTINUOUS
 62
    7
 10
965.00244150000003
 20
492.89999399999999
 11
965.50244150000003
 21
492.89999399999999
  0
LINE
  8
_0-0_0
  6
CONTINUOUS
 62
    7
 10
965.50244150000003
 20
513.09997599999997
 11
965.50244150000003
 21
512.99997000000008
  0
LINE
  8
_0-0_0
  6
CONTINUOUS
 62
    7
 10
11.502532499999973
 20
513.09997599999997
 11
11.502532499999973
 21
512.99997000000008
  0
LINE
  8
_0-0_0
  6
CONTINUOUS
 62
    7
 10
11.502532499999973
 20
492.89999399999999
 11
12.002532499999973
 21
492.89999399999999
  0
LINE
  8
_0-0_0
  6
CONTINUOUS
 62
    7
 10
12.002532499999973
 20
512.79998799999998
 11
965.00244150000003
 21
512.79998799999998
  0
LINE
  8
_0-0_0
  6
CONTINUOUS
 62
    7
 10
12.002532499999973
 20
512.20602400000007
 11
965.00244150000003
 21
512.20602400000007
  0
LINE
  8
_0-0_0
  6
CONTINUOUS
 62
    7
 10
962.54772950000006
 20
507.19998199999998
 11
965.00244150000003
 21
507.19998199999998
  0
LINE
  8
_0-0_0
  6
CONTINUOUS
 62
    7
 10
12.002532499999973
 20
507.19998199999998
 11
14.457305499999961
 21
507.19998199999998
  0
ARC
  8
_0-0_0
  6
CONTINUOUS
 62
    7
 10
21.002532499999973
 20
502.59997599999997
 40
8
 50
35.099632
 51
144.900373
  0
LINE
  8
_0-0_0
  6
CONTINUOUS
 62
    7
 10
27.547759499999984
 20
507.19998199999998
 11
949.45727549999992
 21
507.19998199999998
  0
LINE
  8
_0-0_0
  6
CONTINUOUS
 62
    7
 10
11.502532499999973
 20
486.09997599999997
 11
12.002532499999973
 21
486.09997599999997
  0
LINE
  8
_0-0_0
  6
CONTINUOUS
 62
    7
 10
12.002532499999973
 20
488.29998799999998
 11
11.502532499999973
 21
488.29998799999998
  0
LINE
  8
_0-0_0
  6
CONTINUOUS
 62
    7
 10
14.457305499999961
 20
507.19998199999998
 11
14.368331499999954
 21
507.07070899999997
  0
LINE
  8
_0-0_0
  6
CONTINUOUS
 62
    7
 10
14.27517649999993
 20
506.92929099999998
 11
14.368331499999954
 21
507.07070899999997
  0
LINE
  8
_0-0_0
  6
CONTINUOUS
 62
    7
 10
12.002532499999973
 20
506.79998799999998
 11
14.193725499999971
 21
506.79998799999998
  0
LINE
  8
_0-0_0
  6
CONTINUOUS
 62
    7
 10
14.27517649999993
 20
506.92929099999998
 11
14.193725499999971
 21
506.79998799999998
  0
ARC
  8
_0-0_0
  6
CONTINUOUS
 62
    7
 10
21.002532499999973
 20
502.59997599999997
 40
8
 50
148.33176499999999
 51
154.05551800000001
  0
LINE
  8
_0-0_0
  6
CONTINUOUS
 62
    7
 10
12.002532499999973
 20
506.09997599999997
 11
13.808792499999981
 21
506.09997599999997
  0
LINE
  8
_0-0_0
  6
CONTINUOUS
 62
    7
 10
13.808792499999981
 20
506.09997599999997
 11
13.747314499999959
 21
505.97070300000001
  0
LINE
  8
_0-0_0
  6
CONTINUOUS
 62
    7
 10
13.683273499999927
 20
505.82928499999997
 11
13.747314499999959
 21
505.97070300000001
  0
LINE
  8
_0-0_0
  6
CONTINUOUS
 62
    7
 10
12.002532499999973
 20
505.69998199999998
 11
13.62757849999997
 21
505.69998199999998
  0
LINE
  8
_0-0_0
  6
CONTINUOUS
 62
    7
 10
13.683273499999927
 20
505.82928499999997
 11
13.62757849999997
 21
505.69998199999998
  0
ARC
  8
_0-0_0
  6
CONTINUOUS
 62
    7
 10
21.002532499999973
 20
502.59997599999997
 40
8
 50
157.20097000000001
 51
162.54239699999999
  0
LINE
  8
_0-0_0
  6
CONTINUOUS
 62
    7
 10
12.002532499999973
 20
504.99997000000002
 11
13.371032499999956
 21
504.99997000000002
  0
LINE
  8
_0-0_0
  6
CONTINUOUS
 62
    7
 10
13.371032499999956
 20
504.99997000000002
 11
13.331558499999971
 21
504.87069700000001
  0
LINE
  8
_0-0_0
  6
CONTINUOUS
 62
    7
 10
13.291107499999953
 20
504.72927900000002
 11
13.331558499999971
 21
504.87069700000001
  0
LINE
  8
_0-0_0
  6
CONTINUOUS
 62
    7
 10
12.002532499999973
 20
504.59997599999997
 11
13.256561499999975
 21
504.59997599999997
  0
LINE
  8
_0-0_0
  6
CONTINUOUS
 62
    7
 10
13.291107499999953
 20
504.72927900000002
 11
13.256561499999975
 21
504.59997599999997
  0
ARC
  8
_0-0_0
  6
CONTINUOUS
 62
    7
 10
21.002532499999973
 20
502.59997599999997
 40
8
 50
165.52249
 51
170.64796000000001
  0
LINE
  8
_0-0_0
  6
CONTINUOUS
 62
    7
 10
12.002532499999973
 20
503.89999399999999
 11
13.108871499999964
 21
503.89999399999999
  0
LINE
  8
_0-0_0
  6
CONTINUOUS
 62
    7
 10
13.108871499999964
 20
503.89999399999999
 11
13.088653499999964
 21
503.770691
  0
LINE
  8
_0-0_0
  6
CONTINUOUS
 62
    7
 10
13.06903049999994
 20
503.62927300000001
 11
13.088653499999964
 21
503.770691
  0
LINE
  8
_0-0_0
  6
CONTINUOUS
 62
    7
 10
12.002532499999973
 20
503.49997000000002
 11
13.053314499999942
 21
503.49997000000002
  0
LINE
  8
_0-0_0
  6
CONTINUOUS
 62
    7
 10
13.06903049999994
 20
503.62927300000001
 11
13.053314499999942
 21
503.49997000000002
  0
ARC
  8
_0-0_0
  6
CONTINUOUS
 62
    7
 10
21.002532499999973
 20
502.59997599999997
 40
8
 50
173.54054500000001
 51
178.567455
  0
LINE
  8
_0-0_0
  6
CONTINUOUS
 62
    7
 10
12.002532499999973
 20
502.79998799999998
 11
13.005035499999963
 21
502.79998799999998
  0
LINE
  8
_0-0_0
  6
CONTINUOUS
 62
    7
 10
13.005035499999963
 20
502.79998799999998
 11
13.002853499999958
 21
502.67068499999999
  0
LINE
  8
_0-0_0
  6
CONTINUOUS
 62
    7
 10
13.002532499999973
 20
502.59997599999997
 11
13.002853499999958
 21
502.67068499999999
  0
LINE
  8
_0-0_0
  6
CONTINUOUS
 62
    7
 10
12.002532499999973
 20
502.39999399999999
 11
13.005035499999963
 21
502.39999399999999
  0
LINE
  8
_0-0_0
  6
CONTINUOUS
 62
    7
 10
12.002532499999973
 20
501.69998199999998
 11
13.053314499999942
 21
501.69998199999998
  0
LINE
  8
_0-0_0
  6
CONTINUOUS
 62
    7
 10
12.002532499999973
 20
501.29998799999998
 11
13.108871499999964
 21
501.29998799999998
  0
LINE
  8
_0-0_0
  6
CONTINUOUS
 62
    7
 10
12.002532499999973
 20
500.59997599999997
 11
13.256561499999975
 21
500.59997599999997
  0
LINE
  8
_0-0_0
  6
CONTINUOUS
 62
    7
 10
12.002532499999973
 20
500.19998199999998
 11
13.371032499999956
 21
500.19998199999998
  0
LINE
  8
_0-0_0
  6
CONTINUOUS
 62
    7
 10
12.002532499999973
 20
499.49997000000002
 11
13.62757849999997
 21
499.49997000000002
  0
LINE
  8
_0-0_0
  6
CONTINUOUS
 62
    7
 10
12.002532499999973
 20
499.09997599999997
 11
13.808792499999981
 21
499.09997599999997
  0
LINE
  8
_0-0_0
  6
CONTINUOUS
 62
    7
 10
12.002532499999973
 20
498.39999399999999
 11
14.193725499999971
 21
498.39999399999999
  0
LINE
  8
_0-0_0
  6
CONTINUOUS
 62
    7
 10
29.00003049999998
 20
502.79998799999998
 11
29.002532499999973
 21
502.59997599999997
  0
ARC
  8
_0-0_0
  6
CONTINUOUS
 62
    7
 10
21.002532499999973
 20
502.59997599999997
 40
8
 50
1.432544
 51
6.4594489999999993
  0
LINE
  8
_0-0_0
  6
CONTINUOUS
 62
    7
 10
28.926544499999977
 20
503.69998199999998
 11
28.9517515
 21
503.49997000000002
  0
LINE
  8
_0-0_0
  6
CONTINUOUS
 62
    7
 10
28.896209499999941
 20
503.89999399999999
 11
28.926544499999977
 21
503.69998199999998
  0
ARC
  8
_0-0_0
  6
CONTINUOUS
 62
    7
 10
21.002532499999973
 20
502.59997599999997
 40
8
 50
9.3520350000000008
 51
14.477510999999998
  0
LINE
  8
_0-0_0
  6
CONTINUOUS
 62
    7
 10
28.694091499999956
 20
504.79998799999998
 11
28.748504499999967
 21
504.59997599999997
  0
LINE
  8
_0-0_0
  6
CONTINUOUS
 62
    7
 10
28.634048499999949
 20
504.99997000000002
 11
28.694091499999956
 21
504.79998799999998
  0
ARC
  8
_0-0_0
  6
CONTINUOUS
 62
    7
 10
21.002532499999973
 20
502.59997599999997
 40
8
 50
17.457602999999999
 51
22.799030999999999
  0
LINE
  8
_0-0_0
  6
CONTINUOUS
 62
    7
 10
28.290191499999992
 20
505.89999399999999
 11
28.377502499999991
 21
505.69998199999998
  0
LINE
  8
_0-0_0
  6
CONTINUOUS
 62
    7
 10
28.19628849999998
 20
506.09997599999997
 11
28.290191499999992
 21
505.89999399999999
  0
ARC
  8
_0-0_0
  6
CONTINUOUS
 62
    7
 10
21.002532499999973
 20
502.59997599999997
 40
8
 50
25.944476999999999
 51
31.668240000000001
  0
LINE
  8
_0-0_0
  6
CONTINUOUS
 62
    7
 10
27.729888499999959
 20
506.92929099999998
 11
27.811355499999991
 21
506.79998799999998
  0
LINE
  8
_0-0_0
  6
CONTINUOUS
 62
    7
 10
27.729888499999959
 20
506.92929099999998
 11
27.636749499999951
 21
507.07070899999997
  0
LINE
  8
_0-0_0
  6
CONTINUOUS
 62
    7
 10
27.547759499999984
 20
507.19998199999998
 11
27.636749499999951
 21
507.07070899999997
  0
CIRCLE
  8
_0-0_0
  6
CONTINUOUS
 62
    7
 10
21.002532499999973
 20
502.59997599999997
 40
7.5
  0
LINE
  8
_0-0_0
  6
CONTINUOUS
 62
    7
 10
29.00003049999998
 20
502.79998799999998
 11
948.00500450000004
 21
502.79998799999998
  0
LINE
  8
_0-0_0
  6
CONTINUOUS
 62
    7
 10
28.9517515
 20
503.49997000000002
 11
948.05322249999995
 21
503.49997000000002
  0
LINE
  8
_0-0_0
  6
CONTINUOUS
 62
    7
 10
28.926544499999977
 20
503.69998199999998
 11
948.07849149999993
 21
503.69998199999998
  0
LINE
  8
_0-0_0
  6
CONTINUOUS
 62
    7
 10
28.896209499999941
 20
503.89999399999999
 11
948.10876450000001
 21
503.89999399999999
  0
LINE
  8
_0-0_0
  6
CONTINUOUS
 62
    7
 10
28.748504499999967
 20
504.59997599999997
 11
948.25646949999987
 21
504.59997599999997
  0
LINE
  8
_0-0_0
  6
CONTINUOUS
 62
    7
 10
28.694091499999956
 20
504.79998799999998
 11
948.31091249999986
 21
504.79998799999998
  0
LINE
  8
_0-0_0
  6
CONTINUOUS
 62
    7
 10
28.634048499999949
 20
504.99997000000002
 11
948.3709715
 21
504.99997000000002
  0
LINE
  8
_0-0_0
  6
CONTINUOUS
 62
    7
 10
28.377502499999991
 20
505.69998199999998
 11
948.62756349999995
 21
505.69998199999998
  0
LINE
  8
_0-0_0
  6
CONTINUOUS
 62
    7
 10
28.290191499999992
 20
505.89999399999999
 11
948.71484349999992
 21
505.89999399999999
  0
LINE
  8
_0-0_0
  6
CONTINUOUS
 62
    7
 10
28.19628849999998
 20
506.09997599999997
 11
948.80871550000006
 21
506.09997599999997
  0
LINE
  8
_0-0_0
  6
CONTINUOUS
 62
    7
 10
27.811355499999991
 20
506.79998799999998
 11
949.19360349999988
 21
506.79998799999998
  0
LINE
  8
_0-0_0
  6
CONTINUOUS
 62
    7
 10
965.50244150000003
 20
484.59997599999997
 11
965.00244150000003
 21
484.59997599999997
  0
LINE
  8
_0-0_0
  6
CONTINUOUS
 62
    7
 10
965.50244150000003
 20
512.19998199999998
 11
965.50244150000003
 21
512.99997000000008
  0
LINE
  8
_0-0_0
  6
CONTINUOUS
 62
    7
 10
965.50244150000003
 20
484.39999399999999
 11
965.50244150000003
 21
512.19998199999998
  0
ARC
  8
_0-0_0
  6
CONTINUOUS
 62
    7
 10
956.00244150000003
 20
503.29998799999998
 40
12.800000000000001
 50
73.932597000000001
 51
106.06740099999999
  0
LINE
  8
_0-0_0
  6
CONTINUOUS
 62
    7
 10
11.502532499999973
 20
512.19998199999998
 11
11.502532499999973
 21
512.99997000000008
  0
LINE
  8
_0-0_0
  6
CONTINUOUS
 62
    7
 10
11.502532499999973
 20
484.39999399999999
 11
11.502532499999973
 21
512.19998199999998
  0
ARC
  8
_0-0_0
  6
CONTINUOUS
 62
    7
 10
21.002532499999973
 20
503.29998799999998
 40
12.800000000000001
 50
73.932597000000001
 51
106.06740099999999
  0
LINE
  8
_0-0_0
  6
CONTINUOUS
 62
    7
 10
479.00250249999999
 20
515.59997599999997
 11
479.00250249999999
 21
521.23989899999992
  0
LINE
  8
_0-0_0
  6
CONTINUOUS
 62
    7
 10
498.00250249999999
 20
521.23989899999992
 11
498.00250249999999
 21
515.59997599999997
  0
LINE
  8
_0-0_0
  6
CONTINUOUS
 62
    7
 10
965.50244150000003
 20
513.09997599999997
 11
965.50244150000003
 21
515.59997599999997
  0
LINE
  8
_0-0_0
  6
CONTINUOUS
 62
    7
 10
11.502532499999973
 20
515.59997599999997
 11
965.50244150000003
 21
515.59997599999997
  0
LINE
  8
_0-0_0
  6
CONTINUOUS
 62
    7
 10
11.502532499999973
 20
513.09997599999997
 11
11.502532499999973
 21
515.59997599999997
  0
LINE
  8
_0-0_0
  6
CONTINUOUS
 62
    7
 10
11.502532499999973
 20
484.59997599999997
 11
12.002532499999973
 21
484.59997599999997
  0
ARC
  8
_0-0_0
  6
CONTINUOUS
 62
    7
 10
887.30249049999998
 20
489.49997000000002
 40
0.2
 50
339.62356199999999
 51
90.000002999999978
  0
LINE
  8
_0-0_0
  6
CONTINUOUS
 62
    7
 10
887.48999049999998
 20
489.43035900000001
 11
886.19000249999999
 21
485.93035900000001
  0
ARC
  8
_0-0_0
  6
CONTINUOUS
 62
    7
 10
886.00250249999999
 20
485.99997000000002
 40
0.2
 50
200.37643
 51
339.62356199999999
  0
LINE
  8
_0-0_0
  6
CONTINUOUS
 62
    7
 10
884.51501450000001
 20
489.43035900000001
 11
885.81500249999999
 21
485.93035900000001
  0
ARC
  8
_0-0_0
  6
CONTINUOUS
 62
    7
 10
884.70251450000001
 20
489.49997000000002
 40
0.2
 50
90.000003000000007
 51
200.37643
  0
LINE
  8
_0-0_0
  6
CONTINUOUS
 62
    7
 10
884.70251450000001
 20
489.69998199999998
 11
887.30249049999998
 21
489.69998199999998
  0
ARC
  8
_0-0_0
  6
CONTINUOUS
 62
    7
 10
67.302535499999976
 20
489.49997000000002
 40
0.2
 50
339.62356199999999
 51
90.000002999999978
  0
LINE
  8
_0-0_0
  6
CONTINUOUS
 62
    7
 10
67.490020499999957
 20
489.43035900000001
 11
66.190017499999954
 21
485.93035900000001
  0
ARC
  8
_0-0_0
  6
CONTINUOUS
 62
    7
 10
66.002532499999973
 20
485.99997000000002
 40
0.2
 50
200.37643
 51
339.62356199999999
  0
LINE
  8
_0-0_0
  6
CONTINUOUS
 62
    7
 10
64.515045499999928
 20
489.43035900000001
 11
65.815048499999989
 21
485.93035900000001
  0
ARC
  8
_0-0_0
  6
CONTINUOUS
 62
    7
 10
64.702545499999928
 20
489.49997000000002
 40
0.2
 50
90.000003000000007
 51
200.37643
  0
LINE
  8
_0-0_0
  6
CONTINUOUS
 62
    7
 10
64.702545499999928
 20
489.69998199999998
 11
67.302535499999976
 21
489.69998199999998
  0
LINE
  8
_0-0_0
  6
CONTINUOUS
 62
    7
 10
966.50244150000003
 20
512.19998199999998
 11
965.50244150000003
 21
512.19998199999998
  0
LINE
  8
_0-0_0
  6
CONTINUOUS
 62
    7
 10
966.50244150000003
 20
513.23696900000004
 11
965.50244150000003
 21
513.23696900000004
  0
LINE
  8
_0-0_0
  6
CONTINUOUS
 62
    7
 10
966.50244150000003
 20
484.39999399999999
 11
965.50244150000003
 21
484.39999399999999
  0
ARC
  8
_0-0_0
  6
CONTINUOUS
 62
    7
 10
488.50250249999999
 20
503.29998799999998
 40
20.299999
 50
62.096725999999997
 51
117.903272
  0
CIRCLE
  8
_0-0_0
  6
CONTINUOUS
 62
    7
 10
488.50250249999999
 20
519.59997599999997
 40
2.5
  0
LINE
  8
_0-0_0
  6
CONTINUOUS
 62
    7
 10
10.502532499999973
 20
512.19998199999998
 11
11.502532499999973
 21
512.19998199999998
  0
LINE
  8
_0-0_0
  6
CONTINUOUS
 62
    7
 10
10.502532499999973
 20
513.19998199999998
 11
11.502532499999973
 21
513.19998199999998
  0
LINE
  8
_0-0_0
  6
CONTINUOUS
 62
    7
 10
10.502532499999973
 20
484.39999399999999
 11
11.502532499999973
 21
484.39999399999999
  0
LINE
  8
_0-0_0
  6
CONTINUOUS
 62
    7
 10
966.50244150000003
 20
515.39999399999999
 11
965.50244150000003
 21
515.39999399999999
  0
LINE
  8
_0-0_0
  6
CONTINUOUS
 62
    7
 10
10.502532499999973
 20
515.39999399999999
 11
11.502532499999973
 21
515.39999399999999
  0
LINE
  8
_0-0_0
  6
CONTINUOUS
 62
    7
 10
967.50244150000003
 20
511.78576699999996
 11
967.50146449999988
 21
511.80429099999998
  0
LINE
  8
_0-0_0
  6
CONTINUOUS
 62
    7
 10
967.50146449999988
 20
511.80429099999998
 11
967.49853549999989
 21
511.822723
  0
LINE
  8
_0-0_0
  6
CONTINUOUS
 62
    7
 10
967.49853549999989
 20
511.822723
 11
967.49328650000007
 21
511.841858
  0
LINE
  8
_0-0_0
  6
CONTINUOUS
 62
    7
 10
967.49328650000007
 20
511.841858
 11
967.48583949999988
 21
511.86086999999998
  0
LINE
  8
_0-0_0
  6
CONTINUOUS
 62
    7
 10
967.48583949999988
 20
511.86086999999998
 11
967.46533150000005
 21
511.897583
  0
LINE
  8
_0-0_0
  6
CONTINUOUS
 62
    7
 10
967.46533150000005
 20
511.897583
 11
967.43688950000001
 21
511.93325799999997
  0
LINE
  8
_0-0_0
  6
CONTINUOUS
 62
    7
 10
967.43688950000001
 20
511.93325799999997
 11
967.40100050000001
 21
511.96755999999999
  0
LINE
  8
_0-0_0
  6
CONTINUOUS
 62
    7
 10
967.40100050000001
 20
511.96755999999999
 11
967.35241649999989
 21
512.00402800000006
  0
LINE
  8
_0-0_0
  6
CONTINUOUS
 62
    7
 10
967.35241649999989
 20
512.00402800000006
 11
967.29565449999996
 21
512.03802500000006
  0
LINE
  8
_0-0_0
  6
CONTINUOUS
 62
    7
 10
967.29565449999996
 20
512.03802500000006
 11
967.23144550000006
 21
512.06927500000006
  0
LINE
  8
_0-0_0
  6
CONTINUOUS
 62
    7
 10
967.23144550000006
 20
512.06927500000006
 11
967.16088850000006
 21
512.097534
  0
LINE
  8
_0-0_0
  6
CONTINUOUS
 62
    7
 10
967.16088850000006
 20
512.097534
 11
967.11279250000007
 21
512.11389199999996
  0
LINE
  8
_0-0_0
  6
CONTINUOUS
 62
    7
 10
967.11279250000007
 20
512.11389199999996
 11
967.06262149999998
 21
512.12887599999999
  0
LINE
  8
_0-0_0
  6
CONTINUOUS
 62
    7
 10
967.06262149999998
 20
512.12887599999999
 11
967.00585950000004
 21
512.14364599999999
  0
LINE
  8
_0-0_0
  6
CONTINUOUS
 62
    7
 10
967.00585950000004
 20
512.14364599999999
 11
966.94726549999996
 21
512.15673800000002
  0
LINE
  8
_0-0_0
  6
CONTINUOUS
 62
    7
 10
966.94726549999996
 20
512.15673800000002
 11
966.83056650000003
 21
512.17706299999998
  0
LINE
  8
_0-0_0
  6
CONTINUOUS
 62
    7
 10
966.83056650000003
 20
512.17706299999998
 11
966.72314449999999
 21
512.18978900000002
  0
LINE
  8
_0-0_0
  6
CONTINUOUS
 62
    7
 10
966.72314449999999
 20
512.18978900000002
 11
966.6134035
 21
512.19741799999997
  0
LINE
  8
_0-0_0
  6
CONTINUOUS
 62
    7
 10
966.6134035
 20
512.19741799999997
 11
966.50244150000003
 21
512.19998199999998
  0
LINE
  8
_0-0_0
  6
CONTINUOUS
 62
    7
 10
967.50244150000003
 20
511.78576699999996
 11
967.50244150000003
 21
512.78582800000004
  0
LINE
  8
_0-0_0
  6
CONTINUOUS
 62
    7
 10
967.50244150000003
 20
512.78582800000004
 11
967.49951149999993
 21
512.81741299999999
  0
LINE
  8
_0-0_0
  6
CONTINUOUS
 62
    7
 10
967.49951149999993
 20
512.81741299999999
 11
967.49084449999987
 21
512.84948699999995
  0
LINE
  8
_0-0_0
  6
CONTINUOUS
 62
    7
 10
967.49084449999987
 20
512.84948699999995
 11
967.47631849999993
 21
512.88174400000003
  0
LINE
  8
_0-0_0
  6
CONTINUOUS
 62
    7
 10
967.47631849999993
 20
512.88174400000003
 11
967.45605449999994
 21
512.91390999999999
  0
LINE
  8
_0-0_0
  6
CONTINUOUS
 62
    7
 10
967.45605449999994
 20
512.91390999999999
 11
967.4394534999999
 21
512.93515000000002
  0
LINE
  8
_0-0_0
  6
CONTINUOUS
 62
    7
 10
967.4394534999999
 20
512.93515000000002
 11
967.42053250000004
 21
512.95608500000003
  0
LINE
  8
_0-0_0
  6
CONTINUOUS
 62
    7
 10
967.42053250000004
 20
512.95608500000003
 11
967.37573249999991
 21
512.99688700000002
  0
LINE
  8
_0-0_0
  6
CONTINUOUS
 62
    7
 10
967.37573249999991
 20
512.99688700000002
 11
967.32250950000002
 21
513.03561400000001
  0
LINE
  8
_0-0_0
  6
CONTINUOUS
 62
    7
 10
967.32250950000002
 20
513.03561400000001
 11
967.2725825
 21
513.06582700000001
  0
LINE
  8
_0-0_0
  6
CONTINUOUS
 62
    7
 10
967.2725825
 20
513.06582700000001
 11
967.21789549999994
 21
513.09405500000003
  0
LINE
  8
_0-0_0
  6
CONTINUOUS
 62
    7
 10
967.21789549999994
 20
513.09405500000003
 11
967.15893549999987
 21
513.12008700000001
  0
LINE
  8
_0-0_0
  6
CONTINUOUS
 62
    7
 10
967.15893549999987
 20
513.12008700000001
 11
967.11218250000002
 21
513.13809199999992
  0
LINE
  8
_0-0_0
  6
CONTINUOUS
 62
    7
 10
967.11218250000002
 20
513.13809199999992
 11
967.06347649999998
 21
513.15469400000006
  0
LINE
  8
_0-0_0
  6
CONTINUOUS
 62
    7
 10
967.06347649999998
 20
513.15469400000006
 11
966.96105949999992
 21
513.18356300000005
  0
LINE
  8
_0-0_0
  6
CONTINUOUS
 62
    7
 10
966.96105949999992
 20
513.18356300000005
 11
966.85339350000004
 21
513.20639000000006
  0
LINE
  8
_0-0_0
  6
CONTINUOUS
 62
    7
 10
966.85339350000004
 20
513.20639000000006
 11
966.74182150000001
 21
513.22299199999998
  0
LINE
  8
_0-0_0
  6
CONTINUOUS
 62
    7
 10
966.74182150000001
 20
513.22299199999998
 11
966.62768549999987
 21
513.23318500000005
  0
LINE
  8
_0-0_0
  6
CONTINUOUS
 62
    7
 10
966.62768549999987
 20
513.23318500000005
 11
966.50244150000003
 21
513.23696900000004
  0
ARC
  8
_0-0_0
  6
CONTINUOUS
 62
    7
 10
966.50244150000003
 20
485.39999399999999
 40
1
 50
269.99999700000001
 51
0
  0
LINE
  8
_0-0_0
  6
CONTINUOUS
 62
    7
 10
967.50244150000003
 20
485.39999399999999
 11
967.50244150000003
 21
511.78576699999996
  0
LINE
  8
_0-0_0
  6
CONTINUOUS
 62
    7
 10
9.5025324999999725
 20
511.78576699999996
 11
9.503539499999988
 21
511.80429099999998
  0
LINE
  8
_0-0_0
  6
CONTINUOUS
 62
    7
 10
9.503539499999988
 20
511.80429099999998
 11
9.5065304999999398
 21
511.822723
  0
LINE
  8
_0-0_0
  6
CONTINUOUS
 62
    7
 10
9.5065304999999398
 20
511.822723
 11
9.5117794999999887
 21
511.841858
  0
LINE
  8
_0-0_0
  6
CONTINUOUS
 62
    7
 10
9.5117794999999887
 20
511.841858
 11
9.5191494999999691
 21
511.86086999999998
  0
LINE
  8
_0-0_0
  6
CONTINUOUS
 62
    7
 10
9.5191494999999691
 20
511.86086999999998
 11
9.5397034999999732
 21
511.897583
  0
LINE
  8
_0-0_0
  6
CONTINUOUS
 62
    7
 10
9.5397034999999732
 20
511.897583
 11
9.5680994999999598
 21
511.93325799999997
  0
LINE
  8
_0-0_0
  6
CONTINUOUS
 62
    7
 10
9.5680994999999598
 20
511.93325799999997
 11
9.6039734999999382
 21
511.96755999999999
  0
LINE
  8
_0-0_0
  6
CONTINUOUS
 62
    7
 10
9.6039734999999382
 20
511.96755999999999
 11
9.6526034999999411
 21
512.00402800000006
  0
LINE
  8
_0-0_0
  6
CONTINUOUS
 62
    7
 10
9.6526034999999411
 20
512.00402800000006
 11
9.7093814999999495
 21
512.03802500000006
  0
LINE
  8
_0-0_0
  6
CONTINUOUS
 62
    7
 10
9.7093814999999495
 20
512.03802500000006
 11
9.7735284999999976
 21
512.06927500000006
  0
LINE
  8
_0-0_0
  6
CONTINUOUS
 62
    7
 10
9.7735284999999976
 20
512.06927500000006
 11
9.8441775000000007
 21
512.097534
  0
LINE
  8
_0-0_0
  6
CONTINUOUS
 62
    7
 10
9.8441775000000007
 20
512.097534
 11
9.8922574999999711
 21
512.11389199999996
  0
LINE
  8
_0-0_0
  6
CONTINUOUS
 62
    7
 10
9.8922574999999711
 20
512.11389199999996
 11
9.9423825000000079
 21
512.12887599999999
  0
LINE
  8
_0-0_0
  6
CONTINUOUS
 62
    7
 10
9.9423825000000079
 20
512.12887599999999
 11
9.9990844999999808
 21
512.14364599999999
  0
LINE
  8
_0-0_0
  6
CONTINUOUS
 62
    7
 10
9.9990844999999808
 20
512.14364599999999
 11
10.057693499999971
 21
512.15673800000002
  0
LINE
  8
_0-0_0
  6
CONTINUOUS
 62
    7
 10
10.057693499999971
 20
512.15673800000002
 11
10.174484499999949
 21
512.17706299999998
  0
LINE
  8
_0-0_0
  6
CONTINUOUS
 62
    7
 10
10.174484499999949
 20
512.17706299999998
 11
10.281890499999975
 21
512.18978900000002
  0
LINE
  8
_0-0_0
  6
CONTINUOUS
 62
    7
 10
10.281890499999975
 20
512.18978900000002
 11
10.391662499999939
 21
512.19741799999997
  0
LINE
  8
_0-0_0
  6
CONTINUOUS
 62
    7
 10
10.391662499999939
 20
512.19741799999997
 11
10.502532499999973
 21
512.19998199999998
  0
LINE
  8
_0-0_0
  6
CONTINUOUS
 62
    7
 10
9.5025324999999725
 20
512.75543199999993
 11
9.5054324999999835
 21
512.78634699999998
  0
LINE
  8
_0-0_0
  6
CONTINUOUS
 62
    7
 10
9.5054324999999835
 20
512.78634699999998
 11
9.5141294999999673
 21
512.81777999999997
  0
LINE
  8
_0-0_0
  6
CONTINUOUS
 62
    7
 10
9.5141294999999673
 20
512.81777999999997
 11
9.5286104999999566
 21
512.84945700000003
  0
LINE
  8
_0-0_0
  6
CONTINUOUS
 62
    7
 10
9.5286104999999566
 20
512.84945700000003
 11
9.5487664999999424
 21
512.88104299999998
  0
LINE
  8
_0-0_0
  6
CONTINUOUS
 62
    7
 10
9.5487664999999424
 20
512.88104299999998
 11
9.5652924999999414
 21
512.90191699999991
  0
LINE
  8
_0-0_0
  6
CONTINUOUS
 62
    7
 10
9.5652924999999414
 20
512.90191699999991
 11
9.5841974999999593
 21
512.92251599999997
  0
LINE
  8
_0-0_0
  6
CONTINUOUS
 62
    7
 10
9.5841974999999593
 20
512.92251599999997
 11
9.6288454999999544
 21
512.96267699999999
  0
LINE
  8
_0-0_0
  6
CONTINUOUS
 62
    7
 10
9.6288454999999544
 20
512.96267699999999
 11
9.681976499999962
 21
513.00088499999993
  0
LINE
  8
_0-0_0
  6
CONTINUOUS
 62
    7
 10
9.681976499999962
 20
513.00088499999993
 11
9.7318725000000086
 21
513.03070099999991
  0
LINE
  8
_0-0_0
  6
CONTINUOUS
 62
    7
 10
9.7318725000000086
 20
513.03070099999991
 11
9.7865294999999719
 21
513.05856300000005
  0
LINE
  8
_0-0_0
  6
CONTINUOUS
 62
    7
 10
9.7865294999999719
 20
513.05856300000005
 11
9.8455194999999662
 21
513.08431999999993
  0
LINE
  8
_0-0_0
  6
CONTINUOUS
 62
    7
 10
9.8455194999999662
 20
513.08431999999993
 11
9.89227249999999
 21
513.102081
  0
LINE
  8
_0-0_0
  6
CONTINUOUS
 62
    7
 10
9.89227249999999
 20
513.102081
 11
9.9409784999999715
 21
513.11852999999996
  0
LINE
  8
_0-0_0
  6
CONTINUOUS
 62
    7
 10
9.9409784999999715
 20
513.11852999999996
 11
10.043411499999934
 21
513.14709500000004
  0
LINE
  8
_0-0_0
  6
CONTINUOUS
 62
    7
 10
10.043411499999934
 20
513.14709500000004
 11
10.151229499999999
 21
513.16970800000001
  0
LINE
  8
_0-0_0
  6
CONTINUOUS
 62
    7
 10
10.151229499999999
 20
513.16970800000001
 11
10.26290849999998
 21
513.18612699999994
  0
LINE
  8
_0-0_0
  6
CONTINUOUS
 62
    7
 10
10.26290849999998
 20
513.18612699999994
 11
10.377075499999933
 21
513.19622800000002
  0
LINE
  8
_0-0_0
  6
CONTINUOUS
 62
    7
 10
10.377075499999933
 20
513.19622800000002
 11
10.502532499999973
 21
513.19998199999998
  0
LINE
  8
_0-0_0
  6
CONTINUOUS
 62
    7
 10
9.5025324999999725
 20
511.78576699999996
 11
9.5025324999999725
 21
512.75543199999993
  0
ARC
  8
_0-0_0
  6
CONTINUOUS
 62
    7
 10
10.502532499999973
 20
485.39999399999999
 40
1
 50
180.00000900000003
 51
269.99999700000001
  0
LINE
  8
_0-0_0
  6
CONTINUOUS
 62
    7
 10
9.5025324999999725
 20
485.39999399999999
 11
9.5025324999999725
 21
511.78576699999996
  0
CIRCLE
  8
_0-0_0
  6
CONTINUOUS
 62
    7
 10
21.002532499999973
 20
502.59997599999997
 40
5
  0
CIRCLE
  8
_0-0_0
  6
CONTINUOUS
 62
    7
 10
956.00244150000003
 20
502.59997599999997
 40
5
  0
LINE
  8
_0-0_0
  6
CONTINUOUS
 62
    7
 10
967.50244150000003
 20
512.78582800000004
 11
967.50244150000003
 21
514.39999399999999
  0
ARC
  8
_0-0_0
  6
CONTINUOUS
 62
    7
 10
966.50244150000003
 20
514.39999399999999
 40
1
 50
0
 51
90.000003000000007
  0
ARC
  8
_0-0_0
  6
CONTINUOUS
 62
    7
 10
10.502532499999973
 20
514.39999399999999
 40
1
 50
90.000003000000007
 51
180.00000900000001
  0
LINE
  8
_0-0_0
  6
CONTINUOUS
 62
    7
 10
9.5025324999999725
 20
512.75543199999993
 11
9.5025324999999725
 21
514.39999399999999
  0
LINE
  8
_0-0_0
  6
CONTINUOUS
 62
    7
 10
-18.40733350000005
 20
484.39999399999999
 11
-18.40733350000005
 21
483.79998799999998
  0
LINE
  8
_0-0_0
  6
CONTINUOUS
 62
    7
 10
-15.90733350000005
 20
478.55499299999997
 11
-15.90733350000005
 21
480.79998799999998
  0
LINE
  8
_0-0_0
  6
CONTINUOUS
 62
    7
 10
-14.90733350000005
 20
480.79998799999998
 11
-14.90733350000005
 21
482.79998799999998
  0
ARC
  8
_0-0_0
  6
CONTINUOUS
 62
    7
 10
-15.40733350000005
 20
482.79998799999998
 40
0.5
 50
0
 51
90.000003000000007
  0
LINE
  8
_0-0_0
  6
CONTINUOUS
 62
    7
 10
-15.40733350000005
 20
483.29998799999998
 11
-16.90733350000005
 21
483.29998799999998
  0
ARC
  8
_0-0_0
  6
CONTINUOUS
 62
    7
 10
-16.90733350000005
 20
484.29998799999998
 40
1
 50
180.00000900000003
 51
269.99999700000001
  0
LINE
  8
_0-0_0
  6
CONTINUOUS
 62
    7
 10
-17.90733350000005
 20
484.39999399999999
 11
-17.90733350000005
 21
484.29998799999998
  0
ARC
  8
_0-0_0
  6
CONTINUOUS
 62
    7
 10
-16.90733350000005
 20
483.79998799999998
 40
1.5
 50
180.00000900000003
 51
269.99999700000001
  0
LINE
  8
_0-0_0
  6
CONTINUOUS
 62
    7
 10
-16.90733350000005
 20
482.29998799999998
 11
-17.607330500000046
 21
482.29998799999998
  0
ARC
  8
_0-0_0
  6
CONTINUOUS
 62
    7
 10
-17.607330500000046
 20
483.29998799999998
 40
1
 50
180.00000900000003
 51
269.99999700000001
  0
LINE
  8
_0-0_0
  6
CONTINUOUS
 62
    7
 10
-18.607330500000046
 20
484.29998799999998
 11
-18.607330500000046
 21
483.29998799999998
  0
LINE
  8
_0-0_0
  6
CONTINUOUS
 62
    7
 10
-26.807342500000004
 20
483.29998799999998
 11
-26.807342500000004
 21
484.29998799999998
  0
ARC
  8
_0-0_0
  6
CONTINUOUS
 62
    7
 10
-27.807342500000004
 20
483.29998799999998
 40
1
 50
269.99999700000001
 51
0
  0
LINE
  8
_0-0_0
  6
CONTINUOUS
 62
    7
 10
-27.807342500000004
 20
482.29998799999998
 11
-28.007339500000057
 21
482.29998799999998
  0
ARC
  8
_0-0_0
  6
CONTINUOUS
 62
    7
 10
-28.007339500000057
 20
483.29998799999998
 40
1
 50
269.99999700000001
 51
0
  0
LINE
  8
_0-0_0
  6
CONTINUOUS
 62
    7
 10
-27.007339500000057
 20
483.29998799999998
 11
-27.007339500000057
 21
484.39999399999999
  0
LINE
  8
_0-0_0
  6
CONTINUOUS
 62
    7
 10
-27.507339500000057
 20
484.29998799999998
 11
-27.507339500000057
 21
484.39999399999999
  0
ARC
  8
_0-0_0
  6
CONTINUOUS
 62
    7
 10
-28.507339500000057
 20
484.29998799999998
 40
1
 50
269.99999700000001
 51
0
  0
LINE
  8
_0-0_0
  6
CONTINUOUS
 62
    7
 10
-28.507339500000057
 20
483.29998799999998
 11
-30.007339500000057
 21
483.29998799999998
  0
ARC
  8
_0-0_0
  6
CONTINUOUS
 62
    7
 10
-30.007339500000057
 20
482.79998799999998
 40
0.5
 50
90.000003000000007
 51
180.00000900000001
  0
LINE
  8
_0-0_0
  6
CONTINUOUS
 62
    7
 10
-30.507339500000057
 20
482.79998799999998
 11
-30.507339500000057
 21
480.79998799999998
  0
LINE
  8
_0-0_0
  6
CONTINUOUS
 62
    7
 10
-29.507339500000057
 20
478.55499299999997
 11
-29.507339500000057
 21
480.79998799999998
  0
LINE
  8
_0-0_0
  6
CONTINUOUS
 62
    7
 10
-31.40733350000005
 20
460.19998199999998
 11
-31.40733350000005
 21
478.55499299999997
  0
LINE
  8
_0-0_0
  6
CONTINUOUS
 62
    7
 10
-14.607330500000046
 20
460.19998199999998
 11
-14.607330500000046
 21
478.55499299999997
  0
CIRCLE
  8
_0-0_0
  6
CONTINUOUS
 62
    7
 10
-22.707336499999997
 20
480.79998799999998
 40
2.0499999999999998
  0
LINE
  8
_0-0_0
  6
CONTINUOUS
 62
    7
 10
-14.607330500000046
 20
482.29998799999998
 11
-14.607330500000046
 21
482.27499399999999
  0
LINE
  8
_0-0_0
  6
CONTINUOUS
 62
    7
 10
-14.607330500000046
 20
479.05493200000001
 11
-14.607330500000046
 21
479.32498199999998
  0
LINE
  8
_0-0_0
  6
CONTINUOUS
 62
    7
 10
-14.607330500000046
 20
478.55499299999997
 11
-14.607330500000046
 21
479.05499299999997
  0
LINE
  8
_0-0_0
  6
CONTINUOUS
 62
    7
 10
-14.607330500000046
 20
458.19998199999998
 11
-14.607330500000046
 21
460.19998199999998
  0
LINE
  8
_0-0_0
  6
CONTINUOUS
 62
    7
 10
-31.40733350000005
 20
458.19998199999998
 11
-31.40733350000005
 21
460.19998199999998
  0
LINE
  8
_0-0_0
  6
CONTINUOUS
 62
    7
 10
-31.40733350000005
 20
458.19998199999998
 11
-14.607330500000046
 21
458.19998199999998
  0
LINE
  8
_0-0_0
  6
CONTINUOUS
 62
    7
 10
-31.40733350000005
 20
482.29998799999998
 11
-31.40733350000005
 21
480.79998799999998
  0
LINE
  8
_0-0_0
  6
CONTINUOUS
 62
    7
 10
-31.40733350000005
 20
479.05499299999997
 11
-31.40733350000005
 21
480.79998799999998
  0
LINE
  8
_0-0_0
  6
CONTINUOUS
 62
    7
 10
-31.40733350000005
 20
478.55499299999997
 11
-31.40733350000005
 21
479.05499299999997
  0
LINE
  8
_0-0_0
  6
CONTINUOUS
 62
    7
 10
-30.507339500000057
 20
479.05505399999998
 11
-30.507339500000057
 21
480.79998799999998
  0
ARC
  8
_0-0_0
  6
CONTINUOUS
 62
    7
 10
-16.207336499999997
 20
460.29998799999998
 40
2
 50
323.13010300000002
 51
0.0000000000000127
  0
LINE
  8
_0-0_0
  6
CONTINUOUS
 62
    7
 10
-14.207336499999997
 20
460.29998799999998
 11
-14.207336499999997
 21
461.70004299999999
  0
LINE
  8
_0-0_0
  6
CONTINUOUS
 62
    7
 10
-13.90733350000005
 20
466.78967299999999
 11
-13.90733350000005
 21
477.23767099999998
  0
LINE
  8
_0-0_0
  6
CONTINUOUS
 62
    7
 10
-13.90733350000005
 20
478.20047
 11
-13.90733350000005
 21
480.43511999999998
  0
LINE
  8
_0-0_0
  6
CONTINUOUS
 62
    7
 10
-31.40733350000005
 20
482.29998799999998
 11
-30.507339500000057
 21
482.29998799999998
  0
LINE
  8
_0-0_0
  6
CONTINUOUS
 62
    7
 10
-31.507339500000057
 20
461.69998199999998
 11
-31.40733350000005
 21
461.69998199999998
  0
LINE
  8
_0-0_0
  6
CONTINUOUS
 62
    7
 10
-31.507339500000057
 20
461.69998199999998
 11
-31.507339500000057
 21
466.78967299999999
  0
LINE
  8
_0-0_0
  6
CONTINUOUS
 62
    7
 10
-31.507339500000057
 20
477.23767099999998
 11
-31.507339500000057
 21
478.20047
  0
LINE
  8
_0-0_0
  6
CONTINUOUS
 62
    7
 10
-31.507339500000057
 20
481.29998799999998
 11
-31.40733350000005
 21
481.29998799999998
  0
LINE
  8
_0-0_0
  6
CONTINUOUS
 62
    7
 10
-31.507339500000057
 20
480.43511999999998
 11
-31.507339500000057
 21
481.29998799999998
  0
LINE
  8
_0-0_0
  6
CONTINUOUS
 62
    7
 10
-31.507339500000057
 20
478.20047
 11
-31.507339500000057
 21
480.43511999999998
  0
LINE
  8
_0-0_0
  6
CONTINUOUS
 62
    7
 10
-31.507339500000057
 20
466.78967299999999
 11
-31.507339500000057
 21
477.23767099999998
  0
LINE
  8
_0-0_0
  6
CONTINUOUS
 62
    7
 10
-31.207336499999997
 20
480.18872099999999
 11
-31.207336499999997
 21
482.07498199999998
  0
LINE
  8
_0-0_0
  6
CONTINUOUS
 62
    7
 10
-31.207336499999997
 20
479.52499399999999
 11
-31.207336499999997
 21
480.18872099999999
  0
LINE
  8
_0-0_0
  6
CONTINUOUS
 62
    7
 10
-14.207336499999997
 20
481.41125499999998
 11
-14.207336499999997
 21
479.52529900000002
  0
LINE
  8
_0-0_0
  6
CONTINUOUS
 62
    7
 10
-14.207336499999997
 20
482.06662
 11
-14.207336499999997
 21
481.41125499999998
  0
LINE
  8
_0-0_0
  6
CONTINUOUS
 62
    7
 10
-13.90733350000005
 20
461.69998199999998
 11
-13.90733350000005
 21
466.78967299999999
  0
LINE
  8
_0-0_0
  6
CONTINUOUS
 62
    7
 10
-13.90733350000005
 20
480.43511999999998
 11
-13.90733350000005
 21
481.29998799999998
  0
LINE
  8
_0-0_0
  6
CONTINUOUS
 62
    7
 10
-13.90733350000005
 20
477.23767099999998
 11
-13.90733350000005
 21
478.20047
  0
LINE
  8
_0-0_0
  6
CONTINUOUS
 62
    7
 10
-13.90733350000005
 20
481.29998799999998
 11
-14.207336499999997
 21
481.29998799999998
  0
LINE
  8
_0-0_0
  6
CONTINUOUS
 62
    7
 10
-13.90733350000005
 20
461.69998199999998
 11
-14.607330500000046
 21
461.69998199999998
  0
LINE
  8
_0-0_0
  6
CONTINUOUS
 62
    7
 10
-14.607330500000046
 20
482.29998799999998
 11
-14.90733350000005
 21
482.29998799999998
  0
LINE
  8
_0-0_0
  6
CONTINUOUS
 62
    7
 10
-14.90733350000005
 20
480.79998799999998
 11
-14.90733350000005
 21
479.05505399999998
  0
LINE
  8
_0-0_0
  6
CONTINUOUS
 62
    7
 10
-18.607330500000046
 20
484.29998799999998
 11
-18.607330500000046
 21
484.40005500000001
  0
LINE
  8
_0-0_0
  6
CONTINUOUS
 62
    7
 10
-26.807342500000004
 20
484.40005500000001
 11
-26.807342500000004
 21
484.29998799999998
  0
LINE
  8
_0-0_0
  6
CONTINUOUS
 62
    7
 10
-15.90733350000005
 20
479.05499299999997
 11
-14.607330500000046
 21
479.05499299999997
  0
ARC
  8
_0-0_0
  6
CONTINUOUS
 62
    7
 10
-30.707336499999997
 20
482.07498199999998
 40
0.2
 50
359.91222800000003
 51
89.999948000000003
  0
ARC
  8
_0-0_0
  6
CONTINUOUS
 62
    7
 10
-30.707443500000011
 20
479.525147
 40
0.200169
 50
270.02985900000004
 51
2.3526610000000452
  0
LINE
  8
_0-0_0
  6
CONTINUOUS
 62
    7
 10
-31.007339500000057
 20
482.27499399999999
 11
-30.707336499999997
 21
482.27499399999999
  0
LINE
  8
_0-0_0
  6
CONTINUOUS
 62
    7
 10
-31.007339500000057
 20
479.32498199999998
 11
-30.707336499999997
 21
479.32498199999998
  0
ARC
  8
_0-0_0
  6
CONTINUOUS
 62
    7
 10
-31.007232500000043
 20
482.07482899999997
 40
0.200169
 50
90.029849999999996
 51
182.352667
  0
ARC
  8
_0-0_0
  6
CONTINUOUS
 62
    7
 10
-31.007339500000057
 20
479.52499399999999
 40
0.2
 50
179.912237
 51
269.99994299999997
  0
ARC
  8
_0-0_0
  6
CONTINUOUS
 62
    7
 10
-14.707229500000039
 20
479.525147
 40
0.200169
 50
177.647333
 51
269.97013600000002
  0
ARC
  8
_0-0_0
  6
CONTINUOUS
 62
    7
 10
-14.707336499999997
 20
482.07498199999998
 40
0.2
 50
90.000049999999987
 51
180.08776299999997
  0
LINE
  8
_0-0_0
  6
CONTINUOUS
 62
    7
 10
-14.40733350000005
 20
479.32498199999998
 11
-14.707336499999997
 21
479.32498199999998
  0
LINE
  8
_0-0_0
  6
CONTINUOUS
 62
    7
 10
-14.40733350000005
 20
482.27499399999999
 11
-14.707336499999997
 21
482.27499399999999
  0
ARC
  8
_0-0_0
  6
CONTINUOUS
 62
    7
 10
-14.40733350000005
 20
479.52499399999999
 40
0.2
 50
270.00005199999998
 51
0.0877600000000175
  0
ARC
  8
_0-0_0
  6
CONTINUOUS
 62
    7
 10
-14.407440500000007
 20
482.07482899999997
 40
0.200169
 50
357.64733799999999
 51
89.970147999999995
  0
LINE
  8
_0-0_0
  6
CONTINUOUS
 62
    7
 10
-31.40733350000005
 20
479.05499299999997
 11
-29.507339500000057
 21
479.05499299999997
  0
LINE
  8
_0-0_0
  6
CONTINUOUS
 62
    7
 10
-13.90733350000005
 20
484.79998799999998
 11
-13.90733350000005
 21
497.99997000000002
  0
ARC
  8
_0-0_0
  6
CONTINUOUS
 62
    7
 10
-14.40733350000005
 20
484.79998799999998
 40
0.5
 50
269.99999700000001
 51
0
  0
ARC
  8
_0-0_0
  6
CONTINUOUS
 62
    7
 10
-13.965911500000061
 20
498.19998199999998
 40
0.1
 50
135
 51
225
  0
LINE
  8
_0-0_0
  6
CONTINUOUS
 62
    7
 10
-14.036621500000024
 20
498.12927300000001
 11
-13.90733350000005
 21
497.99997000000002
  0
LINE
  8
_0-0_0
  6
CONTINUOUS
 62
    7
 10
-14.40733350000005
 20
484.29998799999998
 11
-16.307342500000004
 21
484.29998799999998
  0
ARC
  8
_0-0_0
  6
CONTINUOUS
 62
    7
 10
-16.307342500000004
 20
484.79998799999998
 40
0.5
 50
233.12990600000001
 51
269.99999700000001
  0
ARC
  8
_0-0_0
  6
CONTINUOUS
 62
    7
 10
-29.007339500000057
 20
484.79998799999998
 40
0.5
 50
269.99999700000001
 51
306.87009999999998
  0
LINE
  8
_0-0_0
  6
CONTINUOUS
 62
    7
 10
-29.007339500000057
 20
484.29998799999998
 11
-30.90733350000005
 21
484.29998799999998
  0
ARC
  8
_0-0_0
  6
CONTINUOUS
 62
    7
 10
-30.90733350000005
 20
484.79998799999998
 40
0.5
 50
180.00000900000003
 51
269.99999700000001
  0
LINE
  8
_0-0_0
  6
CONTINUOUS
 62
    7
 10
-31.40733350000005
 20
494.23498499999999
 11
-31.40733350000005
 21
484.79998799999998
  0
LINE
  8
_0-0_0
  6
CONTINUOUS
 62
    7
 10
-31.40733350000005
 20
494.23498499999999
 11
-30.707336499999997
 21
494.23498499999999
  0
LINE
  8
_0-0_0
  6
CONTINUOUS
 62
    7
 10
-14.707336499999997
 20
512.79998799999998
 11
-14.50131250000004
 21
512.79998799999998
  0
LINE
  8
_0-0_0
  6
CONTINUOUS
 62
    7
 10
-14.50131250000004
 20
512.79998799999998
 11
-13.90733350000005
 21
512.20602400000007
  0
LINE
  8
_0-0_0
  6
CONTINUOUS
 62
    7
 10
-13.90733350000005
 20
507.19998199999998
 11
-13.90733350000005
 21
512.20602400000007
  0
LINE
  8
_0-0_0
  6
CONTINUOUS
 62
    7
 10
-14.036621500000024
 20
507.07070899999997
 11
-13.90733350000005
 21
507.19998199999998
  0
ARC
  8
_0-0_0
  6
CONTINUOUS
 62
    7
 10
-13.965911500000061
 20
506.99997000000002
 40
0.1
 50
135
 51
225
  0
LINE
  8
_0-0_0
  6
CONTINUOUS
 62
    7
 10
-14.036621500000024
 20
506.92929099999998
 11
-13.90733350000005
 21
506.79998799999998
  0
LINE
  8
_0-0_0
  6
CONTINUOUS
 62
    7
 10
-13.90733350000005
 20
506.09997599999997
 11
-13.90733350000005
 21
506.79998799999998
  0
LINE
  8
_0-0_0
  6
CONTINUOUS
 62
    7
 10
-14.036621500000024
 20
505.97070300000001
 11
-13.90733350000005
 21
506.09997599999997
  0
ARC
  8
_0-0_0
  6
CONTINUOUS
 62
    7
 10
-13.965911500000061
 20
505.89999399999999
 40
0.1
 50
135
 51
225
  0
LINE
  8
_0-0_0
  6
CONTINUOUS
 62
    7
 10
-14.036621500000024
 20
505.82928499999997
 11
-13.90733350000005
 21
505.69998199999998
  0
LINE
  8
_0-0_0
  6
CONTINUOUS
 62
    7
 10
-13.90733350000005
 20
504.99997000000002
 11
-13.90733350000005
 21
505.69998199999998
  0
LINE
  8
_0-0_0
  6
CONTINUOUS
 62
    7
 10
-14.036621500000024
 20
504.87069700000001
 11
-13.90733350000005
 21
504.99997000000002
  0
ARC
  8
_0-0_0
  6
CONTINUOUS
 62
    7
 10
-13.965911500000061
 20
504.79998799999998
 40
0.1
 50
135
 51
225
  0
LINE
  8
_0-0_0
  6
CONTINUOUS
 62
    7
 10
-14.036621500000024
 20
504.72927900000002
 11
-13.90733350000005
 21
504.59997599999997
  0
LINE
  8
_0-0_0
  6
CONTINUOUS
 62
    7
 10
-13.90733350000005
 20
503.89999399999999
 11
-13.90733350000005
 21
504.59997599999997
  0
LINE
  8
_0-0_0
  6
CONTINUOUS
 62
    7
 10
-14.036621500000024
 20
503.770691
 11
-13.90733350000005
 21
503.89999399999999
  0
ARC
  8
_0-0_0
  6
CONTINUOUS
 62
    7
 10
-13.965911500000061
 20
503.69998199999998
 40
0.1
 50
135
 51
225
  0
LINE
  8
_0-0_0
  6
CONTINUOUS
 62
    7
 10
-14.036621500000024
 20
503.62927300000001
 11
-13.90733350000005
 21
503.49997000000002
  0
LINE
  8
_0-0_0
  6
CONTINUOUS
 62
    7
 10
-13.90733350000005
 20
502.79998799999998
 11
-13.90733350000005
 21
503.49997000000002
  0
LINE
  8
_0-0_0
  6
CONTINUOUS
 62
    7
 10
-14.036621500000024
 20
502.67068499999999
 11
-13.90733350000005
 21
502.79998799999998
  0
ARC
  8
_0-0_0
  6
CONTINUOUS
 62
    7
 10
-13.965911500000061
 20
502.59997599999997
 40
0.1
 50
135
 51
225
  0
LINE
  8
_0-0_0
  6
CONTINUOUS
 62
    7
 10
-14.036621500000024
 20
502.52926600000001
 11
-13.90733350000005
 21
502.39999399999999
  0
LINE
  8
_0-0_0
  6
CONTINUOUS
 62
    7
 10
-13.90733350000005
 20
501.69998199999998
 11
-13.90733350000005
 21
502.39999399999999
  0
LINE
  8
_0-0_0
  6
CONTINUOUS
 62
    7
 10
-14.036621500000024
 20
501.57070899999997
 11
-13.90733350000005
 21
501.69998199999998
  0
ARC
  8
_0-0_0
  6
CONTINUOUS
 62
    7
 10
-13.965911500000061
 20
501.49997000000002
 40
0.1
 50
135
 51
225
  0
LINE
  8
_0-0_0
  6
CONTINUOUS
 62
    7
 10
-14.036621500000024
 20
501.42929099999998
 11
-13.90733350000005
 21
501.29998799999998
  0
LINE
  8
_0-0_0
  6
CONTINUOUS
 62
    7
 10
-13.90733350000005
 20
500.59997599999997
 11
-13.90733350000005
 21
501.29998799999998
  0
LINE
  8
_0-0_0
  6
CONTINUOUS
 62
    7
 10
-14.036621500000024
 20
500.47070300000001
 11
-13.90733350000005
 21
500.59997599999997
  0
ARC
  8
_0-0_0
  6
CONTINUOUS
 62
    7
 10
-13.965911500000061
 20
500.39999399999999
 40
0.1
 50
135
 51
225
  0
LINE
  8
_0-0_0
  6
CONTINUOUS
 62
    7
 10
-14.036621500000024
 20
500.32928499999997
 11
-13.90733350000005
 21
500.19998199999998
  0
LINE
  8
_0-0_0
  6
CONTINUOUS
 62
    7
 10
-13.90733350000005
 20
499.49997000000002
 11
-13.90733350000005
 21
500.19998199999998
  0
LINE
  8
_0-0_0
  6
CONTINUOUS
 62
    7
 10
-14.036621500000024
 20
499.37069700000001
 11
-13.90733350000005
 21
499.49997000000002
  0
ARC
  8
_0-0_0
  6
CONTINUOUS
 62
    7
 10
-13.965911500000061
 20
499.29998799999998
 40
0.1
 50
135
 51
225
  0
LINE
  8
_0-0_0
  6
CONTINUOUS
 62
    7
 10
-14.036621500000024
 20
499.22927900000002
 11
-13.90733350000005
 21
499.09997599999997
  0
LINE
  8
_0-0_0
  6
CONTINUOUS
 62
    7
 10
-13.90733350000005
 20
498.39999399999999
 11
-13.90733350000005
 21
499.09997599999997
  0
LINE
  8
_0-0_0
  6
CONTINUOUS
 62
    7
 10
-14.036621500000024
 20
498.270691
 11
-13.90733350000005
 21
498.39999399999999
  0
LINE
  8
_0-0_0
  6
CONTINUOUS
 62
    7
 10
-13.90733350000005
 20
490.29998799999998
 11
-13.807342500000004
 21
490.29998799999998
  0
LINE
  8
_0-0_0
  6
CONTINUOUS
 62
    7
 10
-13.807342500000004
 20
489.79998799999998
 11
-13.807342500000004
 21
490.29998799999998
  0
LINE
  8
_0-0_0
  6
CONTINUOUS
 62
    7
 10
-13.807342500000004
 20
489.79998799999998
 11
-13.807342500000004
 21
485.79998799999998
  0
LINE
  8
_0-0_0
  6
CONTINUOUS
 62
    7
 10
-13.90733350000005
 20
485.29998799999998
 11
-13.807342500000004
 21
485.29998799999998
  0
LINE
  8
_0-0_0
  6
CONTINUOUS
 62
    7
 10
-13.807342500000004
 20
485.29998799999998
 11
-13.807342500000004
 21
485.79998799999998
  0
LINE
  8
_0-0_0
  6
CONTINUOUS
 62
    7
 10
-31.40733350000005
 20
494.29998799999998
 11
-31.40733350000005
 21
494.23498499999999
  0
LINE
  8
_0-0_0
  6
CONTINUOUS
 62
    7
 10
-14.90733350000005
 20
513.09997599999997
 11
-14.90733350000005
 21
512.99997000000008
  0
ARC
  8
_0-0_0
  6
CONTINUOUS
 62
    7
 10
-27.40733350000005
 20
513.09997599999997
 40
2.5
 50
90.000003000000007
 51
180.00000900000001
  0
LINE
  8
_0-0_0
  6
CONTINUOUS
 62
    7
 10
-31.507339500000057
 20
494.29998799999998
 11
-30.707336499999997
 21
494.29998799999998
  0
LINE
  8
_0-0_0
  6
CONTINUOUS
 62
    7
 10
-31.007339500000057
 20
516.09997599999997
 11
-31.007339500000057
 21
511.87844899999999
  0
LINE
  8
_0-0_0
  6
CONTINUOUS
 62
    7
 10
-29.90733350000005
 20
516.09997599999997
 11
-29.90733350000005
 21
513.09997599999997
  0
LINE
  8
_0-0_0
  6
CONTINUOUS
 62
    7
 10
-31.007339500000057
 20
511.87844899999999
 11
-30.707336499999997
 21
511.87844899999999
  0
LINE
  8
_0-0_0
  6
CONTINUOUS
 62
    7
 10
-31.007339500000057
 20
521.23989899999992
 11
-29.90733350000005
 21
521.23989899999992
  0
LINE
  8
_0-0_0
  6
CONTINUOUS
 62
    7
 10
-29.90733350000005
 20
516.10031099999992
 11
-29.90733350000005
 21
521.23989899999992
  0
LINE
  8
_0-0_0
  6
CONTINUOUS
 62
    7
 10
-31.507339500000057
 20
515.60064699999998
 11
-31.507339500000057
 21
520.67208899999991
  0
LINE
  8
_0-0_0
  6
CONTINUOUS
 62
    7
 10
-31.007339500000057
 20
521.23989899999992
 11
-31.507339500000057
 21
520.67208899999991
  0
ARC
  8
_0-0_0
  6
CONTINUOUS
 62
    7
 10
-17.40733350000005
 20
513.09997599999997
 40
2.5
 50
0
 51
90.000003000000007
  0
LINE
  8
_0-0_0
  6
CONTINUOUS
 62
    7
 10
-29.90733350000005
 20
513
 11
-29.90733350000005
 21
513.09997599999997
  0
LINE
  8
_0-0_0
  6
CONTINUOUS
 62
    7
 10
-17.40733350000005
 20
515.59997599999997
 11
-27.40733350000005
 21
515.59997599999997
  0
LINE
  8
_0-0_0
  6
CONTINUOUS
 62
    7
 10
-13.707336499999997
 20
485.79998799999998
 11
-13.707336499999997
 21
485.93035900000001
  0
LINE
  8
_0-0_0
  6
CONTINUOUS
 62
    7
 10
-13.707336499999997
 20
489.43035900000001
 11
-13.707336499999997
 21
485.93035900000001
  0
LINE
  8
_0-0_0
  6
CONTINUOUS
 62
    7
 10
-13.807342500000004
 20
489.69998199999998
 11
-13.707336499999997
 21
489.69998199999998
  0
LINE
  8
_0-0_0
  6
CONTINUOUS
 62
    7
 10
-13.707336499999997
 20
489.43035900000001
 11
-13.707336499999997
 21
489.69998199999998
  0
LINE
  8
_0-0_0
  6
CONTINUOUS
 62
    7
 10
-29.90733350000005
 20
523.60000600000001
 11
-29.90733350000005
 21
521.23989899999992
  0
LINE
  8
_0-0_0
  6
CONTINUOUS
 62
    7
 10
-14.107330500000046
 20
512.19998199999998
 11
-15.107330500000046
 21
513.19998199999998
  0
LINE
  8
_0-0_0
  6
CONTINUOUS
 62
    7
 10
-14.107330500000046
 20
484.39999399999999
 11
-14.107330500000046
 21
512.19998199999998
  0
LINE
  8
_0-0_0
  6
CONTINUOUS
 62
    7
 10
-30.707336499999997
 20
484.39999399999999
 11
-14.107330500000046
 21
484.39999399999999
  0
LINE
  8
_0-0_0
  6
CONTINUOUS
 62
    7
 10
-30.707336499999997
 20
512.19998199999998
 11
-30.707336499999997
 21
484.39999399999999
  0
LINE
  8
_0-0_0
  6
CONTINUOUS
 62
    7
 10
-31.507339500000057
 20
494.29998799999998
 11
-31.507339500000057
 21
511.11279300000001
  0
LINE
  8
_0-0_0
  6
CONTINUOUS
 62
    7
 10
-31.507339500000057
 20
515.59997599999997
 11
-31.507339500000057
 21
511.11279300000001
  0
ARC
  8
_0-0_0
  6
CONTINUOUS
 62
    7
 10
-0.0555875000000014
 20
491.11779799999999
 40
37.269466000000001
 50
146.14857699999999
 51
147.55443399999999
  0
LINE
  8
_0-0_0
  6
CONTINUOUS
 62
    7
 10
-31.007339500000057
 20
523.60000600000001
 11
-31.007339500000057
 21
521.23989899999992
  0
LINE
  8
_0-0_0
  6
CONTINUOUS
 62
    7
 10
-31.507339500000057
 20
523.10000600000001
 11
-31.507339500000057
 21
520.67208899999991
  0
ARC
  8
_0-0_0
  6
CONTINUOUS
 62
    7
 10
-17.67637650000006
 20
512.79998799999998
 40
2.6000000000000001
 50
8.8498839999999994
 51
90.000002999999992
  0
LINE
  8
_0-0_0
  6
CONTINUOUS
 62
    7
 10
-17.67637650000006
 20
515.39999399999999
 11
-27.138290500000039
 21
515.39999399999999
  0
ARC
  8
_0-0_0
  6
CONTINUOUS
 62
    7
 10
-27.138290500000039
 20
512.79998799999998
 40
2.6000000000000001
 50
90.000003000000007
 51
171.150115
  0
LINE
  8
_0-0_0
  6
CONTINUOUS
 62
    7
 10
-30.707336499999997
 20
512.19998199999998
 11
-29.707336499999997
 21
513.19998199999998
  0
LINE
  8
_0-0_0
  6
CONTINUOUS
 62
    7
 10
-15.107330500000046
 20
511.78576699999996
 11
-14.107330500000046
 21
512.19998199999998
  0
ARC
  8
_0-0_0
  6
CONTINUOUS
 62
    7
 10
-20.649871500000017
 20
523.98611499999993
 40
12.126564999999999
 50
292.155034
 51
297.19674500000002
  0
LINE
  8
_0-0_0
  6
CONTINUOUS
 62
    7
 10
-15.107330500000046
 20
485.39999399999999
 11
-14.107330500000046
 21
484.39999399999999
  0
LINE
  8
_0-0_0
  6
CONTINUOUS
 62
    7
 10
-29.707336499999997
 20
485.39999399999999
 11
-30.707336499999997
 21
484.39999399999999
  0
LINE
  8
_0-0_0
  6
CONTINUOUS
 62
    7
 10
-29.707336499999997
 20
511.78576699999996
 11
-30.707336499999997
 21
512.19998199999998
  0
ARC
  8
_0-0_0
  6
CONTINUOUS
 62
    7
 10
-24.164795500000025
 20
523.98611499999993
 40
12.126567
 50
242.80325699999997
 51
247.84494000000001
  0
CIRCLE
  8
_0-0_0
  6
CONTINUOUS
 62
    7
 10
-22.40733350000005
 20
492.59997599999997
 40
2.0670000000000002
  0
LINE
  8
_0-0_0
  6
CONTINUOUS
 62
    7
 10
-29.90733350000005
 20
516.09997599999997
 11
-31.007339500000057
 21
516.09997599999997
  0
LINE
  8
_0-0_0
  6
CONTINUOUS
 62
    7
 10
-13.807342500000004
 20
485.79998799999998
 11
-13.707336499999997
 21
485.79998799999998
  0
LINE
  8
_0-0_0
  6
CONTINUOUS
 62
    7
 10
-13.807342500000004
 20
485.79998799999998
 11
-13.707336499999997
 21
485.79998799999998
  0
LINE
  8
_0-0_0
  6
CONTINUOUS
 62
    7
 10
-31.507339500000057
 20
515.59997599999997
 11
-31.007339500000057
 21
516.09997599999997
  0
LINE
  8
_0-0_0
  6
CONTINUOUS
 62
    7
 10
-29.90733350000005
 20
523.60000600000001
 11
-31.007339500000057
 21
523.60000600000001
  0
LINE
  8
_0-0_0
  6
CONTINUOUS
 62
    7
 10
-31.507339500000057
 20
523.10000600000001
 11
-31.007339500000057
 21
523.60000600000001
  0
ENDSEC
  0
EOF
