  0
SECTION
  2
HEADER
  9
$ACADVER
  1
AC1009
  9
$INSBASE
 10
0
 20
0
 30
0
  9
$EXTMIN
 10
0
 20
0
  9
$EXTMAX
 10
420.5
 20
297
  9
$LIMMIN
 10
0
 20
0
  9
$LIMMAX
 10
420.5
 20
297
  9
$LTSCALE
 40
0.5
  0
ENDSEC
  0
SECTION
  2
TABLES
  0
TABLE
  2
LTYPE
 70
     9
  0
LTYPE
  2
CONTINUOUS
 70
    64
  3
実線
 72
    65
 73
     0
 40
0.0
  0
LTYPE
  2
DASHED1
 70
    64
  3
--  --  --  --  --  --  --  --  
 72
    65
 73
     2
 40
2.5
 49
1.25
 49
-1.25
  0
LTYPE
  2
DASHED2
 70
    64
  3
----    ----    ----    ----    
 72
    65
 73
     2
 40
5.0
 49
2.5
 49
-2.5
  0
LTYPE
  2
DASHED3
 70
    64
  3
------  ------  ------  ------  
 72
    65
 73
     2
 40
5.0
 49
3.75
 49
-1.25
  0
LTYPE
  2
CENTER1
 70
    64
  3
----- - ----- - ----- - ----- - 
 72
    65
 73
     4
 40
10.0
 49
6.25
 49
-1.25
 49
1.25
 49
-1.25
  0
LTYPE
  2
CENTER2
 70
    64
  3
----------  --  ----------  --  
 72
    65
 73
     4
 40
20.0
 49
12.5
 49
-2.5
 49
2.5
 49
-2.5
  0
LTYPE
  2
PHANTOM1
 70
    64
  3
--- - - --- - - --- - - --- - - 
 72
    65
 73
     6
 40
10.0
 49
3.25
 49
-1.25
 49
1.25
 49
-1.25
 49
1.25
 49
-1.25
  0
LTYPE
  2
PHANTOM2
 70
    64
  3
--------  -  -  --------  -  -  
 72
    65
 73
     6
 40
20.0
 49
10.0
 49
-2.5
 49
1.25
 49
-2.5
 49
1.25
 49
-2.5
  0
LTYPE
  2
DOT
 70
    64
  3
-   -   -   -   -   -   -   -   
 72
    65
 73
     2
 40
2.5
 49
0.625
 49
-1.875
  0
LTYPE
  2
DUMMY
 70
    64
  3
ダミー
 72
    65
 73
     0
 40
0.0
  0
LTYPE
  2
RAND1
 70
    64
  3
ランダム線1
 72
    65
 73
     4
 40
10.0
 49
1.0
 49
-2.0
 49
3.0
 49
-4.0
  0
LTYPE
  2
RAND2
 70
    64
  3
ランダム線2
 72
    65
 73
     4
 40
14.0
 49
2.0
 49
-3.0
 49
4.0
 49
-5.0
  0
LTYPE
  2
RAND3
 70
    64
  3
ランダム線3
 72
    65
 73
     4
 40
18.0
 49
3.0
 49
-4.0
 49
5.0
 49
-6.0
  0
LTYPE
  2
RAND4
 70
    64
  3
ランダム線4
 72
    65
 73
     4
 40
22.0
 49
4.0
 49
-5.0
 49
6.0
 49
-7.0
  0
LTYPE
  2
RAND5
 70
    64
  3
ランダム線5
 72
    65
 73
     4
 40
26.0
 49
5.0
 49
-6.0
 49
7.0
 49
-8.0
  0
LTYPE
  2
LONG1
 70
    64
  3
----------  --  ----------  --  
 72
    65
 73
     4
 40
40.0
 49
32.5
 49
-2.5
 49
2.5
 49
-2.5
  0
LTYPE
  2
LONG2
 70
    64
  3
--------  -  -  --------  -  -  
 72
    65
 73
     6
 40
40.0
 49
30.0
 49
-2.5
 49
1.25
 49
-2.5
 49
1.25
 49
-2.5
  0
LTYPE
  2
LONG3
 70
    64
  3
+++++++++++++++..+++++++++++++++
 72
    65
 73
     2
 40
40.0
 49
37.5
 49
-2.5
  0
LTYPE
  2
LONG4
 70
    64
  3
+++++++++++++++..+++++++++++++++
 72
    65
 73
     2
 40
80.0
 49
75.0
 49
-5.0
  0
LTYPE
  2
LONG5
 70
    64
  3
----------  --  ----------  --  
 72
    65
 73
     4
 40
60.0
 49
37.5
 49
-7.5
 49
7.5
 49
-7.5
  0
LTYPE
  2
dashed
 70
   64
  3
-------   -------------   ------
 72
   65
 73
    2
 40
7.5
 49
6
 49
-1.5
  0
LTYPE
  2
dashed_spaced
 70
   64
  3
----        --------        ----
 72
   65
 73
    2
 40
12
 49
6
 49
-6
  0
LTYPE
  2
long_dashed_dotted
 70
   64
  3
------------- --- --------------
 72
   65
 73
    4
 40
15.25
 49
12
 49
-1.5
 49
0.25
 49
-1.5
  0
LTYPE
  2
long_dashed_double-dotted
 70
   64
  3
----------- --- --- ------------
 72
   65
 73
    6
 40
17
 49
12
 49
-1.5
 49
0.25
 49
-1.5
 49
0.25
 49
-1.5
  0
LTYPE
  2
long_dashed_triplicate-dotted
 70
   64
  3
--------- --- --- --- ----------
 72
   65
 73
    8
 40
18.75
 49
12
 49
-1.5
 49
0.25
 49
-1.5
 49
0.25
 49
-1.5
 49
0.25
 49
-1.5
  0
LTYPE
  2
dotted
 70
   64
  3
   -       -       -       -    
 72
   65
 73
    2
 40
1.75
 49
0.25
 49
-1.5
  0
LTYPE
  2
chain
 70
   64
  3
-------------- -- --------------
 72
   65
 73
    4
 40
18.5
 49
12
 49
-1.5
 49
3.5
 49
-1.5
  0
LTYPE
  2
chain_double_dash
 70
   64
  3
------------ -- -- -------------
 72
   65
 73
    6
 40
23.5
 49
12
 49
-1.5
 49
3.5
 49
-1.5
 49
3.5
 49
-1.5
  0
LTYPE
  2
dashed_dotted
 70
   64
  3
-----------     -     ----------
 72
   65
 73
    4
 40
9.25
 49
6
 49
-1.5
 49
0.25
 49
-1.5
  0
LTYPE
  2
double-dashed_dotted
 70
   64
  3
------   -----------   -   -----
 72
   65
 73
    6
 40
16.75
 49
6
 49
-1.5
 49
6
 49
-1.5
 49
0.25
 49
-1.5
  0
LTYPE
  2
dashed_double-dotted
 70
   64
  3
---------    -    -    ---------
 72
   65
 73
    6
 40
11
 49
6
 49
-1.5
 49
0.25
 49
-1.5
 49
0.25
 49
-1.5
  0
LTYPE
  2
double-dashed_double-dotted
 70
   64
  3
-----   ---------   -   -   ----
 72
   65
 73
    8
 40
18.5
 49
6
 49
-1.5
 49
6
 49
-1.5
 49
0.25
 49
-1.5
 49
0.25
 49
-1.5
  0
LTYPE
  2
dashed_triplicate-dotted
 70
   64
  3
-------    -    -    -    ------
 72
   65
 73
    8
 40
12.75
 49
6
 49
-1.5
 49
0.25
 49
-1.5
 49
0.25
 49
-1.5
 49
0.25
 49
-1.5
  0
LTYPE
  2
double-dashed_triplicate-dotted
 70
   64
  3
-----  ---------  -  -  -  -----
 72
   65
 73
   10
 40
20.25
 49
6
 49
-1.5
 49
6
 49
-1.5
 49
0.25
 49
-1.5
 49
0.25
 49
-1.5
 49
0.25
 49
-1.5
  0
LTYPE
  2
undefined
 70
   64
  3
--------------------------------
 72
   65
 73
    0
 40
0
  0
ENDTAB
  0
TABLE
  2
STYLE
  5
3
100
AcDbSymbolTable
 70
     1
  0
STYLE
  5
10
100
AcDbSymbolTableRecord
100
AcDbTextStyleTableRecord
  2
STANDARD
 70
     0
 40
0.0
 41
1.0
 50
0.0
 71
     0
 42
0.2
  3
txt
  4
bigfont.shx
  0
STYLE
  5
26
100
AcDbSymbolTableRecord
100
AcDbTextStyleTableRecord
  2
TATEGAKI
 70
    68
 40
0.0
 41
1.0
 50
0.0
 71
     0
 42
1.0
  3
txt
  4
bigfont.shx
  0
ENDTAB
  0
TABLE
  2
LAYER
 70
    2
  0
LAYER
  2
_0-0_0
 70
   64
 62
    7
  6
CONTINUOUS
  0
LAYER
  2
ADD_LINE
 70
   64
 62
    7
  6
CONTINUOUS
  0
ENDTAB
  0
ENDSEC
  0
SECTION
  2
BLOCKS
  0
ENDSEC
  0
SECTION
  2
ENTITIES
  0
POINT
  8
_0-0_0
 62
    7
 10
122.50247199999998
 20
223.77499399999999
  0
LINE
  8
_0-0_0
  6
CONTINUOUS
 62
    7
 10
15.502471999999983
 20
264.77548200000001
 11
15.502471999999983
 21
264.77450600000003
  0
LINE
  8
_0-0_0
  6
CONTINUOUS
 62
    7
 10
42.002471999999983
 20
230.42999300000002
 11
42.002471999999983
 21
232.67498799999998
  0
LINE
  8
_0-0_0
  6
CONTINUOUS
 62
    7
 10
42.002471999999983
 20
232.67498799999998
 11
42.002471999999983
 21
234.67498799999998
  0
LINE
  8
_0-0_0
  6
CONTINUOUS
 62
    7
 10
42.002471999999983
 20
234.67498799999998
 11
42.002471999999983
 21
235.17498799999998
  0
LINE
  8
_0-0_0
  6
CONTINUOUS
 62
    7
 10
42.002471999999983
 20
235.17498799999998
 11
42.002471999999983
 21
236.17498799999998
  0
LINE
  8
_0-0_0
  6
CONTINUOUS
 62
    7
 10
42.002471999999983
 20
212.07498200000003
 11
42.002471999999983
 21
230.42999300000002
  0
LINE
  8
_0-0_0
  6
CONTINUOUS
 62
    7
 10
138.50247199999998
 20
234.17498799999998
 11
138.50247199999998
 21
234.67498799999998
  0
LINE
  8
_0-0_0
  6
CONTINUOUS
 62
    7
 10
138.50247199999998
 20
235.17498799999998
 11
138.50247199999998
 21
236.17498799999998
  0
LINE
  8
_0-0_0
  6
CONTINUOUS
 62
    7
 10
138.50247199999998
 20
234.67498799999998
 11
138.50247199999998
 21
235.17498799999998
  0
ARC
  8
_0-0_0
  6
CONTINUOUS
 62
    7
 10
124.50247199999998
 20
230.42999300000002
 40
0.5
 50
0
 51
123.74898500000002
  0
ARC
  8
_0-0_0
  6
CONTINUOUS
 62
    7
 10
123.00247199999998
 20
232.67498799999998
 40
2.2000000000000002
 50
180.00000900000003
 51
303.74900400000001
  0
LINE
  8
_0-0_0
  6
CONTINUOUS
 62
    7
 10
120.80248999999998
 20
232.67498799999998
 11
120.80248999999998
 21
234.17498799999998
  0
LINE
  8
_0-0_0
  6
CONTINUOUS
 62
    7
 10
46.202469000000008
 20
234.17498799999998
 11
120.80248999999998
 21
234.17498799999998
  0
LINE
  8
_0-0_0
  6
CONTINUOUS
 62
    7
 10
46.202469000000008
 20
234.17498799999998
 11
46.202469000000008
 21
232.67498799999998
  0
ARC
  8
_0-0_0
  6
CONTINUOUS
 62
    7
 10
44.002471999999983
 20
232.67498799999998
 40
2.2000000000000002
 50
236.25102899999999
 51
0
  0
ARC
  8
_0-0_0
  6
CONTINUOUS
 62
    7
 10
42.502471999999983
 20
230.42999300000002
 40
0.5
 50
56.251010000000008
 51
180.00000900000001
  0
ARC
  8
_0-0_0
  6
CONTINUOUS
 62
    7
 10
44.002471999999983
 20
212.07498200000003
 40
2
 50
180.00000900000003
 51
269.99999700000001
  0
LINE
  8
_0-0_0
  6
CONTINUOUS
 62
    7
 10
44.002471999999983
 20
210.07498200000003
 11
45.002471999999983
 21
210.07498200000003
  0
LINE
  8
_0-0_0
  6
CONTINUOUS
 62
    7
 10
45.002471999999983
 20
210.07498200000003
 11
45.002471999999983
 21
211.67498799999998
  0
ARC
  8
_0-0_0
  6
CONTINUOUS
 62
    7
 10
45.502471999999983
 20
211.67498799999998
 40
0.5
 50
90.000003000000007
 51
180.00000900000001
  0
LINE
  8
_0-0_0
  6
CONTINUOUS
 62
    7
 10
45.702469000000008
 20
212.17498799999998
 11
45.502471999999983
 21
212.17498799999998
  0
ARC
  8
_0-0_0
  6
CONTINUOUS
 62
    7
 10
45.702469000000008
 20
211.67498799999998
 40
0.5
 50
90.000003000000007
 51
180.00000900000001
  0
LINE
  8
_0-0_0
  6
CONTINUOUS
 62
    7
 10
45.202469000000008
 20
210.17498799999998
 11
45.202469000000008
 21
211.67498799999998
  0
LINE
  8
_0-0_0
  6
CONTINUOUS
 62
    7
 10
114.80248999999998
 20
210.17498799999998
 11
45.202469000000008
 21
210.17498799999998
  0
LINE
  8
_0-0_0
  6
CONTINUOUS
 62
    7
 10
114.80248999999998
 20
210.17498799999998
 11
114.80248999999998
 21
211.67498799999998
  0
ARC
  8
_0-0_0
  6
CONTINUOUS
 62
    7
 10
114.30248999999998
 20
211.67498799999998
 40
0.5
 50
0
 51
90.000003000000007
  0
LINE
  8
_0-0_0
  6
CONTINUOUS
 62
    7
 10
114.50247199999998
 20
212.17498799999998
 11
114.30248999999998
 21
212.17498799999998
  0
ARC
  8
_0-0_0
  6
CONTINUOUS
 62
    7
 10
114.50247199999998
 20
211.67498799999998
 40
0.5
 50
0
 51
90.000003000000007
  0
LINE
  8
_0-0_0
  6
CONTINUOUS
 62
    7
 10
115.00247199999998
 20
211.67498799999998
 11
115.00247199999998
 21
210.07498200000003
  0
LINE
  8
_0-0_0
  6
CONTINUOUS
 62
    7
 10
115.00247199999998
 20
210.07498200000003
 11
125.00247199999998
 21
210.07498200000003
  0
LINE
  8
_0-0_0
  6
CONTINUOUS
 62
    7
 10
125.00247199999998
 20
210.07498200000003
 11
125.00247199999998
 21
210.97500600000001
  0
LINE
  8
_0-0_0
  6
CONTINUOUS
 62
    7
 10
61.002471999999983
 20
213.579071
 11
102.40246599999998
 21
213.579071
  0
LINE
  8
_0-0_0
  6
CONTINUOUS
 62
    7
 10
61.002471999999983
 20
233.17498799999998
 11
102.40246599999998
 21
233.17498799999998
  0
ARC
  8
_0-0_0
  6
CONTINUOUS
 62
    7
 10
113.702484
 20
212.375
 40
0.2
 50
180.00000900000003
 51
269.99999700000001
  0
LINE
  8
_0-0_0
  6
CONTINUOUS
 62
    7
 10
113.702484
 20
212.17498799999998
 11
46.302474999999987
 21
212.17498799999998
  0
ARC
  8
_0-0_0
  6
CONTINUOUS
 62
    7
 10
46.302474999999987
 20
212.375
 40
0.2
 50
269.99999700000001
 51
0
  0
ARC
  8
_0-0_0
  6
CONTINUOUS
 62
    7
 10
46.702469000000008
 20
212.375
 40
0.2
 50
90.000003000000007
 51
180.00000900000001
  0
LINE
  8
_0-0_0
  6
CONTINUOUS
 62
    7
 10
46.702469000000008
 20
212.57498200000003
 11
113.30248999999998
 21
212.57498200000003
  0
ARC
  8
_0-0_0
  6
CONTINUOUS
 62
    7
 10
113.30248999999998
 20
212.375
 40
0.2
 50
0
 51
90.000003000000007
  0
LINE
  8
_0-0_0
  6
CONTINUOUS
 62
    7
 10
42.002471999999983
 20
235.17498799999998
 11
138.50247199999998
 21
235.17498799999998
  0
LINE
  8
_0-0_0
  6
CONTINUOUS
 62
    7
 10
138.00247199999998
 20
234.17498799999998
 11
138.50247199999998
 21
234.17498799999998
  0
LINE
  8
_0-0_0
  6
CONTINUOUS
 62
    7
 10
125.00247199999998
 20
212.17498799999998
 11
125.00247199999998
 21
210.97500600000001
  0
LINE
  8
_0-0_0
  6
CONTINUOUS
 62
    7
 10
125.00247199999998
 20
212.17498799999998
 11
125.00247199999998
 21
229.77499399999999
  0
LINE
  8
_0-0_0
  6
CONTINUOUS
 62
    7
 10
125.00247199999998
 20
231.75238000000002
 11
125.00247199999998
 21
229.77499399999999
  0
LINE
  8
_0-0_0
  6
CONTINUOUS
 62
    7
 10
44.002471999999983
 20
218.66467299999999
 11
44.002471999999983
 21
229.11270200000001
  0
ARC
  8
_0-0_0
  6
CONTINUOUS
 62
    7
 10
44.002471999999983
 20
232.67498799999998
 40
2.7000000000000002
 50
285.68033600000007
 51
352.23356600000005
  0
LINE
  8
_0-0_0
  6
CONTINUOUS
 62
    7
 10
121.00247199999998
 20
230.17498799999998
 11
121.00247199999998
 21
216.57498200000003
  0
LINE
  8
_0-0_0
  6
CONTINUOUS
 62
    7
 10
46.002471999999983
 20
234.17498799999998
 11
46.202469000000008
 21
234.17498799999998
  0
LINE
  8
_0-0_0
  6
CONTINUOUS
 62
    7
 10
46.002471999999983
 20
234.17498799999998
 11
46.002471999999983
 21
232.67498799999998
  0
ARC
  8
_0-0_0
  6
CONTINUOUS
 62
    7
 10
44.002471999999983
 20
232.67498799999998
 40
2
 50
180.00000900000003
 51
0.0000000000000254
  0
LINE
  8
_0-0_0
  6
CONTINUOUS
 62
    7
 10
138.00247199999998
 20
234.17498799999998
 11
138.00247199999998
 21
232.47500600000001
  0
LINE
  8
_0-0_0
  6
CONTINUOUS
 62
    7
 10
125.00247199999998
 20
210.17498799999998
 11
137.00247199999998
 21
210.17498799999998
  0
LINE
  8
_0-0_0
  6
CONTINUOUS
 62
    7
 10
137.00247199999998
 20
210.17498799999998
 11
141.67791699999998
 21
210.17498799999998
  0
LINE
  8
_0-0_0
  6
CONTINUOUS
 62
    7
 10
137.00247199999998
 20
215.67498799999998
 11
137.00247199999998
 21
212.67498799999998
  0
LINE
  8
_0-0_0
  6
CONTINUOUS
 62
    7
 10
137.00247199999998
 20
212.67498799999998
 11
137.00247199999998
 21
212.17498799999998
  0
LINE
  8
_0-0_0
  6
CONTINUOUS
 62
    7
 10
137.00247199999998
 20
215.67498799999998
 11
137.00247199999998
 21
216.17498799999998
  0
ARC
  8
_0-0_0
  6
CONTINUOUS
 62
    7
 10
131.00247199999998
 20
215.47500600000001
 40
0.500016
 50
180.00117
 51
359.995611
  0
LINE
  8
_0-0_0
  6
CONTINUOUS
 62
    7
 10
131.50247199999998
 20
215.47500600000001
 11
131.50247199999998
 21
227.47500600000001
  0
ARC
  8
_0-0_0
  6
CONTINUOUS
 62
    7
 10
131.00247199999998
 20
227.47497600000003
 40
0.500016
 50
0.001164
 51
179.99560600000004
  0
LINE
  8
_0-0_0
  6
CONTINUOUS
 62
    7
 10
130.50247199999998
 20
215.47500600000001
 11
130.50247199999998
 21
227.47500600000001
  0
ARC
  8
_0-0_0
  6
CONTINUOUS
 62
    7
 10
132.50247199999998
 20
215.47500600000001
 40
0.500016
 50
180.00117
 51
359.995611
  0
LINE
  8
_0-0_0
  6
CONTINUOUS
 62
    7
 10
133.00247199999998
 20
215.47500600000001
 11
133.00247199999998
 21
227.47500600000001
  0
ARC
  8
_0-0_0
  6
CONTINUOUS
 62
    7
 10
132.50247199999998
 20
227.47497600000003
 40
0.500016
 50
0.001164
 51
179.99560600000004
  0
LINE
  8
_0-0_0
  6
CONTINUOUS
 62
    7
 10
132.00247199999998
 20
215.47500600000001
 11
132.00247199999998
 21
227.47500600000001
  0
ARC
  8
_0-0_0
  6
CONTINUOUS
 62
    7
 10
134.00247199999998
 20
215.47500600000001
 40
0.500016
 50
180.00117
 51
359.995611
  0
LINE
  8
_0-0_0
  6
CONTINUOUS
 62
    7
 10
134.50247199999998
 20
215.47500600000001
 11
134.50247199999998
 21
227.47500600000001
  0
ARC
  8
_0-0_0
  6
CONTINUOUS
 62
    7
 10
134.00247199999998
 20
227.47497600000003
 40
0.500016
 50
0.001164
 51
179.99560600000004
  0
LINE
  8
_0-0_0
  6
CONTINUOUS
 62
    7
 10
133.50247199999998
 20
215.47500600000001
 11
133.50247199999998
 21
227.47500600000001
  0
ARC
  8
_0-0_0
  6
CONTINUOUS
 62
    7
 10
135.50247199999998
 20
215.47500600000001
 40
0.500016
 50
180.00117
 51
359.995611
  0
LINE
  8
_0-0_0
  6
CONTINUOUS
 62
    7
 10
136.00247199999998
 20
215.47500600000001
 11
136.00247199999998
 21
227.47500600000001
  0
ARC
  8
_0-0_0
  6
CONTINUOUS
 62
    7
 10
135.50247199999998
 20
227.47497600000003
 40
0.500016
 50
0.001164
 51
179.99560600000004
  0
LINE
  8
_0-0_0
  6
CONTINUOUS
 62
    7
 10
135.00247199999998
 20
215.47500600000001
 11
135.00247199999998
 21
227.47500600000001
  0
LINE
  8
_0-0_0
  6
CONTINUOUS
 62
    7
 10
125.00247199999998
 20
232.47500600000001
 11
125.00247199999998
 21
231.75238000000002
  0
LINE
  8
_0-0_0
  6
CONTINUOUS
 62
    7
 10
138.00247199999998
 20
232.47500600000001
 11
125.00247199999998
 21
232.47500600000001
  0
LINE
  8
_0-0_0
  6
CONTINUOUS
 62
    7
 10
125.00247199999998
 20
234.17498799999998
 11
138.00247199999998
 21
234.17498799999998
  0
LINE
  8
_0-0_0
  6
CONTINUOUS
 62
    7
 10
125.00247199999998
 20
234.17498799999998
 11
125.00247199999998
 21
232.47500600000001
  0
LINE
  8
_0-0_0
  6
CONTINUOUS
 62
    7
 10
114.452484
 20
212.15197799999999
 11
114.452484
 21
212.17498799999998
  0
ARC
  8
_0-0_0
  6
CONTINUOUS
 62
    7
 10
141.67791699999998
 20
212.17498799999998
 40
2
 50
269.99999700000001
 51
288.43501300000003
  0
LINE
  8
_0-0_0
  6
CONTINUOUS
 62
    7
 10
120.80248999999998
 20
234.17498799999998
 11
121.00247199999998
 21
234.17498799999998
  0
ARC
  8
_0-0_0
  6
CONTINUOUS
 62
    7
 10
123.00247199999998
 20
232.67498799999998
 40
2
 50
180.00000900000003
 51
0.0000000000000254
  0
LINE
  8
_0-0_0
  6
CONTINUOUS
 62
    7
 10
121.00247199999998
 20
232.67498799999998
 11
121.00247199999998
 21
234.17498799999998
  0
LINE
  8
_0-0_0
  6
CONTINUOUS
 62
    7
 10
142.75247199999998
 20
210.42498799999998
 11
142.31036399999999
 21
210.27761900000002
  0
ARC
  8
_0-0_0
  6
CONTINUOUS
 62
    7
 10
112.00247199999998
 20
225.77499399999999
 40
2.25
 50
269.99999700000001
 51
90.000002999999992
  0
LINE
  8
_0-0_0
  6
CONTINUOUS
 62
    7
 10
108.00247199999998
 20
223.52499399999999
 11
112.00247199999998
 21
223.52499399999999
  0
ARC
  8
_0-0_0
  6
CONTINUOUS
 62
    7
 10
108.00247199999998
 20
225.77499399999999
 40
2.25
 50
90.000003000000007
 51
269.99999700000006
  0
ARC
  8
_0-0_0
  6
CONTINUOUS
 62
    7
 10
56.002471999999983
 20
225.77499399999999
 40
2.25
 50
269.99999700000001
 51
90.000002999999992
  0
LINE
  8
_0-0_0
  6
CONTINUOUS
 62
    7
 10
52.002471999999983
 20
223.52499399999999
 11
56.002471999999983
 21
223.52499399999999
  0
ARC
  8
_0-0_0
  6
CONTINUOUS
 62
    7
 10
52.002471999999983
 20
225.77499399999999
 40
2.25
 50
90.000003000000007
 51
269.99999700000006
  0
LINE
  8
_0-0_0
  6
CONTINUOUS
 62
    7
 10
108.00247199999998
 20
228.02499399999999
 11
112.00247199999998
 21
228.02499399999999
  0
LINE
  8
_0-0_0
  6
CONTINUOUS
 62
    7
 10
52.002471999999983
 20
228.02499399999999
 11
56.002471999999983
 21
228.02499399999999
  0
LINE
  8
_0-0_0
  6
CONTINUOUS
 62
    7
 10
114.24307199999998
 20
221.77499399999999
 11
105.76187099999999
 21
221.77499399999999
  0
LINE
  8
_0-0_0
  6
CONTINUOUS
 62
    7
 10
114.24307199999998
 20
221.77499399999999
 11
116.55248999999998
 21
225.77499399999999
  0
LINE
  8
_0-0_0
  6
CONTINUOUS
 62
    7
 10
116.55248999999998
 20
225.77499399999999
 11
114.24307199999998
 21
229.77499399999999
  0
LINE
  8
_0-0_0
  6
CONTINUOUS
 62
    7
 10
105.76187099999999
 20
229.77499399999999
 11
114.24307199999998
 21
229.77499399999999
  0
LINE
  8
_0-0_0
  6
CONTINUOUS
 62
    7
 10
103.45246899999998
 20
225.77499399999999
 11
105.76187099999999
 21
229.77499399999999
  0
LINE
  8
_0-0_0
  6
CONTINUOUS
 62
    7
 10
105.76187099999999
 20
221.77499399999999
 11
103.45246899999998
 21
225.77499399999999
  0
LINE
  8
_0-0_0
  6
CONTINUOUS
 62
    7
 10
58.243071999999984
 20
221.77499399999999
 11
49.761870999999985
 21
221.77499399999999
  0
LINE
  8
_0-0_0
  6
CONTINUOUS
 62
    7
 10
60.552474999999987
 20
225.77499399999999
 11
58.243071999999984
 21
221.77499399999999
  0
LINE
  8
_0-0_0
  6
CONTINUOUS
 62
    7
 10
60.552474999999987
 20
225.77499399999999
 11
58.243071999999984
 21
229.77499399999999
  0
LINE
  8
_0-0_0
  6
CONTINUOUS
 62
    7
 10
49.761870999999985
 20
229.77499399999999
 11
58.243071999999984
 21
229.77499399999999
  0
LINE
  8
_0-0_0
  6
CONTINUOUS
 62
    7
 10
47.452469000000008
 20
225.77499399999999
 11
49.761870999999985
 21
229.77499399999999
  0
LINE
  8
_0-0_0
  6
CONTINUOUS
 62
    7
 10
47.452469000000008
 20
225.77499399999999
 11
49.761870999999985
 21
221.77499399999999
  0
CIRCLE
  8
_0-0_0
  6
CONTINUOUS
 62
    7
 10
123.00247199999998
 20
232.67498799999998
 40
1.4750000000000001
  0
CIRCLE
  8
_0-0_0
  6
CONTINUOUS
 62
    7
 10
44.002471999999983
 20
232.67498799999998
 40
1.4750000000000001
  0
LINE
  8
_0-0_0
  6
CONTINUOUS
 62
    7
 10
123.452484
 20
232.47500600000001
 11
124.10247799999999
 21
232.47500600000001
  0
ARC
  8
_0-0_0
  6
CONTINUOUS
 62
    7
 10
123.452484
 20
232.22500600000001
 40
0.25
 50
90.000003000000007
 51
180.00000900000001
  0
LINE
  8
_0-0_0
  6
CONTINUOUS
 62
    7
 10
123.202484
 20
232.22500600000001
 11
123.202484
 21
231.57498200000003
  0
LINE
  8
_0-0_0
  6
CONTINUOUS
 62
    7
 10
122.80248999999998
 20
231.57498200000003
 11
123.202484
 21
231.57498200000003
  0
LINE
  8
_0-0_0
  6
CONTINUOUS
 62
    7
 10
122.80248999999998
 20
231.57498200000003
 11
122.80248999999998
 21
232.22500600000001
  0
ARC
  8
_0-0_0
  6
CONTINUOUS
 62
    7
 10
122.55248999999998
 20
232.22500600000001
 40
0.25
 50
0
 51
90.000003000000007
  0
LINE
  8
_0-0_0
  6
CONTINUOUS
 62
    7
 10
121.90246599999998
 20
232.47500600000001
 11
122.55248999999998
 21
232.47500600000001
  0
LINE
  8
_0-0_0
  6
CONTINUOUS
 62
    7
 10
121.90246599999998
 20
232.47500600000001
 11
121.90246599999998
 21
232.875
  0
LINE
  8
_0-0_0
  6
CONTINUOUS
 62
    7
 10
122.55248999999998
 20
232.875
 11
121.90246599999998
 21
232.875
  0
ARC
  8
_0-0_0
  6
CONTINUOUS
 62
    7
 10
122.55248999999998
 20
233.125
 40
0.25
 50
269.99999700000001
 51
0
  0
LINE
  8
_0-0_0
  6
CONTINUOUS
 62
    7
 10
122.80248999999998
 20
233.125
 11
122.80248999999998
 21
233.77499399999999
  0
LINE
  8
_0-0_0
  6
CONTINUOUS
 62
    7
 10
123.202484
 20
233.77499399999999
 11
122.80248999999998
 21
233.77499399999999
  0
LINE
  8
_0-0_0
  6
CONTINUOUS
 62
    7
 10
123.202484
 20
233.77499399999999
 11
123.202484
 21
233.125
  0
ARC
  8
_0-0_0
  6
CONTINUOUS
 62
    7
 10
123.452484
 20
233.125
 40
0.25
 50
180.00000900000003
 51
269.99999700000001
  0
LINE
  8
_0-0_0
  6
CONTINUOUS
 62
    7
 10
124.10247799999999
 20
232.875
 11
123.452484
 21
232.875
  0
LINE
  8
_0-0_0
  6
CONTINUOUS
 62
    7
 10
124.10247799999999
 20
232.875
 11
124.10247799999999
 21
232.47500600000001
  0
LINE
  8
_0-0_0
  6
CONTINUOUS
 62
    7
 10
44.452469000000008
 20
232.47500600000001
 11
45.102477999999991
 21
232.47500600000001
  0
ARC
  8
_0-0_0
  6
CONTINUOUS
 62
    7
 10
44.452469000000008
 20
232.22500600000001
 40
0.25
 50
90.000003000000007
 51
180.00000900000001
  0
LINE
  8
_0-0_0
  6
CONTINUOUS
 62
    7
 10
44.202469000000008
 20
232.22500600000001
 11
44.202469000000008
 21
231.57498200000003
  0
LINE
  8
_0-0_0
  6
CONTINUOUS
 62
    7
 10
43.802474999999987
 20
231.57498200000003
 11
44.202469000000008
 21
231.57498200000003
  0
LINE
  8
_0-0_0
  6
CONTINUOUS
 62
    7
 10
43.802474999999987
 20
231.57498200000003
 11
43.802474999999987
 21
232.22500600000001
  0
ARC
  8
_0-0_0
  6
CONTINUOUS
 62
    7
 10
43.552474999999987
 20
232.22500600000001
 40
0.25
 50
0
 51
90.000003000000007
  0
LINE
  8
_0-0_0
  6
CONTINUOUS
 62
    7
 10
42.902466000000004
 20
232.47500600000001
 11
43.552474999999987
 21
232.47500600000001
  0
LINE
  8
_0-0_0
  6
CONTINUOUS
 62
    7
 10
42.902466000000004
 20
232.47500600000001
 11
42.902466000000004
 21
232.875
  0
LINE
  8
_0-0_0
  6
CONTINUOUS
 62
    7
 10
43.552474999999987
 20
232.875
 11
42.902466000000004
 21
232.875
  0
ARC
  8
_0-0_0
  6
CONTINUOUS
 62
    7
 10
43.552474999999987
 20
233.125
 40
0.25
 50
269.99999700000001
 51
0
  0
LINE
  8
_0-0_0
  6
CONTINUOUS
 62
    7
 10
43.802474999999987
 20
233.125
 11
43.802474999999987
 21
233.77499399999999
  0
LINE
  8
_0-0_0
  6
CONTINUOUS
 62
    7
 10
44.202469000000008
 20
233.77499399999999
 11
43.802474999999987
 21
233.77499399999999
  0
LINE
  8
_0-0_0
  6
CONTINUOUS
 62
    7
 10
44.202469000000008
 20
233.77499399999999
 11
44.202469000000008
 21
233.125
  0
ARC
  8
_0-0_0
  6
CONTINUOUS
 62
    7
 10
44.452469000000008
 20
233.125
 40
0.25
 50
180.00000900000003
 51
269.99999700000001
  0
LINE
  8
_0-0_0
  6
CONTINUOUS
 62
    7
 10
45.102477999999991
 20
232.875
 11
44.452469000000008
 21
232.875
  0
LINE
  8
_0-0_0
  6
CONTINUOUS
 62
    7
 10
45.102477999999991
 20
232.875
 11
45.102477999999991
 21
232.47500600000001
  0
LINE
  8
_0-0_0
  6
CONTINUOUS
 62
    7
 10
45.552474999999987
 20
212.15197799999999
 11
45.552474999999987
 21
212.17498799999998
  0
LINE
  8
_0-0_0
  6
CONTINUOUS
 62
    7
 10
64.002471999999983
 20
230.17498799999998
 11
64.002471999999983
 21
217.21798699999999
  0
ARC
  8
_0-0_0
  6
CONTINUOUS
 62
    7
 10
61.002471999999983
 20
230.17498799999998
 40
3
 50
0
 51
90.000003000000007
  0
LINE
  8
_0-0_0
  6
CONTINUOUS
 62
    7
 10
100.00247199999998
 20
216.57498200000003
 11
100.00247199999998
 21
230.17498799999998
  0
LINE
  8
_0-0_0
  6
CONTINUOUS
 62
    7
 10
83.489959999999996
 20
226.34463499999998
 11
82.189956999999993
 21
229.84463499999998
  0
ARC
  8
_0-0_0
  6
CONTINUOUS
 62
    7
 10
80.702483999999998
 20
226.27499399999999
 40
0.2
 50
159.62357
 51
269.99999700000001
  0
LINE
  8
_0-0_0
  6
CONTINUOUS
 62
    7
 10
125.00247199999998
 20
231.77499399999999
 11
141.67791699999998
 21
231.77499399999999
  0
ARC
  8
_0-0_0
  6
CONTINUOUS
 62
    7
 10
141.67791699999998
 20
229.77499399999999
 40
2
 50
71.565000999999995
 51
90.000003000000007
  0
LINE
  8
_0-0_0
  6
CONTINUOUS
 62
    7
 10
142.310394
 20
231.67236300000002
 11
142.19088699999998
 21
231.70797700000003
  0
LINE
  8
_0-0_0
  6
CONTINUOUS
 62
    7
 10
142.19088699999998
 20
231.70797700000003
 11
142.06933599999999
 21
231.73587000000003
  0
LINE
  8
_0-0_0
  6
CONTINUOUS
 62
    7
 10
142.06933599999999
 20
231.73587000000003
 11
141.94619699999998
 21
231.75589000000002
  0
LINE
  8
_0-0_0
  6
CONTINUOUS
 62
    7
 10
141.94619699999998
 20
231.75589000000002
 11
141.821991
 21
231.76800500000002
  0
LINE
  8
_0-0_0
  6
CONTINUOUS
 62
    7
 10
141.821991
 20
231.76800500000002
 11
141.69714299999998
 21
231.772156
  0
LINE
  8
_0-0_0
  6
CONTINUOUS
 62
    7
 10
141.69714299999998
 20
231.772156
 11
141.67791699999998
 21
231.772064
  0
LINE
  8
_0-0_0
  6
CONTINUOUS
 62
    7
 10
146.634918
 20
230.23083500000001
 11
142.31036399999999
 21
231.67236300000002
  0
LINE
  8
_0-0_0
  6
CONTINUOUS
 62
    7
 10
146.47680699999998
 20
215.67498799999998
 11
147.17016599999999
 21
215.67498799999998
  0
LINE
  8
_0-0_0
  6
CONTINUOUS
 62
    7
 10
146.47680699999998
 20
215.67498799999998
 11
142.15225199999998
 21
215.67498799999998
  0
LINE
  8
_0-0_0
  6
CONTINUOUS
 62
    7
 10
141.67791699999998
 20
215.67498799999998
 11
142.15225199999998
 21
215.67498799999998
  0
LINE
  8
_0-0_0
  6
CONTINUOUS
 62
    7
 10
137.00247199999998
 20
215.67498799999998
 11
141.67791699999998
 21
215.67498799999998
  0
LINE
  8
_0-0_0
  6
CONTINUOUS
 62
    7
 10
148.00247199999998
 20
214.92495700000001
 11
148.00247199999998
 21
216.04599000000002
  0
LINE
  8
_0-0_0
  6
CONTINUOUS
 62
    7
 10
148.00247199999998
 20
216.96731599999998
 11
148.00247199999998
 21
216.04599000000002
  0
LINE
  8
_0-0_0
  6
CONTINUOUS
 62
    7
 10
159.00247199999998
 20
215.72500600000001
 11
159.00247199999998
 21
223.70654300000001
  0
ARC
  8
_0-0_0
  6
CONTINUOUS
 62
    7
 10
152.82858299999998
 20
224.22589099999999
 40
4.9238749999999998
 50
352.49423299999995
 51
1.5359699999999901
  0
LINE
  8
_0-0_0
  6
CONTINUOUS
 62
    7
 10
157.710297
 20
218.36731000000003
 11
157.80462599999998
 21
218.613922
  0
LINE
  8
_0-0_0
  6
CONTINUOUS
 62
    7
 10
157.80462599999998
 20
218.613922
 11
157.88857999999999
 21
218.853882
  0
LINE
  8
_0-0_0
  6
CONTINUOUS
 62
    7
 10
157.88857999999999
 20
218.853882
 11
157.962738
 21
219.08801299999999
  0
LINE
  8
_0-0_0
  6
CONTINUOUS
 62
    7
 10
157.962738
 20
219.08801299999999
 11
158.02761799999999
 21
219.317047
  0
LINE
  8
_0-0_0
  6
CONTINUOUS
 62
    7
 10
158.02761799999999
 20
219.317047
 11
158.08367899999999
 21
219.541718
  0
LINE
  8
_0-0_0
  6
CONTINUOUS
 62
    7
 10
158.08367899999999
 20
219.541718
 11
158.131226
 21
219.76269500000001
  0
LINE
  8
_0-0_0
  6
CONTINUOUS
 62
    7
 10
158.131226
 20
219.76269500000001
 11
158.17062399999998
 21
219.98062099999999
  0
LINE
  8
_0-0_0
  6
CONTINUOUS
 62
    7
 10
158.17062399999998
 20
219.98062099999999
 11
158.20211799999998
 21
220.19607600000001
  0
LINE
  8
_0-0_0
  6
CONTINUOUS
 62
    7
 10
158.20211799999998
 20
220.19607600000001
 11
158.22589099999999
 21
220.40960699999999
  0
LINE
  8
_0-0_0
  6
CONTINUOUS
 62
    7
 10
158.22589099999999
 20
220.40960699999999
 11
158.24182099999999
 21
220.61731000000003
  0
LINE
  8
_0-0_0
  6
CONTINUOUS
 62
    7
 10
158.24182099999999
 20
220.61731000000003
 11
158.25057999999999
 21
220.82415800000001
  0
LINE
  8
_0-0_0
  6
CONTINUOUS
 62
    7
 10
158.25057999999999
 20
220.82415800000001
 11
158.252228
 21
221.03064000000001
  0
LINE
  8
_0-0_0
  6
CONTINUOUS
 62
    7
 10
158.252228
 20
221.03064000000001
 11
158.24676499999998
 21
221.237213
  0
LINE
  8
_0-0_0
  6
CONTINUOUS
 62
    7
 10
158.24676499999998
 20
221.237213
 11
158.23413099999999
 21
221.44439699999998
  0
LINE
  8
_0-0_0
  6
CONTINUOUS
 62
    7
 10
158.23413099999999
 20
221.44439699999998
 11
158.214325
 21
221.65271000000001
  0
LINE
  8
_0-0_0
  6
CONTINUOUS
 62
    7
 10
158.214325
 20
221.65271000000001
 11
158.18719499999997
 21
221.86261000000002
  0
LINE
  8
_0-0_0
  6
CONTINUOUS
 62
    7
 10
158.18719499999997
 20
221.86261000000002
 11
158.15252699999999
 21
222.07467700000001
  0
LINE
  8
_0-0_0
  6
CONTINUOUS
 62
    7
 10
158.15252699999999
 20
222.07467700000001
 11
158.11019899999999
 21
222.28942899999998
  0
LINE
  8
_0-0_0
  6
CONTINUOUS
 62
    7
 10
158.11019899999999
 20
222.28942899999998
 11
158.05987499999998
 21
222.50744600000002
  0
LINE
  8
_0-0_0
  6
CONTINUOUS
 62
    7
 10
158.05987499999998
 20
222.50744600000002
 11
158.00561499999998
 21
222.71371499999998
  0
LINE
  8
_0-0_0
  6
CONTINUOUS
 62
    7
 10
158.00561499999998
 20
222.71371499999998
 11
157.94390899999999
 21
222.92382800000001
  0
LINE
  8
_0-0_0
  6
CONTINUOUS
 62
    7
 10
157.94390899999999
 20
222.92382800000001
 11
157.87438999999998
 21
223.138306
  0
LINE
  8
_0-0_0
  6
CONTINUOUS
 62
    7
 10
157.87438999999998
 20
223.138306
 11
157.79669199999998
 21
223.35772700000001
  0
LINE
  8
_0-0_0
  6
CONTINUOUS
 62
    7
 10
157.79669199999998
 20
223.35772700000001
 11
157.710297
 21
223.58270299999998
  0
ARC
  8
_0-0_0
  6
CONTINUOUS
 62
    7
 10
152.83874499999999
 20
217.72500600000001
 40
4.9136889999999998
 50
352.48898799999995
 51
7.5110139999999577
  0
LINE
  8
_0-0_0
  6
CONTINUOUS
 62
    7
 10
157.710297
 20
217.08270299999998
 11
157.76480099999998
 21
217.01275600000002
  0
LINE
  8
_0-0_0
  6
CONTINUOUS
 62
    7
 10
157.76480099999998
 20
217.01275600000002
 11
157.81588699999998
 21
216.943939
  0
LINE
  8
_0-0_0
  6
CONTINUOUS
 62
    7
 10
157.81588699999998
 20
216.943939
 11
157.86352499999998
 21
216.87643400000002
  0
LINE
  8
_0-0_0
  6
CONTINUOUS
 62
    7
 10
157.86352499999998
 20
216.87643400000002
 11
157.90801999999999
 21
216.80987600000003
  0
LINE
  8
_0-0_0
  6
CONTINUOUS
 62
    7
 10
157.90801999999999
 20
216.80987600000003
 11
157.962738
 21
216.722351
  0
LINE
  8
_0-0_0
  6
CONTINUOUS
 62
    7
 10
157.962738
 20
216.722351
 11
158.01226799999998
 21
216.63623100000001
  0
LINE
  8
_0-0_0
  6
CONTINUOUS
 62
    7
 10
158.01226799999998
 20
216.63623100000001
 11
158.05673199999998
 21
216.55139200000002
  0
LINE
  8
_0-0_0
  6
CONTINUOUS
 62
    7
 10
158.05673199999998
 20
216.55139200000002
 11
158.10369899999998
 21
216.45107999999999
  0
LINE
  8
_0-0_0
  6
CONTINUOUS
 62
    7
 10
158.10369899999998
 20
216.45107999999999
 11
158.14389
 21
216.35214200000001
  0
LINE
  8
_0-0_0
  6
CONTINUOUS
 62
    7
 10
158.14389
 20
216.35214200000001
 11
158.17755099999999
 21
216.25439499999999
  0
LINE
  8
_0-0_0
  6
CONTINUOUS
 62
    7
 10
158.17755099999999
 20
216.25439499999999
 11
158.20486399999999
 21
216.15759300000002
  0
LINE
  8
_0-0_0
  6
CONTINUOUS
 62
    7
 10
158.20486399999999
 20
216.15759300000002
 11
158.22589099999999
 21
216.061554
  0
LINE
  8
_0-0_0
  6
CONTINUOUS
 62
    7
 10
158.22589099999999
 20
216.061554
 11
158.24182099999999
 21
215.957672
  0
LINE
  8
_0-0_0
  6
CONTINUOUS
 62
    7
 10
158.24182099999999
 20
215.957672
 11
158.25057999999999
 21
215.85424799999998
  0
LINE
  8
_0-0_0
  6
CONTINUOUS
 62
    7
 10
158.25057999999999
 20
215.85424799999998
 11
158.252228
 21
215.75103799999999
  0
LINE
  8
_0-0_0
  6
CONTINUOUS
 62
    7
 10
158.252228
 20
215.75103799999999
 11
158.24676499999998
 21
215.64773600000001
  0
LINE
  8
_0-0_0
  6
CONTINUOUS
 62
    7
 10
158.24676499999998
 20
215.64773600000001
 11
158.23413099999999
 21
215.544129
  0
LINE
  8
_0-0_0
  6
CONTINUOUS
 62
    7
 10
158.23413099999999
 20
215.544129
 11
158.214325
 21
215.44000299999999
  0
LINE
  8
_0-0_0
  6
CONTINUOUS
 62
    7
 10
158.214325
 20
215.44000299999999
 11
158.18719499999997
 21
215.33502199999998
  0
LINE
  8
_0-0_0
  6
CONTINUOUS
 62
    7
 10
158.18719499999997
 20
215.33502199999998
 11
158.15252699999999
 21
215.22900400000003
  0
LINE
  8
_0-0_0
  6
CONTINUOUS
 62
    7
 10
158.15252699999999
 20
215.22900400000003
 11
158.11019899999999
 21
215.12161300000002
  0
LINE
  8
_0-0_0
  6
CONTINUOUS
 62
    7
 10
158.11019899999999
 20
215.12161300000002
 11
158.05987499999998
 21
215.01263399999999
  0
LINE
  8
_0-0_0
  6
CONTINUOUS
 62
    7
 10
158.05987499999998
 20
215.01263399999999
 11
158.01419099999998
 21
214.92495700000001
  0
LINE
  8
_0-0_0
  6
CONTINUOUS
 62
    7
 10
148.00247199999998
 20
224.86731000000003
 11
157.710297
 21
224.86731000000003
  0
LINE
  8
_0-0_0
  6
CONTINUOUS
 62
    7
 10
148.00247199999998
 20
223.58270299999998
 11
148.00247199999998
 21
224.86731000000003
  0
LINE
  8
_0-0_0
  6
CONTINUOUS
 62
    7
 10
148.00247199999998
 20
223.58270299999998
 11
157.710297
 21
223.58270299999998
  0
ARC
  8
_0-0_0
  6
CONTINUOUS
 62
    7
 10
152.79055799999998
 20
224.22094700000002
 40
4.9620009999999999
 50
1.5813010000000001
 51
7.4847919999999997
  0
LINE
  8
_0-0_0
  6
CONTINUOUS
 62
    7
 10
147.702484
 20
218.76297
 11
147.61901799999998
 21
219.14166299999999
  0
LINE
  8
_0-0_0
  6
CONTINUOUS
 62
    7
 10
147.61901799999998
 20
219.14166299999999
 11
147.57891799999999
 21
219.333191
  0
LINE
  8
_0-0_0
  6
CONTINUOUS
 62
    7
 10
147.57891799999999
 20
219.333191
 11
147.52282699999998
 21
219.6232
  0
LINE
  8
_0-0_0
  6
CONTINUOUS
 62
    7
 10
147.52282699999998
 20
219.6232
 11
147.48522899999998
 21
219.842804
  0
LINE
  8
_0-0_0
  6
CONTINUOUS
 62
    7
 10
147.48522899999998
 20
219.842804
 11
147.45260599999997
 21
220.06405699999999
  0
LINE
  8
_0-0_0
  6
CONTINUOUS
 62
    7
 10
147.45260599999997
 20
220.06405699999999
 11
147.425445
 21
220.29083300000002
  0
LINE
  8
_0-0_0
  6
CONTINUOUS
 62
    7
 10
147.425445
 20
220.29083300000002
 11
147.40536499999999
 21
220.51825000000002
  0
LINE
  8
_0-0_0
  6
CONTINUOUS
 62
    7
 10
147.40536499999999
 20
220.51825000000002
 11
147.398224
 21
220.631958
  0
LINE
  8
_0-0_0
  6
CONTINUOUS
 62
    7
 10
147.398224
 20
220.631958
 11
147.39306599999998
 21
220.74563599999999
  0
LINE
  8
_0-0_0
  6
CONTINUOUS
 62
    7
 10
147.39306599999998
 20
220.74563599999999
 11
147.389343
 21
220.89709499999998
  0
LINE
  8
_0-0_0
  6
CONTINUOUS
 62
    7
 10
147.389343
 20
220.89709499999998
 11
147.38928199999998
 21
221.04834
  0
LINE
  8
_0-0_0
  6
CONTINUOUS
 62
    7
 10
147.38928199999998
 20
221.04834
 11
147.392853
 21
221.19940200000002
  0
LINE
  8
_0-0_0
  6
CONTINUOUS
 62
    7
 10
147.392853
 20
221.19940200000002
 11
147.40237399999998
 21
221.38794000000001
  0
LINE
  8
_0-0_0
  6
CONTINUOUS
 62
    7
 10
147.40237399999998
 20
221.38794000000001
 11
147.417236
 21
221.57617199999999
  0
LINE
  8
_0-0_0
  6
CONTINUOUS
 62
    7
 10
147.417236
 20
221.57617199999999
 11
147.437164
 21
221.76413000000002
  0
LINE
  8
_0-0_0
  6
CONTINUOUS
 62
    7
 10
147.437164
 20
221.76413000000002
 11
147.453552
 21
221.89300500000002
  0
LINE
  8
_0-0_0
  6
CONTINUOUS
 62
    7
 10
147.453552
 20
221.89300500000002
 11
147.47195399999998
 21
222.02166800000003
  0
LINE
  8
_0-0_0
  6
CONTINUOUS
 62
    7
 10
147.47195399999998
 20
222.02166800000003
 11
147.49612399999998
 21
222.17358400000001
  0
LINE
  8
_0-0_0
  6
CONTINUOUS
 62
    7
 10
147.49612399999998
 20
222.17358400000001
 11
147.52252199999998
 21
222.32492100000002
  0
LINE
  8
_0-0_0
  6
CONTINUOUS
 62
    7
 10
147.52252199999998
 20
222.32492100000002
 11
147.57867399999998
 21
222.61554000000001
  0
LINE
  8
_0-0_0
  6
CONTINUOUS
 62
    7
 10
147.57867399999998
 20
222.61554000000001
 11
147.61883499999999
 21
222.80749500000002
  0
LINE
  8
_0-0_0
  6
CONTINUOUS
 62
    7
 10
147.61883499999999
 20
222.80749500000002
 11
147.702484
 21
223.186981
  0
LINE
  8
_0-0_0
  6
CONTINUOUS
 62
    7
 10
148.00247199999998
 20
219.41293300000001
 11
148.00247199999998
 21
222.53704800000003
  0
LINE
  8
_0-0_0
  6
CONTINUOUS
 62
    7
 10
172.75247199999998
 20
211.44955500000003
 11
172.50247199999998
 21
211.42498799999998
  0
LINE
  8
_0-0_0
  6
CONTINUOUS
 62
    7
 10
172.50247199999998
 20
211.42498799999998
 11
163.25247199999998
 21
211.42498799999998
  0
LINE
  8
_0-0_0
  6
CONTINUOUS
 62
    7
 10
163.00247199999998
 20
211.44955500000003
 11
163.25247199999998
 21
211.42498799999998
  0
LINE
  8
_0-0_0
  6
CONTINUOUS
 62
    7
 10
172.75247199999998
 20
214.42358400000001
 11
172.50247199999998
 21
214.69754
  0
LINE
  8
_0-0_0
  6
CONTINUOUS
 62
    7
 10
172.75247199999998
 20
214.42358400000001
 11
172.50247199999998
 21
214.53286800000001
  0
LINE
  8
_0-0_0
  6
CONTINUOUS
 62
    7
 10
172.75247199999998
 20
214.26599099999999
 11
172.50247199999998
 21
214.53286800000001
  0
LINE
  8
_0-0_0
  6
CONTINUOUS
 62
    7
 10
172.75247199999998
 20
214.26599099999999
 11
172.50247199999998
 21
214.34780899999998
  0
LINE
  8
_0-0_0
  6
CONTINUOUS
 62
    7
 10
172.75247199999998
 20
214.09097300000002
 11
172.50247199999998
 21
214.34780899999998
  0
LINE
  8
_0-0_0
  6
CONTINUOUS
 62
    7
 10
172.75247199999998
 20
214.09097300000002
 11
172.50247199999998
 21
214.14447000000001
  0
LINE
  8
_0-0_0
  6
CONTINUOUS
 62
    7
 10
172.75247199999998
 20
213.90042099999999
 11
172.50247199999998
 21
214.14447000000001
  0
LINE
  8
_0-0_0
  6
CONTINUOUS
 62
    7
 10
172.75247199999998
 20
213.90042099999999
 11
172.50247199999998
 21
213.92498799999998
  0
LINE
  8
_0-0_0
  6
CONTINUOUS
 62
    7
 10
172.75247199999998
 20
213.69647200000003
 11
172.50247199999998
 21
213.92498799999998
  0
LINE
  8
_0-0_0
  6
CONTINUOUS
 62
    7
 10
172.75247199999998
 20
213.69647200000003
 11
172.50247199999998
 21
213.69183400000003
  0
LINE
  8
_0-0_0
  6
CONTINUOUS
 62
    7
 10
172.75247199999998
 20
213.48132300000003
 11
172.50247199999998
 21
213.69183400000003
  0
LINE
  8
_0-0_0
  6
CONTINUOUS
 62
    7
 10
172.75247199999998
 20
213.48132300000003
 11
172.50247199999998
 21
213.44754
  0
LINE
  8
_0-0_0
  6
CONTINUOUS
 62
    7
 10
172.75247199999998
 20
213.25732399999998
 11
172.50247199999998
 21
213.44754
  0
LINE
  8
_0-0_0
  6
CONTINUOUS
 62
    7
 10
172.75247199999998
 20
213.25732399999998
 11
172.50247199999998
 21
213.19476300000002
  0
LINE
  8
_0-0_0
  6
CONTINUOUS
 62
    7
 10
172.75247199999998
 20
213.02697799999999
 11
172.50247199999998
 21
213.19476300000002
  0
LINE
  8
_0-0_0
  6
CONTINUOUS
 62
    7
 10
172.75247199999998
 20
213.02697799999999
 11
172.50247199999998
 21
212.93630999999999
  0
LINE
  8
_0-0_0
  6
CONTINUOUS
 62
    7
 10
172.75247199999998
 20
212.792755
 11
172.50247199999998
 21
212.93630999999999
  0
LINE
  8
_0-0_0
  6
CONTINUOUS
 62
    7
 10
172.75247199999998
 20
212.792755
 11
172.50247199999998
 21
212.67498799999998
  0
LINE
  8
_0-0_0
  6
CONTINUOUS
 62
    7
 10
172.75247199999998
 20
212.55725100000001
 11
172.50247199999998
 21
212.67498799999998
  0
LINE
  8
_0-0_0
  6
CONTINUOUS
 62
    7
 10
172.75247199999998
 20
212.55725100000001
 11
172.50247199999998
 21
212.41366600000003
  0
LINE
  8
_0-0_0
  6
CONTINUOUS
 62
    7
 10
172.75247199999998
 20
212.32302900000002
 11
172.50247199999998
 21
212.41366600000003
  0
LINE
  8
_0-0_0
  6
CONTINUOUS
 62
    7
 10
172.75247199999998
 20
212.32302900000002
 11
172.50247199999998
 21
212.155213
  0
LINE
  8
_0-0_0
  6
CONTINUOUS
 62
    7
 10
172.75247199999998
 20
212.09265099999999
 11
172.50247199999998
 21
212.155213
  0
LINE
  8
_0-0_0
  6
CONTINUOUS
 62
    7
 10
172.75247199999998
 20
212.09265099999999
 11
172.50247199999998
 21
211.902466
  0
LINE
  8
_0-0_0
  6
CONTINUOUS
 62
    7
 10
172.75247199999998
 20
211.86868300000003
 11
172.50247199999998
 21
211.902466
  0
LINE
  8
_0-0_0
  6
CONTINUOUS
 62
    7
 10
172.75247199999998
 20
211.86868300000003
 11
172.50247199999998
 21
211.658142
  0
LINE
  8
_0-0_0
  6
CONTINUOUS
 62
    7
 10
172.75247199999998
 20
211.653504
 11
172.50247199999998
 21
211.658142
  0
LINE
  8
_0-0_0
  6
CONTINUOUS
 62
    7
 10
172.75247199999998
 20
211.653504
 11
172.50247199999998
 21
211.42498799999998
  0
LINE
  8
_0-0_0
  6
CONTINUOUS
 62
    7
 10
172.75247199999998
 20
211.44955500000003
 11
172.50247199999998
 21
211.205536
  0
LINE
  8
_0-0_0
  6
CONTINUOUS
 62
    7
 10
172.75247199999998
 20
211.25903299999999
 11
172.50247199999998
 21
211.205536
  0
LINE
  8
_0-0_0
  6
CONTINUOUS
 62
    7
 10
172.75247199999998
 20
211.25903299999999
 11
172.50247199999998
 21
211.00216699999999
  0
LINE
  8
_0-0_0
  6
CONTINUOUS
 62
    7
 10
172.75247199999998
 20
211.08401500000002
 11
172.50247199999998
 21
211.00216699999999
  0
LINE
  8
_0-0_0
  6
CONTINUOUS
 62
    7
 10
172.75247199999998
 20
211.08401500000002
 11
172.50247199999998
 21
210.817139
  0
LINE
  8
_0-0_0
  6
CONTINUOUS
 62
    7
 10
172.75247199999998
 20
210.926422
 11
172.50247199999998
 21
210.817139
  0
LINE
  8
_0-0_0
  6
CONTINUOUS
 62
    7
 10
172.75247199999998
 20
210.926422
 11
172.50247199999998
 21
210.652466
  0
LINE
  8
_0-0_0
  6
CONTINUOUS
 62
    7
 10
172.75247199999998
 20
210.78799400000003
 11
172.50247199999998
 21
210.652466
  0
LINE
  8
_0-0_0
  6
CONTINUOUS
 62
    7
 10
172.75247199999998
 20
210.78799400000003
 11
172.50247199999998
 21
210.50991800000003
  0
LINE
  8
_0-0_0
  6
CONTINUOUS
 62
    7
 10
172.75247199999998
 20
210.67022700000001
 11
172.50247199999998
 21
210.50991800000003
  0
LINE
  8
_0-0_0
  6
CONTINUOUS
 62
    7
 10
172.75247199999998
 20
210.67022700000001
 11
172.50247199999998
 21
210.391144
  0
LINE
  8
_0-0_0
  6
CONTINUOUS
 62
    7
 10
172.75247199999998
 20
210.574432
 11
172.50247199999998
 21
210.391144
  0
LINE
  8
_0-0_0
  6
CONTINUOUS
 62
    7
 10
172.75247199999998
 20
210.574432
 11
172.50247199999998
 21
210.29736300000002
  0
LINE
  8
_0-0_0
  6
CONTINUOUS
 62
    7
 10
172.75247199999998
 20
210.50164799999999
 11
172.50247199999998
 21
210.29736300000002
  0
LINE
  8
_0-0_0
  6
CONTINUOUS
 62
    7
 10
172.75247199999998
 20
210.50164799999999
 11
172.50247199999998
 21
210.22961400000003
  0
LINE
  8
_0-0_0
  6
CONTINUOUS
 62
    7
 10
172.75247199999998
 20
210.452698
 11
172.50247199999998
 21
210.22961400000003
  0
LINE
  8
_0-0_0
  6
CONTINUOUS
 62
    7
 10
172.75247199999998
 20
210.452698
 11
172.50247199999998
 21
210.18869000000001
  0
LINE
  8
_0-0_0
  6
CONTINUOUS
 62
    7
 10
172.75247199999998
 20
210.42806999999999
 11
172.50247199999998
 21
210.18869000000001
  0
LINE
  8
_0-0_0
  6
CONTINUOUS
 62
    7
 10
172.75247199999998
 20
210.42806999999999
 11
172.50247199999998
 21
210.17498799999998
  0
LINE
  8
_0-0_0
  6
CONTINUOUS
 62
    7
 10
173.00247199999998
 20
210.67498799999998
 11
173.00247199999998
 21
214.43014499999998
  0
LINE
  8
_0-0_0
  6
CONTINUOUS
 62
    7
 10
172.62252799999999
 20
214.76361100000003
 11
172.50247199999998
 21
214.840057
  0
LINE
  8
_0-0_0
  6
CONTINUOUS
 62
    7
 10
172.75247199999998
 20
214.56201199999998
 11
172.50247199999998
 21
214.840057
  0
LINE
  8
_0-0_0
  6
CONTINUOUS
 62
    7
 10
172.75247199999998
 20
214.56201199999998
 11
172.50247199999998
 21
214.69754
  0
LINE
  8
_0-0_0
  6
CONTINUOUS
 62
    7
 10
172.50247199999998
 20
214.53286800000001
 11
163.25247199999998
 21
214.53286800000001
  0
LINE
  8
_0-0_0
  6
CONTINUOUS
 62
    7
 10
163.00247199999998
 20
214.42358400000001
 11
163.25247199999998
 21
214.53286800000001
  0
LINE
  8
_0-0_0
  6
CONTINUOUS
 62
    7
 10
172.50247199999998
 20
214.34780899999998
 11
163.25247199999998
 21
214.34780899999998
  0
LINE
  8
_0-0_0
  6
CONTINUOUS
 62
    7
 10
163.00247199999998
 20
214.26599099999999
 11
163.25247199999998
 21
214.34780899999998
  0
LINE
  8
_0-0_0
  6
CONTINUOUS
 62
    7
 10
172.50247199999998
 20
214.14447000000001
 11
163.25247199999998
 21
214.14447000000001
  0
LINE
  8
_0-0_0
  6
CONTINUOUS
 62
    7
 10
163.00247199999998
 20
214.09097300000002
 11
163.25247199999998
 21
214.14447000000001
  0
LINE
  8
_0-0_0
  6
CONTINUOUS
 62
    7
 10
172.50247199999998
 20
213.92498799999998
 11
163.25247199999998
 21
213.92498799999998
  0
LINE
  8
_0-0_0
  6
CONTINUOUS
 62
    7
 10
163.00247199999998
 20
213.90042099999999
 11
163.25247199999998
 21
213.92498799999998
  0
LINE
  8
_0-0_0
  6
CONTINUOUS
 62
    7
 10
172.50247199999998
 20
213.69183400000003
 11
163.25247199999998
 21
213.69183400000003
  0
LINE
  8
_0-0_0
  6
CONTINUOUS
 62
    7
 10
172.75247199999998
 20
213.69647200000003
 11
163.00247199999998
 21
213.69647200000003
  0
LINE
  8
_0-0_0
  6
CONTINUOUS
 62
    7
 10
163.00247199999998
 20
213.69647200000003
 11
163.25247199999998
 21
213.69183400000003
  0
LINE
  8
_0-0_0
  6
CONTINUOUS
 62
    7
 10
172.50247199999998
 20
213.44754
 11
163.25247199999998
 21
213.44754
  0
LINE
  8
_0-0_0
  6
CONTINUOUS
 62
    7
 10
172.75247199999998
 20
213.48132300000003
 11
163.00247199999998
 21
213.48132300000003
  0
LINE
  8
_0-0_0
  6
CONTINUOUS
 62
    7
 10
163.00247199999998
 20
213.48132300000003
 11
163.25247199999998
 21
213.44754
  0
LINE
  8
_0-0_0
  6
CONTINUOUS
 62
    7
 10
172.50247199999998
 20
213.19476300000002
 11
163.25247199999998
 21
213.19476300000002
  0
LINE
  8
_0-0_0
  6
CONTINUOUS
 62
    7
 10
172.75247199999998
 20
213.25732399999998
 11
163.00247199999998
 21
213.25732399999998
  0
LINE
  8
_0-0_0
  6
CONTINUOUS
 62
    7
 10
163.00247199999998
 20
213.25732399999998
 11
163.25247199999998
 21
213.19476300000002
  0
LINE
  8
_0-0_0
  6
CONTINUOUS
 62
    7
 10
172.50247199999998
 20
212.93630999999999
 11
163.25247199999998
 21
212.93630999999999
  0
LINE
  8
_0-0_0
  6
CONTINUOUS
 62
    7
 10
172.75247199999998
 20
213.02697799999999
 11
163.00247199999998
 21
213.02697799999999
  0
LINE
  8
_0-0_0
  6
CONTINUOUS
 62
    7
 10
163.00247199999998
 20
213.02697799999999
 11
163.25247199999998
 21
212.93630999999999
  0
LINE
  8
_0-0_0
  6
CONTINUOUS
 62
    7
 10
172.50247199999998
 20
212.67498799999998
 11
163.25247199999998
 21
212.67498799999998
  0
LINE
  8
_0-0_0
  6
CONTINUOUS
 62
    7
 10
172.75247199999998
 20
212.792755
 11
163.00247199999998
 21
212.792755
  0
LINE
  8
_0-0_0
  6
CONTINUOUS
 62
    7
 10
163.00247199999998
 20
212.792755
 11
163.25247199999998
 21
212.67498799999998
  0
LINE
  8
_0-0_0
  6
CONTINUOUS
 62
    7
 10
172.50247199999998
 20
212.41366600000003
 11
163.25247199999998
 21
212.41366600000003
  0
LINE
  8
_0-0_0
  6
CONTINUOUS
 62
    7
 10
172.75247199999998
 20
212.55725100000001
 11
163.00247199999998
 21
212.55725100000001
  0
LINE
  8
_0-0_0
  6
CONTINUOUS
 62
    7
 10
163.00247199999998
 20
212.55725100000001
 11
163.25247199999998
 21
212.41366600000003
  0
LINE
  8
_0-0_0
  6
CONTINUOUS
 62
    7
 10
172.50247199999998
 20
212.155213
 11
163.25247199999998
 21
212.155213
  0
LINE
  8
_0-0_0
  6
CONTINUOUS
 62
    7
 10
172.75247199999998
 20
212.32302900000002
 11
163.00247199999998
 21
212.32302900000002
  0
LINE
  8
_0-0_0
  6
CONTINUOUS
 62
    7
 10
163.00247199999998
 20
212.32302900000002
 11
163.25247199999998
 21
212.155213
  0
LINE
  8
_0-0_0
  6
CONTINUOUS
 62
    7
 10
172.50247199999998
 20
211.902466
 11
163.25247199999998
 21
211.902466
  0
LINE
  8
_0-0_0
  6
CONTINUOUS
 62
    7
 10
172.75247199999998
 20
212.09265099999999
 11
163.00247199999998
 21
212.09265099999999
  0
LINE
  8
_0-0_0
  6
CONTINUOUS
 62
    7
 10
163.00247199999998
 20
212.09265099999999
 11
163.25247199999998
 21
211.902466
  0
LINE
  8
_0-0_0
  6
CONTINUOUS
 62
    7
 10
172.50247199999998
 20
211.658142
 11
163.25247199999998
 21
211.658142
  0
LINE
  8
_0-0_0
  6
CONTINUOUS
 62
    7
 10
172.75247199999998
 20
211.86868300000003
 11
163.00247199999998
 21
211.86868300000003
  0
LINE
  8
_0-0_0
  6
CONTINUOUS
 62
    7
 10
163.00247199999998
 20
211.86868300000003
 11
163.25247199999998
 21
211.658142
  0
LINE
  8
_0-0_0
  6
CONTINUOUS
 62
    7
 10
172.50247199999998
 20
211.00216699999999
 11
163.25247199999998
 21
211.00216699999999
  0
LINE
  8
_0-0_0
  6
CONTINUOUS
 62
    7
 10
163.00247199999998
 20
211.25903299999999
 11
163.25247199999998
 21
211.00216699999999
  0
LINE
  8
_0-0_0
  6
CONTINUOUS
 62
    7
 10
172.50247199999998
 20
210.817139
 11
163.25247199999998
 21
210.817139
  0
LINE
  8
_0-0_0
  6
CONTINUOUS
 62
    7
 10
163.00247199999998
 20
211.08401500000002
 11
163.25247199999998
 21
210.817139
  0
LINE
  8
_0-0_0
  6
CONTINUOUS
 62
    7
 10
172.50247199999998
 20
210.652466
 11
163.25247199999998
 21
210.652466
  0
LINE
  8
_0-0_0
  6
CONTINUOUS
 62
    7
 10
163.00247199999998
 20
210.926422
 11
163.25247199999998
 21
210.652466
  0
LINE
  8
_0-0_0
  6
CONTINUOUS
 62
    7
 10
172.50247199999998
 20
210.50991800000003
 11
163.25247199999998
 21
210.50991800000003
  0
LINE
  8
_0-0_0
  6
CONTINUOUS
 62
    7
 10
163.00247199999998
 20
210.78799400000003
 11
163.25247199999998
 21
210.50991800000003
  0
LINE
  8
_0-0_0
  6
CONTINUOUS
 62
    7
 10
172.50247199999998
 20
210.391144
 11
163.25247199999998
 21
210.391144
  0
LINE
  8
_0-0_0
  6
CONTINUOUS
 62
    7
 10
163.00247199999998
 20
210.67022700000001
 11
163.25247199999998
 21
210.391144
  0
LINE
  8
_0-0_0
  6
CONTINUOUS
 62
    7
 10
172.50247199999998
 20
210.29736300000002
 11
163.25247199999998
 21
210.29736300000002
  0
LINE
  8
_0-0_0
  6
CONTINUOUS
 62
    7
 10
163.00247199999998
 20
210.574432
 11
163.25247199999998
 21
210.29736300000002
  0
LINE
  8
_0-0_0
  6
CONTINUOUS
 62
    7
 10
172.50247199999998
 20
210.22961400000003
 11
163.25247199999998
 21
210.22961400000003
  0
LINE
  8
_0-0_0
  6
CONTINUOUS
 62
    7
 10
163.00247199999998
 20
210.50164799999999
 11
163.25247199999998
 21
210.22961400000003
  0
LINE
  8
_0-0_0
  6
CONTINUOUS
 62
    7
 10
172.50247199999998
 20
210.18869000000001
 11
163.25247199999998
 21
210.18869000000001
  0
LINE
  8
_0-0_0
  6
CONTINUOUS
 62
    7
 10
163.00247199999998
 20
210.452698
 11
163.25247199999998
 21
210.18869000000001
  0
LINE
  8
_0-0_0
  6
CONTINUOUS
 62
    7
 10
172.50247199999998
 20
210.17498799999998
 11
163.25247199999998
 21
210.17498799999998
  0
LINE
  8
_0-0_0
  6
CONTINUOUS
 62
    7
 10
163.00247199999998
 20
210.42806999999999
 11
163.25247199999998
 21
210.17498799999998
  0
LINE
  8
_0-0_0
  6
CONTINUOUS
 62
    7
 10
172.50247199999998
 20
214.840057
 11
163.25247199999998
 21
214.840057
  0
LINE
  8
_0-0_0
  6
CONTINUOUS
 62
    7
 10
172.75247199999998
 20
214.67974900000002
 11
172.62252799999999
 21
214.76361100000003
  0
LINE
  8
_0-0_0
  6
CONTINUOUS
 62
    7
 10
163.00247199999998
 20
214.67974900000002
 11
163.13244599999999
 21
214.76361100000003
  0
LINE
  8
_0-0_0
  6
CONTINUOUS
 62
    7
 10
163.13244599999999
 20
214.76361100000003
 11
163.25247199999998
 21
214.840057
  0
LINE
  8
_0-0_0
  6
CONTINUOUS
 62
    7
 10
172.50247199999998
 20
214.69754
 11
163.25247199999998
 21
214.69754
  0
LINE
  8
_0-0_0
  6
CONTINUOUS
 62
    7
 10
163.00247199999998
 20
214.56201199999998
 11
163.25247199999998
 21
214.69754
  0
LINE
  8
_0-0_0
  6
CONTINUOUS
 62
    7
 10
172.75247199999998
 20
214.67974900000002
 11
172.50247199999998
 21
214.95886200000001
  0
LINE
  8
_0-0_0
  6
CONTINUOUS
 62
    7
 10
172.50247199999998
 20
214.95886200000001
 11
163.25247199999998
 21
214.95886200000001
  0
LINE
  8
_0-0_0
  6
CONTINUOUS
 62
    7
 10
163.00247199999998
 20
214.67974900000002
 11
163.25247199999998
 21
214.95886200000001
  0
LINE
  8
_0-0_0
  6
CONTINUOUS
 62
    7
 10
172.75247199999998
 20
214.77554300000003
 11
172.50247199999998
 21
214.95886200000001
  0
LINE
  8
_0-0_0
  6
CONTINUOUS
 62
    7
 10
163.00247199999998
 20
214.77554300000003
 11
163.25247199999998
 21
214.95886200000001
  0
LINE
  8
_0-0_0
  6
CONTINUOUS
 62
    7
 10
172.75247199999998
 20
214.77554300000003
 11
172.50247199999998
 21
215.05264299999999
  0
LINE
  8
_0-0_0
  6
CONTINUOUS
 62
    7
 10
172.50247199999998
 20
215.05264299999999
 11
163.25247199999998
 21
215.05264299999999
  0
LINE
  8
_0-0_0
  6
CONTINUOUS
 62
    7
 10
163.00247199999998
 20
214.77554300000003
 11
163.25247199999998
 21
215.05264299999999
  0
LINE
  8
_0-0_0
  6
CONTINUOUS
 62
    7
 10
172.75247199999998
 20
214.84832799999998
 11
172.50247199999998
 21
215.05264299999999
  0
LINE
  8
_0-0_0
  6
CONTINUOUS
 62
    7
 10
163.00247199999998
 20
214.84832799999998
 11
163.25247199999998
 21
215.05264299999999
  0
LINE
  8
_0-0_0
  6
CONTINUOUS
 62
    7
 10
172.75247199999998
 20
214.84832799999998
 11
172.50247199999998
 21
215.120361
  0
LINE
  8
_0-0_0
  6
CONTINUOUS
 62
    7
 10
172.50247199999998
 20
215.120361
 11
163.25247199999998
 21
215.120361
  0
LINE
  8
_0-0_0
  6
CONTINUOUS
 62
    7
 10
163.00247199999998
 20
214.84832799999998
 11
163.25247199999998
 21
215.120361
  0
LINE
  8
_0-0_0
  6
CONTINUOUS
 62
    7
 10
172.75247199999998
 20
214.89730800000001
 11
172.50247199999998
 21
215.120361
  0
LINE
  8
_0-0_0
  6
CONTINUOUS
 62
    7
 10
163.00247199999998
 20
214.89730800000001
 11
163.25247199999998
 21
215.120361
  0
LINE
  8
_0-0_0
  6
CONTINUOUS
 62
    7
 10
172.75247199999998
 20
214.89730800000001
 11
172.50247199999998
 21
215.16128600000002
  0
LINE
  8
_0-0_0
  6
CONTINUOUS
 62
    7
 10
172.50247199999998
 20
215.16128600000002
 11
163.25247199999998
 21
215.16128600000002
  0
LINE
  8
_0-0_0
  6
CONTINUOUS
 62
    7
 10
163.00247199999998
 20
214.89730800000001
 11
163.25247199999998
 21
215.16128600000002
  0
LINE
  8
_0-0_0
  6
CONTINUOUS
 62
    7
 10
172.75247199999998
 20
214.92190599999998
 11
172.50247199999998
 21
215.16128600000002
  0
LINE
  8
_0-0_0
  6
CONTINUOUS
 62
    7
 10
163.00247199999998
 20
214.92190599999998
 11
163.25247199999998
 21
215.16128600000002
  0
LINE
  8
_0-0_0
  6
CONTINUOUS
 62
    7
 10
172.75247199999998
 20
214.92190599999998
 11
172.50247199999998
 21
215.17498799999998
  0
LINE
  8
_0-0_0
  6
CONTINUOUS
 62
    7
 10
172.50247199999998
 20
215.17498799999998
 11
163.25247199999998
 21
215.17498799999998
  0
LINE
  8
_0-0_0
  6
CONTINUOUS
 62
    7
 10
163.00247199999998
 20
214.92190599999998
 11
163.25247199999998
 21
215.17498799999998
  0
LINE
  8
_0-0_0
  6
CONTINUOUS
 62
    7
 10
172.75247199999998
 20
228.04956099999998
 11
172.50247199999998
 21
228.02499399999999
  0
LINE
  8
_0-0_0
  6
CONTINUOUS
 62
    7
 10
172.50247199999998
 20
228.02499399999999
 11
163.25247199999998
 21
228.02499399999999
  0
LINE
  8
_0-0_0
  6
CONTINUOUS
 62
    7
 10
163.00247199999998
 20
228.04956099999998
 11
163.25247199999998
 21
228.02499399999999
  0
LINE
  8
_0-0_0
  6
CONTINUOUS
 62
    7
 10
172.75247199999998
 20
231.02356000000003
 11
172.50247199999998
 21
231.29754600000001
  0
LINE
  8
_0-0_0
  6
CONTINUOUS
 62
    7
 10
172.75247199999998
 20
231.02356000000003
 11
172.50247199999998
 21
231.13284299999998
  0
LINE
  8
_0-0_0
  6
CONTINUOUS
 62
    7
 10
172.75247199999998
 20
230.86599699999999
 11
172.50247199999998
 21
231.13284299999998
  0
LINE
  8
_0-0_0
  6
CONTINUOUS
 62
    7
 10
172.75247199999998
 20
230.86599699999999
 11
172.50247199999998
 21
230.94781499999999
  0
LINE
  8
_0-0_0
  6
CONTINUOUS
 62
    7
 10
172.75247199999998
 20
230.69097900000003
 11
172.50247199999998
 21
230.94781499999999
  0
LINE
  8
_0-0_0
  6
CONTINUOUS
 62
    7
 10
172.75247199999998
 20
230.69097900000003
 11
172.50247199999998
 21
230.74444599999998
  0
LINE
  8
_0-0_0
  6
CONTINUOUS
 62
    7
 10
172.75247199999998
 20
230.500427
 11
172.50247199999998
 21
230.74444599999998
  0
LINE
  8
_0-0_0
  6
CONTINUOUS
 62
    7
 10
172.75247199999998
 20
230.500427
 11
172.50247199999998
 21
230.52499399999999
  0
LINE
  8
_0-0_0
  6
CONTINUOUS
 62
    7
 10
172.75247199999998
 20
230.29647799999998
 11
172.50247199999998
 21
230.52499399999999
  0
LINE
  8
_0-0_0
  6
CONTINUOUS
 62
    7
 10
172.75247199999998
 20
230.29647799999998
 11
172.50247199999998
 21
230.29183999999998
  0
LINE
  8
_0-0_0
  6
CONTINUOUS
 62
    7
 10
172.75247199999998
 20
230.08132899999998
 11
172.50247199999998
 21
230.29183999999998
  0
LINE
  8
_0-0_0
  6
CONTINUOUS
 62
    7
 10
172.75247199999998
 20
230.08132899999998
 11
172.50247199999998
 21
230.04754600000001
  0
LINE
  8
_0-0_0
  6
CONTINUOUS
 62
    7
 10
172.75247199999998
 20
229.85732999999999
 11
172.50247199999998
 21
230.04754600000001
  0
LINE
  8
_0-0_0
  6
CONTINUOUS
 62
    7
 10
172.75247199999998
 20
229.85732999999999
 11
172.50247199999998
 21
229.79476900000003
  0
LINE
  8
_0-0_0
  6
CONTINUOUS
 62
    7
 10
172.75247199999998
 20
229.62698399999999
 11
172.50247199999998
 21
229.79476900000003
  0
LINE
  8
_0-0_0
  6
CONTINUOUS
 62
    7
 10
172.75247199999998
 20
229.62698399999999
 11
172.50247199999998
 21
229.536316
  0
LINE
  8
_0-0_0
  6
CONTINUOUS
 62
    7
 10
172.75247199999998
 20
229.39276100000001
 11
172.50247199999998
 21
229.536316
  0
LINE
  8
_0-0_0
  6
CONTINUOUS
 62
    7
 10
172.75247199999998
 20
229.39276100000001
 11
172.50247199999998
 21
229.27499399999999
  0
LINE
  8
_0-0_0
  6
CONTINUOUS
 62
    7
 10
172.75247199999998
 20
229.15722700000003
 11
172.50247199999998
 21
229.27499399999999
  0
LINE
  8
_0-0_0
  6
CONTINUOUS
 62
    7
 10
172.75247199999998
 20
229.15722700000003
 11
172.50247199999998
 21
229.01367199999999
  0
LINE
  8
_0-0_0
  6
CONTINUOUS
 62
    7
 10
172.75247199999998
 20
228.92300399999999
 11
172.50247199999998
 21
229.01367199999999
  0
LINE
  8
_0-0_0
  6
CONTINUOUS
 62
    7
 10
172.75247199999998
 20
228.92300399999999
 11
172.50247199999998
 21
228.75521900000001
  0
LINE
  8
_0-0_0
  6
CONTINUOUS
 62
    7
 10
172.75247199999998
 20
228.69265799999999
 11
172.50247199999998
 21
228.75521900000001
  0
LINE
  8
_0-0_0
  6
CONTINUOUS
 62
    7
 10
172.75247199999998
 20
228.69265799999999
 11
172.50247199999998
 21
228.50244200000003
  0
LINE
  8
_0-0_0
  6
CONTINUOUS
 62
    7
 10
172.75247199999998
 20
228.468659
 11
172.50247199999998
 21
228.50244200000003
  0
LINE
  8
_0-0_0
  6
CONTINUOUS
 62
    7
 10
172.75247199999998
 20
228.468659
 11
172.50247199999998
 21
228.25814800000001
  0
LINE
  8
_0-0_0
  6
CONTINUOUS
 62
    7
 10
172.75247199999998
 20
228.25351000000001
 11
172.50247199999998
 21
228.25814800000001
  0
LINE
  8
_0-0_0
  6
CONTINUOUS
 62
    7
 10
172.75247199999998
 20
228.25351000000001
 11
172.50247199999998
 21
228.02499399999999
  0
LINE
  8
_0-0_0
  6
CONTINUOUS
 62
    7
 10
172.75247199999998
 20
228.04956099999998
 11
172.50247199999998
 21
227.805542
  0
LINE
  8
_0-0_0
  6
CONTINUOUS
 62
    7
 10
172.75247199999998
 20
227.85900900000001
 11
172.50247199999998
 21
227.805542
  0
LINE
  8
_0-0_0
  6
CONTINUOUS
 62
    7
 10
172.75247199999998
 20
227.85900900000001
 11
172.50247199999998
 21
227.60217299999999
  0
LINE
  8
_0-0_0
  6
CONTINUOUS
 62
    7
 10
172.75247199999998
 20
227.68399099999999
 11
172.50247199999998
 21
227.60217299999999
  0
LINE
  8
_0-0_0
  6
CONTINUOUS
 62
    7
 10
172.75247199999998
 20
227.68399099999999
 11
172.50247199999998
 21
227.417145
  0
LINE
  8
_0-0_0
  6
CONTINUOUS
 62
    7
 10
172.75247199999998
 20
227.52642800000001
 11
172.50247199999998
 21
227.417145
  0
LINE
  8
_0-0_0
  6
CONTINUOUS
 62
    7
 10
172.75247199999998
 20
227.52642800000001
 11
172.50247199999998
 21
227.25244200000003
  0
LINE
  8
_0-0_0
  6
CONTINUOUS
 62
    7
 10
172.75247199999998
 20
227.38800100000003
 11
172.50247199999998
 21
227.25244200000003
  0
LINE
  8
_0-0_0
  6
CONTINUOUS
 62
    7
 10
172.75247199999998
 20
227.38800100000003
 11
172.50247199999998
 21
227.10992400000003
  0
LINE
  8
_0-0_0
  6
CONTINUOUS
 62
    7
 10
172.75247199999998
 20
227.27023300000002
 11
172.50247199999998
 21
227.10992400000003
  0
LINE
  8
_0-0_0
  6
CONTINUOUS
 62
    7
 10
172.75247199999998
 20
227.27023300000002
 11
172.50247199999998
 21
226.99111900000003
  0
LINE
  8
_0-0_0
  6
CONTINUOUS
 62
    7
 10
172.75247199999998
 20
227.17443900000001
 11
172.50247199999998
 21
226.99111900000003
  0
LINE
  8
_0-0_0
  6
CONTINUOUS
 62
    7
 10
172.75247199999998
 20
227.17443900000001
 11
172.50247199999998
 21
226.89733899999999
  0
LINE
  8
_0-0_0
  6
CONTINUOUS
 62
    7
 10
172.75247199999998
 20
227.101654
 11
172.50247199999998
 21
226.89733899999999
  0
LINE
  8
_0-0_0
  6
CONTINUOUS
 62
    7
 10
172.75247199999998
 20
227.101654
 11
172.50247199999998
 21
226.82962000000003
  0
LINE
  8
_0-0_0
  6
CONTINUOUS
 62
    7
 10
172.75247199999998
 20
227.05270400000001
 11
172.50247199999998
 21
226.82962000000003
  0
LINE
  8
_0-0_0
  6
CONTINUOUS
 62
    7
 10
172.75247199999998
 20
227.05270400000001
 11
172.50247199999998
 21
226.78869600000002
  0
LINE
  8
_0-0_0
  6
CONTINUOUS
 62
    7
 10
172.75247199999998
 20
227.028076
 11
172.50247199999998
 21
226.78869600000002
  0
LINE
  8
_0-0_0
  6
CONTINUOUS
 62
    7
 10
172.75247199999998
 20
227.028076
 11
172.50247199999998
 21
226.77499399999999
  0
LINE
  8
_0-0_0
  6
CONTINUOUS
 62
    7
 10
173.00247199999998
 20
227.27499399999999
 11
173.00247199999998
 21
231.03015099999999
  0
LINE
  8
_0-0_0
  6
CONTINUOUS
 62
    7
 10
172.62252799999999
 20
231.36361700000003
 11
172.50247199999998
 21
231.44006400000001
  0
LINE
  8
_0-0_0
  6
CONTINUOUS
 62
    7
 10
172.75247199999998
 20
231.16201799999999
 11
172.50247199999998
 21
231.44006400000001
  0
LINE
  8
_0-0_0
  6
CONTINUOUS
 62
    7
 10
172.75247199999998
 20
231.16201799999999
 11
172.50247199999998
 21
231.29754600000001
  0
LINE
  8
_0-0_0
  6
CONTINUOUS
 62
    7
 10
172.50247199999998
 20
231.13284299999998
 11
163.25247199999998
 21
231.13284299999998
  0
LINE
  8
_0-0_0
  6
CONTINUOUS
 62
    7
 10
163.00247199999998
 20
231.02356000000003
 11
163.25247199999998
 21
231.13284299999998
  0
LINE
  8
_0-0_0
  6
CONTINUOUS
 62
    7
 10
172.50247199999998
 20
230.94781499999999
 11
163.25247199999998
 21
230.94781499999999
  0
LINE
  8
_0-0_0
  6
CONTINUOUS
 62
    7
 10
163.00247199999998
 20
230.86599699999999
 11
163.25247199999998
 21
230.94781499999999
  0
LINE
  8
_0-0_0
  6
CONTINUOUS
 62
    7
 10
172.50247199999998
 20
230.74444599999998
 11
163.25247199999998
 21
230.74444599999998
  0
LINE
  8
_0-0_0
  6
CONTINUOUS
 62
    7
 10
163.00247199999998
 20
230.69097900000003
 11
163.25247199999998
 21
230.74444599999998
  0
LINE
  8
_0-0_0
  6
CONTINUOUS
 62
    7
 10
172.50247199999998
 20
230.52499399999999
 11
163.25247199999998
 21
230.52499399999999
  0
LINE
  8
_0-0_0
  6
CONTINUOUS
 62
    7
 10
163.00247199999998
 20
230.500427
 11
163.25247199999998
 21
230.52499399999999
  0
LINE
  8
_0-0_0
  6
CONTINUOUS
 62
    7
 10
172.50247199999998
 20
230.29183999999998
 11
163.25247199999998
 21
230.29183999999998
  0
LINE
  8
_0-0_0
  6
CONTINUOUS
 62
    7
 10
172.75247199999998
 20
230.29647799999998
 11
163.00247199999998
 21
230.29647799999998
  0
LINE
  8
_0-0_0
  6
CONTINUOUS
 62
    7
 10
163.00247199999998
 20
230.29647799999998
 11
163.25247199999998
 21
230.29183999999998
  0
LINE
  8
_0-0_0
  6
CONTINUOUS
 62
    7
 10
172.50247199999998
 20
230.04754600000001
 11
163.25247199999998
 21
230.04754600000001
  0
LINE
  8
_0-0_0
  6
CONTINUOUS
 62
    7
 10
172.75247199999998
 20
230.08132899999998
 11
163.00247199999998
 21
230.08132899999998
  0
LINE
  8
_0-0_0
  6
CONTINUOUS
 62
    7
 10
163.00247199999998
 20
230.08132899999998
 11
163.25247199999998
 21
230.04754600000001
  0
LINE
  8
_0-0_0
  6
CONTINUOUS
 62
    7
 10
172.50247199999998
 20
229.79476900000003
 11
163.25247199999998
 21
229.79476900000003
  0
LINE
  8
_0-0_0
  6
CONTINUOUS
 62
    7
 10
172.75247199999998
 20
229.85732999999999
 11
163.00247199999998
 21
229.85732999999999
  0
LINE
  8
_0-0_0
  6
CONTINUOUS
 62
    7
 10
163.00247199999998
 20
229.85732999999999
 11
163.25247199999998
 21
229.79476900000003
  0
LINE
  8
_0-0_0
  6
CONTINUOUS
 62
    7
 10
172.50247199999998
 20
229.536316
 11
163.25247199999998
 21
229.536316
  0
LINE
  8
_0-0_0
  6
CONTINUOUS
 62
    7
 10
172.75247199999998
 20
229.62698399999999
 11
163.00247199999998
 21
229.62698399999999
  0
LINE
  8
_0-0_0
  6
CONTINUOUS
 62
    7
 10
163.00247199999998
 20
229.62698399999999
 11
163.25247199999998
 21
229.536316
  0
LINE
  8
_0-0_0
  6
CONTINUOUS
 62
    7
 10
172.50247199999998
 20
229.27499399999999
 11
163.25247199999998
 21
229.27499399999999
  0
LINE
  8
_0-0_0
  6
CONTINUOUS
 62
    7
 10
172.75247199999998
 20
229.39276100000001
 11
163.00247199999998
 21
229.39276100000001
  0
LINE
  8
_0-0_0
  6
CONTINUOUS
 62
    7
 10
163.00247199999998
 20
229.39276100000001
 11
163.25247199999998
 21
229.27499399999999
  0
LINE
  8
_0-0_0
  6
CONTINUOUS
 62
    7
 10
172.50247199999998
 20
229.01367199999999
 11
163.25247199999998
 21
229.01367199999999
  0
LINE
  8
_0-0_0
  6
CONTINUOUS
 62
    7
 10
172.75247199999998
 20
229.15722700000003
 11
163.00247199999998
 21
229.15722700000003
  0
LINE
  8
_0-0_0
  6
CONTINUOUS
 62
    7
 10
163.00247199999998
 20
229.15722700000003
 11
163.25247199999998
 21
229.01367199999999
  0
LINE
  8
_0-0_0
  6
CONTINUOUS
 62
    7
 10
172.50247199999998
 20
228.75521900000001
 11
163.25247199999998
 21
228.75521900000001
  0
LINE
  8
_0-0_0
  6
CONTINUOUS
 62
    7
 10
172.75247199999998
 20
228.92300399999999
 11
163.00247199999998
 21
228.92300399999999
  0
LINE
  8
_0-0_0
  6
CONTINUOUS
 62
    7
 10
163.00247199999998
 20
228.92300399999999
 11
163.25247199999998
 21
228.75521900000001
  0
LINE
  8
_0-0_0
  6
CONTINUOUS
 62
    7
 10
172.50247199999998
 20
228.50244200000003
 11
163.25247199999998
 21
228.50244200000003
  0
LINE
  8
_0-0_0
  6
CONTINUOUS
 62
    7
 10
172.75247199999998
 20
228.69265799999999
 11
163.00247199999998
 21
228.69265799999999
  0
LINE
  8
_0-0_0
  6
CONTINUOUS
 62
    7
 10
163.00247199999998
 20
228.69265799999999
 11
163.25247199999998
 21
228.50244200000003
  0
LINE
  8
_0-0_0
  6
CONTINUOUS
 62
    7
 10
172.50247199999998
 20
228.25814800000001
 11
163.25247199999998
 21
228.25814800000001
  0
LINE
  8
_0-0_0
  6
CONTINUOUS
 62
    7
 10
172.75247199999998
 20
228.468659
 11
163.00247199999998
 21
228.468659
  0
LINE
  8
_0-0_0
  6
CONTINUOUS
 62
    7
 10
163.00247199999998
 20
228.468659
 11
163.25247199999998
 21
228.25814800000001
  0
LINE
  8
_0-0_0
  6
CONTINUOUS
 62
    7
 10
172.50247199999998
 20
227.60217299999999
 11
163.25247199999998
 21
227.60217299999999
  0
LINE
  8
_0-0_0
  6
CONTINUOUS
 62
    7
 10
163.00247199999998
 20
227.85900900000001
 11
163.25247199999998
 21
227.60217299999999
  0
LINE
  8
_0-0_0
  6
CONTINUOUS
 62
    7
 10
172.50247199999998
 20
227.417145
 11
163.25247199999998
 21
227.417145
  0
LINE
  8
_0-0_0
  6
CONTINUOUS
 62
    7
 10
163.00247199999998
 20
227.68399099999999
 11
163.25247199999998
 21
227.417145
  0
LINE
  8
_0-0_0
  6
CONTINUOUS
 62
    7
 10
172.50247199999998
 20
227.25244200000003
 11
163.25247199999998
 21
227.25244200000003
  0
LINE
  8
_0-0_0
  6
CONTINUOUS
 62
    7
 10
163.00247199999998
 20
227.52642800000001
 11
163.25247199999998
 21
227.25244200000003
  0
LINE
  8
_0-0_0
  6
CONTINUOUS
 62
    7
 10
172.50247199999998
 20
227.10992400000003
 11
163.25247199999998
 21
227.10992400000003
  0
LINE
  8
_0-0_0
  6
CONTINUOUS
 62
    7
 10
163.00247199999998
 20
227.38800100000003
 11
163.25247199999998
 21
227.10992400000003
  0
LINE
  8
_0-0_0
  6
CONTINUOUS
 62
    7
 10
172.50247199999998
 20
226.99111900000003
 11
163.25247199999998
 21
226.99111900000003
  0
LINE
  8
_0-0_0
  6
CONTINUOUS
 62
    7
 10
163.00247199999998
 20
227.27023300000002
 11
163.25247199999998
 21
226.99111900000003
  0
LINE
  8
_0-0_0
  6
CONTINUOUS
 62
    7
 10
172.50247199999998
 20
226.89733899999999
 11
163.25247199999998
 21
226.89733899999999
  0
LINE
  8
_0-0_0
  6
CONTINUOUS
 62
    7
 10
163.00247199999998
 20
227.17443900000001
 11
163.25247199999998
 21
226.89733899999999
  0
LINE
  8
_0-0_0
  6
CONTINUOUS
 62
    7
 10
172.50247199999998
 20
226.82962000000003
 11
163.25247199999998
 21
226.82962000000003
  0
LINE
  8
_0-0_0
  6
CONTINUOUS
 62
    7
 10
163.00247199999998
 20
227.101654
 11
163.25247199999998
 21
226.82962000000003
  0
LINE
  8
_0-0_0
  6
CONTINUOUS
 62
    7
 10
172.50247199999998
 20
226.78869600000002
 11
163.25247199999998
 21
226.78869600000002
  0
LINE
  8
_0-0_0
  6
CONTINUOUS
 62
    7
 10
163.00247199999998
 20
227.05270400000001
 11
163.25247199999998
 21
226.78869600000002
  0
LINE
  8
_0-0_0
  6
CONTINUOUS
 62
    7
 10
172.50247199999998
 20
226.77499399999999
 11
163.25247199999998
 21
226.77499399999999
  0
LINE
  8
_0-0_0
  6
CONTINUOUS
 62
    7
 10
163.00247199999998
 20
227.028076
 11
163.25247199999998
 21
226.77499399999999
  0
LINE
  8
_0-0_0
  6
CONTINUOUS
 62
    7
 10
172.50247199999998
 20
231.44006400000001
 11
163.25247199999998
 21
231.44006400000001
  0
LINE
  8
_0-0_0
  6
CONTINUOUS
 62
    7
 10
172.75247199999998
 20
231.27975500000002
 11
172.62252799999999
 21
231.36361700000003
  0
LINE
  8
_0-0_0
  6
CONTINUOUS
 62
    7
 10
163.00247199999998
 20
231.27975500000002
 11
163.13244599999999
 21
231.36361700000003
  0
LINE
  8
_0-0_0
  6
CONTINUOUS
 62
    7
 10
163.13244599999999
 20
231.36361700000003
 11
163.25247199999998
 21
231.44006400000001
  0
LINE
  8
_0-0_0
  6
CONTINUOUS
 62
    7
 10
172.50247199999998
 20
231.29754600000001
 11
163.25247199999998
 21
231.29754600000001
  0
LINE
  8
_0-0_0
  6
CONTINUOUS
 62
    7
 10
163.00247199999998
 20
231.16201799999999
 11
163.25247199999998
 21
231.29754600000001
  0
LINE
  8
_0-0_0
  6
CONTINUOUS
 62
    7
 10
172.75247199999998
 20
231.27975500000002
 11
172.50247199999998
 21
231.55886900000002
  0
LINE
  8
_0-0_0
  6
CONTINUOUS
 62
    7
 10
172.50247199999998
 20
231.55886900000002
 11
163.25247199999998
 21
231.55886900000002
  0
LINE
  8
_0-0_0
  6
CONTINUOUS
 62
    7
 10
163.00247199999998
 20
231.27975500000002
 11
163.25247199999998
 21
231.55886900000002
  0
LINE
  8
_0-0_0
  6
CONTINUOUS
 62
    7
 10
172.75247199999998
 20
231.37554900000003
 11
172.50247199999998
 21
231.55886900000002
  0
LINE
  8
_0-0_0
  6
CONTINUOUS
 62
    7
 10
163.00247199999998
 20
231.37554900000003
 11
163.25247199999998
 21
231.55886900000002
  0
LINE
  8
_0-0_0
  6
CONTINUOUS
 62
    7
 10
172.75247199999998
 20
231.37554900000003
 11
172.50247199999998
 21
231.652649
  0
LINE
  8
_0-0_0
  6
CONTINUOUS
 62
    7
 10
172.50247199999998
 20
231.652649
 11
163.25247199999998
 21
231.652649
  0
LINE
  8
_0-0_0
  6
CONTINUOUS
 62
    7
 10
163.00247199999998
 20
231.37554900000003
 11
163.25247199999998
 21
231.652649
  0
LINE
  8
_0-0_0
  6
CONTINUOUS
 62
    7
 10
172.75247199999998
 20
231.44833399999999
 11
172.50247199999998
 21
231.652649
  0
LINE
  8
_0-0_0
  6
CONTINUOUS
 62
    7
 10
163.00247199999998
 20
231.44833399999999
 11
163.25247199999998
 21
231.652649
  0
LINE
  8
_0-0_0
  6
CONTINUOUS
 62
    7
 10
172.75247199999998
 20
231.44833399999999
 11
172.50247199999998
 21
231.72036800000001
  0
LINE
  8
_0-0_0
  6
CONTINUOUS
 62
    7
 10
172.50247199999998
 20
231.72036800000001
 11
163.25247199999998
 21
231.72036800000001
  0
LINE
  8
_0-0_0
  6
CONTINUOUS
 62
    7
 10
163.00247199999998
 20
231.44833399999999
 11
163.25247199999998
 21
231.72036800000001
  0
LINE
  8
_0-0_0
  6
CONTINUOUS
 62
    7
 10
172.75247199999998
 20
231.49728399999998
 11
172.50247199999998
 21
231.72036800000001
  0
LINE
  8
_0-0_0
  6
CONTINUOUS
 62
    7
 10
163.00247199999998
 20
231.49728399999998
 11
163.25247199999998
 21
231.72036800000001
  0
LINE
  8
_0-0_0
  6
CONTINUOUS
 62
    7
 10
172.75247199999998
 20
231.49728399999998
 11
172.50247199999998
 21
231.76129200000003
  0
LINE
  8
_0-0_0
  6
CONTINUOUS
 62
    7
 10
172.50247199999998
 20
231.76129200000003
 11
163.25247199999998
 21
231.76129200000003
  0
LINE
  8
_0-0_0
  6
CONTINUOUS
 62
    7
 10
163.00247199999998
 20
231.49728399999998
 11
163.25247199999998
 21
231.76129200000003
  0
LINE
  8
_0-0_0
  6
CONTINUOUS
 62
    7
 10
172.75247199999998
 20
231.52191199999999
 11
172.50247199999998
 21
231.76129200000003
  0
LINE
  8
_0-0_0
  6
CONTINUOUS
 62
    7
 10
163.00247199999998
 20
231.52191199999999
 11
163.25247199999998
 21
231.76129200000003
  0
LINE
  8
_0-0_0
  6
CONTINUOUS
 62
    7
 10
172.75247199999998
 20
231.52191199999999
 11
172.50247199999998
 21
231.77499399999999
  0
LINE
  8
_0-0_0
  6
CONTINUOUS
 62
    7
 10
172.50247199999998
 20
231.77499399999999
 11
163.25247199999998
 21
231.77499399999999
  0
LINE
  8
_0-0_0
  6
CONTINUOUS
 62
    7
 10
163.00247199999998
 20
231.52191199999999
 11
163.25247199999998
 21
231.77499399999999
  0
LINE
  8
_0-0_0
  6
CONTINUOUS
 62
    7
 10
218.20248399999997
 20
216.97500600000001
 11
218.20248399999997
 21
216.97634900000003
  0
LINE
  8
_0-0_0
  6
CONTINUOUS
 62
    7
 10
218.20248399999997
 20
216.97634900000003
 11
218.20248399999997
 21
224.97500600000001
  0
LINE
  8
_0-0_0
  6
CONTINUOUS
 62
    7
 10
163.00247199999998
 20
231.16201799999999
 11
163.25247199999998
 21
231.44006400000001
  0
LINE
  8
_0-0_0
  6
CONTINUOUS
 62
    7
 10
173.00247199999998
 20
231.03015099999999
 11
173.00247199999998
 21
231.27499399999999
  0
LINE
  8
_0-0_0
  6
CONTINUOUS
 62
    7
 10
163.00247199999998
 20
227.028076
 11
163.25247199999998
 21
226.78869600000002
  0
LINE
  8
_0-0_0
  6
CONTINUOUS
 62
    7
 10
163.00247199999998
 20
227.05270400000001
 11
163.25247199999998
 21
226.82962000000003
  0
LINE
  8
_0-0_0
  6
CONTINUOUS
 62
    7
 10
163.00247199999998
 20
227.101654
 11
163.25247199999998
 21
226.89733899999999
  0
LINE
  8
_0-0_0
  6
CONTINUOUS
 62
    7
 10
163.00247199999998
 20
227.17443900000001
 11
163.25247199999998
 21
226.99111900000003
  0
LINE
  8
_0-0_0
  6
CONTINUOUS
 62
    7
 10
163.00247199999998
 20
227.27023300000002
 11
163.25247199999998
 21
227.10992400000003
  0
LINE
  8
_0-0_0
  6
CONTINUOUS
 62
    7
 10
163.00247199999998
 20
227.38800100000003
 11
163.25247199999998
 21
227.25244200000003
  0
LINE
  8
_0-0_0
  6
CONTINUOUS
 62
    7
 10
163.00247199999998
 20
227.52642800000001
 11
163.25247199999998
 21
227.417145
  0
LINE
  8
_0-0_0
  6
CONTINUOUS
 62
    7
 10
163.00247199999998
 20
227.68399099999999
 11
163.25247199999998
 21
227.60217299999999
  0
LINE
  8
_0-0_0
  6
CONTINUOUS
 62
    7
 10
172.50247199999998
 20
227.805542
 11
163.25247199999998
 21
227.805542
  0
LINE
  8
_0-0_0
  6
CONTINUOUS
 62
    7
 10
163.00247199999998
 20
227.85900900000001
 11
163.25247199999998
 21
227.805542
  0
LINE
  8
_0-0_0
  6
CONTINUOUS
 62
    7
 10
163.00247199999998
 20
228.25351000000001
 11
163.25247199999998
 21
228.25814800000001
  0
LINE
  8
_0-0_0
  6
CONTINUOUS
 62
    7
 10
172.75247199999998
 20
228.25351000000001
 11
163.00247199999998
 21
228.25351000000001
  0
LINE
  8
_0-0_0
  6
CONTINUOUS
 62
    7
 10
163.00247199999998
 20
228.468659
 11
163.25247199999998
 21
228.50244200000003
  0
LINE
  8
_0-0_0
  6
CONTINUOUS
 62
    7
 10
163.00247199999998
 20
228.69265799999999
 11
163.25247199999998
 21
228.75521900000001
  0
LINE
  8
_0-0_0
  6
CONTINUOUS
 62
    7
 10
163.00247199999998
 20
228.92300399999999
 11
163.25247199999998
 21
229.01367199999999
  0
LINE
  8
_0-0_0
  6
CONTINUOUS
 62
    7
 10
163.00247199999998
 20
229.15722700000003
 11
163.25247199999998
 21
229.27499399999999
  0
LINE
  8
_0-0_0
  6
CONTINUOUS
 62
    7
 10
163.00247199999998
 20
229.39276100000001
 11
163.25247199999998
 21
229.536316
  0
LINE
  8
_0-0_0
  6
CONTINUOUS
 62
    7
 10
163.00247199999998
 20
229.62698399999999
 11
163.25247199999998
 21
229.79476900000003
  0
LINE
  8
_0-0_0
  6
CONTINUOUS
 62
    7
 10
163.00247199999998
 20
229.85732999999999
 11
163.25247199999998
 21
230.04754600000001
  0
LINE
  8
_0-0_0
  6
CONTINUOUS
 62
    7
 10
163.00247199999998
 20
230.08132899999998
 11
163.25247199999998
 21
230.29183999999998
  0
LINE
  8
_0-0_0
  6
CONTINUOUS
 62
    7
 10
163.00247199999998
 20
230.29647799999998
 11
163.25247199999998
 21
230.52499399999999
  0
LINE
  8
_0-0_0
  6
CONTINUOUS
 62
    7
 10
163.00247199999998
 20
230.500427
 11
163.25247199999998
 21
230.74444599999998
  0
LINE
  8
_0-0_0
  6
CONTINUOUS
 62
    7
 10
163.00247199999998
 20
230.69097900000003
 11
163.25247199999998
 21
230.94781499999999
  0
LINE
  8
_0-0_0
  6
CONTINUOUS
 62
    7
 10
163.00247199999998
 20
230.86599699999999
 11
163.25247199999998
 21
231.13284299999998
  0
LINE
  8
_0-0_0
  6
CONTINUOUS
 62
    7
 10
163.00247199999998
 20
231.02356000000003
 11
163.25247199999998
 21
231.29754600000001
  0
LINE
  8
_0-0_0
  6
CONTINUOUS
 62
    7
 10
163.00247199999998
 20
228.04956099999998
 11
163.25247199999998
 21
227.805542
  0
LINE
  8
_0-0_0
  6
CONTINUOUS
 62
    7
 10
163.00247199999998
 20
228.25351000000001
 11
163.25247199999998
 21
228.02499399999999
  0
LINE
  8
_0-0_0
  6
CONTINUOUS
 62
    7
 10
163.00247199999998
 20
214.56201199999998
 11
163.25247199999998
 21
214.840057
  0
LINE
  8
_0-0_0
  6
CONTINUOUS
 62
    7
 10
173.00247199999998
 20
214.43014499999998
 11
173.00247199999998
 21
214.67498799999998
  0
LINE
  8
_0-0_0
  6
CONTINUOUS
 62
    7
 10
163.00247199999998
 20
210.42806999999999
 11
163.25247199999998
 21
210.18869000000001
  0
LINE
  8
_0-0_0
  6
CONTINUOUS
 62
    7
 10
163.00247199999998
 20
210.452698
 11
163.25247199999998
 21
210.22961400000003
  0
LINE
  8
_0-0_0
  6
CONTINUOUS
 62
    7
 10
163.00247199999998
 20
210.50164799999999
 11
163.25247199999998
 21
210.29736300000002
  0
LINE
  8
_0-0_0
  6
CONTINUOUS
 62
    7
 10
163.00247199999998
 20
210.574432
 11
163.25247199999998
 21
210.391144
  0
LINE
  8
_0-0_0
  6
CONTINUOUS
 62
    7
 10
163.00247199999998
 20
210.67022700000001
 11
163.25247199999998
 21
210.50991800000003
  0
LINE
  8
_0-0_0
  6
CONTINUOUS
 62
    7
 10
163.00247199999998
 20
210.78799400000003
 11
163.25247199999998
 21
210.652466
  0
LINE
  8
_0-0_0
  6
CONTINUOUS
 62
    7
 10
163.00247199999998
 20
210.926422
 11
163.25247199999998
 21
210.817139
  0
LINE
  8
_0-0_0
  6
CONTINUOUS
 62
    7
 10
163.00247199999998
 20
211.08401500000002
 11
163.25247199999998
 21
211.00216699999999
  0
LINE
  8
_0-0_0
  6
CONTINUOUS
 62
    7
 10
172.50247199999998
 20
211.205536
 11
163.25247199999998
 21
211.205536
  0
LINE
  8
_0-0_0
  6
CONTINUOUS
 62
    7
 10
163.00247199999998
 20
211.25903299999999
 11
163.25247199999998
 21
211.205536
  0
LINE
  8
_0-0_0
  6
CONTINUOUS
 62
    7
 10
163.00247199999998
 20
211.653504
 11
163.25247199999998
 21
211.658142
  0
LINE
  8
_0-0_0
  6
CONTINUOUS
 62
    7
 10
172.75247199999998
 20
211.653504
 11
163.00247199999998
 21
211.653504
  0
LINE
  8
_0-0_0
  6
CONTINUOUS
 62
    7
 10
163.00247199999998
 20
211.86868300000003
 11
163.25247199999998
 21
211.902466
  0
LINE
  8
_0-0_0
  6
CONTINUOUS
 62
    7
 10
163.00247199999998
 20
212.09265099999999
 11
163.25247199999998
 21
212.155213
  0
LINE
  8
_0-0_0
  6
CONTINUOUS
 62
    7
 10
163.00247199999998
 20
212.32302900000002
 11
163.25247199999998
 21
212.41366600000003
  0
LINE
  8
_0-0_0
  6
CONTINUOUS
 62
    7
 10
163.00247199999998
 20
212.55725100000001
 11
163.25247199999998
 21
212.67498799999998
  0
LINE
  8
_0-0_0
  6
CONTINUOUS
 62
    7
 10
163.00247199999998
 20
212.792755
 11
163.25247199999998
 21
212.93630999999999
  0
LINE
  8
_0-0_0
  6
CONTINUOUS
 62
    7
 10
163.00247199999998
 20
213.02697799999999
 11
163.25247199999998
 21
213.19476300000002
  0
LINE
  8
_0-0_0
  6
CONTINUOUS
 62
    7
 10
163.00247199999998
 20
213.25732399999998
 11
163.25247199999998
 21
213.44754
  0
LINE
  8
_0-0_0
  6
CONTINUOUS
 62
    7
 10
163.00247199999998
 20
213.48132300000003
 11
163.25247199999998
 21
213.69183400000003
  0
LINE
  8
_0-0_0
  6
CONTINUOUS
 62
    7
 10
163.00247199999998
 20
213.69647200000003
 11
163.25247199999998
 21
213.92498799999998
  0
LINE
  8
_0-0_0
  6
CONTINUOUS
 62
    7
 10
163.00247199999998
 20
213.90042099999999
 11
163.25247199999998
 21
214.14447000000001
  0
LINE
  8
_0-0_0
  6
CONTINUOUS
 62
    7
 10
163.00247199999998
 20
214.09097300000002
 11
163.25247199999998
 21
214.34780899999998
  0
LINE
  8
_0-0_0
  6
CONTINUOUS
 62
    7
 10
163.00247199999998
 20
214.26599099999999
 11
163.25247199999998
 21
214.53286800000001
  0
LINE
  8
_0-0_0
  6
CONTINUOUS
 62
    7
 10
163.00247199999998
 20
214.42358400000001
 11
163.25247199999998
 21
214.69754
  0
LINE
  8
_0-0_0
  6
CONTINUOUS
 62
    7
 10
163.00247199999998
 20
211.44955500000003
 11
163.25247199999998
 21
211.205536
  0
LINE
  8
_0-0_0
  6
CONTINUOUS
 62
    7
 10
163.00247199999998
 20
211.653504
 11
163.25247199999998
 21
211.42498799999998
  0
LINE
  8
_0-0_0
  6
CONTINUOUS
 62
    7
 10
160.202484
 20
216.43689000000001
 11
160.202484
 21
218.70593300000002
  0
LINE
  8
_0-0_0
  6
CONTINUOUS
 62
    7
 10
160.202484
 20
218.70593300000002
 11
160.202484
 21
225.51312300000001
  0
LINE
  8
_0-0_0
  6
CONTINUOUS
 62
    7
 10
163.00247199999998
 20
228.25351000000001
 11
163.00247199999998
 21
228.468659
  0
LINE
  8
_0-0_0
  6
CONTINUOUS
 62
    7
 10
163.00247199999998
 20
228.468659
 11
163.00247199999998
 21
228.69265799999999
  0
LINE
  8
_0-0_0
  6
CONTINUOUS
 62
    7
 10
163.00247199999998
 20
228.69265799999999
 11
163.00247199999998
 21
228.92300399999999
  0
LINE
  8
_0-0_0
  6
CONTINUOUS
 62
    7
 10
163.00247199999998
 20
228.92300399999999
 11
163.00247199999998
 21
229.15722700000003
  0
LINE
  8
_0-0_0
  6
CONTINUOUS
 62
    7
 10
163.00247199999998
 20
229.15722700000003
 11
163.00247199999998
 21
229.39276100000001
  0
LINE
  8
_0-0_0
  6
CONTINUOUS
 62
    7
 10
163.00247199999998
 20
229.39276100000001
 11
163.00247199999998
 21
229.62698399999999
  0
LINE
  8
_0-0_0
  6
CONTINUOUS
 62
    7
 10
163.00247199999998
 20
229.62698399999999
 11
163.00247199999998
 21
229.85732999999999
  0
LINE
  8
_0-0_0
  6
CONTINUOUS
 62
    7
 10
163.00247199999998
 20
229.85732999999999
 11
163.00247199999998
 21
230.08132899999998
  0
LINE
  8
_0-0_0
  6
CONTINUOUS
 62
    7
 10
163.00247199999998
 20
230.08132899999998
 11
163.00247199999998
 21
230.29647799999998
  0
LINE
  8
_0-0_0
  6
CONTINUOUS
 62
    7
 10
163.00247199999998
 20
230.29647799999998
 11
163.00247199999998
 21
230.500427
  0
LINE
  8
_0-0_0
  6
CONTINUOUS
 62
    7
 10
163.00247199999998
 20
230.500427
 11
163.00247199999998
 21
230.69097900000003
  0
LINE
  8
_0-0_0
  6
CONTINUOUS
 62
    7
 10
163.00247199999998
 20
230.69097900000003
 11
163.00247199999998
 21
230.86599699999999
  0
LINE
  8
_0-0_0
  6
CONTINUOUS
 62
    7
 10
163.00247199999998
 20
230.86599699999999
 11
163.00247199999998
 21
231.02356000000003
  0
LINE
  8
_0-0_0
  6
CONTINUOUS
 62
    7
 10
163.00247199999998
 20
231.02356000000003
 11
163.00247199999998
 21
231.16201799999999
  0
LINE
  8
_0-0_0
  6
CONTINUOUS
 62
    7
 10
163.00247199999998
 20
231.16201799999999
 11
163.00247199999998
 21
231.24954200000002
  0
LINE
  8
_0-0_0
  6
CONTINUOUS
 62
    7
 10
163.00247199999998
 20
231.24954200000002
 11
163.00247199999998
 21
231.27975500000002
  0
LINE
  8
_0-0_0
  6
CONTINUOUS
 62
    7
 10
163.00247199999998
 20
231.27975500000002
 11
163.00247199999998
 21
231.37554900000003
  0
LINE
  8
_0-0_0
  6
CONTINUOUS
 62
    7
 10
163.00247199999998
 20
231.37554900000003
 11
163.00247199999998
 21
231.44833399999999
  0
LINE
  8
_0-0_0
  6
CONTINUOUS
 62
    7
 10
163.00247199999998
 20
231.44833399999999
 11
163.00247199999998
 21
231.52499399999999
  0
LINE
  8
_0-0_0
  6
CONTINUOUS
 62
    7
 10
163.00247199999998
 20
231.49728399999998
 11
163.00247199999998
 21
231.52191199999999
  0
LINE
  8
_0-0_0
  6
CONTINUOUS
 62
    7
 10
163.00247199999998
 20
231.52191199999999
 11
163.00247199999998
 21
231.52499399999999
  0
LINE
  8
_0-0_0
  6
CONTINUOUS
 62
    7
 10
163.00247199999998
 20
227.02499399999999
 11
163.00247199999998
 21
227.028076
  0
LINE
  8
_0-0_0
  6
CONTINUOUS
 62
    7
 10
163.00247199999998
 20
227.028076
 11
163.00247199999998
 21
227.05270400000001
  0
LINE
  8
_0-0_0
  6
CONTINUOUS
 62
    7
 10
163.00247199999998
 20
227.02499399999999
 11
163.00247199999998
 21
227.101654
  0
LINE
  8
_0-0_0
  6
CONTINUOUS
 62
    7
 10
163.00247199999998
 20
227.101654
 11
163.00247199999998
 21
227.17443900000001
  0
LINE
  8
_0-0_0
  6
CONTINUOUS
 62
    7
 10
163.00247199999998
 20
227.17443900000001
 11
163.00247199999998
 21
227.27023300000002
  0
LINE
  8
_0-0_0
  6
CONTINUOUS
 62
    7
 10
163.00247199999998
 20
227.27023300000002
 11
163.00247199999998
 21
227.38800100000003
  0
LINE
  8
_0-0_0
  6
CONTINUOUS
 62
    7
 10
163.00247199999998
 20
227.38800100000003
 11
163.00247199999998
 21
227.52642800000001
  0
LINE
  8
_0-0_0
  6
CONTINUOUS
 62
    7
 10
163.00247199999998
 20
227.52642800000001
 11
163.00247199999998
 21
227.68399099999999
  0
LINE
  8
_0-0_0
  6
CONTINUOUS
 62
    7
 10
163.00247199999998
 20
227.68399099999999
 11
163.00247199999998
 21
227.85900900000001
  0
LINE
  8
_0-0_0
  6
CONTINUOUS
 62
    7
 10
163.00247199999998
 20
227.85900900000001
 11
163.00247199999998
 21
228.04956099999998
  0
LINE
  8
_0-0_0
  6
CONTINUOUS
 62
    7
 10
163.00247199999998
 20
228.19628899999998
 11
163.00247199999998
 21
228.25351000000001
  0
LINE
  8
_0-0_0
  6
CONTINUOUS
 62
    7
 10
163.00247199999998
 20
228.04956099999998
 11
163.00247199999998
 21
228.19628899999998
  0
LINE
  8
_0-0_0
  6
CONTINUOUS
 62
    7
 10
163.00247199999998
 20
211.653504
 11
163.00247199999998
 21
211.86868300000003
  0
LINE
  8
_0-0_0
  6
CONTINUOUS
 62
    7
 10
163.00247199999998
 20
211.86868300000003
 11
163.00247199999998
 21
212.09265099999999
  0
LINE
  8
_0-0_0
  6
CONTINUOUS
 62
    7
 10
163.00247199999998
 20
212.09265099999999
 11
163.00247199999998
 21
212.32302900000002
  0
LINE
  8
_0-0_0
  6
CONTINUOUS
 62
    7
 10
163.00247199999998
 20
212.32302900000002
 11
163.00247199999998
 21
212.55725100000001
  0
LINE
  8
_0-0_0
  6
CONTINUOUS
 62
    7
 10
163.00247199999998
 20
212.55725100000001
 11
163.00247199999998
 21
212.792755
  0
LINE
  8
_0-0_0
  6
CONTINUOUS
 62
    7
 10
163.00247199999998
 20
212.792755
 11
163.00247199999998
 21
213.02697799999999
  0
LINE
  8
_0-0_0
  6
CONTINUOUS
 62
    7
 10
163.00247199999998
 20
213.02697799999999
 11
163.00247199999998
 21
213.25732399999998
  0
LINE
  8
_0-0_0
  6
CONTINUOUS
 62
    7
 10
163.00247199999998
 20
213.25732399999998
 11
163.00247199999998
 21
213.48132300000003
  0
LINE
  8
_0-0_0
  6
CONTINUOUS
 62
    7
 10
163.00247199999998
 20
213.48132300000003
 11
163.00247199999998
 21
213.69647200000003
  0
LINE
  8
_0-0_0
  6
CONTINUOUS
 62
    7
 10
163.00247199999998
 20
213.69647200000003
 11
163.00247199999998
 21
213.90042099999999
  0
LINE
  8
_0-0_0
  6
CONTINUOUS
 62
    7
 10
163.00247199999998
 20
213.90042099999999
 11
163.00247199999998
 21
214.09097300000002
  0
LINE
  8
_0-0_0
  6
CONTINUOUS
 62
    7
 10
163.00247199999998
 20
214.09097300000002
 11
163.00247199999998
 21
214.26599099999999
  0
LINE
  8
_0-0_0
  6
CONTINUOUS
 62
    7
 10
163.00247199999998
 20
214.26599099999999
 11
163.00247199999998
 21
214.42358400000001
  0
LINE
  8
_0-0_0
  6
CONTINUOUS
 62
    7
 10
163.00247199999998
 20
214.42358400000001
 11
163.00247199999998
 21
214.56201199999998
  0
LINE
  8
_0-0_0
  6
CONTINUOUS
 62
    7
 10
163.00247199999998
 20
214.56201199999998
 11
163.00247199999998
 21
214.64956699999999
  0
LINE
  8
_0-0_0
  6
CONTINUOUS
 62
    7
 10
163.00247199999998
 20
214.64956699999999
 11
163.00247199999998
 21
214.67974900000002
  0
LINE
  8
_0-0_0
  6
CONTINUOUS
 62
    7
 10
163.00247199999998
 20
214.67974900000002
 11
163.00247199999998
 21
214.77554300000003
  0
LINE
  8
_0-0_0
  6
CONTINUOUS
 62
    7
 10
163.00247199999998
 20
214.77554300000003
 11
163.00247199999998
 21
214.84832799999998
  0
LINE
  8
_0-0_0
  6
CONTINUOUS
 62
    7
 10
163.00247199999998
 20
214.84832799999998
 11
163.00247199999998
 21
214.89730800000001
  0
LINE
  8
_0-0_0
  6
CONTINUOUS
 62
    7
 10
163.00247199999998
 20
214.89730800000001
 11
163.00247199999998
 21
214.92498799999998
  0
LINE
  8
_0-0_0
  6
CONTINUOUS
 62
    7
 10
163.00247199999998
 20
214.92190599999998
 11
163.00247199999998
 21
214.92498799999998
  0
LINE
  8
_0-0_0
  6
CONTINUOUS
 62
    7
 10
163.00247199999998
 20
210.42498799999998
 11
163.00247199999998
 21
210.42806999999999
  0
LINE
  8
_0-0_0
  6
CONTINUOUS
 62
    7
 10
163.00247199999998
 20
210.42498799999998
 11
163.00247199999998
 21
210.452698
  0
LINE
  8
_0-0_0
  6
CONTINUOUS
 62
    7
 10
163.00247199999998
 20
210.452698
 11
163.00247199999998
 21
210.50164799999999
  0
LINE
  8
_0-0_0
  6
CONTINUOUS
 62
    7
 10
163.00247199999998
 20
210.50164799999999
 11
163.00247199999998
 21
210.574432
  0
LINE
  8
_0-0_0
  6
CONTINUOUS
 62
    7
 10
163.00247199999998
 20
210.574432
 11
163.00247199999998
 21
210.67022700000001
  0
LINE
  8
_0-0_0
  6
CONTINUOUS
 62
    7
 10
163.00247199999998
 20
210.67022700000001
 11
163.00247199999998
 21
210.78799400000003
  0
LINE
  8
_0-0_0
  6
CONTINUOUS
 62
    7
 10
163.00247199999998
 20
210.78799400000003
 11
163.00247199999998
 21
210.926422
  0
LINE
  8
_0-0_0
  6
CONTINUOUS
 62
    7
 10
163.00247199999998
 20
210.926422
 11
163.00247199999998
 21
211.08401500000002
  0
LINE
  8
_0-0_0
  6
CONTINUOUS
 62
    7
 10
163.00247199999998
 20
211.08401500000002
 11
163.00247199999998
 21
211.25903299999999
  0
LINE
  8
_0-0_0
  6
CONTINUOUS
 62
    7
 10
163.00247199999998
 20
211.25903299999999
 11
163.00247199999998
 21
211.44955500000003
  0
LINE
  8
_0-0_0
  6
CONTINUOUS
 62
    7
 10
163.00247199999998
 20
211.59628300000003
 11
163.00247199999998
 21
211.653504
  0
LINE
  8
_0-0_0
  6
CONTINUOUS
 62
    7
 10
163.00247199999998
 20
211.44955500000003
 11
163.00247199999998
 21
211.59628300000003
  0
LINE
  8
_0-0_0
  6
CONTINUOUS
 62
    7
 10
159.40246599999998
 20
218.47500600000001
 11
159.40246599999998
 21
225.97500600000001
  0
LINE
  8
_0-0_0
  6
CONTINUOUS
 62
    7
 10
159.40246599999998
 20
215.97500600000001
 11
159.40246599999998
 21
218.47500600000001
  0
LINE
  8
_0-0_0
  6
CONTINUOUS
 62
    7
 10
148.00247199999998
 20
227.47500600000001
 11
157.710297
 21
227.47500600000001
  0
LINE
  8
_0-0_0
  6
CONTINUOUS
 62
    7
 10
157.75247199999998
 20
227.47500600000001
 11
157.710297
 21
227.47500600000001
  0
LINE
  8
_0-0_0
  6
CONTINUOUS
 62
    7
 10
147.702484
 20
218.76297
 11
147.761291
 21
218.51611300000002
  0
LINE
  8
_0-0_0
  6
CONTINUOUS
 62
    7
 10
147.761291
 20
218.51611300000002
 11
147.81103499999998
 21
218.32379200000003
  0
LINE
  8
_0-0_0
  6
CONTINUOUS
 62
    7
 10
147.81103499999998
 20
218.32379200000003
 11
147.882172
 21
218.05804499999999
  0
LINE
  8
_0-0_0
  6
CONTINUOUS
 62
    7
 10
147.882172
 20
218.05804499999999
 11
147.915131
 21
217.93136600000003
  0
LINE
  8
_0-0_0
  6
CONTINUOUS
 62
    7
 10
147.915131
 20
217.93136600000003
 11
147.94036899999998
 21
217.82791100000003
  0
LINE
  8
_0-0_0
  6
CONTINUOUS
 62
    7
 10
147.94036899999998
 20
217.82791100000003
 11
147.962402
 21
217.727936
  0
LINE
  8
_0-0_0
  6
CONTINUOUS
 62
    7
 10
147.962402
 20
217.727936
 11
147.98379499999999
 21
217.61023
  0
LINE
  8
_0-0_0
  6
CONTINUOUS
 62
    7
 10
147.98379499999999
 20
217.61023
 11
147.99237099999999
 21
217.54812600000002
  0
LINE
  8
_0-0_0
  6
CONTINUOUS
 62
    7
 10
147.99237099999999
 20
217.54812600000002
 11
147.99844399999998
 21
217.48751800000002
  0
LINE
  8
_0-0_0
  6
CONTINUOUS
 62
    7
 10
147.99844399999998
 20
217.48751800000002
 11
148.001465
 21
217.43826300000001
  0
LINE
  8
_0-0_0
  6
CONTINUOUS
 62
    7
 10
148.001465
 20
217.43826300000001
 11
148.00247199999998
 21
217.39004499999999
  0
LINE
  8
_0-0_0
  6
CONTINUOUS
 62
    7
 10
147.702484
 20
223.186981
 11
147.76126099999999
 21
223.433807
  0
LINE
  8
_0-0_0
  6
CONTINUOUS
 62
    7
 10
147.76126099999999
 20
223.433807
 11
147.81103499999998
 21
223.62616000000003
  0
LINE
  8
_0-0_0
  6
CONTINUOUS
 62
    7
 10
147.81103499999998
 20
223.62616000000003
 11
147.882172
 21
223.89196800000002
  0
LINE
  8
_0-0_0
  6
CONTINUOUS
 62
    7
 10
147.882172
 20
223.89196800000002
 11
147.915131
 21
224.01867700000003
  0
LINE
  8
_0-0_0
  6
CONTINUOUS
 62
    7
 10
147.915131
 20
224.01867700000003
 11
147.94039899999999
 21
224.12210099999999
  0
LINE
  8
_0-0_0
  6
CONTINUOUS
 62
    7
 10
147.94039899999999
 20
224.12210099999999
 11
147.962402
 21
224.22204600000003
  0
LINE
  8
_0-0_0
  6
CONTINUOUS
 62
    7
 10
147.962402
 20
224.22204600000003
 11
147.98379499999999
 21
224.33975200000003
  0
LINE
  8
_0-0_0
  6
CONTINUOUS
 62
    7
 10
147.98379499999999
 20
224.33975200000003
 11
147.99237099999999
 21
224.40185600000001
  0
LINE
  8
_0-0_0
  6
CONTINUOUS
 62
    7
 10
147.99237099999999
 20
224.40185600000001
 11
147.99844399999998
 21
224.46246300000001
  0
LINE
  8
_0-0_0
  6
CONTINUOUS
 62
    7
 10
147.99844399999998
 20
224.46246300000001
 11
148.001465
 21
224.51171900000003
  0
LINE
  8
_0-0_0
  6
CONTINUOUS
 62
    7
 10
148.001465
 20
224.51171900000003
 11
148.00247199999998
 21
224.55993699999999
  0
LINE
  8
_0-0_0
  6
CONTINUOUS
 62
    7
 10
148.00247199999998
 20
219.41293300000001
 11
148.00247199999998
 21
218.36731000000003
  0
LINE
  8
_0-0_0
  6
CONTINUOUS
 62
    7
 10
148.00247199999998
 20
217.08270299999998
 11
148.00247199999998
 21
218.36731000000003
  0
LINE
  8
_0-0_0
  6
CONTINUOUS
 62
    7
 10
148.00247199999998
 20
216.96731599999998
 11
148.00247199999998
 21
217.08270299999998
  0
ARC
  8
_0-0_0
  6
CONTINUOUS
 62
    7
 10
146.00247199999998
 20
228.33346599999999
 40
2
 50
0
 51
71.565000999999995
  0
LINE
  8
_0-0_0
  6
CONTINUOUS
 62
    7
 10
157.710297
 20
227.47500600000001
 11
157.76480099999998
 21
227.40505999999999
  0
LINE
  8
_0-0_0
  6
CONTINUOUS
 62
    7
 10
157.76480099999998
 20
227.40505999999999
 11
157.81588699999998
 21
227.33624300000002
  0
LINE
  8
_0-0_0
  6
CONTINUOUS
 62
    7
 10
157.81588699999998
 20
227.33624300000002
 11
157.86352499999998
 21
227.26873799999998
  0
LINE
  8
_0-0_0
  6
CONTINUOUS
 62
    7
 10
157.86352499999998
 20
227.26873799999998
 11
157.90801999999999
 21
227.202179
  0
LINE
  8
_0-0_0
  6
CONTINUOUS
 62
    7
 10
157.90801999999999
 20
227.202179
 11
157.962738
 21
227.11465500000003
  0
LINE
  8
_0-0_0
  6
CONTINUOUS
 62
    7
 10
157.962738
 20
227.11465500000003
 11
158.01226799999998
 21
227.02853399999998
  0
LINE
  8
_0-0_0
  6
CONTINUOUS
 62
    7
 10
158.01226799999998
 20
227.02853399999998
 11
158.05673199999998
 21
226.94369499999999
  0
LINE
  8
_0-0_0
  6
CONTINUOUS
 62
    7
 10
158.05673199999998
 20
226.94369499999999
 11
158.10369899999998
 21
226.84338400000001
  0
LINE
  8
_0-0_0
  6
CONTINUOUS
 62
    7
 10
158.10369899999998
 20
226.84338400000001
 11
158.14389
 21
226.74447600000002
  0
LINE
  8
_0-0_0
  6
CONTINUOUS
 62
    7
 10
158.14389
 20
226.74447600000002
 11
158.17755099999999
 21
226.64669800000001
  0
LINE
  8
_0-0_0
  6
CONTINUOUS
 62
    7
 10
158.17755099999999
 20
226.64669800000001
 11
158.20486399999999
 21
226.54989599999999
  0
LINE
  8
_0-0_0
  6
CONTINUOUS
 62
    7
 10
158.20486399999999
 20
226.54989599999999
 11
158.22589099999999
 21
226.45385800000003
  0
LINE
  8
_0-0_0
  6
CONTINUOUS
 62
    7
 10
158.22589099999999
 20
226.45385800000003
 11
158.24182099999999
 21
226.34997600000003
  0
LINE
  8
_0-0_0
  6
CONTINUOUS
 62
    7
 10
158.24182099999999
 20
226.34997600000003
 11
158.25057999999999
 21
226.24655200000001
  0
LINE
  8
_0-0_0
  6
CONTINUOUS
 62
    7
 10
158.25057999999999
 20
226.24655200000001
 11
158.252228
 21
226.14334100000002
  0
LINE
  8
_0-0_0
  6
CONTINUOUS
 62
    7
 10
158.252228
 20
226.14334100000002
 11
158.24676499999998
 21
226.04003899999998
  0
LINE
  8
_0-0_0
  6
CONTINUOUS
 62
    7
 10
158.24676499999998
 20
226.04003899999998
 11
158.23413099999999
 21
225.93643200000002
  0
LINE
  8
_0-0_0
  6
CONTINUOUS
 62
    7
 10
158.23413099999999
 20
225.93643200000002
 11
158.214325
 21
225.83230600000002
  0
LINE
  8
_0-0_0
  6
CONTINUOUS
 62
    7
 10
158.214325
 20
225.83230600000002
 11
158.18719499999997
 21
225.72732600000001
  0
LINE
  8
_0-0_0
  6
CONTINUOUS
 62
    7
 10
158.18719499999997
 20
225.72732600000001
 11
158.15252699999999
 21
225.621307
  0
LINE
  8
_0-0_0
  6
CONTINUOUS
 62
    7
 10
158.15252699999999
 20
225.621307
 11
158.11019899999999
 21
225.51391599999999
  0
LINE
  8
_0-0_0
  6
CONTINUOUS
 62
    7
 10
158.11019899999999
 20
225.51391599999999
 11
158.05987499999998
 21
225.40493800000002
  0
LINE
  8
_0-0_0
  6
CONTINUOUS
 62
    7
 10
158.05987499999998
 20
225.40493800000002
 11
158.00561499999998
 21
225.30178799999999
  0
LINE
  8
_0-0_0
  6
CONTINUOUS
 62
    7
 10
158.00561499999998
 20
225.30178799999999
 11
157.94390899999999
 21
225.19671599999998
  0
LINE
  8
_0-0_0
  6
CONTINUOUS
 62
    7
 10
157.94390899999999
 20
225.19671599999998
 11
157.87438999999998
 21
225.08950800000002
  0
LINE
  8
_0-0_0
  6
CONTINUOUS
 62
    7
 10
157.87438999999998
 20
225.08950800000002
 11
157.79669199999998
 21
224.97979700000002
  0
LINE
  8
_0-0_0
  6
CONTINUOUS
 62
    7
 10
157.79669199999998
 20
224.97979700000002
 11
157.710297
 21
224.86731000000003
  0
LINE
  8
_0-0_0
  6
CONTINUOUS
 62
    7
 10
148.00247199999998
 20
224.98269700000003
 11
148.00247199999998
 21
224.86731000000003
  0
LINE
  8
_0-0_0
  6
CONTINUOUS
 62
    7
 10
148.00247199999998
 20
223.58270299999998
 11
148.00247199999998
 21
222.53704800000003
  0
LINE
  8
_0-0_0
  6
CONTINUOUS
 62
    7
 10
148.00247199999998
 20
218.36731000000003
 11
157.710297
 21
218.36731000000003
  0
LINE
  8
_0-0_0
  6
CONTINUOUS
 62
    7
 10
148.00247199999998
 20
217.08270299999998
 11
157.710297
 21
217.08270299999998
  0
LINE
  8
_0-0_0
  6
CONTINUOUS
 62
    7
 10
159.00247199999998
 20
223.70654300000001
 11
159.00247199999998
 21
226.22500600000001
  0
LINE
  8
_0-0_0
  6
CONTINUOUS
 62
    7
 10
148.00247199999998
 20
228.33346599999999
 11
148.00247199999998
 21
224.98269700000003
  0
LINE
  8
_0-0_0
  6
CONTINUOUS
 62
    7
 10
137.00247199999998
 20
210.17498799999998
 11
137.00247199999998
 21
210.425049
  0
LINE
  8
_0-0_0
  6
CONTINUOUS
 62
    7
 10
112.50247199999998
 20
230.27499399999999
 11
107.50247199999998
 21
230.27499399999999
  0
ARC
  8
_0-0_0
  6
CONTINUOUS
 62
    7
 10
107.50247199999998
 20
225.77499399999999
 40
4.5
 50
90.000003000000007
 51
269.99999700000006
  0
LINE
  8
_0-0_0
  6
CONTINUOUS
 62
    7
 10
112.50247199999998
 20
221.27499399999999
 11
107.50247199999998
 21
221.27499399999999
  0
ARC
  8
_0-0_0
  6
CONTINUOUS
 62
    7
 10
112.50247199999998
 20
225.77499399999999
 40
4.5
 50
269.99999700000001
 51
90.000002999999992
  0
LINE
  8
_0-0_0
  6
CONTINUOUS
 62
    7
 10
56.502471999999983
 20
230.27499399999999
 11
51.502471999999983
 21
230.27499399999999
  0
ARC
  8
_0-0_0
  6
CONTINUOUS
 62
    7
 10
51.502471999999983
 20
225.77499399999999
 40
4.5
 50
90.000003000000007
 51
269.99999700000006
  0
LINE
  8
_0-0_0
  6
CONTINUOUS
 62
    7
 10
56.502471999999983
 20
221.27499399999999
 11
51.502471999999983
 21
221.27499399999999
  0
ARC
  8
_0-0_0
  6
CONTINUOUS
 62
    7
 10
56.502471999999983
 20
225.77499399999999
 40
4.5
 50
269.99999700000001
 51
90.000002999999992
  0
LINE
  8
_0-0_0
  6
CONTINUOUS
 62
    7
 10
81.814987000000002
 20
229.84463499999998
 11
80.514983999999998
 21
226.34463499999998
  0
LINE
  8
_0-0_0
  6
CONTINUOUS
 62
    7
 10
80.702483999999998
 20
226.07498200000003
 11
83.302474999999987
 21
226.07498200000003
  0
ARC
  8
_0-0_0
  6
CONTINUOUS
 62
    7
 10
83.302474999999987
 20
226.27499399999999
 40
0.2
 50
269.99999700000001
 51
20.376435000000019
  0
ARC
  8
_0-0_0
  6
CONTINUOUS
 62
    7
 10
82.002471999999983
 20
229.77499399999999
 40
0.2
 50
20.376434999999997
 51
159.62357000000003
  0
LINE
  8
_0-0_0
  6
CONTINUOUS
 62
    7
 10
137.00247199999998
 20
210.17498799999998
 11
137.00247199999998
 21
212.17498799999998
  0
ARC
  8
_0-0_0
  6
CONTINUOUS
 62
    7
 10
103.00247199999998
 20
216.57498200000003
 40
3
 50
180.00000900000003
 51
269.99999700000001
  0
LINE
  8
_0-0_0
  6
CONTINUOUS
 62
    7
 10
103.00247199999998
 20
213.57498200000003
 11
118.00247199999998
 21
213.57498200000003
  0
ARC
  8
_0-0_0
  6
CONTINUOUS
 62
    7
 10
118.00247199999998
 20
216.57498200000003
 40
3
 50
269.99999700000001
 51
0
  0
ARC
  8
_0-0_0
  6
CONTINUOUS
 62
    7
 10
118.00247199999998
 20
230.17498799999998
 40
3
 50
0
 51
90.000003000000007
  0
LINE
  8
_0-0_0
  6
CONTINUOUS
 62
    7
 10
118.00247199999998
 20
233.17498799999998
 11
103.00247199999998
 21
233.17498799999998
  0
ARC
  8
_0-0_0
  6
CONTINUOUS
 62
    7
 10
103.00247199999998
 20
230.17498799999998
 40
3
 50
90.000003000000007
 51
180.00000900000001
  0
ARC
  8
_0-0_0
  6
CONTINUOUS
 62
    7
 10
49.092148000000009
 20
218.66467299999999
 40
5.089683
 50
180.00000900000003
 51
269.99999700000001
  0
LINE
  8
_0-0_0
  6
CONTINUOUS
 62
    7
 10
49.092148000000009
 20
213.57498200000003
 11
60.359481999999986
 21
213.57498200000003
  0
ARC
  8
_0-0_0
  6
CONTINUOUS
 62
    7
 10
60.359481999999986
 20
217.21798699999999
 40
3.6429879999999999
 50
269.99999700000001
 51
0.0000099999999886
  0
LINE
  8
_0-0_0
  6
CONTINUOUS
 62
    7
 10
61.002471999999983
 20
233.17498799999998
 11
47.668532999999968
 21
233.17498799999998
  0
ARC
  8
_0-0_0
  6
CONTINUOUS
 62
    7
 10
47.668532999999968
 20
232.17498799999998
 40
1
 50
90.000003000000007
 51
172.23356100000001
  0
ARC
  8
_0-0_0
  6
CONTINUOUS
 62
    7
 10
45.002471999999983
 20
229.11270200000001
 40
1
 50
105.68034800000001
 51
180.00000900000001
  0
LINE
  8
_0-0_0
  6
CONTINUOUS
 62
    7
 10
102.40246599999998
 20
233.17498799999998
 11
102.40246599999998
 21
233.11437999999998
  0
LINE
  8
_0-0_0
  6
CONTINUOUS
 62
    7
 10
61.002471999999983
 20
213.63220200000001
 11
61.002471999999983
 21
213.579071
  0
LINE
  8
_0-0_0
  6
CONTINUOUS
 62
    7
 10
102.40246599999998
 20
213.63562000000002
 11
102.40246599999998
 21
213.579071
  0
LINE
  8
_0-0_0
  6
CONTINUOUS
 62
    7
 10
159.00247199999998
 20
215.72500600000001
 11
158.202484
 21
214.92498799999998
  0
LINE
  8
_0-0_0
  6
CONTINUOUS
 62
    7
 10
173.00247199999998
 20
210.67498799999998
 11
172.50265499999998
 21
210.17514
  0
LINE
  8
_0-0_0
  6
CONTINUOUS
 62
    7
 10
173.00247199999998
 20
227.27499399999999
 11
172.50265499999998
 21
226.775147
  0
LINE
  8
_0-0_0
  6
CONTINUOUS
 62
    7
 10
160.202484
 20
224.97500600000001
 11
218.20248399999997
 21
224.97500600000001
  0
LINE
  8
_0-0_0
  6
CONTINUOUS
 62
    7
 10
160.202484
 20
216.97500600000001
 11
218.20248399999997
 21
216.97500600000001
  0
LINE
  8
_0-0_0
  6
CONTINUOUS
 62
    7
 10
173.00247199999998
 20
231.27499399999999
 11
172.50265499999998
 21
231.77484099999998
  0
LINE
  8
_0-0_0
  6
CONTINUOUS
 62
    7
 10
173.00247199999998
 20
214.67498799999998
 11
172.50265499999998
 21
215.17483500000003
  0
LINE
  8
_0-0_0
  6
CONTINUOUS
 62
    7
 10
163.00247199999998
 20
231.52499399999999
 11
163.25247199999998
 21
231.77499399999999
  0
LINE
  8
_0-0_0
  6
CONTINUOUS
 62
    7
 10
163.00247199999998
 20
227.02499399999999
 11
163.25247199999998
 21
226.77499399999999
  0
LINE
  8
_0-0_0
  6
CONTINUOUS
 62
    7
 10
163.00247199999998
 20
214.92498799999998
 11
163.25247199999998
 21
215.17498799999998
  0
LINE
  8
_0-0_0
  6
CONTINUOUS
 62
    7
 10
163.00247199999998
 20
210.42498799999998
 11
163.25247199999998
 21
210.17498799999998
  0
LINE
  8
_0-0_0
  6
CONTINUOUS
 62
    7
 10
160.202484
 20
225.51312300000001
 11
159.40246599999998
 21
225.97500600000001
  0
LINE
  8
_0-0_0
  6
CONTINUOUS
 62
    7
 10
160.202484
 20
216.43689000000001
 11
159.40246599999998
 21
215.97500600000001
  0
LINE
  8
_0-0_0
  6
CONTINUOUS
 62
    7
 10
142.75244099999998
 20
231.52499399999999
 11
163.00247199999998
 21
231.52499399999999
  0
LINE
  8
_0-0_0
  6
CONTINUOUS
 62
    7
 10
158.202484
 20
227.02499399999999
 11
163.00247199999998
 21
227.02499399999999
  0
LINE
  8
_0-0_0
  6
CONTINUOUS
 62
    7
 10
137.00247199999998
 20
214.92498799999998
 11
163.00247199999998
 21
214.92498799999998
  0
LINE
  8
_0-0_0
  6
CONTINUOUS
 62
    7
 10
137.00247199999998
 20
210.42498799999998
 11
163.00247199999998
 21
210.42498799999998
  0
LINE
  8
_0-0_0
  6
CONTINUOUS
 62
    7
 10
159.00247199999998
 20
225.97500600000001
 11
159.40246599999998
 21
225.97500600000001
  0
LINE
  8
_0-0_0
  6
CONTINUOUS
 62
    7
 10
159.00247199999998
 20
215.97500600000001
 11
159.40246599999998
 21
215.97500600000001
  0
LINE
  8
_0-0_0
  6
CONTINUOUS
 62
    7
 10
159.00247199999998
 20
226.22500600000001
 11
157.75247199999998
 21
227.47500600000001
  0
LINE
  8
_0-0_0
  6
CONTINUOUS
 62
    7
 10
28.002471999999983
 20
249.875
 11
30.457245
 21
249.875
  0
LINE
  8
_0-0_0
  6
CONTINUOUS
 62
    7
 10
28.002471999999983
 20
236.67498799999998
 11
28.002471999999983
 21
249.875
  0
LINE
  8
_0-0_0
  6
CONTINUOUS
 62
    7
 10
481.00247200000001
 20
236.67498799999998
 11
481.00247200000001
 21
249.875
  0
LINE
  8
_0-0_0
  6
CONTINUOUS
 62
    7
 10
478.54769899999997
 20
249.875
 11
481.00247200000001
 21
249.875
  0
ARC
  8
_0-0_0
  6
CONTINUOUS
 62
    7
 10
472.00247200000001
 20
254.47500600000001
 40
8
 50
215.099627
 51
324.90037799999999
  0
LINE
  8
_0-0_0
  6
CONTINUOUS
 62
    7
 10
43.547698999999994
 20
249.875
 11
465.45724499999994
 21
249.875
  0
ARC
  8
_0-0_0
  6
CONTINUOUS
 62
    7
 10
37.002471999999983
 20
254.47500600000001
 40
8
 50
215.099627
 51
324.90037799999999
  0
LINE
  8
_0-0_0
  6
CONTINUOUS
 62
    7
 10
30.457245
 20
249.875
 11
30.368270999999993
 21
250.00427300000001
  0
LINE
  8
_0-0_0
  6
CONTINUOUS
 62
    7
 10
43.547698999999994
 20
249.875
 11
43.636687999999992
 21
250.00427300000001
  0
LINE
  8
_0-0_0
  6
CONTINUOUS
 62
    7
 10
43.729827999999998
 20
250.14572200000003
 11
43.636687999999992
 21
250.00427300000001
  0
LINE
  8
_0-0_0
  6
CONTINUOUS
 62
    7
 10
43.729827999999998
 20
250.14572200000003
 11
43.811293999999975
 21
250.27499399999999
  0
ARC
  8
_0-0_0
  6
CONTINUOUS
 62
    7
 10
37.002471999999983
 20
254.47500600000001
 40
8
 50
328.33175599999993
 51
334.05550899999992
  0
LINE
  8
_0-0_0
  6
CONTINUOUS
 62
    7
 10
44.196227999999991
 20
250.97500600000001
 11
44.257705999999985
 21
251.10427900000002
  0
LINE
  8
_0-0_0
  6
CONTINUOUS
 62
    7
 10
44.321746999999988
 20
251.24569700000001
 11
44.257705999999985
 21
251.10427900000002
  0
LINE
  8
_0-0_0
  6
CONTINUOUS
 62
    7
 10
44.321746999999988
 20
251.24569700000001
 11
44.377425999999986
 21
251.375
  0
ARC
  8
_0-0_0
  6
CONTINUOUS
 62
    7
 10
37.002471999999983
 20
254.47500600000001
 40
8
 50
337.20097500000003
 51
342.54240199999998
  0
LINE
  8
_0-0_0
  6
CONTINUOUS
 62
    7
 10
44.633986999999991
 20
252.07498200000003
 11
44.673446999999982
 21
252.20428500000003
  0
LINE
  8
_0-0_0
  6
CONTINUOUS
 62
    7
 10
44.713897999999972
 20
252.34570300000001
 11
44.673446999999982
 21
252.20428500000003
  0
LINE
  8
_0-0_0
  6
CONTINUOUS
 62
    7
 10
44.713897999999972
 20
252.34570300000001
 11
44.748444000000006
 21
252.47500600000001
  0
ARC
  8
_0-0_0
  6
CONTINUOUS
 62
    7
 10
37.002471999999983
 20
254.47500600000001
 40
8
 50
345.52249499999999
 51
350.64797900000002
  0
LINE
  8
_0-0_0
  6
CONTINUOUS
 62
    7
 10
44.89614899999998
 20
253.17498799999998
 11
44.916350999999992
 21
253.30429100000003
  0
LINE
  8
_0-0_0
  6
CONTINUOUS
 62
    7
 10
44.935989000000006
 20
253.44570900000002
 11
44.916350999999992
 21
253.30429100000003
  0
LINE
  8
_0-0_0
  6
CONTINUOUS
 62
    7
 10
44.935989000000006
 20
253.44570900000002
 11
44.951690999999983
 21
253.57498200000003
  0
ARC
  8
_0-0_0
  6
CONTINUOUS
 62
    7
 10
37.002471999999983
 20
254.47500600000001
 40
8
 50
353.54056400000002
 51
358.56744600000002
  0
LINE
  8
_0-0_0
  6
CONTINUOUS
 62
    7
 10
44.999968999999993
 20
254.27499399999999
 11
45.002166999999986
 21
254.40429699999999
  0
LINE
  8
_0-0_0
  6
CONTINUOUS
 62
    7
 10
45.002166999999986
 20
254.40429699999999
 11
45.002471999999983
 21
254.47500600000001
  0
LINE
  8
_0-0_0
  6
CONTINUOUS
 62
    7
 10
29.002791999999999
 20
254.40429699999999
 11
29.002471999999983
 21
254.47500600000001
  0
LINE
  8
_0-0_0
  6
CONTINUOUS
 62
    7
 10
29.004974000000004
 20
254.27499399999999
 11
29.002791999999999
 21
254.40429699999999
  0
ARC
  8
_0-0_0
  6
CONTINUOUS
 62
    7
 10
37.002471999999983
 20
254.47500600000001
 40
8
 50
181.432545
 51
186.45945499999999
  0
LINE
  8
_0-0_0
  6
CONTINUOUS
 62
    7
 10
29.068969999999979
 20
253.44570900000002
 11
29.053252999999984
 21
253.57498200000003
  0
LINE
  8
_0-0_0
  6
CONTINUOUS
 62
    7
 10
29.068969999999979
 20
253.44570900000002
 11
29.088592000000006
 21
253.30429100000003
  0
LINE
  8
_0-0_0
  6
CONTINUOUS
 62
    7
 10
29.108810000000005
 20
253.17498799999998
 11
29.088592000000006
 21
253.30429100000003
  0
ARC
  8
_0-0_0
  6
CONTINUOUS
 62
    7
 10
37.002471999999983
 20
254.47500600000001
 40
8
 50
189.35203999999999
 51
194.47751
  0
LINE
  8
_0-0_0
  6
CONTINUOUS
 62
    7
 10
29.291045999999994
 20
252.34570300000001
 11
29.256499999999988
 21
252.47500600000001
  0
LINE
  8
_0-0_0
  6
CONTINUOUS
 62
    7
 10
29.291045999999994
 20
252.34570300000001
 11
29.331496999999985
 21
252.20428500000003
  0
LINE
  8
_0-0_0
  6
CONTINUOUS
 62
    7
 10
29.370955999999978
 20
252.07498200000003
 11
29.331496999999985
 21
252.20428500000003
  0
ARC
  8
_0-0_0
  6
CONTINUOUS
 62
    7
 10
37.002471999999983
 20
254.47500600000001
 40
8
 50
197.45760300000001
 51
202.79902999999999
  0
LINE
  8
_0-0_0
  6
CONTINUOUS
 62
    7
 10
29.683211999999969
 20
251.24569700000001
 11
29.627518000000009
 21
251.375
  0
LINE
  8
_0-0_0
  6
CONTINUOUS
 62
    7
 10
29.683211999999969
 20
251.24569700000001
 11
29.747253000000001
 21
251.10427900000002
  0
LINE
  8
_0-0_0
  6
CONTINUOUS
 62
    7
 10
29.808730999999995
 20
250.97500600000001
 11
29.747253000000001
 21
251.10427900000002
  0
ARC
  8
_0-0_0
  6
CONTINUOUS
 62
    7
 10
37.002471999999983
 20
254.47500600000001
 40
8
 50
205.94448199999999
 51
211.66823500000001
  0
LINE
  8
_0-0_0
  6
CONTINUOUS
 62
    7
 10
30.275115999999969
 20
250.14572200000003
 11
30.193648999999994
 21
250.27499399999999
  0
LINE
  8
_0-0_0
  6
CONTINUOUS
 62
    7
 10
30.275115999999969
 20
250.14572200000003
 11
30.368270999999993
 21
250.00427300000001
  0
LINE
  8
_0-0_0
  6
CONTINUOUS
 62
    7
 10
465.45724499999994
 20
249.875
 11
465.36825599999997
 21
250.00427300000001
  0
LINE
  8
_0-0_0
  6
CONTINUOUS
 62
    7
 10
464.00277700000004
 20
254.40429699999999
 11
464.00247200000001
 21
254.47500600000001
  0
LINE
  8
_0-0_0
  6
CONTINUOUS
 62
    7
 10
464.00497399999995
 20
254.27499399999999
 11
464.00277700000004
 21
254.40429699999999
  0
ARC
  8
_0-0_0
  6
CONTINUOUS
 62
    7
 10
472.00247200000001
 20
254.47500600000001
 40
8
 50
181.432545
 51
186.45945499999999
  0
LINE
  8
_0-0_0
  6
CONTINUOUS
 62
    7
 10
464.068939
 20
253.44570900000002
 11
464.05325300000004
 21
253.57498200000003
  0
LINE
  8
_0-0_0
  6
CONTINUOUS
 62
    7
 10
464.068939
 20
253.44570900000002
 11
464.08859199999995
 21
253.30429100000003
  0
LINE
  8
_0-0_0
  6
CONTINUOUS
 62
    7
 10
464.10879499999999
 20
253.17498799999998
 11
464.08859199999995
 21
253.30429100000003
  0
ARC
  8
_0-0_0
  6
CONTINUOUS
 62
    7
 10
472.00247200000001
 20
254.47500600000001
 40
8
 50
189.35203999999999
 51
194.47751
  0
LINE
  8
_0-0_0
  6
CONTINUOUS
 62
    7
 10
464.29104599999994
 20
252.34570300000001
 11
464.25649999999996
 21
252.47500600000001
  0
LINE
  8
_0-0_0
  6
CONTINUOUS
 62
    7
 10
464.29104599999994
 20
252.34570300000001
 11
464.33145100000002
 21
252.20428500000003
  0
LINE
  8
_0-0_0
  6
CONTINUOUS
 62
    7
 10
464.37094100000002
 20
252.07498200000003
 11
464.33145100000002
 21
252.20428500000003
  0
ARC
  8
_0-0_0
  6
CONTINUOUS
 62
    7
 10
472.00247200000001
 20
254.47500600000001
 40
8
 50
197.45760300000001
 51
202.79902999999999
  0
LINE
  8
_0-0_0
  6
CONTINUOUS
 62
    7
 10
464.68319699999995
 20
251.24569700000001
 11
464.62747200000001
 21
251.375
  0
LINE
  8
_0-0_0
  6
CONTINUOUS
 62
    7
 10
464.68319699999995
 20
251.24569700000001
 11
464.74722299999996
 21
251.10427900000002
  0
LINE
  8
_0-0_0
  6
CONTINUOUS
 62
    7
 10
464.80868499999997
 20
250.97500600000001
 11
464.74722299999996
 21
251.10427900000002
  0
ARC
  8
_0-0_0
  6
CONTINUOUS
 62
    7
 10
472.00247200000001
 20
254.47500600000001
 40
8
 50
205.94448199999999
 51
211.66823500000001
  0
LINE
  8
_0-0_0
  6
CONTINUOUS
 62
    7
 10
465.27511600000003
 20
250.14572200000003
 11
465.19363399999997
 21
250.27499399999999
  0
LINE
  8
_0-0_0
  6
CONTINUOUS
 62
    7
 10
465.27511600000003
 20
250.14572200000003
 11
465.36825599999997
 21
250.00427300000001
  0
LINE
  8
_0-0_0
  6
CONTINUOUS
 62
    7
 10
478.54769899999997
 20
249.875
 11
478.63668799999994
 21
250.00427300000001
  0
LINE
  8
_0-0_0
  6
CONTINUOUS
 62
    7
 10
478.729828
 20
250.14572200000003
 11
478.63668799999994
 21
250.00427300000001
  0
LINE
  8
_0-0_0
  6
CONTINUOUS
 62
    7
 10
478.729828
 20
250.14572200000003
 11
478.81124899999998
 21
250.27499399999999
  0
ARC
  8
_0-0_0
  6
CONTINUOUS
 62
    7
 10
472.00247200000001
 20
254.47500600000001
 40
8
 50
328.33175599999993
 51
334.05550899999992
  0
LINE
  8
_0-0_0
  6
CONTINUOUS
 62
    7
 10
479.19619699999998
 20
250.97500600000001
 11
479.25765999999999
 21
251.10427900000002
  0
LINE
  8
_0-0_0
  6
CONTINUOUS
 62
    7
 10
479.32174699999996
 20
251.24569700000001
 11
479.25765999999999
 21
251.10427900000002
  0
LINE
  8
_0-0_0
  6
CONTINUOUS
 62
    7
 10
479.32174699999996
 20
251.24569700000001
 11
479.37741099999994
 21
251.375
  0
ARC
  8
_0-0_0
  6
CONTINUOUS
 62
    7
 10
472.00247200000001
 20
254.47500600000001
 40
8
 50
337.20097500000003
 51
342.54240199999998
  0
LINE
  8
_0-0_0
  6
CONTINUOUS
 62
    7
 10
479.63394199999993
 20
252.07498200000003
 11
479.67343099999994
 21
252.20428500000003
  0
LINE
  8
_0-0_0
  6
CONTINUOUS
 62
    7
 10
479.71389799999997
 20
252.34570300000001
 11
479.67343099999994
 21
252.20428500000003
  0
LINE
  8
_0-0_0
  6
CONTINUOUS
 62
    7
 10
479.71389799999997
 20
252.34570300000001
 11
479.74844399999995
 21
252.47500600000001
  0
ARC
  8
_0-0_0
  6
CONTINUOUS
 62
    7
 10
472.00247200000001
 20
254.47500600000001
 40
8
 50
345.52249499999999
 51
350.64797900000002
  0
LINE
  8
_0-0_0
  6
CONTINUOUS
 62
    7
 10
479.89614900000004
 20
253.17498799999998
 11
479.91635099999996
 21
253.30429100000003
  0
LINE
  8
_0-0_0
  6
CONTINUOUS
 62
    7
 10
479.93594399999995
 20
253.44570900000002
 11
479.91635099999996
 21
253.30429100000003
  0
LINE
  8
_0-0_0
  6
CONTINUOUS
 62
    7
 10
479.93594399999995
 20
253.44570900000002
 11
479.95169099999998
 21
253.57498200000003
  0
ARC
  8
_0-0_0
  6
CONTINUOUS
 62
    7
 10
472.00247200000001
 20
254.47500600000001
 40
8
 50
353.54056400000002
 51
358.56744600000002
  0
LINE
  8
_0-0_0
  6
CONTINUOUS
 62
    7
 10
479.99996899999996
 20
254.27499399999999
 11
480.00216699999999
 21
254.40429699999999
  0
LINE
  8
_0-0_0
  6
CONTINUOUS
 62
    7
 10
480.00216699999999
 20
254.40429699999999
 11
480.00247200000001
 21
254.47500600000001
  0
LINE
  8
_0-0_0
  6
CONTINUOUS
 62
    7
 10
481.00247200000001
 20
250.00427300000001
 11
481.00247200000001
 21
249.875
  0
LINE
  8
_0-0_0
  6
CONTINUOUS
 62
    7
 10
481.00247200000001
 20
258.80429100000003
 11
481.00247200000001
 21
258.94570900000002
  0
LINE
  8
_0-0_0
  6
CONTINUOUS
 62
    7
 10
481.00247200000001
 20
258.80429100000003
 11
481.00247200000001
 21
258.67498799999998
  0
LINE
  8
_0-0_0
  6
CONTINUOUS
 62
    7
 10
481.00247200000001
 20
257.97500600000001
 11
481.00247200000001
 21
258.67498799999998
  0
LINE
  8
_0-0_0
  6
CONTINUOUS
 62
    7
 10
481.00247200000001
 20
257.84570300000001
 11
481.00247200000001
 21
257.97500600000001
  0
LINE
  8
_0-0_0
  6
CONTINUOUS
 62
    7
 10
481.00247200000001
 20
257.70428500000003
 11
481.00247200000001
 21
257.84570300000001
  0
LINE
  8
_0-0_0
  6
CONTINUOUS
 62
    7
 10
481.00247200000001
 20
257.70428500000003
 11
481.00247200000001
 21
257.57498200000003
  0
LINE
  8
_0-0_0
  6
CONTINUOUS
 62
    7
 10
481.00247200000001
 20
256.875
 11
481.00247200000001
 21
257.57498200000003
  0
LINE
  8
_0-0_0
  6
CONTINUOUS
 62
    7
 10
481.00247200000001
 20
256.74569700000001
 11
481.00247200000001
 21
256.875
  0
LINE
  8
_0-0_0
  6
CONTINUOUS
 62
    7
 10
481.00247200000001
 20
256.60427900000002
 11
481.00247200000001
 21
256.74569700000001
  0
LINE
  8
_0-0_0
  6
CONTINUOUS
 62
    7
 10
481.00247200000001
 20
256.60427900000002
 11
481.00247200000001
 21
256.47500600000001
  0
LINE
  8
_0-0_0
  6
CONTINUOUS
 62
    7
 10
481.00247200000001
 20
255.77499399999999
 11
481.00247200000001
 21
256.47500600000001
  0
LINE
  8
_0-0_0
  6
CONTINUOUS
 62
    7
 10
481.00247200000001
 20
255.645691
 11
481.00247200000001
 21
255.77499399999999
  0
LINE
  8
_0-0_0
  6
CONTINUOUS
 62
    7
 10
481.00247200000001
 20
255.50427300000001
 11
481.00247200000001
 21
255.645691
  0
LINE
  8
_0-0_0
  6
CONTINUOUS
 62
    7
 10
481.00247200000001
 20
255.50427300000001
 11
481.00247200000001
 21
255.375
  0
LINE
  8
_0-0_0
  6
CONTINUOUS
 62
    7
 10
481.00247200000001
 20
254.67498799999998
 11
481.00247200000001
 21
255.375
  0
LINE
  8
_0-0_0
  6
CONTINUOUS
 62
    7
 10
481.00247200000001
 20
254.54571500000003
 11
481.00247200000001
 21
254.67498799999998
  0
LINE
  8
_0-0_0
  6
CONTINUOUS
 62
    7
 10
481.00247200000001
 20
254.40429699999999
 11
481.00247200000001
 21
254.54571500000003
  0
LINE
  8
_0-0_0
  6
CONTINUOUS
 62
    7
 10
481.00247200000001
 20
254.40429699999999
 11
481.00247200000001
 21
254.27499399999999
  0
LINE
  8
_0-0_0
  6
CONTINUOUS
 62
    7
 10
481.00247200000001
 20
253.57498200000003
 11
481.00247200000001
 21
254.27499399999999
  0
LINE
  8
_0-0_0
  6
CONTINUOUS
 62
    7
 10
481.00247200000001
 20
253.44570900000002
 11
481.00247200000001
 21
253.57498200000003
  0
LINE
  8
_0-0_0
  6
CONTINUOUS
 62
    7
 10
481.00247200000001
 20
253.30429100000003
 11
481.00247200000001
 21
253.44570900000002
  0
LINE
  8
_0-0_0
  6
CONTINUOUS
 62
    7
 10
481.00247200000001
 20
253.30429100000003
 11
481.00247200000001
 21
253.17498799999998
  0
LINE
  8
_0-0_0
  6
CONTINUOUS
 62
    7
 10
481.00247200000001
 20
252.47500600000001
 11
481.00247200000001
 21
253.17498799999998
  0
LINE
  8
_0-0_0
  6
CONTINUOUS
 62
    7
 10
481.00247200000001
 20
252.34570300000001
 11
481.00247200000001
 21
252.47500600000001
  0
LINE
  8
_0-0_0
  6
CONTINUOUS
 62
    7
 10
481.00247200000001
 20
252.20428500000003
 11
481.00247200000001
 21
252.34570300000001
  0
LINE
  8
_0-0_0
  6
CONTINUOUS
 62
    7
 10
481.00247200000001
 20
252.20428500000003
 11
481.00247200000001
 21
252.07498200000003
  0
LINE
  8
_0-0_0
  6
CONTINUOUS
 62
    7
 10
481.00247200000001
 20
251.375
 11
481.00247200000001
 21
252.07498200000003
  0
LINE
  8
_0-0_0
  6
CONTINUOUS
 62
    7
 10
481.00247200000001
 20
251.24569700000001
 11
481.00247200000001
 21
251.375
  0
LINE
  8
_0-0_0
  6
CONTINUOUS
 62
    7
 10
481.00247200000001
 20
251.10427900000002
 11
481.00247200000001
 21
251.24569700000001
  0
LINE
  8
_0-0_0
  6
CONTINUOUS
 62
    7
 10
481.00247200000001
 20
251.10427900000002
 11
481.00247200000001
 21
250.97500600000001
  0
LINE
  8
_0-0_0
  6
CONTINUOUS
 62
    7
 10
481.00247200000001
 20
250.27499399999999
 11
481.00247200000001
 21
250.97500600000001
  0
LINE
  8
_0-0_0
  6
CONTINUOUS
 62
    7
 10
481.00247200000001
 20
250.14572200000003
 11
481.00247200000001
 21
250.27499399999999
  0
LINE
  8
_0-0_0
  6
CONTINUOUS
 62
    7
 10
481.00247200000001
 20
250.00427300000001
 11
481.00247200000001
 21
250.14572200000003
  0
LINE
  8
_0-0_0
  6
CONTINUOUS
 62
    7
 10
481.00247200000001
 20
236.17498799999998
 11
481.00247200000001
 21
236.67498799999998
  0
LINE
  8
_0-0_0
  6
CONTINUOUS
 62
    7
 10
481.00247200000001
 20
264.67498799999998
 11
481.00247200000001
 21
264.08102400000001
  0
LINE
  8
_0-0_0
  6
CONTINUOUS
 62
    7
 10
481.00247200000001
 20
259.07498200000003
 11
481.00247200000001
 21
264.08102400000001
  0
LINE
  8
_0-0_0
  6
CONTINUOUS
 62
    7
 10
481.00247200000001
 20
258.94570900000002
 11
481.00247200000001
 21
259.07498200000003
  0
LINE
  8
_0-0_0
  6
CONTINUOUS
 62
    7
 10
28.002471999999983
 20
236.17498799999998
 11
28.002471999999983
 21
236.67498799999998
  0
LINE
  8
_0-0_0
  6
CONTINUOUS
 62
    7
 10
28.002471999999983
 20
236.17498799999998
 11
481.00247200000001
 21
236.17498799999998
  0
LINE
  8
_0-0_0
  6
CONTINUOUS
 62
    7
 10
28.002471999999983
 20
250.00427300000001
 11
28.002471999999983
 21
250.14572200000003
  0
LINE
  8
_0-0_0
  6
CONTINUOUS
 62
    7
 10
28.002471999999983
 20
250.00427300000001
 11
28.002471999999983
 21
249.875
  0
LINE
  8
_0-0_0
  6
CONTINUOUS
 62
    7
 10
28.002471999999983
 20
264.67498799999998
 11
28.002471999999983
 21
264.08102400000001
  0
LINE
  8
_0-0_0
  6
CONTINUOUS
 62
    7
 10
28.002471999999983
 20
259.07498200000003
 11
28.002471999999983
 21
264.08102400000001
  0
LINE
  8
_0-0_0
  6
CONTINUOUS
 62
    7
 10
28.002471999999983
 20
258.94570900000002
 11
28.002471999999983
 21
259.07498200000003
  0
LINE
  8
_0-0_0
  6
CONTINUOUS
 62
    7
 10
28.002471999999983
 20
258.80429100000003
 11
28.002471999999983
 21
258.94570900000002
  0
LINE
  8
_0-0_0
  6
CONTINUOUS
 62
    7
 10
28.002471999999983
 20
258.80429100000003
 11
28.002471999999983
 21
258.67498799999998
  0
LINE
  8
_0-0_0
  6
CONTINUOUS
 62
    7
 10
28.002471999999983
 20
257.97500600000001
 11
28.002471999999983
 21
258.67498799999998
  0
LINE
  8
_0-0_0
  6
CONTINUOUS
 62
    7
 10
28.002471999999983
 20
257.84570300000001
 11
28.002471999999983
 21
257.97500600000001
  0
LINE
  8
_0-0_0
  6
CONTINUOUS
 62
    7
 10
28.002471999999983
 20
257.70428500000003
 11
28.002471999999983
 21
257.84570300000001
  0
LINE
  8
_0-0_0
  6
CONTINUOUS
 62
    7
 10
28.002471999999983
 20
257.70428500000003
 11
28.002471999999983
 21
257.57498200000003
  0
LINE
  8
_0-0_0
  6
CONTINUOUS
 62
    7
 10
28.002471999999983
 20
256.875
 11
28.002471999999983
 21
257.57498200000003
  0
LINE
  8
_0-0_0
  6
CONTINUOUS
 62
    7
 10
28.002471999999983
 20
256.74569700000001
 11
28.002471999999983
 21
256.875
  0
LINE
  8
_0-0_0
  6
CONTINUOUS
 62
    7
 10
28.002471999999983
 20
256.60427900000002
 11
28.002471999999983
 21
256.74569700000001
  0
LINE
  8
_0-0_0
  6
CONTINUOUS
 62
    7
 10
28.002471999999983
 20
256.60427900000002
 11
28.002471999999983
 21
256.47500600000001
  0
LINE
  8
_0-0_0
  6
CONTINUOUS
 62
    7
 10
28.002471999999983
 20
255.77499399999999
 11
28.002471999999983
 21
256.47500600000001
  0
LINE
  8
_0-0_0
  6
CONTINUOUS
 62
    7
 10
28.002471999999983
 20
255.645691
 11
28.002471999999983
 21
255.77499399999999
  0
LINE
  8
_0-0_0
  6
CONTINUOUS
 62
    7
 10
28.002471999999983
 20
255.50427300000001
 11
28.002471999999983
 21
255.645691
  0
LINE
  8
_0-0_0
  6
CONTINUOUS
 62
    7
 10
28.002471999999983
 20
255.50427300000001
 11
28.002471999999983
 21
255.375
  0
LINE
  8
_0-0_0
  6
CONTINUOUS
 62
    7
 10
28.002471999999983
 20
254.67498799999998
 11
28.002471999999983
 21
255.375
  0
LINE
  8
_0-0_0
  6
CONTINUOUS
 62
    7
 10
28.002471999999983
 20
254.54571500000003
 11
28.002471999999983
 21
254.67498799999998
  0
LINE
  8
_0-0_0
  6
CONTINUOUS
 62
    7
 10
28.002471999999983
 20
254.40429699999999
 11
28.002471999999983
 21
254.54571500000003
  0
LINE
  8
_0-0_0
  6
CONTINUOUS
 62
    7
 10
28.002471999999983
 20
254.40429699999999
 11
28.002471999999983
 21
254.27499399999999
  0
LINE
  8
_0-0_0
  6
CONTINUOUS
 62
    7
 10
28.002471999999983
 20
253.57498200000003
 11
28.002471999999983
 21
254.27499399999999
  0
LINE
  8
_0-0_0
  6
CONTINUOUS
 62
    7
 10
28.002471999999983
 20
253.44570900000002
 11
28.002471999999983
 21
253.57498200000003
  0
LINE
  8
_0-0_0
  6
CONTINUOUS
 62
    7
 10
28.002471999999983
 20
253.30429100000003
 11
28.002471999999983
 21
253.44570900000002
  0
LINE
  8
_0-0_0
  6
CONTINUOUS
 62
    7
 10
28.002471999999983
 20
253.30429100000003
 11
28.002471999999983
 21
253.17498799999998
  0
LINE
  8
_0-0_0
  6
CONTINUOUS
 62
    7
 10
28.002471999999983
 20
252.47500600000001
 11
28.002471999999983
 21
253.17498799999998
  0
LINE
  8
_0-0_0
  6
CONTINUOUS
 62
    7
 10
28.002471999999983
 20
252.34570300000001
 11
28.002471999999983
 21
252.47500600000001
  0
LINE
  8
_0-0_0
  6
CONTINUOUS
 62
    7
 10
28.002471999999983
 20
252.20428500000003
 11
28.002471999999983
 21
252.34570300000001
  0
LINE
  8
_0-0_0
  6
CONTINUOUS
 62
    7
 10
28.002471999999983
 20
252.20428500000003
 11
28.002471999999983
 21
252.07498200000003
  0
LINE
  8
_0-0_0
  6
CONTINUOUS
 62
    7
 10
28.002471999999983
 20
251.375
 11
28.002471999999983
 21
252.07498200000003
  0
LINE
  8
_0-0_0
  6
CONTINUOUS
 62
    7
 10
28.002471999999983
 20
251.24569700000001
 11
28.002471999999983
 21
251.375
  0
LINE
  8
_0-0_0
  6
CONTINUOUS
 62
    7
 10
28.002471999999983
 20
251.10427900000002
 11
28.002471999999983
 21
251.24569700000001
  0
LINE
  8
_0-0_0
  6
CONTINUOUS
 62
    7
 10
28.002471999999983
 20
251.10427900000002
 11
28.002471999999983
 21
250.97500600000001
  0
LINE
  8
_0-0_0
  6
CONTINUOUS
 62
    7
 10
28.002471999999983
 20
250.27499399999999
 11
28.002471999999983
 21
250.97500600000001
  0
LINE
  8
_0-0_0
  6
CONTINUOUS
 62
    7
 10
28.002471999999983
 20
250.14572200000003
 11
28.002471999999983
 21
250.27499399999999
  0
LINE
  8
_0-0_0
  6
CONTINUOUS
 62
    7
 10
398.50247200000001
 20
242.17498799999998
 11
405.50247200000001
 21
242.17498799999998
  0
ARC
  8
_0-0_0
  6
CONTINUOUS
 62
    7
 10
398.50247200000001
 20
241.67498799999998
 40
0.5
 50
90.000003000000007
 51
180.00000900000001
  0
LINE
  8
_0-0_0
  6
CONTINUOUS
 62
    7
 10
398.00247200000001
 20
241.67498799999998
 11
398.00247200000001
 21
237.67498799999998
  0
ARC
  8
_0-0_0
  6
CONTINUOUS
 62
    7
 10
398.50247200000001
 20
237.67498799999998
 40
0.5
 50
180.00000900000003
 51
269.99999700000001
  0
LINE
  8
_0-0_0
  6
CONTINUOUS
 62
    7
 10
405.50247200000001
 20
237.17498799999998
 11
398.50247200000001
 21
237.17498799999998
  0
ARC
  8
_0-0_0
  6
CONTINUOUS
 62
    7
 10
405.50247200000001
 20
237.67498799999998
 40
0.5
 50
269.99999700000001
 51
0
  0
LINE
  8
_0-0_0
  6
CONTINUOUS
 62
    7
 10
406.00247200000001
 20
237.67498799999998
 11
406.00247200000001
 21
241.67498799999998
  0
ARC
  8
_0-0_0
  6
CONTINUOUS
 62
    7
 10
405.50247200000001
 20
241.67498799999998
 40
0.5
 50
0
 51
90.000003000000007
  0
ARC
  8
_0-0_0
  6
CONTINUOUS
 62
    7
 10
78.502471999999983
 20
241.67498799999998
 40
0.5
 50
90.000003000000007
 51
180.00000900000001
  0
LINE
  8
_0-0_0
  6
CONTINUOUS
 62
    7
 10
78.002471999999983
 20
241.67498799999998
 11
78.002471999999983
 21
237.67498799999998
  0
ARC
  8
_0-0_0
  6
CONTINUOUS
 62
    7
 10
78.502471999999983
 20
237.67498799999998
 40
0.5
 50
180.00000900000003
 51
269.99999700000001
  0
LINE
  8
_0-0_0
  6
CONTINUOUS
 62
    7
 10
85.502471999999983
 20
237.17498799999998
 11
78.502471999999983
 21
237.17498799999998
  0
ARC
  8
_0-0_0
  6
CONTINUOUS
 62
    7
 10
85.502471999999983
 20
237.67498799999998
 40
0.5
 50
269.99999700000001
 51
0
  0
LINE
  8
_0-0_0
  6
CONTINUOUS
 62
    7
 10
86.002471999999983
 20
237.67498799999998
 11
86.002471999999983
 21
241.67498799999998
  0
ARC
  8
_0-0_0
  6
CONTINUOUS
 62
    7
 10
85.502471999999983
 20
241.67498799999998
 40
0.5
 50
0
 51
90.000003000000007
  0
LINE
  8
_0-0_0
  6
CONTINUOUS
 62
    7
 10
78.502471999999983
 20
242.17498799999998
 11
85.502471999999983
 21
242.17498799999998
  0
LINE
  8
_0-0_0
  6
CONTINUOUS
 62
    7
 10
28.002471999999983
 20
250.27499399999999
 11
30.193648999999994
 21
250.27499399999999
  0
LINE
  8
_0-0_0
  6
CONTINUOUS
 62
    7
 10
28.002471999999983
 20
250.97500600000001
 11
29.808730999999995
 21
250.97500600000001
  0
LINE
  8
_0-0_0
  6
CONTINUOUS
 62
    7
 10
28.002471999999983
 20
251.375
 11
29.627518000000009
 21
251.375
  0
LINE
  8
_0-0_0
  6
CONTINUOUS
 62
    7
 10
28.002471999999983
 20
252.07498200000003
 11
29.370955999999978
 21
252.07498200000003
  0
LINE
  8
_0-0_0
  6
CONTINUOUS
 62
    7
 10
28.002471999999983
 20
252.47500600000001
 11
29.256499999999988
 21
252.47500600000001
  0
LINE
  8
_0-0_0
  6
CONTINUOUS
 62
    7
 10
28.002471999999983
 20
253.17498799999998
 11
29.108810000000005
 21
253.17498799999998
  0
LINE
  8
_0-0_0
  6
CONTINUOUS
 62
    7
 10
28.002471999999983
 20
253.57498200000003
 11
29.053252999999984
 21
253.57498200000003
  0
LINE
  8
_0-0_0
  6
CONTINUOUS
 62
    7
 10
28.002471999999983
 20
254.27499399999999
 11
29.004974000000004
 21
254.27499399999999
  0
LINE
  8
_0-0_0
  6
CONTINUOUS
 62
    7
 10
29.002471999999983
 20
254.47500600000001
 11
29.002791999999999
 21
254.54571500000003
  0
LINE
  8
_0-0_0
  6
CONTINUOUS
 62
    7
 10
45.002471999999983
 20
254.47500600000001
 11
45.002166999999986
 21
254.54571500000003
  0
LINE
  8
_0-0_0
  6
CONTINUOUS
 62
    7
 10
44.999968999999993
 20
254.67498799999998
 11
45.002166999999986
 21
254.54571500000003
  0
ARC
  8
_0-0_0
  6
CONTINUOUS
 62
    7
 10
37.002471999999983
 20
254.47500600000001
 40
8
 50
1.432544
 51
6.4594489999999993
  0
LINE
  8
_0-0_0
  6
CONTINUOUS
 62
    7
 10
44.935989000000006
 20
255.50427300000001
 11
44.951690999999983
 21
255.375
  0
LINE
  8
_0-0_0
  6
CONTINUOUS
 62
    7
 10
44.935989000000006
 20
255.50427300000001
 11
44.916350999999992
 21
255.645691
  0
LINE
  8
_0-0_0
  6
CONTINUOUS
 62
    7
 10
44.89614899999998
 20
255.77499399999999
 11
44.916350999999992
 21
255.645691
  0
ARC
  8
_0-0_0
  6
CONTINUOUS
 62
    7
 10
37.002471999999983
 20
254.47500600000001
 40
8
 50
9.3520350000000008
 51
14.477510999999998
  0
LINE
  8
_0-0_0
  6
CONTINUOUS
 62
    7
 10
44.713897999999972
 20
256.60427900000002
 11
44.748444000000006
 21
256.47500600000001
  0
LINE
  8
_0-0_0
  6
CONTINUOUS
 62
    7
 10
44.713897999999972
 20
256.60427900000002
 11
44.673446999999982
 21
256.74569700000001
  0
LINE
  8
_0-0_0
  6
CONTINUOUS
 62
    7
 10
44.633986999999991
 20
256.875
 11
44.673446999999982
 21
256.74569700000001
  0
ARC
  8
_0-0_0
  6
CONTINUOUS
 62
    7
 10
37.002471999999983
 20
254.47500600000001
 40
8
 50
17.457602999999999
 51
22.799030999999999
  0
LINE
  8
_0-0_0
  6
CONTINUOUS
 62
    7
 10
44.321746999999988
 20
257.70428500000003
 11
44.377425999999986
 21
257.57498200000003
  0
LINE
  8
_0-0_0
  6
CONTINUOUS
 62
    7
 10
44.321746999999988
 20
257.70428500000003
 11
44.257705999999985
 21
257.84570300000001
  0
LINE
  8
_0-0_0
  6
CONTINUOUS
 62
    7
 10
44.196227999999991
 20
257.97500600000001
 11
44.257705999999985
 21
257.84570300000001
  0
ARC
  8
_0-0_0
  6
CONTINUOUS
 62
    7
 10
37.002471999999983
 20
254.47500600000001
 40
8
 50
25.944476999999999
 51
31.668240000000001
  0
LINE
  8
_0-0_0
  6
CONTINUOUS
 62
    7
 10
43.729827999999998
 20
258.80429100000003
 11
43.811293999999975
 21
258.67498799999998
  0
LINE
  8
_0-0_0
  6
CONTINUOUS
 62
    7
 10
43.729827999999998
 20
258.80429100000003
 11
43.636687999999992
 21
258.94570900000002
  0
LINE
  8
_0-0_0
  6
CONTINUOUS
 62
    7
 10
43.547698999999994
 20
259.07498200000003
 11
43.636687999999992
 21
258.94570900000002
  0
ARC
  8
_0-0_0
  6
CONTINUOUS
 62
    7
 10
37.002471999999983
 20
254.47500600000001
 40
8
 50
35.099632
 51
144.900373
  0
LINE
  8
_0-0_0
  6
CONTINUOUS
 62
    7
 10
30.457245
 20
259.07498200000003
 11
30.368270999999993
 21
258.94570900000002
  0
LINE
  8
_0-0_0
  6
CONTINUOUS
 62
    7
 10
30.275115999999969
 20
258.80429100000003
 11
30.368270999999993
 21
258.94570900000002
  0
LINE
  8
_0-0_0
  6
CONTINUOUS
 62
    7
 10
30.275115999999969
 20
258.80429100000003
 11
30.193648999999994
 21
258.67498799999998
  0
ARC
  8
_0-0_0
  6
CONTINUOUS
 62
    7
 10
37.002471999999983
 20
254.47500600000001
 40
8
 50
148.33176499999999
 51
154.05551800000001
  0
LINE
  8
_0-0_0
  6
CONTINUOUS
 62
    7
 10
29.808730999999995
 20
257.97500600000001
 11
29.747253000000001
 21
257.84570300000001
  0
LINE
  8
_0-0_0
  6
CONTINUOUS
 62
    7
 10
29.683211999999969
 20
257.70428500000003
 11
29.747253000000001
 21
257.84570300000001
  0
LINE
  8
_0-0_0
  6
CONTINUOUS
 62
    7
 10
29.683211999999969
 20
257.70428500000003
 11
29.627518000000009
 21
257.57498200000003
  0
ARC
  8
_0-0_0
  6
CONTINUOUS
 62
    7
 10
37.002471999999983
 20
254.47500600000001
 40
8
 50
157.20097000000001
 51
162.54239699999999
  0
LINE
  8
_0-0_0
  6
CONTINUOUS
 62
    7
 10
29.370955999999978
 20
256.875
 11
29.331496999999985
 21
256.74569700000001
  0
LINE
  8
_0-0_0
  6
CONTINUOUS
 62
    7
 10
29.291045999999994
 20
256.60427900000002
 11
29.331496999999985
 21
256.74569700000001
  0
LINE
  8
_0-0_0
  6
CONTINUOUS
 62
    7
 10
29.291045999999994
 20
256.60427900000002
 11
29.256499999999988
 21
256.47500600000001
  0
ARC
  8
_0-0_0
  6
CONTINUOUS
 62
    7
 10
37.002471999999983
 20
254.47500600000001
 40
8
 50
165.52249
 51
170.64796000000001
  0
LINE
  8
_0-0_0
  6
CONTINUOUS
 62
    7
 10
29.108810000000005
 20
255.77499399999999
 11
29.088592000000006
 21
255.645691
  0
LINE
  8
_0-0_0
  6
CONTINUOUS
 62
    7
 10
29.068969999999979
 20
255.50427300000001
 11
29.088592000000006
 21
255.645691
  0
LINE
  8
_0-0_0
  6
CONTINUOUS
 62
    7
 10
29.068969999999979
 20
255.50427300000001
 11
29.053252999999984
 21
255.375
  0
ARC
  8
_0-0_0
  6
CONTINUOUS
 62
    7
 10
37.002471999999983
 20
254.47500600000001
 40
8
 50
173.54054500000001
 51
178.567455
  0
LINE
  8
_0-0_0
  6
CONTINUOUS
 62
    7
 10
29.004974000000004
 20
254.67498799999998
 11
29.002791999999999
 21
254.54571500000003
  0
CIRCLE
  8
_0-0_0
  6
CONTINUOUS
 62
    7
 10
37.002471999999983
 20
254.47500600000001
 40
7.5
  0
LINE
  8
_0-0_0
  6
CONTINUOUS
 62
    7
 10
464.00247200000001
 20
254.47500600000001
 11
464.00277700000004
 21
254.54571500000003
  0
LINE
  8
_0-0_0
  6
CONTINUOUS
 62
    7
 10
44.999968999999993
 20
254.27499399999999
 11
464.00497399999995
 21
254.27499399999999
  0
LINE
  8
_0-0_0
  6
CONTINUOUS
 62
    7
 10
44.951690999999983
 20
253.57498200000003
 11
464.05325300000004
 21
253.57498200000003
  0
LINE
  8
_0-0_0
  6
CONTINUOUS
 62
    7
 10
44.89614899999998
 20
253.17498799999998
 11
464.10879499999999
 21
253.17498799999998
  0
LINE
  8
_0-0_0
  6
CONTINUOUS
 62
    7
 10
44.748444000000006
 20
252.47500600000001
 11
464.25649999999996
 21
252.47500600000001
  0
LINE
  8
_0-0_0
  6
CONTINUOUS
 62
    7
 10
44.633986999999991
 20
252.07498200000003
 11
464.37094100000002
 21
252.07498200000003
  0
LINE
  8
_0-0_0
  6
CONTINUOUS
 62
    7
 10
44.377425999999986
 20
251.375
 11
464.62747200000001
 21
251.375
  0
LINE
  8
_0-0_0
  6
CONTINUOUS
 62
    7
 10
44.196227999999991
 20
250.97500600000001
 11
464.80868499999997
 21
250.97500600000001
  0
LINE
  8
_0-0_0
  6
CONTINUOUS
 62
    7
 10
43.811293999999975
 20
250.27499399999999
 11
465.19363399999997
 21
250.27499399999999
  0
LINE
  8
_0-0_0
  6
CONTINUOUS
 62
    7
 10
480.00247200000001
 20
254.47500600000001
 11
480.00216699999999
 21
254.54571500000003
  0
LINE
  8
_0-0_0
  6
CONTINUOUS
 62
    7
 10
479.99996899999996
 20
254.27499399999999
 11
481.00247200000001
 21
254.27499399999999
  0
LINE
  8
_0-0_0
  6
CONTINUOUS
 62
    7
 10
479.95169099999998
 20
253.57498200000003
 11
481.00247200000001
 21
253.57498200000003
  0
LINE
  8
_0-0_0
  6
CONTINUOUS
 62
    7
 10
479.89614900000004
 20
253.17498799999998
 11
481.00247200000001
 21
253.17498799999998
  0
LINE
  8
_0-0_0
  6
CONTINUOUS
 62
    7
 10
479.74844399999995
 20
252.47500600000001
 11
481.00247200000001
 21
252.47500600000001
  0
LINE
  8
_0-0_0
  6
CONTINUOUS
 62
    7
 10
479.63394199999993
 20
252.07498200000003
 11
481.00247200000001
 21
252.07498200000003
  0
LINE
  8
_0-0_0
  6
CONTINUOUS
 62
    7
 10
479.37741099999994
 20
251.375
 11
481.00247200000001
 21
251.375
  0
LINE
  8
_0-0_0
  6
CONTINUOUS
 62
    7
 10
479.19619699999998
 20
250.97500600000001
 11
481.00247200000001
 21
250.97500600000001
  0
LINE
  8
_0-0_0
  6
CONTINUOUS
 62
    7
 10
478.81124899999998
 20
250.27499399999999
 11
481.00247200000001
 21
250.27499399999999
  0
LINE
  8
_0-0_0
  6
CONTINUOUS
 62
    7
 10
478.54769899999997
 20
259.07498200000003
 11
478.63668799999994
 21
258.94570900000002
  0
ARC
  8
_0-0_0
  6
CONTINUOUS
 62
    7
 10
472.00247200000001
 20
254.47500600000001
 40
8
 50
35.099632
 51
144.900373
  0
LINE
  8
_0-0_0
  6
CONTINUOUS
 62
    7
 10
465.45724499999994
 20
259.07498200000003
 11
465.36825599999997
 21
258.94570900000002
  0
LINE
  8
_0-0_0
  6
CONTINUOUS
 62
    7
 10
465.27511600000003
 20
258.80429100000003
 11
465.36825599999997
 21
258.94570900000002
  0
LINE
  8
_0-0_0
  6
CONTINUOUS
 62
    7
 10
465.27511600000003
 20
258.80429100000003
 11
465.19363399999997
 21
258.67498799999998
  0
ARC
  8
_0-0_0
  6
CONTINUOUS
 62
    7
 10
472.00247200000001
 20
254.47500600000001
 40
8
 50
148.33176499999999
 51
154.05551800000001
  0
LINE
  8
_0-0_0
  6
CONTINUOUS
 62
    7
 10
464.80868499999997
 20
257.97500600000001
 11
464.74722299999996
 21
257.84570300000001
  0
LINE
  8
_0-0_0
  6
CONTINUOUS
 62
    7
 10
464.68319699999995
 20
257.70428500000003
 11
464.74722299999996
 21
257.84570300000001
  0
LINE
  8
_0-0_0
  6
CONTINUOUS
 62
    7
 10
464.68319699999995
 20
257.70428500000003
 11
464.62747200000001
 21
257.57498200000003
  0
ARC
  8
_0-0_0
  6
CONTINUOUS
 62
    7
 10
472.00247200000001
 20
254.47500600000001
 40
8
 50
157.20097000000001
 51
162.54239699999999
  0
LINE
  8
_0-0_0
  6
CONTINUOUS
 62
    7
 10
464.37094100000002
 20
256.875
 11
464.33145100000002
 21
256.74569700000001
  0
LINE
  8
_0-0_0
  6
CONTINUOUS
 62
    7
 10
464.29104599999994
 20
256.60427900000002
 11
464.33145100000002
 21
256.74569700000001
  0
LINE
  8
_0-0_0
  6
CONTINUOUS
 62
    7
 10
464.29104599999994
 20
256.60427900000002
 11
464.25649999999996
 21
256.47500600000001
  0
ARC
  8
_0-0_0
  6
CONTINUOUS
 62
    7
 10
472.00247200000001
 20
254.47500600000001
 40
8
 50
165.52249
 51
170.64796000000001
  0
LINE
  8
_0-0_0
  6
CONTINUOUS
 62
    7
 10
464.10879499999999
 20
255.77499399999999
 11
464.08859199999995
 21
255.645691
  0
LINE
  8
_0-0_0
  6
CONTINUOUS
 62
    7
 10
464.068939
 20
255.50427300000001
 11
464.08859199999995
 21
255.645691
  0
LINE
  8
_0-0_0
  6
CONTINUOUS
 62
    7
 10
464.068939
 20
255.50427300000001
 11
464.05325300000004
 21
255.375
  0
ARC
  8
_0-0_0
  6
CONTINUOUS
 62
    7
 10
472.00247200000001
 20
254.47500600000001
 40
8
 50
173.54054500000001
 51
178.567455
  0
LINE
  8
_0-0_0
  6
CONTINUOUS
 62
    7
 10
464.00497399999995
 20
254.67498799999998
 11
464.00277700000004
 21
254.54571500000003
  0
LINE
  8
_0-0_0
  6
CONTINUOUS
 62
    7
 10
479.99996899999996
 20
254.67498799999998
 11
480.00216699999999
 21
254.54571500000003
  0
ARC
  8
_0-0_0
  6
CONTINUOUS
 62
    7
 10
472.00247200000001
 20
254.47500600000001
 40
8
 50
1.432544
 51
6.4594489999999993
  0
LINE
  8
_0-0_0
  6
CONTINUOUS
 62
    7
 10
479.93594399999995
 20
255.50427300000001
 11
479.95169099999998
 21
255.375
  0
LINE
  8
_0-0_0
  6
CONTINUOUS
 62
    7
 10
479.93594399999995
 20
255.50427300000001
 11
479.91635099999996
 21
255.645691
  0
LINE
  8
_0-0_0
  6
CONTINUOUS
 62
    7
 10
479.89614900000004
 20
255.77499399999999
 11
479.91635099999996
 21
255.645691
  0
ARC
  8
_0-0_0
  6
CONTINUOUS
 62
    7
 10
472.00247200000001
 20
254.47500600000001
 40
8
 50
9.3520350000000008
 51
14.477510999999998
  0
LINE
  8
_0-0_0
  6
CONTINUOUS
 62
    7
 10
479.71389799999997
 20
256.60427900000002
 11
479.74844399999995
 21
256.47500600000001
  0
LINE
  8
_0-0_0
  6
CONTINUOUS
 62
    7
 10
479.71389799999997
 20
256.60427900000002
 11
479.67343099999994
 21
256.74569700000001
  0
LINE
  8
_0-0_0
  6
CONTINUOUS
 62
    7
 10
479.63394199999993
 20
256.875
 11
479.67343099999994
 21
256.74569700000001
  0
ARC
  8
_0-0_0
  6
CONTINUOUS
 62
    7
 10
472.00247200000001
 20
254.47500600000001
 40
8
 50
17.457602999999999
 51
22.799030999999999
  0
LINE
  8
_0-0_0
  6
CONTINUOUS
 62
    7
 10
479.32174699999996
 20
257.70428500000003
 11
479.37741099999994
 21
257.57498200000003
  0
LINE
  8
_0-0_0
  6
CONTINUOUS
 62
    7
 10
479.32174699999996
 20
257.70428500000003
 11
479.25765999999999
 21
257.84570300000001
  0
LINE
  8
_0-0_0
  6
CONTINUOUS
 62
    7
 10
479.19619699999998
 20
257.97500600000001
 11
479.25765999999999
 21
257.84570300000001
  0
ARC
  8
_0-0_0
  6
CONTINUOUS
 62
    7
 10
472.00247200000001
 20
254.47500600000001
 40
8
 50
25.944476999999999
 51
31.668240000000001
  0
LINE
  8
_0-0_0
  6
CONTINUOUS
 62
    7
 10
478.729828
 20
258.80429100000003
 11
478.81124899999998
 21
258.67498799999998
  0
LINE
  8
_0-0_0
  6
CONTINUOUS
 62
    7
 10
478.729828
 20
258.80429100000003
 11
478.63668799999994
 21
258.94570900000002
  0
CIRCLE
  8
_0-0_0
  6
CONTINUOUS
 62
    7
 10
472.00247200000001
 20
254.47500600000001
 40
7.5
  0
LINE
  8
_0-0_0
  6
CONTINUOUS
 62
    7
 10
478.81124899999998
 20
258.67498799999998
 11
481.00247200000001
 21
258.67498799999998
  0
LINE
  8
_0-0_0
  6
CONTINUOUS
 62
    7
 10
479.19619699999998
 20
257.97500600000001
 11
481.00247200000001
 21
257.97500600000001
  0
LINE
  8
_0-0_0
  6
CONTINUOUS
 62
    7
 10
479.37741099999994
 20
257.57498200000003
 11
481.00247200000001
 21
257.57498200000003
  0
LINE
  8
_0-0_0
  6
CONTINUOUS
 62
    7
 10
479.63394199999993
 20
256.875
 11
481.00247200000001
 21
256.875
  0
LINE
  8
_0-0_0
  6
CONTINUOUS
 62
    7
 10
479.74844399999995
 20
256.47500600000001
 11
481.00247200000001
 21
256.47500600000001
  0
LINE
  8
_0-0_0
  6
CONTINUOUS
 62
    7
 10
479.89614900000004
 20
255.77499399999999
 11
481.00247200000001
 21
255.77499399999999
  0
LINE
  8
_0-0_0
  6
CONTINUOUS
 62
    7
 10
479.95169099999998
 20
255.375
 11
481.00247200000001
 21
255.375
  0
LINE
  8
_0-0_0
  6
CONTINUOUS
 62
    7
 10
479.99996899999996
 20
254.67498799999998
 11
481.00247200000001
 21
254.67498799999998
  0
LINE
  8
_0-0_0
  6
CONTINUOUS
 62
    7
 10
481.50247200000001
 20
237.97500600000001
 11
481.00247200000001
 21
237.97500600000001
  0
LINE
  8
_0-0_0
  6
CONTINUOUS
 62
    7
 10
481.50247200000001
 20
240.17498799999998
 11
481.00247200000001
 21
240.17498799999998
  0
LINE
  8
_0-0_0
  6
CONTINUOUS
 62
    7
 10
481.50247200000001
 20
242.47500600000001
 11
481.00247200000001
 21
242.47500600000001
  0
LINE
  8
_0-0_0
  6
CONTINUOUS
 62
    7
 10
481.00247200000001
 20
244.77499399999999
 11
481.50247200000001
 21
244.77499399999999
  0
LINE
  8
_0-0_0
  6
CONTINUOUS
 62
    7
 10
481.50247200000001
 20
264.97500600000001
 11
481.50247200000001
 21
264.875
  0
LINE
  8
_0-0_0
  6
CONTINUOUS
 62
    7
 10
27.502471999999983
 20
264.97500600000001
 11
27.502471999999983
 21
264.875
  0
LINE
  8
_0-0_0
  6
CONTINUOUS
 62
    7
 10
27.502471999999983
 20
244.77499399999999
 11
28.002471999999983
 21
244.77499399999999
  0
LINE
  8
_0-0_0
  6
CONTINUOUS
 62
    7
 10
28.002471999999983
 20
264.67498799999998
 11
481.00247200000001
 21
264.67498799999998
  0
LINE
  8
_0-0_0
  6
CONTINUOUS
 62
    7
 10
28.002471999999983
 20
264.08102400000001
 11
481.00247200000001
 21
264.08102400000001
  0
LINE
  8
_0-0_0
  6
CONTINUOUS
 62
    7
 10
43.547698999999994
 20
259.07498200000003
 11
465.45724499999994
 21
259.07498200000003
  0
LINE
  8
_0-0_0
  6
CONTINUOUS
 62
    7
 10
478.54769899999997
 20
259.07498200000003
 11
481.00247200000001
 21
259.07498200000003
  0
LINE
  8
_0-0_0
  6
CONTINUOUS
 62
    7
 10
28.002471999999983
 20
259.07498200000003
 11
30.457245
 21
259.07498200000003
  0
LINE
  8
_0-0_0
  6
CONTINUOUS
 62
    7
 10
27.502471999999983
 20
237.97500600000001
 11
28.002471999999983
 21
237.97500600000001
  0
LINE
  8
_0-0_0
  6
CONTINUOUS
 62
    7
 10
27.502471999999983
 20
240.17498799999998
 11
28.002471999999983
 21
240.17498799999998
  0
LINE
  8
_0-0_0
  6
CONTINUOUS
 62
    7
 10
27.502471999999983
 20
242.47500600000001
 11
28.002471999999983
 21
242.47500600000001
  0
LINE
  8
_0-0_0
  6
CONTINUOUS
 62
    7
 10
28.002471999999983
 20
258.67498799999998
 11
30.193648999999994
 21
258.67498799999998
  0
LINE
  8
_0-0_0
  6
CONTINUOUS
 62
    7
 10
28.002471999999983
 20
257.97500600000001
 11
29.808730999999995
 21
257.97500600000001
  0
LINE
  8
_0-0_0
  6
CONTINUOUS
 62
    7
 10
28.002471999999983
 20
257.57498200000003
 11
29.627518000000009
 21
257.57498200000003
  0
LINE
  8
_0-0_0
  6
CONTINUOUS
 62
    7
 10
28.002471999999983
 20
256.875
 11
29.370955999999978
 21
256.875
  0
LINE
  8
_0-0_0
  6
CONTINUOUS
 62
    7
 10
28.002471999999983
 20
256.47500600000001
 11
29.256499999999988
 21
256.47500600000001
  0
LINE
  8
_0-0_0
  6
CONTINUOUS
 62
    7
 10
28.002471999999983
 20
255.77499399999999
 11
29.108810000000005
 21
255.77499399999999
  0
LINE
  8
_0-0_0
  6
CONTINUOUS
 62
    7
 10
28.002471999999983
 20
255.375
 11
29.053252999999984
 21
255.375
  0
LINE
  8
_0-0_0
  6
CONTINUOUS
 62
    7
 10
28.002471999999983
 20
254.67498799999998
 11
29.004974000000004
 21
254.67498799999998
  0
LINE
  8
_0-0_0
  6
CONTINUOUS
 62
    7
 10
43.811293999999975
 20
258.67498799999998
 11
465.19363399999997
 21
258.67498799999998
  0
LINE
  8
_0-0_0
  6
CONTINUOUS
 62
    7
 10
44.196227999999991
 20
257.97500600000001
 11
464.80868499999997
 21
257.97500600000001
  0
LINE
  8
_0-0_0
  6
CONTINUOUS
 62
    7
 10
44.377425999999986
 20
257.57498200000003
 11
464.62747200000001
 21
257.57498200000003
  0
LINE
  8
_0-0_0
  6
CONTINUOUS
 62
    7
 10
44.633986999999991
 20
256.875
 11
464.37094100000002
 21
256.875
  0
LINE
  8
_0-0_0
  6
CONTINUOUS
 62
    7
 10
44.748444000000006
 20
256.47500600000001
 11
464.25649999999996
 21
256.47500600000001
  0
LINE
  8
_0-0_0
  6
CONTINUOUS
 62
    7
 10
44.89614899999998
 20
255.77499399999999
 11
464.10879499999999
 21
255.77499399999999
  0
LINE
  8
_0-0_0
  6
CONTINUOUS
 62
    7
 10
44.951690999999983
 20
255.375
 11
464.05325300000004
 21
255.375
  0
LINE
  8
_0-0_0
  6
CONTINUOUS
 62
    7
 10
44.999968999999993
 20
254.67498799999998
 11
464.00497399999995
 21
254.67498799999998
  0
LINE
  8
_0-0_0
  6
CONTINUOUS
 62
    7
 10
481.50247200000001
 20
236.47500600000001
 11
481.00247200000001
 21
236.47500600000001
  0
LINE
  8
_0-0_0
  6
CONTINUOUS
 62
    7
 10
481.50247200000001
 20
264.07498200000003
 11
481.50247200000001
 21
264.875
  0
LINE
  8
_0-0_0
  6
CONTINUOUS
 62
    7
 10
481.50247200000001
 20
236.27499399999999
 11
481.50247200000001
 21
264.07498200000003
  0
LINE
  8
_0-0_0
  6
CONTINUOUS
 62
    7
 10
27.502471999999983
 20
264.07498200000003
 11
27.502471999999983
 21
264.875
  0
LINE
  8
_0-0_0
  6
CONTINUOUS
 62
    7
 10
27.502471999999983
 20
236.27499399999999
 11
27.502471999999983
 21
264.07498200000003
  0
ARC
  8
_0-0_0
  6
CONTINUOUS
 62
    7
 10
37.002471999999983
 20
255.17498799999998
 40
12.800000000000001
 50
73.932597000000001
 51
106.06740099999999
  0
ARC
  8
_0-0_0
  6
CONTINUOUS
 62
    7
 10
472.00247200000001
 20
255.17498799999998
 40
12.800000000000001
 50
73.932597000000001
 51
106.06740099999999
  0
LINE
  8
_0-0_0
  6
CONTINUOUS
 62
    7
 10
481.50247200000001
 20
264.97500600000001
 11
481.50247200000001
 21
267.47500600000001
  0
LINE
  8
_0-0_0
  6
CONTINUOUS
 62
    7
 10
27.502471999999983
 20
267.47500600000001
 11
481.50247200000001
 21
267.47500600000001
  0
LINE
  8
_0-0_0
  6
CONTINUOUS
 62
    7
 10
27.502471999999983
 20
264.97500600000001
 11
27.502471999999983
 21
267.47500600000001
  0
LINE
  8
_0-0_0
  6
CONTINUOUS
 62
    7
 10
27.502471999999983
 20
236.47500600000001
 11
28.002471999999983
 21
236.47500600000001
  0
ARC
  8
_0-0_0
  6
CONTINUOUS
 62
    7
 10
403.30246
 20
241.375
 40
0.2
 50
339.62356199999999
 51
90.000002999999978
  0
LINE
  8
_0-0_0
  6
CONTINUOUS
 62
    7
 10
403.48996
 20
241.30535900000001
 11
402.18997200000001
 21
237.80535900000001
  0
ARC
  8
_0-0_0
  6
CONTINUOUS
 62
    7
 10
402.00247200000001
 20
237.875
 40
0.2
 50
200.37643
 51
339.62356199999999
  0
LINE
  8
_0-0_0
  6
CONTINUOUS
 62
    7
 10
400.51498399999997
 20
241.30535900000001
 11
401.81497200000001
 21
237.80535900000001
  0
ARC
  8
_0-0_0
  6
CONTINUOUS
 62
    7
 10
400.70248399999997
 20
241.375
 40
0.2
 50
90.000003000000007
 51
200.37643
  0
LINE
  8
_0-0_0
  6
CONTINUOUS
 62
    7
 10
400.70248399999997
 20
241.57498200000003
 11
403.30246
 21
241.57498200000003
  0
ARC
  8
_0-0_0
  6
CONTINUOUS
 62
    7
 10
83.302474999999987
 20
241.375
 40
0.2
 50
339.62356199999999
 51
90.000002999999978
  0
LINE
  8
_0-0_0
  6
CONTINUOUS
 62
    7
 10
83.489959999999996
 20
241.30535900000001
 11
82.189956999999993
 21
237.80535900000001
  0
ARC
  8
_0-0_0
  6
CONTINUOUS
 62
    7
 10
82.002471999999983
 20
237.875
 40
0.2
 50
200.37643
 51
339.62356199999999
  0
LINE
  8
_0-0_0
  6
CONTINUOUS
 62
    7
 10
80.514983999999998
 20
241.30535900000001
 11
81.814987000000002
 21
237.80535900000001
  0
ARC
  8
_0-0_0
  6
CONTINUOUS
 62
    7
 10
80.702483999999998
 20
241.375
 40
0.2
 50
90.000003000000007
 51
200.37643
  0
LINE
  8
_0-0_0
  6
CONTINUOUS
 62
    7
 10
80.702483999999998
 20
241.57498200000003
 11
83.302474999999987
 21
241.57498200000003
  0
CIRCLE
  8
_0-0_0
  6
CONTINUOUS
 62
    7
 10
37.002471999999983
 20
254.47500600000001
 40
5
  0
CIRCLE
  8
_0-0_0
  6
CONTINUOUS
 62
    7
 10
472.00247200000001
 20
254.47500600000001
 40
5
  0
LINE
  8
_0-0_0
  6
CONTINUOUS
 62
    7
 10
482.50247200000001
 20
264.07498200000003
 11
481.50247200000001
 21
264.07498200000003
  0
LINE
  8
_0-0_0
  6
CONTINUOUS
 62
    7
 10
482.50247200000001
 20
265.11196899999999
 11
481.50247200000001
 21
265.11196899999999
  0
LINE
  8
_0-0_0
  6
CONTINUOUS
 62
    7
 10
482.50247200000001
 20
236.27499399999999
 11
481.50247200000001
 21
236.27499399999999
  0
LINE
  8
_0-0_0
  6
CONTINUOUS
 62
    7
 10
26.502471999999983
 20
264.07498200000003
 11
27.502471999999983
 21
264.07498200000003
  0
LINE
  8
_0-0_0
  6
CONTINUOUS
 62
    7
 10
26.502471999999983
 20
265.07498200000003
 11
27.502471999999983
 21
265.07498200000003
  0
LINE
  8
_0-0_0
  6
CONTINUOUS
 62
    7
 10
26.502471999999983
 20
236.27499399999999
 11
27.502471999999983
 21
236.27499399999999
  0
LINE
  8
_0-0_0
  6
CONTINUOUS
 62
    7
 10
482.50247200000001
 20
267.27499399999999
 11
481.50247200000001
 21
267.27499399999999
  0
LINE
  8
_0-0_0
  6
CONTINUOUS
 62
    7
 10
26.502471999999983
 20
267.27499399999999
 11
27.502471999999983
 21
267.27499399999999
  0
LINE
  8
_0-0_0
  6
CONTINUOUS
 62
    7
 10
483.50247200000001
 20
263.66076700000002
 11
483.50143400000002
 21
263.67929100000003
  0
LINE
  8
_0-0_0
  6
CONTINUOUS
 62
    7
 10
483.50143400000002
 20
263.67929100000003
 11
483.49844399999995
 21
263.697723
  0
LINE
  8
_0-0_0
  6
CONTINUOUS
 62
    7
 10
483.49844399999995
 20
263.697723
 11
483.49319500000001
 21
263.716858
  0
LINE
  8
_0-0_0
  6
CONTINUOUS
 62
    7
 10
483.49319500000001
 20
263.716858
 11
483.48586999999998
 21
263.73587000000003
  0
LINE
  8
_0-0_0
  6
CONTINUOUS
 62
    7
 10
483.48586999999998
 20
263.73587000000003
 11
483.46530099999995
 21
263.77261400000003
  0
LINE
  8
_0-0_0
  6
CONTINUOUS
 62
    7
 10
483.46530099999995
 20
263.77261400000003
 11
483.43691999999999
 21
263.808289
  0
LINE
  8
_0-0_0
  6
CONTINUOUS
 62
    7
 10
483.43691999999999
 20
263.808289
 11
483.40103099999999
 21
263.84255999999999
  0
LINE
  8
_0-0_0
  6
CONTINUOUS
 62
    7
 10
483.40103099999999
 20
263.84255999999999
 11
483.35238600000002
 21
263.87902800000001
  0
LINE
  8
_0-0_0
  6
CONTINUOUS
 62
    7
 10
483.35238600000002
 20
263.87902800000001
 11
483.29562399999998
 21
263.913025
  0
LINE
  8
_0-0_0
  6
CONTINUOUS
 62
    7
 10
483.29562399999998
 20
263.913025
 11
483.23147600000004
 21
263.94430599999998
  0
LINE
  8
_0-0_0
  6
CONTINUOUS
 62
    7
 10
483.23147600000004
 20
263.94430599999998
 11
483.160797
 21
263.972534
  0
LINE
  8
_0-0_0
  6
CONTINUOUS
 62
    7
 10
483.160797
 20
263.972534
 11
483.11276199999998
 21
263.98889200000002
  0
LINE
  8
_0-0_0
  6
CONTINUOUS
 62
    7
 10
483.11276199999998
 20
263.98889200000002
 11
483.062591
 21
264.00390600000003
  0
LINE
  8
_0-0_0
  6
CONTINUOUS
 62
    7
 10
483.062591
 20
264.00390600000003
 11
483.00589000000002
 21
264.01867700000003
  0
LINE
  8
_0-0_0
  6
CONTINUOUS
 62
    7
 10
483.00589000000002
 20
264.01867700000003
 11
482.94729599999994
 21
264.03173800000002
  0
LINE
  8
_0-0_0
  6
CONTINUOUS
 62
    7
 10
482.94729599999994
 20
264.03173800000002
 11
482.83053599999994
 21
264.05206300000003
  0
LINE
  8
_0-0_0
  6
CONTINUOUS
 62
    7
 10
482.83053599999994
 20
264.05206300000003
 11
482.72311400000001
 21
264.06478900000002
  0
LINE
  8
_0-0_0
  6
CONTINUOUS
 62
    7
 10
482.72311400000001
 20
264.06478900000002
 11
482.61331199999995
 21
264.07244900000001
  0
LINE
  8
_0-0_0
  6
CONTINUOUS
 62
    7
 10
482.61331199999995
 20
264.07244900000001
 11
482.50247200000001
 21
264.07498200000003
  0
LINE
  8
_0-0_0
  6
CONTINUOUS
 62
    7
 10
483.50247200000001
 20
263.66076700000002
 11
483.50247200000001
 21
264.66085800000002
  0
LINE
  8
_0-0_0
  6
CONTINUOUS
 62
    7
 10
483.50247200000001
 20
264.66085800000002
 11
483.49954200000002
 21
264.69241299999999
  0
LINE
  8
_0-0_0
  6
CONTINUOUS
 62
    7
 10
483.49954200000002
 20
264.69241299999999
 11
483.490814
 21
264.72448700000001
  0
LINE
  8
_0-0_0
  6
CONTINUOUS
 62
    7
 10
483.490814
 20
264.72448700000001
 11
483.47628799999995
 21
264.756775
  0
LINE
  8
_0-0_0
  6
CONTINUOUS
 62
    7
 10
483.47628799999995
 20
264.756775
 11
483.45602399999996
 21
264.78890999999999
  0
LINE
  8
_0-0_0
  6
CONTINUOUS
 62
    7
 10
483.45602399999996
 20
264.78890999999999
 11
483.43948399999999
 21
264.81015000000002
  0
LINE
  8
_0-0_0
  6
CONTINUOUS
 62
    7
 10
483.43948399999999
 20
264.81015000000002
 11
483.42050199999994
 21
264.83111600000001
  0
LINE
  8
_0-0_0
  6
CONTINUOUS
 62
    7
 10
483.42050199999994
 20
264.83111600000001
 11
483.37576300000001
 21
264.87188700000002
  0
LINE
  8
_0-0_0
  6
CONTINUOUS
 62
    7
 10
483.37576300000001
 20
264.87188700000002
 11
483.32254
 21
264.91064499999999
  0
LINE
  8
_0-0_0
  6
CONTINUOUS
 62
    7
 10
483.32254
 20
264.91064499999999
 11
483.27261299999998
 21
264.94085699999999
  0
LINE
  8
_0-0_0
  6
CONTINUOUS
 62
    7
 10
483.27261299999998
 20
264.94085699999999
 11
483.21792600000003
 21
264.96905500000003
  0
LINE
  8
_0-0_0
  6
CONTINUOUS
 62
    7
 10
483.21792600000003
 20
264.96905500000003
 11
483.158905
 21
264.99508700000001
  0
LINE
  8
_0-0_0
  6
CONTINUOUS
 62
    7
 10
483.158905
 20
264.99508700000001
 11
483.11215200000004
 21
265.01309200000003
  0
LINE
  8
_0-0_0
  6
CONTINUOUS
 62
    7
 10
483.11215200000004
 20
265.01309200000003
 11
483.06350699999996
 21
265.02969400000001
  0
LINE
  8
_0-0_0
  6
CONTINUOUS
 62
    7
 10
483.06350699999996
 20
265.02969400000001
 11
482.96109000000001
 21
265.05856299999999
  0
LINE
  8
_0-0_0
  6
CONTINUOUS
 62
    7
 10
482.96109000000001
 20
265.05856299999999
 11
482.85336299999994
 21
265.08142100000003
  0
LINE
  8
_0-0_0
  6
CONTINUOUS
 62
    7
 10
482.85336299999994
 20
265.08142100000003
 11
482.74172999999996
 21
265.09799200000003
  0
LINE
  8
_0-0_0
  6
CONTINUOUS
 62
    7
 10
482.74172999999996
 20
265.09799200000003
 11
482.627655
 21
265.10818499999999
  0
LINE
  8
_0-0_0
  6
CONTINUOUS
 62
    7
 10
482.627655
 20
265.10818499999999
 11
482.50247200000001
 21
265.11196899999999
  0
ARC
  8
_0-0_0
  6
CONTINUOUS
 62
    7
 10
482.50247200000001
 20
237.27499399999999
 40
1
 50
269.99999700000001
 51
0
  0
LINE
  8
_0-0_0
  6
CONTINUOUS
 62
    7
 10
483.50247200000001
 20
237.27499399999999
 11
483.50247200000001
 21
263.66076700000002
  0
LINE
  8
_0-0_0
  6
CONTINUOUS
 62
    7
 10
25.502471999999983
 20
263.660797
 11
25.50347899999997
 21
263.67929100000003
  0
LINE
  8
_0-0_0
  6
CONTINUOUS
 62
    7
 10
25.50347899999997
 20
263.67929100000003
 11
25.506469999999979
 21
263.697723
  0
LINE
  8
_0-0_0
  6
CONTINUOUS
 62
    7
 10
25.506469999999979
 20
263.697723
 11
25.511702999999983
 21
263.716858
  0
LINE
  8
_0-0_0
  6
CONTINUOUS
 62
    7
 10
25.511702999999983
 20
263.716858
 11
25.519089000000008
 21
263.73587000000003
  0
LINE
  8
_0-0_0
  6
CONTINUOUS
 62
    7
 10
25.519089000000008
 20
263.73587000000003
 11
25.539641999999986
 21
263.77261400000003
  0
LINE
  8
_0-0_0
  6
CONTINUOUS
 62
    7
 10
25.539641999999986
 20
263.77261400000003
 11
25.568038999999999
 21
263.808289
  0
LINE
  8
_0-0_0
  6
CONTINUOUS
 62
    7
 10
25.568038999999999
 20
263.808289
 11
25.60391199999998
 21
263.84255999999999
  0
LINE
  8
_0-0_0
  6
CONTINUOUS
 62
    7
 10
25.60391199999998
 20
263.84255999999999
 11
25.652541999999983
 21
263.87902800000001
  0
LINE
  8
_0-0_0
  6
CONTINUOUS
 62
    7
 10
25.652541999999983
 20
263.87902800000001
 11
25.709319999999991
 21
263.913025
  0
LINE
  8
_0-0_0
  6
CONTINUOUS
 62
    7
 10
25.709319999999991
 20
263.913025
 11
25.77346799999998
 21
263.94430599999998
  0
LINE
  8
_0-0_0
  6
CONTINUOUS
 62
    7
 10
25.77346799999998
 20
263.94430599999998
 11
25.844115999999985
 21
263.972534
  0
LINE
  8
_0-0_0
  6
CONTINUOUS
 62
    7
 10
25.844115999999985
 20
263.972534
 11
25.892196999999982
 21
263.98889200000002
  0
LINE
  8
_0-0_0
  6
CONTINUOUS
 62
    7
 10
25.892196999999982
 20
263.98889200000002
 11
25.94232199999999
 21
264.00390600000003
  0
LINE
  8
_0-0_0
  6
CONTINUOUS
 62
    7
 10
25.94232199999999
 20
264.00390600000003
 11
25.999022999999994
 21
264.01867700000003
  0
LINE
  8
_0-0_0
  6
CONTINUOUS
 62
    7
 10
25.999022999999994
 20
264.01867700000003
 11
26.057631999999984
 21
264.03173800000002
  0
LINE
  8
_0-0_0
  6
CONTINUOUS
 62
    7
 10
26.057631999999984
 20
264.03173800000002
 11
26.17442299999999
 21
264.05206300000003
  0
LINE
  8
_0-0_0
  6
CONTINUOUS
 62
    7
 10
26.17442299999999
 20
264.05206300000003
 11
26.281829999999985
 21
264.06478900000002
  0
LINE
  8
_0-0_0
  6
CONTINUOUS
 62
    7
 10
26.281829999999985
 20
264.06478900000002
 11
26.39158599999999
 21
264.07244900000001
  0
LINE
  8
_0-0_0
  6
CONTINUOUS
 62
    7
 10
26.39158599999999
 20
264.07244900000001
 11
26.502471999999983
 21
264.07498200000003
  0
LINE
  8
_0-0_0
  6
CONTINUOUS
 62
    7
 10
25.502471999999983
 20
264.63046300000002
 11
25.505370999999968
 21
264.66134700000003
  0
LINE
  8
_0-0_0
  6
CONTINUOUS
 62
    7
 10
25.505370999999968
 20
264.66134700000003
 11
25.514069000000006
 21
264.69278000000003
  0
LINE
  8
_0-0_0
  6
CONTINUOUS
 62
    7
 10
25.514069000000006
 20
264.69278000000003
 11
25.528548999999998
 21
264.72445700000003
  0
LINE
  8
_0-0_0
  6
CONTINUOUS
 62
    7
 10
25.528548999999998
 20
264.72445700000003
 11
25.548705999999981
 21
264.75604300000003
  0
LINE
  8
_0-0_0
  6
CONTINUOUS
 62
    7
 10
25.548705999999981
 20
264.75604300000003
 11
25.565230999999983
 21
264.77691700000003
  0
LINE
  8
_0-0_0
  6
CONTINUOUS
 62
    7
 10
25.565230999999983
 20
264.77691700000003
 11
25.584136999999998
 21
264.79754600000001
  0
LINE
  8
_0-0_0
  6
CONTINUOUS
 62
    7
 10
25.584136999999998
 20
264.79754600000001
 11
25.628783999999996
 21
264.83767699999999
  0
LINE
  8
_0-0_0
  6
CONTINUOUS
 62
    7
 10
25.628783999999996
 20
264.83767699999999
 11
25.681899999999985
 21
264.87588499999998
  0
LINE
  8
_0-0_0
  6
CONTINUOUS
 62
    7
 10
25.681899999999985
 20
264.87588499999998
 11
25.731795999999974
 21
264.90570100000002
  0
LINE
  8
_0-0_0
  6
CONTINUOUS
 62
    7
 10
25.731795999999974
 20
264.90570100000002
 11
25.786467999999985
 21
264.93359400000003
  0
LINE
  8
_0-0_0
  6
CONTINUOUS
 62
    7
 10
25.786467999999985
 20
264.93359400000003
 11
25.845443999999986
 21
264.95931999999999
  0
LINE
  8
_0-0_0
  6
CONTINUOUS
 62
    7
 10
25.845443999999986
 20
264.95931999999999
 11
25.892211999999972
 21
264.97711200000003
  0
LINE
  8
_0-0_0
  6
CONTINUOUS
 62
    7
 10
25.892211999999972
 20
264.97711200000003
 11
25.940917999999982
 21
264.99353000000002
  0
LINE
  8
_0-0_0
  6
CONTINUOUS
 62
    7
 10
25.940917999999982
 20
264.99353000000002
 11
26.043349999999975
 21
265.02209499999998
  0
LINE
  8
_0-0_0
  6
CONTINUOUS
 62
    7
 10
26.043349999999975
 20
265.02209499999998
 11
26.151168999999982
 21
265.04470800000001
  0
LINE
  8
_0-0_0
  6
CONTINUOUS
 62
    7
 10
26.151168999999982
 20
265.04470800000001
 11
26.262847999999991
 21
265.061127
  0
LINE
  8
_0-0_0
  6
CONTINUOUS
 62
    7
 10
26.262847999999991
 20
265.061127
 11
26.377013999999974
 21
265.07122800000002
  0
LINE
  8
_0-0_0
  6
CONTINUOUS
 62
    7
 10
26.377013999999974
 20
265.07122800000002
 11
26.502471999999983
 21
265.07498200000003
  0
LINE
  8
_0-0_0
  6
CONTINUOUS
 62
    7
 10
25.502471999999983
 20
263.660797
 11
25.502471999999983
 21
264.63046300000002
  0
ARC
  8
_0-0_0
  6
CONTINUOUS
 62
    7
 10
26.502471999999983
 20
237.27499399999999
 40
1
 50
180.00000900000003
 51
269.99999700000001
  0
LINE
  8
_0-0_0
  6
CONTINUOUS
 62
    7
 10
25.502471999999983
 20
237.27499399999999
 11
25.502471999999983
 21
263.660797
  0
LINE
  8
_0-0_0
  6
CONTINUOUS
 62
    7
 10
483.50247200000001
 20
264.66085800000002
 11
483.50247200000001
 21
266.27499399999999
  0
ARC
  8
_0-0_0
  6
CONTINUOUS
 62
    7
 10
482.50247200000001
 20
266.27499399999999
 40
1
 50
0
 51
90.000003000000007
  0
ARC
  8
_0-0_0
  6
CONTINUOUS
 62
    7
 10
26.502471999999983
 20
266.27499399999999
 40
1
 50
90.000003000000007
 51
180.00000900000001
  0
LINE
  8
_0-0_0
  6
CONTINUOUS
 62
    7
 10
25.502471999999983
 20
264.63046300000002
 11
25.502471999999983
 21
266.27499399999999
  0
LINE
  8
_0-0_0
  6
CONTINUOUS
 62
    7
 10
-2.4073980000000006
 20
236.27499399999999
 11
-2.4073980000000006
 21
235.67498799999998
  0
LINE
  8
_0-0_0
  6
CONTINUOUS
 62
    7
 10
0.0926019999999994
 20
230.42999300000002
 11
0.0926019999999994
 21
232.67498799999998
  0
LINE
  8
_0-0_0
  6
CONTINUOUS
 62
    7
 10
1.0926059999999893
 20
232.67498799999998
 11
1.0926059999999893
 21
234.67498799999998
  0
ARC
  8
_0-0_0
  6
CONTINUOUS
 62
    7
 10
0.5926019999999994
 20
234.67498799999998
 40
0.5
 50
0
 51
90.000003000000007
  0
LINE
  8
_0-0_0
  6
CONTINUOUS
 62
    7
 10
0.5926019999999994
 20
235.17498799999998
 11
-0.9073980000000005
 21
235.17498799999998
  0
ARC
  8
_0-0_0
  6
CONTINUOUS
 62
    7
 10
-0.9073980000000005
 20
236.17498799999998
 40
1
 50
180.00000900000003
 51
269.99999700000001
  0
LINE
  8
_0-0_0
  6
CONTINUOUS
 62
    7
 10
-1.9073980000000006
 20
236.27499399999999
 11
-1.9073980000000006
 21
236.17498799999998
  0
ARC
  8
_0-0_0
  6
CONTINUOUS
 62
    7
 10
-0.9073980000000005
 20
235.67498799999998
 40
1.5
 50
180.00000900000003
 51
269.99999700000001
  0
LINE
  8
_0-0_0
  6
CONTINUOUS
 62
    7
 10
-0.9073980000000005
 20
234.17498799999998
 11
-1.6073990000000151
 21
234.17498799999998
  0
ARC
  8
_0-0_0
  6
CONTINUOUS
 62
    7
 10
-1.6073990000000151
 20
235.17498799999998
 40
1
 50
180.00000900000003
 51
269.99999700000001
  0
LINE
  8
_0-0_0
  6
CONTINUOUS
 62
    7
 10
-2.6073990000000151
 20
236.17498799999998
 11
-2.6073990000000151
 21
235.17498799999998
  0
LINE
  8
_0-0_0
  6
CONTINUOUS
 62
    7
 10
-10.807400000000001
 20
235.17498799999998
 11
-10.807400000000001
 21
236.17498799999998
  0
ARC
  8
_0-0_0
  6
CONTINUOUS
 62
    7
 10
-11.807400000000001
 20
235.17498799999998
 40
1
 50
269.99999700000001
 51
0
  0
LINE
  8
_0-0_0
  6
CONTINUOUS
 62
    7
 10
-11.807400000000001
 20
234.17498799999998
 11
-12.007397000000026
 21
234.17498799999998
  0
ARC
  8
_0-0_0
  6
CONTINUOUS
 62
    7
 10
-12.007397000000026
 20
235.17498799999998
 40
1
 50
269.99999700000001
 51
0
  0
LINE
  8
_0-0_0
  6
CONTINUOUS
 62
    7
 10
-11.007397000000026
 20
235.17498799999998
 11
-11.007397000000026
 21
236.27499399999999
  0
LINE
  8
_0-0_0
  6
CONTINUOUS
 62
    7
 10
-11.507397000000026
 20
236.17498799999998
 11
-11.507397000000026
 21
236.27499399999999
  0
ARC
  8
_0-0_0
  6
CONTINUOUS
 62
    7
 10
-12.507397000000026
 20
236.17498799999998
 40
1
 50
269.99999700000001
 51
0
  0
LINE
  8
_0-0_0
  6
CONTINUOUS
 62
    7
 10
-12.507397000000026
 20
235.17498799999998
 11
-14.007397000000026
 21
235.17498799999998
  0
ARC
  8
_0-0_0
  6
CONTINUOUS
 62
    7
 10
-14.007397000000026
 20
234.67498799999998
 40
0.5
 50
90.000003000000007
 51
180.00000900000001
  0
LINE
  8
_0-0_0
  6
CONTINUOUS
 62
    7
 10
-14.507397000000026
 20
234.67498799999998
 11
-14.507397000000026
 21
232.67498799999998
  0
LINE
  8
_0-0_0
  6
CONTINUOUS
 62
    7
 10
-13.507397000000026
 20
230.42999300000002
 11
-13.507397000000026
 21
232.67498799999998
  0
LINE
  8
_0-0_0
  6
CONTINUOUS
 62
    7
 10
-15.407398000000001
 20
212.07498200000003
 11
-15.407398000000001
 21
230.42999300000002
  0
LINE
  8
_0-0_0
  6
CONTINUOUS
 62
    7
 10
1.3926089999999931
 20
212.07498200000003
 11
1.3926089999999931
 21
230.42999300000002
  0
CIRCLE
  8
_0-0_0
  6
CONTINUOUS
 62
    7
 10
-6.707398000000012
 20
232.67498799999998
 40
2.0499999999999998
  0
LINE
  8
_0-0_0
  6
CONTINUOUS
 62
    7
 10
1.3926089999999931
 20
234.17498799999998
 11
1.3926089999999931
 21
234.14999399999999
  0
LINE
  8
_0-0_0
  6
CONTINUOUS
 62
    7
 10
1.3926089999999931
 20
230.92993200000001
 11
1.3926089999999931
 21
231.19998200000003
  0
LINE
  8
_0-0_0
  6
CONTINUOUS
 62
    7
 10
1.3926089999999931
 20
230.42999300000002
 11
1.3926089999999931
 21
230.92999300000002
  0
LINE
  8
_0-0_0
  6
CONTINUOUS
 62
    7
 10
1.3926089999999931
 20
210.07498200000003
 11
1.3926089999999931
 21
212.07498200000003
  0
LINE
  8
_0-0_0
  6
CONTINUOUS
 62
    7
 10
-15.407398000000001
 20
210.07498200000003
 11
-15.407398000000001
 21
212.07498200000003
  0
LINE
  8
_0-0_0
  6
CONTINUOUS
 62
    7
 10
-15.407398000000001
 20
210.07498200000003
 11
1.3926089999999931
 21
210.07498200000003
  0
LINE
  8
_0-0_0
  6
CONTINUOUS
 62
    7
 10
-15.407398000000001
 20
234.17498799999998
 11
-15.407398000000001
 21
232.67498799999998
  0
LINE
  8
_0-0_0
  6
CONTINUOUS
 62
    7
 10
-15.407398000000001
 20
230.92999300000002
 11
-15.407398000000001
 21
232.67498799999998
  0
LINE
  8
_0-0_0
  6
CONTINUOUS
 62
    7
 10
-15.407398000000001
 20
230.42999300000002
 11
-15.407398000000001
 21
230.92999300000002
  0
LINE
  8
_0-0_0
  6
CONTINUOUS
 62
    7
 10
-14.507397000000026
 20
230.93005399999998
 11
-14.507397000000026
 21
232.67498799999998
  0
ARC
  8
_0-0_0
  6
CONTINUOUS
 62
    7
 10
-0.2074010000000043
 20
212.17498799999998
 40
2
 50
323.13010300000002
 51
0.0000000000000127
  0
LINE
  8
_0-0_0
  6
CONTINUOUS
 62
    7
 10
1.792601999999988
 20
212.17498799999998
 11
1.792601999999988
 21
213.57504299999999
  0
LINE
  8
_0-0_0
  6
CONTINUOUS
 62
    7
 10
2.0926059999999893
 20
218.66467299999999
 11
2.0926059999999893
 21
229.11270200000001
  0
LINE
  8
_0-0_0
  6
CONTINUOUS
 62
    7
 10
2.0926059999999893
 20
230.07547
 11
2.0926059999999893
 21
232.31011999999998
  0
LINE
  8
_0-0_0
  6
CONTINUOUS
 62
    7
 10
-15.407398000000001
 20
234.17498799999998
 11
-14.507397000000026
 21
234.17498799999998
  0
LINE
  8
_0-0_0
  6
CONTINUOUS
 62
    7
 10
-15.507397000000026
 20
213.57498200000003
 11
-15.407398000000001
 21
213.57498200000003
  0
LINE
  8
_0-0_0
  6
CONTINUOUS
 62
    7
 10
-15.507397000000026
 20
213.57498200000003
 11
-15.507397000000026
 21
218.66467299999999
  0
LINE
  8
_0-0_0
  6
CONTINUOUS
 62
    7
 10
-15.507397000000026
 20
229.11270200000001
 11
-15.507397000000026
 21
230.07547
  0
LINE
  8
_0-0_0
  6
CONTINUOUS
 62
    7
 10
-15.507397000000026
 20
233.17498799999998
 11
-15.407398000000001
 21
233.17498799999998
  0
LINE
  8
_0-0_0
  6
CONTINUOUS
 62
    7
 10
-15.507397000000026
 20
232.31011999999998
 11
-15.507397000000026
 21
233.17498799999998
  0
LINE
  8
_0-0_0
  6
CONTINUOUS
 62
    7
 10
-15.507397000000026
 20
230.07547
 11
-15.507397000000026
 21
232.31011999999998
  0
LINE
  8
_0-0_0
  6
CONTINUOUS
 62
    7
 10
-15.507397000000026
 20
218.66467299999999
 11
-15.507397000000026
 21
229.11270200000001
  0
LINE
  8
_0-0_0
  6
CONTINUOUS
 62
    7
 10
-15.207398000000012
 20
232.06372099999999
 11
-15.207398000000012
 21
233.94998200000003
  0
LINE
  8
_0-0_0
  6
CONTINUOUS
 62
    7
 10
-15.207398000000012
 20
231.39999399999999
 11
-15.207398000000012
 21
232.06372099999999
  0
LINE
  8
_0-0_0
  6
CONTINUOUS
 62
    7
 10
1.792601999999988
 20
233.28625499999998
 11
1.792601999999988
 21
231.40029900000002
  0
LINE
  8
_0-0_0
  6
CONTINUOUS
 62
    7
 10
1.792601999999988
 20
233.94162
 11
1.792601999999988
 21
233.28625499999998
  0
LINE
  8
_0-0_0
  6
CONTINUOUS
 62
    7
 10
2.0926059999999893
 20
213.57498200000003
 11
2.0926059999999893
 21
218.66467299999999
  0
LINE
  8
_0-0_0
  6
CONTINUOUS
 62
    7
 10
2.0926059999999893
 20
232.31011999999998
 11
2.0926059999999893
 21
233.17498799999998
  0
LINE
  8
_0-0_0
  6
CONTINUOUS
 62
    7
 10
2.0926059999999893
 20
229.11270200000001
 11
2.0926059999999893
 21
230.07547
  0
LINE
  8
_0-0_0
  6
CONTINUOUS
 62
    7
 10
2.0926059999999893
 20
233.17498799999998
 11
1.792601999999988
 21
233.17498799999998
  0
LINE
  8
_0-0_0
  6
CONTINUOUS
 62
    7
 10
2.0926059999999893
 20
213.57498200000003
 11
1.3926089999999931
 21
213.57498200000003
  0
LINE
  8
_0-0_0
  6
CONTINUOUS
 62
    7
 10
1.3926089999999931
 20
234.17498799999998
 11
1.0926059999999893
 21
234.17498799999998
  0
LINE
  8
_0-0_0
  6
CONTINUOUS
 62
    7
 10
1.0926059999999893
 20
232.67498799999998
 11
1.0926059999999893
 21
230.93005399999998
  0
LINE
  8
_0-0_0
  6
CONTINUOUS
 62
    7
 10
-2.6073990000000151
 20
236.17498799999998
 11
-2.6073990000000151
 21
236.27508599999999
  0
LINE
  8
_0-0_0
  6
CONTINUOUS
 62
    7
 10
-10.807400000000001
 20
236.27508599999999
 11
-10.807400000000001
 21
236.17498799999998
  0
LINE
  8
_0-0_0
  6
CONTINUOUS
 62
    7
 10
0.0926019999999994
 20
230.92999300000002
 11
1.3926089999999931
 21
230.92999300000002
  0
ARC
  8
_0-0_0
  6
CONTINUOUS
 62
    7
 10
-14.707398000000012
 20
233.94998200000003
 40
0.2
 50
359.91222800000003
 51
89.999948000000003
  0
ARC
  8
_0-0_0
  6
CONTINUOUS
 62
    7
 10
-14.707501000000008
 20
231.400147
 40
0.200169
 50
270.02985900000004
 51
2.3526610000000452
  0
LINE
  8
_0-0_0
  6
CONTINUOUS
 62
    7
 10
-15.007397000000026
 20
234.14999399999999
 11
-14.707398000000012
 21
234.14999399999999
  0
LINE
  8
_0-0_0
  6
CONTINUOUS
 62
    7
 10
-15.007397000000026
 20
231.19998200000003
 11
-14.707398000000012
 21
231.19998200000003
  0
ARC
  8
_0-0_0
  6
CONTINUOUS
 62
    7
 10
-15.007294000000002
 20
233.94986
 40
0.200169
 50
90.029849999999996
 51
182.352667
  0
ARC
  8
_0-0_0
  6
CONTINUOUS
 62
    7
 10
-15.007397000000026
 20
231.39999399999999
 40
0.2
 50
179.912237
 51
269.99994299999997
  0
ARC
  8
_0-0_0
  6
CONTINUOUS
 62
    7
 10
1.2927090000000021
 20
231.400147
 40
0.200169
 50
177.647333
 51
269.97013600000002
  0
ARC
  8
_0-0_0
  6
CONTINUOUS
 62
    7
 10
1.292601999999988
 20
233.94998200000003
 40
0.2
 50
90.000049999999987
 51
180.08776299999997
  0
LINE
  8
_0-0_0
  6
CONTINUOUS
 62
    7
 10
1.5926059999999893
 20
231.19998200000003
 11
1.292601999999988
 21
231.19998200000003
  0
LINE
  8
_0-0_0
  6
CONTINUOUS
 62
    7
 10
1.5926059999999893
 20
234.14999399999999
 11
1.292601999999988
 21
234.14999399999999
  0
ARC
  8
_0-0_0
  6
CONTINUOUS
 62
    7
 10
1.5926059999999893
 20
231.39999399999999
 40
0.2
 50
270.00005199999998
 51
0.0877600000000175
  0
ARC
  8
_0-0_0
  6
CONTINUOUS
 62
    7
 10
1.5924989999999752
 20
233.94982900000002
 40
0.200169
 50
357.64733799999999
 51
89.970147999999995
  0
LINE
  8
_0-0_0
  6
CONTINUOUS
 62
    7
 10
-15.407398000000001
 20
230.92999300000002
 11
-13.507397000000026
 21
230.92999300000002
  0
LINE
  8
_0-0_0
  6
CONTINUOUS
 62
    7
 10
2.0926059999999893
 20
236.67498799999998
 11
2.0926059999999893
 21
249.875
  0
ARC
  8
_0-0_0
  6
CONTINUOUS
 62
    7
 10
1.5926059999999893
 20
236.67498799999998
 40
0.5
 50
269.99999700000001
 51
0
  0
ARC
  8
_0-0_0
  6
CONTINUOUS
 62
    7
 10
2.0340269999999805
 20
250.07498200000003
 40
0.1
 50
135
 51
225
  0
LINE
  8
_0-0_0
  6
CONTINUOUS
 62
    7
 10
1.9633179999999868
 20
250.00427300000001
 11
2.0926059999999893
 21
249.875
  0
LINE
  8
_0-0_0
  6
CONTINUOUS
 62
    7
 10
1.5926059999999893
 20
236.17498799999998
 11
-0.3074000000000012
 21
236.17498799999998
  0
ARC
  8
_0-0_0
  6
CONTINUOUS
 62
    7
 10
-0.3074000000000012
 20
236.67498799999998
 40
0.5
 50
233.12990600000001
 51
269.99999700000001
  0
ARC
  8
_0-0_0
  6
CONTINUOUS
 62
    7
 10
-13.007397000000026
 20
236.67498799999998
 40
0.5
 50
269.99999700000001
 51
306.87009999999998
  0
LINE
  8
_0-0_0
  6
CONTINUOUS
 62
    7
 10
-13.007397000000026
 20
236.17498799999998
 11
-14.907398000000001
 21
236.17498799999998
  0
ARC
  8
_0-0_0
  6
CONTINUOUS
 62
    7
 10
-14.907398000000001
 20
236.67498799999998
 40
0.5
 50
180.00000900000003
 51
269.99999700000001
  0
LINE
  8
_0-0_0
  6
CONTINUOUS
 62
    7
 10
-15.407398000000001
 20
246.10998499999999
 11
-15.407398000000001
 21
236.67498799999998
  0
LINE
  8
_0-0_0
  6
CONTINUOUS
 62
    7
 10
-15.407398000000001
 20
246.10998499999999
 11
-14.707398000000012
 21
246.10998499999999
  0
LINE
  8
_0-0_0
  6
CONTINUOUS
 62
    7
 10
1.292601999999988
 20
264.67498799999998
 11
1.498626999999999
 21
264.67498799999998
  0
LINE
  8
_0-0_0
  6
CONTINUOUS
 62
    7
 10
1.498626999999999
 20
264.67498799999998
 11
2.0926059999999893
 21
264.08102400000001
  0
LINE
  8
_0-0_0
  6
CONTINUOUS
 62
    7
 10
2.0926059999999893
 20
259.07498200000003
 11
2.0926059999999893
 21
264.08102400000001
  0
LINE
  8
_0-0_0
  6
CONTINUOUS
 62
    7
 10
1.9633179999999868
 20
258.94570900000002
 11
2.0926059999999893
 21
259.07498200000003
  0
ARC
  8
_0-0_0
  6
CONTINUOUS
 62
    7
 10
2.0340269999999805
 20
258.875
 40
0.1
 50
135
 51
225
  0
LINE
  8
_0-0_0
  6
CONTINUOUS
 62
    7
 10
1.9633179999999868
 20
258.80429100000003
 11
2.0926059999999893
 21
258.67498799999998
  0
LINE
  8
_0-0_0
  6
CONTINUOUS
 62
    7
 10
2.0926059999999893
 20
257.97500600000001
 11
2.0926059999999893
 21
258.67498799999998
  0
LINE
  8
_0-0_0
  6
CONTINUOUS
 62
    7
 10
1.9633179999999868
 20
257.84570300000001
 11
2.0926059999999893
 21
257.97500600000001
  0
ARC
  8
_0-0_0
  6
CONTINUOUS
 62
    7
 10
2.0340269999999805
 20
257.77499399999999
 40
0.1
 50
135
 51
225
  0
LINE
  8
_0-0_0
  6
CONTINUOUS
 62
    7
 10
1.9633179999999868
 20
257.70428500000003
 11
2.0926059999999893
 21
257.57498200000003
  0
LINE
  8
_0-0_0
  6
CONTINUOUS
 62
    7
 10
2.0926059999999893
 20
256.875
 11
2.0926059999999893
 21
257.57498200000003
  0
LINE
  8
_0-0_0
  6
CONTINUOUS
 62
    7
 10
1.9633179999999868
 20
256.74569700000001
 11
2.0926059999999893
 21
256.875
  0
ARC
  8
_0-0_0
  6
CONTINUOUS
 62
    7
 10
2.0340269999999805
 20
256.67498799999998
 40
0.1
 50
135
 51
225
  0
LINE
  8
_0-0_0
  6
CONTINUOUS
 62
    7
 10
1.9633179999999868
 20
256.60427900000002
 11
2.0926059999999893
 21
256.47500600000001
  0
LINE
  8
_0-0_0
  6
CONTINUOUS
 62
    7
 10
2.0926059999999893
 20
255.77499399999999
 11
2.0926059999999893
 21
256.47500600000001
  0
LINE
  8
_0-0_0
  6
CONTINUOUS
 62
    7
 10
1.9633179999999868
 20
255.645691
 11
2.0926059999999893
 21
255.77499399999999
  0
ARC
  8
_0-0_0
  6
CONTINUOUS
 62
    7
 10
2.0340269999999805
 20
255.57498200000003
 40
0.1
 50
135
 51
225
  0
LINE
  8
_0-0_0
  6
CONTINUOUS
 62
    7
 10
1.9633179999999868
 20
255.50427300000001
 11
2.0926059999999893
 21
255.375
  0
LINE
  8
_0-0_0
  6
CONTINUOUS
 62
    7
 10
2.0926059999999893
 20
254.67498799999998
 11
2.0926059999999893
 21
255.375
  0
LINE
  8
_0-0_0
  6
CONTINUOUS
 62
    7
 10
1.9633179999999868
 20
254.54571500000003
 11
2.0926059999999893
 21
254.67498799999998
  0
ARC
  8
_0-0_0
  6
CONTINUOUS
 62
    7
 10
2.0340269999999805
 20
254.47500600000001
 40
0.1
 50
135
 51
225
  0
LINE
  8
_0-0_0
  6
CONTINUOUS
 62
    7
 10
1.9633179999999868
 20
254.40429699999999
 11
2.0926059999999893
 21
254.27499399999999
  0
LINE
  8
_0-0_0
  6
CONTINUOUS
 62
    7
 10
2.0926059999999893
 20
253.57498200000003
 11
2.0926059999999893
 21
254.27499399999999
  0
LINE
  8
_0-0_0
  6
CONTINUOUS
 62
    7
 10
1.9633179999999868
 20
253.44570900000002
 11
2.0926059999999893
 21
253.57498200000003
  0
ARC
  8
_0-0_0
  6
CONTINUOUS
 62
    7
 10
2.0340269999999805
 20
253.375
 40
0.1
 50
135
 51
225
  0
LINE
  8
_0-0_0
  6
CONTINUOUS
 62
    7
 10
1.9633179999999868
 20
253.30429100000003
 11
2.0926059999999893
 21
253.17498799999998
  0
LINE
  8
_0-0_0
  6
CONTINUOUS
 62
    7
 10
2.0926059999999893
 20
252.47500600000001
 11
2.0926059999999893
 21
253.17498799999998
  0
LINE
  8
_0-0_0
  6
CONTINUOUS
 62
    7
 10
1.9633179999999868
 20
252.34570300000001
 11
2.0926059999999893
 21
252.47500600000001
  0
ARC
  8
_0-0_0
  6
CONTINUOUS
 62
    7
 10
2.0340269999999805
 20
252.27499399999999
 40
0.1
 50
135
 51
225
  0
LINE
  8
_0-0_0
  6
CONTINUOUS
 62
    7
 10
1.9633179999999868
 20
252.20428500000003
 11
2.0926059999999893
 21
252.07498200000003
  0
LINE
  8
_0-0_0
  6
CONTINUOUS
 62
    7
 10
2.0926059999999893
 20
251.375
 11
2.0926059999999893
 21
252.07498200000003
  0
LINE
  8
_0-0_0
  6
CONTINUOUS
 62
    7
 10
1.9633179999999868
 20
251.24569700000001
 11
2.0926059999999893
 21
251.375
  0
ARC
  8
_0-0_0
  6
CONTINUOUS
 62
    7
 10
2.0340269999999805
 20
251.17498799999998
 40
0.1
 50
135
 51
225
  0
LINE
  8
_0-0_0
  6
CONTINUOUS
 62
    7
 10
1.9633179999999868
 20
251.10427900000002
 11
2.0926059999999893
 21
250.97500600000001
  0
LINE
  8
_0-0_0
  6
CONTINUOUS
 62
    7
 10
2.0926059999999893
 20
250.27499399999999
 11
2.0926059999999893
 21
250.97500600000001
  0
LINE
  8
_0-0_0
  6
CONTINUOUS
 62
    7
 10
1.9633179999999868
 20
250.14572200000003
 11
2.0926059999999893
 21
250.27499399999999
  0
LINE
  8
_0-0_0
  6
CONTINUOUS
 62
    7
 10
2.0926059999999893
 20
242.17498799999998
 11
2.1925959999999804
 21
242.17498799999998
  0
LINE
  8
_0-0_0
  6
CONTINUOUS
 62
    7
 10
2.1925959999999804
 20
241.67498799999998
 11
2.1925959999999804
 21
242.17498799999998
  0
LINE
  8
_0-0_0
  6
CONTINUOUS
 62
    7
 10
2.1925959999999804
 20
241.67498799999998
 11
2.1925959999999804
 21
237.67498799999998
  0
LINE
  8
_0-0_0
  6
CONTINUOUS
 62
    7
 10
2.0926059999999893
 20
237.17498799999998
 11
2.1925959999999804
 21
237.17498799999998
  0
LINE
  8
_0-0_0
  6
CONTINUOUS
 62
    7
 10
2.1925959999999804
 20
237.17498799999998
 11
2.1925959999999804
 21
237.67498799999998
  0
LINE
  8
_0-0_0
  6
CONTINUOUS
 62
    7
 10
-15.407398000000001
 20
246.17501800000002
 11
-15.407398000000001
 21
246.10998499999999
  0
LINE
  8
_0-0_0
  6
CONTINUOUS
 62
    7
 10
1.0926059999999893
 20
264.97500600000001
 11
1.0926059999999893
 21
264.875
  0
LINE
  8
_0-0_0
  6
CONTINUOUS
 62
    7
 10
-15.507397000000026
 20
246.17498799999998
 11
-14.707398000000012
 21
246.17498799999998
  0
LINE
  8
_0-0_0
  6
CONTINUOUS
 62
    7
 10
-15.007397000000026
 20
267.97500600000001
 11
-15.007397000000026
 21
263.75344899999999
  0
LINE
  8
_0-0_0
  6
CONTINUOUS
 62
    7
 10
-13.907398000000001
 20
267.97500600000001
 11
-13.907398000000001
 21
264.97500600000001
  0
LINE
  8
_0-0_0
  6
CONTINUOUS
 62
    7
 10
-15.007397000000026
 20
263.75344899999999
 11
-14.707398000000012
 21
263.75344899999999
  0
ARC
  8
_0-0_0
  6
CONTINUOUS
 62
    7
 10
-11.407398000000001
 20
264.97500600000001
 40
2.5
 50
90.000003000000007
 51
180.00000900000001
  0
ARC
  8
_0-0_0
  6
CONTINUOUS
 62
    7
 10
-1.4073980000000006
 20
264.97500600000001
 40
2.5
 50
0
 51
90.000003000000007
  0
LINE
  8
_0-0_0
  6
CONTINUOUS
 62
    7
 10
-13.907398000000001
 20
264.875
 11
-13.907398000000001
 21
264.97500600000001
  0
LINE
  8
_0-0_0
  6
CONTINUOUS
 62
    7
 10
-1.4073980000000006
 20
267.47500600000001
 11
-11.407398000000001
 21
267.47500600000001
  0
LINE
  8
_0-0_0
  6
CONTINUOUS
 62
    7
 10
2.292601999999988
 20
237.67498799999998
 11
2.292601999999988
 21
237.80535900000001
  0
LINE
  8
_0-0_0
  6
CONTINUOUS
 62
    7
 10
2.292601999999988
 20
241.30535900000001
 11
2.292601999999988
 21
237.80535900000001
  0
LINE
  8
_0-0_0
  6
CONTINUOUS
 62
    7
 10
2.1925959999999804
 20
241.57498200000003
 11
2.292601999999988
 21
241.57498200000003
  0
LINE
  8
_0-0_0
  6
CONTINUOUS
 62
    7
 10
2.292601999999988
 20
241.30535900000001
 11
2.292601999999988
 21
241.57498200000003
  0
LINE
  8
_0-0_0
  6
CONTINUOUS
 62
    7
 10
1.8926089999999931
 20
264.07498200000003
 11
0.8926050000000032
 21
265.07498200000003
  0
LINE
  8
_0-0_0
  6
CONTINUOUS
 62
    7
 10
1.8926089999999931
 20
236.27499399999999
 11
1.8926089999999931
 21
264.07498200000003
  0
LINE
  8
_0-0_0
  6
CONTINUOUS
 62
    7
 10
-14.707398000000012
 20
236.27499399999999
 11
1.8926089999999931
 21
236.27499399999999
  0
LINE
  8
_0-0_0
  6
CONTINUOUS
 62
    7
 10
-14.707398000000012
 20
264.07498200000003
 11
-14.707398000000012
 21
236.27499399999999
  0
LINE
  8
_0-0_0
  6
CONTINUOUS
 62
    7
 10
-15.507397000000026
 20
246.17498799999998
 11
-15.507397000000026
 21
262.98779300000001
  0
LINE
  8
_0-0_0
  6
CONTINUOUS
 62
    7
 10
-15.507397000000026
 20
267.47500600000001
 11
-15.507397000000026
 21
262.98779300000001
  0
ARC
  8
_0-0_0
  6
CONTINUOUS
 62
    7
 10
15.944350999999983
 20
242.99282800000003
 40
37.269466000000001
 50
146.14857699999999
 51
147.55443399999999
  0
ARC
  8
_0-0_0
  6
CONTINUOUS
 62
    7
 10
-1.6764450000000011
 20
264.67498799999998
 40
2.6000000000000001
 50
8.8498839999999994
 51
90.000002999999992
  0
LINE
  8
_0-0_0
  6
CONTINUOUS
 62
    7
 10
-1.6764450000000011
 20
267.27499399999999
 11
-11.138351999999998
 21
267.27499399999999
  0
ARC
  8
_0-0_0
  6
CONTINUOUS
 62
    7
 10
-11.138351999999998
 20
264.67498799999998
 40
2.6000000000000001
 50
90.000003000000007
 51
171.150115
  0
LINE
  8
_0-0_0
  6
CONTINUOUS
 62
    7
 10
-14.707398000000012
 20
264.07498200000003
 11
-13.707398000000012
 21
265.07498200000003
  0
LINE
  8
_0-0_0
  6
CONTINUOUS
 62
    7
 10
0.8926050000000032
 20
263.66076700000002
 11
1.8926089999999931
 21
264.07498200000003
  0
ARC
  8
_0-0_0
  6
CONTINUOUS
 62
    7
 10
-4.6499370000000226
 20
275.86111499999998
 40
12.126564999999999
 50
292.155034
 51
297.19674500000002
  0
LINE
  8
_0-0_0
  6
CONTINUOUS
 62
    7
 10
0.8926009999999848
 20
237.27499399999999
 11
1.8926089999999931
 21
236.27499399999999
  0
LINE
  8
_0-0_0
  6
CONTINUOUS
 62
    7
 10
-13.707398000000012
 20
237.27499399999999
 11
-14.707398000000012
 21
236.27499399999999
  0
LINE
  8
_0-0_0
  6
CONTINUOUS
 62
    7
 10
-13.707398000000012
 20
263.660797
 11
-14.707398000000012
 21
264.07498200000003
  0
ARC
  8
_0-0_0
  6
CONTINUOUS
 62
    7
 10
-8.1648600000000044
 20
275.86111499999998
 40
12.126567
 50
242.80325699999997
 51
247.84494000000001
  0
CIRCLE
  8
_0-0_0
  6
CONTINUOUS
 62
    7
 10
-6.4073980000000006
 20
244.47500600000001
 40
2.0670000000000002
  0
LINE
  8
_0-0_0
  6
CONTINUOUS
 62
    7
 10
-13.907398000000001
 20
267.97500600000001
 11
-15.007397000000026
 21
267.97500600000001
  0
LINE
  8
_0-0_0
  6
CONTINUOUS
 62
    7
 10
2.1925959999999804
 20
237.67498799999998
 11
2.292601999999988
 21
237.67498799999998
  0
LINE
  8
_0-0_0
  6
CONTINUOUS
 62
    7
 10
2.1925959999999804
 20
237.67498799999998
 11
2.292601999999988
 21
237.67498799999998
  0
LINE
  8
_0-0_0
  6
CONTINUOUS
 62
    7
 10
-15.507397000000026
 20
267.47500600000001
 11
-15.007397000000026
 21
267.97500600000001
  0
ENDSEC
  0
EOF
