  0
SECTION
  2
HEADER
  9
$ACADVER
  1
AC1009
  9
$INSBASE
 10
0
 20
0
 30
0
  9
$EXTMIN
 10
0
 20
0
  9
$EXTMAX
 10
420.5
 20
297
  9
$LIMMIN
 10
0
 20
0
  9
$LIMMAX
 10
420.5
 20
297
  9
$LTSCALE
 40
0.5
  0
ENDSEC
  0
SECTION
  2
TABLES
  0
TABLE
  2
LTYPE
 70
     9
  0
LTYPE
  2
CONTINUOUS
 70
    64
  3
実線
 72
    65
 73
     0
 40
0.0
  0
LTYPE
  2
DASHED1
 70
    64
  3
--  --  --  --  --  --  --  --  
 72
    65
 73
     2
 40
2.5
 49
1.25
 49
-1.25
  0
LTYPE
  2
DASHED2
 70
    64
  3
----    ----    ----    ----    
 72
    65
 73
     2
 40
5.0
 49
2.5
 49
-2.5
  0
LTYPE
  2
DASHED3
 70
    64
  3
------  ------  ------  ------  
 72
    65
 73
     2
 40
5.0
 49
3.75
 49
-1.25
  0
LTYPE
  2
CENTER1
 70
    64
  3
----- - ----- - ----- - ----- - 
 72
    65
 73
     4
 40
10.0
 49
6.25
 49
-1.25
 49
1.25
 49
-1.25
  0
LTYPE
  2
CENTER2
 70
    64
  3
----------  --  ----------  --  
 72
    65
 73
     4
 40
20.0
 49
12.5
 49
-2.5
 49
2.5
 49
-2.5
  0
LTYPE
  2
PHANTOM1
 70
    64
  3
--- - - --- - - --- - - --- - - 
 72
    65
 73
     6
 40
10.0
 49
3.25
 49
-1.25
 49
1.25
 49
-1.25
 49
1.25
 49
-1.25
  0
LTYPE
  2
PHANTOM2
 70
    64
  3
--------  -  -  --------  -  -  
 72
    65
 73
     6
 40
20.0
 49
10.0
 49
-2.5
 49
1.25
 49
-2.5
 49
1.25
 49
-2.5
  0
LTYPE
  2
DOT
 70
    64
  3
-   -   -   -   -   -   -   -   
 72
    65
 73
     2
 40
2.5
 49
0.625
 49
-1.875
  0
LTYPE
  2
DUMMY
 70
    64
  3
ダミー
 72
    65
 73
     0
 40
0.0
  0
LTYPE
  2
RAND1
 70
    64
  3
ランダム線1
 72
    65
 73
     4
 40
10.0
 49
1.0
 49
-2.0
 49
3.0
 49
-4.0
  0
LTYPE
  2
RAND2
 70
    64
  3
ランダム線2
 72
    65
 73
     4
 40
14.0
 49
2.0
 49
-3.0
 49
4.0
 49
-5.0
  0
LTYPE
  2
RAND3
 70
    64
  3
ランダム線3
 72
    65
 73
     4
 40
18.0
 49
3.0
 49
-4.0
 49
5.0
 49
-6.0
  0
LTYPE
  2
RAND4
 70
    64
  3
ランダム線4
 72
    65
 73
     4
 40
22.0
 49
4.0
 49
-5.0
 49
6.0
 49
-7.0
  0
LTYPE
  2
RAND5
 70
    64
  3
ランダム線5
 72
    65
 73
     4
 40
26.0
 49
5.0
 49
-6.0
 49
7.0
 49
-8.0
  0
LTYPE
  2
LONG1
 70
    64
  3
----------  --  ----------  --  
 72
    65
 73
     4
 40
40.0
 49
32.5
 49
-2.5
 49
2.5
 49
-2.5
  0
LTYPE
  2
LONG2
 70
    64
  3
--------  -  -  --------  -  -  
 72
    65
 73
     6
 40
40.0
 49
30.0
 49
-2.5
 49
1.25
 49
-2.5
 49
1.25
 49
-2.5
  0
LTYPE
  2
LONG3
 70
    64
  3
+++++++++++++++..+++++++++++++++
 72
    65
 73
     2
 40
40.0
 49
37.5
 49
-2.5
  0
LTYPE
  2
LONG4
 70
    64
  3
+++++++++++++++..+++++++++++++++
 72
    65
 73
     2
 40
80.0
 49
75.0
 49
-5.0
  0
LTYPE
  2
LONG5
 70
    64
  3
----------  --  ----------  --  
 72
    65
 73
     4
 40
60.0
 49
37.5
 49
-7.5
 49
7.5
 49
-7.5
  0
LTYPE
  2
dashed
 70
   64
  3
-------   -------------   ------
 72
   65
 73
    2
 40
7.5
 49
6
 49
-1.5
  0
LTYPE
  2
dashed_spaced
 70
   64
  3
----        --------        ----
 72
   65
 73
    2
 40
12
 49
6
 49
-6
  0
LTYPE
  2
long_dashed_dotted
 70
   64
  3
------------- --- --------------
 72
   65
 73
    4
 40
15.25
 49
12
 49
-1.5
 49
0.25
 49
-1.5
  0
LTYPE
  2
long_dashed_double-dotted
 70
   64
  3
----------- --- --- ------------
 72
   65
 73
    6
 40
17
 49
12
 49
-1.5
 49
0.25
 49
-1.5
 49
0.25
 49
-1.5
  0
LTYPE
  2
long_dashed_triplicate-dotted
 70
   64
  3
--------- --- --- --- ----------
 72
   65
 73
    8
 40
18.75
 49
12
 49
-1.5
 49
0.25
 49
-1.5
 49
0.25
 49
-1.5
 49
0.25
 49
-1.5
  0
LTYPE
  2
dotted
 70
   64
  3
   -       -       -       -    
 72
   65
 73
    2
 40
1.75
 49
0.25
 49
-1.5
  0
LTYPE
  2
chain
 70
   64
  3
-------------- -- --------------
 72
   65
 73
    4
 40
18.5
 49
12
 49
-1.5
 49
3.5
 49
-1.5
  0
LTYPE
  2
chain_double_dash
 70
   64
  3
------------ -- -- -------------
 72
   65
 73
    6
 40
23.5
 49
12
 49
-1.5
 49
3.5
 49
-1.5
 49
3.5
 49
-1.5
  0
LTYPE
  2
dashed_dotted
 70
   64
  3
-----------     -     ----------
 72
   65
 73
    4
 40
9.25
 49
6
 49
-1.5
 49
0.25
 49
-1.5
  0
LTYPE
  2
double-dashed_dotted
 70
   64
  3
------   -----------   -   -----
 72
   65
 73
    6
 40
16.75
 49
6
 49
-1.5
 49
6
 49
-1.5
 49
0.25
 49
-1.5
  0
LTYPE
  2
dashed_double-dotted
 70
   64
  3
---------    -    -    ---------
 72
   65
 73
    6
 40
11
 49
6
 49
-1.5
 49
0.25
 49
-1.5
 49
0.25
 49
-1.5
  0
LTYPE
  2
double-dashed_double-dotted
 70
   64
  3
-----   ---------   -   -   ----
 72
   65
 73
    8
 40
18.5
 49
6
 49
-1.5
 49
6
 49
-1.5
 49
0.25
 49
-1.5
 49
0.25
 49
-1.5
  0
LTYPE
  2
dashed_triplicate-dotted
 70
   64
  3
-------    -    -    -    ------
 72
   65
 73
    8
 40
12.75
 49
6
 49
-1.5
 49
0.25
 49
-1.5
 49
0.25
 49
-1.5
 49
0.25
 49
-1.5
  0
LTYPE
  2
double-dashed_triplicate-dotted
 70
   64
  3
-----  ---------  -  -  -  -----
 72
   65
 73
   10
 40
20.25
 49
6
 49
-1.5
 49
6
 49
-1.5
 49
0.25
 49
-1.5
 49
0.25
 49
-1.5
 49
0.25
 49
-1.5
  0
LTYPE
  2
undefined
 70
   64
  3
--------------------------------
 72
   65
 73
    0
 40
0
  0
ENDTAB
  0
TABLE
  2
STYLE
  5
3
100
AcDbSymbolTable
 70
     1
  0
STYLE
  5
10
100
AcDbSymbolTableRecord
100
AcDbTextStyleTableRecord
  2
STANDARD
 70
     0
 40
0.0
 41
1.0
 50
0.0
 71
     0
 42
0.2
  3
txt
  4
bigfont.shx
  0
STYLE
  5
26
100
AcDbSymbolTableRecord
100
AcDbTextStyleTableRecord
  2
TATEGAKI
 70
    68
 40
0.0
 41
1.0
 50
0.0
 71
     0
 42
1.0
  3
txt
  4
bigfont.shx
  0
ENDTAB
  0
TABLE
  2
LAYER
 70
    2
  0
LAYER
  2
_0-0_0
 70
   64
 62
    7
  6
CONTINUOUS
  0
LAYER
  2
ADD_LINE
 70
   64
 62
    7
  6
CONTINUOUS
  0
ENDTAB
  0
ENDSEC
  0
SECTION
  2
BLOCKS
  0
ENDSEC
  0
SECTION
  2
ENTITIES
  0
POINT
  8
_0-0_0
 62
    7
 10
154.002487
 20
193.0250015
  0
LINE
  8
_0-0_0
  6
CONTINUOUS
 62
    7
 10
47.002471999999983
 20
234.02550550000001
 11
47.002471999999983
 21
234.0244975
  0
LINE
  8
_0-0_0
  6
CONTINUOUS
 62
    7
 10
73.502478999999994
 20
199.68000050000001
 11
73.502478999999994
 21
201.92499549999999
  0
LINE
  8
_0-0_0
  6
CONTINUOUS
 62
    7
 10
73.502478999999994
 20
201.92499549999999
 11
73.502478999999994
 21
203.92499549999999
  0
LINE
  8
_0-0_0
  6
CONTINUOUS
 62
    7
 10
73.502478999999994
 20
203.92499549999999
 11
73.502478999999994
 21
204.42499549999999
  0
LINE
  8
_0-0_0
  6
CONTINUOUS
 62
    7
 10
73.502478999999994
 20
204.42499549999999
 11
73.502478999999994
 21
205.42499549999999
  0
LINE
  8
_0-0_0
  6
CONTINUOUS
 62
    7
 10
73.502478999999994
 20
181.32500450000001
 11
73.502478999999994
 21
199.68000050000001
  0
LINE
  8
_0-0_0
  6
CONTINUOUS
 62
    7
 10
170.002487
 20
203.42499549999999
 11
170.002487
 21
203.92499549999999
  0
LINE
  8
_0-0_0
  6
CONTINUOUS
 62
    7
 10
170.002487
 20
204.42499549999999
 11
170.002487
 21
205.42499549999999
  0
LINE
  8
_0-0_0
  6
CONTINUOUS
 62
    7
 10
170.002487
 20
203.92499549999999
 11
170.002487
 21
204.42499549999999
  0
ARC
  8
_0-0_0
  6
CONTINUOUS
 62
    7
 10
156.002487
 20
199.68000050000001
 40
0.5
 50
0
 51
123.74898500000002
  0
ARC
  8
_0-0_0
  6
CONTINUOUS
 62
    7
 10
154.502487
 20
201.92499549999999
 40
2.2000000000000002
 50
180.00000900000003
 51
303.74900400000001
  0
LINE
  8
_0-0_0
  6
CONTINUOUS
 62
    7
 10
152.30248999999998
 20
201.92499549999999
 11
152.30248999999998
 21
203.42499549999999
  0
LINE
  8
_0-0_0
  6
CONTINUOUS
 62
    7
 10
77.70247599999999
 20
203.42499549999999
 11
152.30248999999998
 21
203.42499549999999
  0
LINE
  8
_0-0_0
  6
CONTINUOUS
 62
    7
 10
77.70247599999999
 20
203.42499549999999
 11
77.70247599999999
 21
201.92499549999999
  0
ARC
  8
_0-0_0
  6
CONTINUOUS
 62
    7
 10
75.502478999999994
 20
201.92499549999999
 40
2.2000000000000002
 50
236.25102899999999
 51
0
  0
ARC
  8
_0-0_0
  6
CONTINUOUS
 62
    7
 10
74.002478999999994
 20
199.68000050000001
 40
0.5
 50
56.251010000000008
 51
180.00000900000001
  0
ARC
  8
_0-0_0
  6
CONTINUOUS
 62
    7
 10
75.502478999999994
 20
181.32500450000001
 40
2
 50
180.00000900000003
 51
269.99999700000001
  0
LINE
  8
_0-0_0
  6
CONTINUOUS
 62
    7
 10
75.502478999999994
 20
179.32500450000001
 11
76.502478999999994
 21
179.32500450000001
  0
LINE
  8
_0-0_0
  6
CONTINUOUS
 62
    7
 10
76.502478999999994
 20
179.32500450000001
 11
76.502478999999994
 21
180.92501049999998
  0
ARC
  8
_0-0_0
  6
CONTINUOUS
 62
    7
 10
77.002478999999994
 20
180.92501049999998
 40
0.5
 50
90.000003000000007
 51
180.00000900000001
  0
LINE
  8
_0-0_0
  6
CONTINUOUS
 62
    7
 10
77.20247599999999
 20
181.42501049999998
 11
77.002478999999994
 21
181.42501049999998
  0
ARC
  8
_0-0_0
  6
CONTINUOUS
 62
    7
 10
77.20247599999999
 20
180.92501049999998
 40
0.5
 50
90.000003000000007
 51
180.00000900000001
  0
LINE
  8
_0-0_0
  6
CONTINUOUS
 62
    7
 10
76.70247599999999
 20
179.42501049999998
 11
76.70247599999999
 21
180.92501049999998
  0
LINE
  8
_0-0_0
  6
CONTINUOUS
 62
    7
 10
146.30248999999998
 20
179.42501049999998
 11
76.70247599999999
 21
179.42501049999998
  0
LINE
  8
_0-0_0
  6
CONTINUOUS
 62
    7
 10
146.30248999999998
 20
179.42501049999998
 11
146.30248999999998
 21
180.92501049999998
  0
ARC
  8
_0-0_0
  6
CONTINUOUS
 62
    7
 10
145.80248999999998
 20
180.92501049999998
 40
0.5
 50
0
 51
90.000003000000007
  0
LINE
  8
_0-0_0
  6
CONTINUOUS
 62
    7
 10
146.002487
 20
181.42501049999998
 11
145.80248999999998
 21
181.42501049999998
  0
ARC
  8
_0-0_0
  6
CONTINUOUS
 62
    7
 10
146.002487
 20
180.92501049999998
 40
0.5
 50
0
 51
90.000003000000007
  0
LINE
  8
_0-0_0
  6
CONTINUOUS
 62
    7
 10
146.502487
 20
180.92501049999998
 11
146.502487
 21
179.32500450000001
  0
LINE
  8
_0-0_0
  6
CONTINUOUS
 62
    7
 10
146.502487
 20
179.32500450000001
 11
156.502487
 21
179.32500450000001
  0
LINE
  8
_0-0_0
  6
CONTINUOUS
 62
    7
 10
156.502487
 20
179.32500450000001
 11
156.502487
 21
180.2249985
  0
LINE
  8
_0-0_0
  6
CONTINUOUS
 62
    7
 10
92.502471999999983
 20
182.8290935
 11
133.90248099999999
 21
182.8290935
  0
LINE
  8
_0-0_0
  6
CONTINUOUS
 62
    7
 10
92.502471999999983
 20
202.42499549999999
 11
133.90248099999999
 21
202.42499549999999
  0
ARC
  8
_0-0_0
  6
CONTINUOUS
 62
    7
 10
145.202484
 20
181.62500749999998
 40
0.2
 50
180.00000900000003
 51
269.99999700000001
  0
LINE
  8
_0-0_0
  6
CONTINUOUS
 62
    7
 10
145.202484
 20
181.42501049999998
 11
77.802474999999987
 21
181.42501049999998
  0
ARC
  8
_0-0_0
  6
CONTINUOUS
 62
    7
 10
77.802474999999987
 20
181.62500749999998
 40
0.2
 50
269.99999700000001
 51
0
  0
ARC
  8
_0-0_0
  6
CONTINUOUS
 62
    7
 10
78.20247599999999
 20
181.62500749999998
 40
0.2
 50
90.000003000000007
 51
180.00000900000001
  0
LINE
  8
_0-0_0
  6
CONTINUOUS
 62
    7
 10
78.20247599999999
 20
181.82500450000001
 11
144.80248999999998
 21
181.82500450000001
  0
ARC
  8
_0-0_0
  6
CONTINUOUS
 62
    7
 10
144.80248999999998
 20
181.62500749999998
 40
0.2
 50
0
 51
90.000003000000007
  0
LINE
  8
_0-0_0
  6
CONTINUOUS
 62
    7
 10
73.502478999999994
 20
204.42499549999999
 11
170.002487
 21
204.42499549999999
  0
LINE
  8
_0-0_0
  6
CONTINUOUS
 62
    7
 10
169.502487
 20
203.42499549999999
 11
170.002487
 21
203.42499549999999
  0
LINE
  8
_0-0_0
  6
CONTINUOUS
 62
    7
 10
156.502487
 20
181.42501049999998
 11
156.502487
 21
180.2249985
  0
LINE
  8
_0-0_0
  6
CONTINUOUS
 62
    7
 10
156.502487
 20
181.42501049999998
 11
156.502487
 21
199.0250015
  0
LINE
  8
_0-0_0
  6
CONTINUOUS
 62
    7
 10
156.502487
 20
201.00237250000001
 11
156.502487
 21
199.0250015
  0
LINE
  8
_0-0_0
  6
CONTINUOUS
 62
    7
 10
75.502478999999994
 20
187.9146805
 11
75.502478999999994
 21
198.36269350000001
  0
ARC
  8
_0-0_0
  6
CONTINUOUS
 62
    7
 10
75.502478999999994
 20
201.92499549999999
 40
2.7000000000000002
 50
285.68033600000007
 51
352.23356600000005
  0
LINE
  8
_0-0_0
  6
CONTINUOUS
 62
    7
 10
152.502487
 20
199.42499549999999
 11
152.502487
 21
185.82500450000001
  0
LINE
  8
_0-0_0
  6
CONTINUOUS
 62
    7
 10
77.502478999999994
 20
203.42499549999999
 11
77.70247599999999
 21
203.42499549999999
  0
LINE
  8
_0-0_0
  6
CONTINUOUS
 62
    7
 10
77.502478999999994
 20
203.42499549999999
 11
77.502478999999994
 21
201.92499549999999
  0
ARC
  8
_0-0_0
  6
CONTINUOUS
 62
    7
 10
75.502478999999994
 20
201.92499549999999
 40
2
 50
180.00000900000003
 51
0.0000000000000254
  0
LINE
  8
_0-0_0
  6
CONTINUOUS
 62
    7
 10
169.502487
 20
203.42499549999999
 11
169.502487
 21
201.7249985
  0
LINE
  8
_0-0_0
  6
CONTINUOUS
 62
    7
 10
156.502487
 20
179.42501049999998
 11
168.502487
 21
179.42501049999998
  0
LINE
  8
_0-0_0
  6
CONTINUOUS
 62
    7
 10
168.502487
 20
179.42501049999998
 11
173.177933
 21
179.42501049999998
  0
LINE
  8
_0-0_0
  6
CONTINUOUS
 62
    7
 10
168.502487
 20
184.92501049999998
 11
168.502487
 21
181.92501049999998
  0
LINE
  8
_0-0_0
  6
CONTINUOUS
 62
    7
 10
168.502487
 20
181.92501049999998
 11
168.502487
 21
181.42501049999998
  0
LINE
  8
_0-0_0
  6
CONTINUOUS
 62
    7
 10
168.502487
 20
184.92501049999998
 11
168.502487
 21
185.42501049999998
  0
ARC
  8
_0-0_0
  6
CONTINUOUS
 62
    7
 10
162.50247199999998
 20
184.72501349999999
 40
0.500016
 50
180.00117
 51
359.995611
  0
LINE
  8
_0-0_0
  6
CONTINUOUS
 62
    7
 10
163.002487
 20
184.7249985
 11
163.002487
 21
196.7249985
  0
ARC
  8
_0-0_0
  6
CONTINUOUS
 62
    7
 10
162.50247199999998
 20
196.72498350000001
 40
0.500016
 50
0.001164
 51
179.99560600000004
  0
LINE
  8
_0-0_0
  6
CONTINUOUS
 62
    7
 10
162.002487
 20
184.7249985
 11
162.002487
 21
196.7249985
  0
ARC
  8
_0-0_0
  6
CONTINUOUS
 62
    7
 10
164.00247199999998
 20
184.72501349999999
 40
0.500016
 50
180.00117
 51
359.995611
  0
LINE
  8
_0-0_0
  6
CONTINUOUS
 62
    7
 10
164.502487
 20
184.7249985
 11
164.502487
 21
196.7249985
  0
ARC
  8
_0-0_0
  6
CONTINUOUS
 62
    7
 10
164.00247199999998
 20
196.72498350000001
 40
0.500016
 50
0.001164
 51
179.99560600000004
  0
LINE
  8
_0-0_0
  6
CONTINUOUS
 62
    7
 10
163.502487
 20
184.7249985
 11
163.502487
 21
196.7249985
  0
ARC
  8
_0-0_0
  6
CONTINUOUS
 62
    7
 10
165.50247199999998
 20
184.72501349999999
 40
0.500016
 50
180.00117
 51
359.995611
  0
LINE
  8
_0-0_0
  6
CONTINUOUS
 62
    7
 10
166.002487
 20
184.7249985
 11
166.002487
 21
196.7249985
  0
ARC
  8
_0-0_0
  6
CONTINUOUS
 62
    7
 10
165.50247199999998
 20
196.72498350000001
 40
0.500016
 50
0.001164
 51
179.99560600000004
  0
LINE
  8
_0-0_0
  6
CONTINUOUS
 62
    7
 10
165.002487
 20
184.7249985
 11
165.002487
 21
196.7249985
  0
ARC
  8
_0-0_0
  6
CONTINUOUS
 62
    7
 10
167.00247199999998
 20
184.72501349999999
 40
0.500016
 50
180.00117
 51
359.995611
  0
LINE
  8
_0-0_0
  6
CONTINUOUS
 62
    7
 10
167.502487
 20
184.7249985
 11
167.502487
 21
196.7249985
  0
ARC
  8
_0-0_0
  6
CONTINUOUS
 62
    7
 10
167.00247199999998
 20
196.72498350000001
 40
0.500016
 50
0.001164
 51
179.99560600000004
  0
LINE
  8
_0-0_0
  6
CONTINUOUS
 62
    7
 10
166.502487
 20
184.7249985
 11
166.502487
 21
196.7249985
  0
LINE
  8
_0-0_0
  6
CONTINUOUS
 62
    7
 10
156.502487
 20
201.7249985
 11
156.502487
 21
201.00237250000001
  0
LINE
  8
_0-0_0
  6
CONTINUOUS
 62
    7
 10
169.502487
 20
201.7249985
 11
156.502487
 21
201.7249985
  0
LINE
  8
_0-0_0
  6
CONTINUOUS
 62
    7
 10
156.502487
 20
203.42499549999999
 11
169.502487
 21
203.42499549999999
  0
LINE
  8
_0-0_0
  6
CONTINUOUS
 62
    7
 10
156.502487
 20
203.42499549999999
 11
156.502487
 21
201.7249985
  0
LINE
  8
_0-0_0
  6
CONTINUOUS
 62
    7
 10
145.952484
 20
181.40196950000001
 11
145.952484
 21
181.42499550000002
  0
ARC
  8
_0-0_0
  6
CONTINUOUS
 62
    7
 10
173.177933
 20
181.42501049999998
 40
2
 50
269.99999700000001
 51
288.43501300000003
  0
LINE
  8
_0-0_0
  6
CONTINUOUS
 62
    7
 10
152.30248999999998
 20
203.42499549999999
 11
152.502487
 21
203.42499549999999
  0
ARC
  8
_0-0_0
  6
CONTINUOUS
 62
    7
 10
154.502487
 20
201.92499549999999
 40
2
 50
180.00000900000003
 51
0.0000000000000254
  0
LINE
  8
_0-0_0
  6
CONTINUOUS
 62
    7
 10
152.502487
 20
201.92499549999999
 11
152.502487
 21
203.42499549999999
  0
LINE
  8
_0-0_0
  6
CONTINUOUS
 62
    7
 10
174.25247199999998
 20
179.67499550000002
 11
173.81037899999998
 21
179.52764150000002
  0
ARC
  8
_0-0_0
  6
CONTINUOUS
 62
    7
 10
143.502487
 20
195.0250015
 40
2.25
 50
269.99999700000001
 51
90.000002999999992
  0
LINE
  8
_0-0_0
  6
CONTINUOUS
 62
    7
 10
139.50247199999998
 20
192.7750015
 11
143.502487
 21
192.7750015
  0
ARC
  8
_0-0_0
  6
CONTINUOUS
 62
    7
 10
139.50247199999998
 20
195.0250015
 40
2.25
 50
90.000003000000007
 51
269.99999700000006
  0
ARC
  8
_0-0_0
  6
CONTINUOUS
 62
    7
 10
87.502471999999983
 20
195.0250015
 40
2.25
 50
269.99999700000001
 51
90.000002999999992
  0
LINE
  8
_0-0_0
  6
CONTINUOUS
 62
    7
 10
83.502471999999983
 20
192.7750015
 11
87.502471999999983
 21
192.7750015
  0
ARC
  8
_0-0_0
  6
CONTINUOUS
 62
    7
 10
83.502471999999983
 20
195.0250015
 40
2.25
 50
90.000003000000007
 51
269.99999700000006
  0
LINE
  8
_0-0_0
  6
CONTINUOUS
 62
    7
 10
139.50247199999998
 20
197.2750015
 11
143.502487
 21
197.2750015
  0
LINE
  8
_0-0_0
  6
CONTINUOUS
 62
    7
 10
83.502471999999983
 20
197.2750015
 11
87.502471999999983
 21
197.2750015
  0
LINE
  8
_0-0_0
  6
CONTINUOUS
 62
    7
 10
145.743088
 20
191.0250015
 11
137.26187099999999
 21
191.0250015
  0
LINE
  8
_0-0_0
  6
CONTINUOUS
 62
    7
 10
145.743088
 20
191.0250015
 11
148.05248999999998
 21
195.0250015
  0
LINE
  8
_0-0_0
  6
CONTINUOUS
 62
    7
 10
148.05248999999998
 20
195.0250015
 11
145.743088
 21
199.0250015
  0
LINE
  8
_0-0_0
  6
CONTINUOUS
 62
    7
 10
137.26187099999999
 20
199.0250015
 11
145.743088
 21
199.0250015
  0
LINE
  8
_0-0_0
  6
CONTINUOUS
 62
    7
 10
134.95246899999998
 20
195.0250015
 11
137.26187099999999
 21
199.0250015
  0
LINE
  8
_0-0_0
  6
CONTINUOUS
 62
    7
 10
137.26187099999999
 20
191.0250015
 11
134.95246899999998
 21
195.0250015
  0
LINE
  8
_0-0_0
  6
CONTINUOUS
 62
    7
 10
89.743071999999984
 20
191.0250015
 11
81.261878999999993
 21
191.0250015
  0
LINE
  8
_0-0_0
  6
CONTINUOUS
 62
    7
 10
92.052474999999987
 20
195.0250015
 11
89.743071999999984
 21
191.0250015
  0
LINE
  8
_0-0_0
  6
CONTINUOUS
 62
    7
 10
92.052474999999987
 20
195.0250015
 11
89.743071999999984
 21
199.0250015
  0
LINE
  8
_0-0_0
  6
CONTINUOUS
 62
    7
 10
81.261878999999993
 20
199.0250015
 11
89.743071999999984
 21
199.0250015
  0
LINE
  8
_0-0_0
  6
CONTINUOUS
 62
    7
 10
78.95247599999999
 20
195.0250015
 11
81.261878999999993
 21
199.0250015
  0
LINE
  8
_0-0_0
  6
CONTINUOUS
 62
    7
 10
78.95247599999999
 20
195.0250015
 11
81.261878999999993
 21
191.0250015
  0
CIRCLE
  8
_0-0_0
  6
CONTINUOUS
 62
    7
 10
154.502487
 20
201.92499549999999
 40
1.4750000000000001
  0
CIRCLE
  8
_0-0_0
  6
CONTINUOUS
 62
    7
 10
75.502478999999994
 20
201.92499549999999
 40
1.4750000000000001
  0
LINE
  8
_0-0_0
  6
CONTINUOUS
 62
    7
 10
154.952484
 20
201.7249985
 11
155.60247799999999
 21
201.7249985
  0
ARC
  8
_0-0_0
  6
CONTINUOUS
 62
    7
 10
154.952484
 20
201.4749985
 40
0.25
 50
90.000003000000007
 51
180.00000900000001
  0
LINE
  8
_0-0_0
  6
CONTINUOUS
 62
    7
 10
154.702484
 20
201.4749985
 11
154.702484
 21
200.82500450000001
  0
LINE
  8
_0-0_0
  6
CONTINUOUS
 62
    7
 10
154.30248999999998
 20
200.82500450000001
 11
154.702484
 21
200.82500450000001
  0
LINE
  8
_0-0_0
  6
CONTINUOUS
 62
    7
 10
154.30248999999998
 20
200.82500450000001
 11
154.30248999999998
 21
201.4749985
  0
ARC
  8
_0-0_0
  6
CONTINUOUS
 62
    7
 10
154.05248999999998
 20
201.4749985
 40
0.25
 50
0
 51
90.000003000000007
  0
LINE
  8
_0-0_0
  6
CONTINUOUS
 62
    7
 10
153.40248099999999
 20
201.7249985
 11
154.05248999999998
 21
201.7249985
  0
LINE
  8
_0-0_0
  6
CONTINUOUS
 62
    7
 10
153.40248099999999
 20
201.7249985
 11
153.40248099999999
 21
202.12500750000001
  0
LINE
  8
_0-0_0
  6
CONTINUOUS
 62
    7
 10
154.05248999999998
 20
202.12500750000001
 11
153.40248099999999
 21
202.12500750000001
  0
ARC
  8
_0-0_0
  6
CONTINUOUS
 62
    7
 10
154.05248999999998
 20
202.37500750000001
 40
0.25
 50
269.99999700000001
 51
0
  0
LINE
  8
_0-0_0
  6
CONTINUOUS
 62
    7
 10
154.30248999999998
 20
202.37500750000001
 11
154.30248999999998
 21
203.0250015
  0
LINE
  8
_0-0_0
  6
CONTINUOUS
 62
    7
 10
154.702484
 20
203.0250015
 11
154.30248999999998
 21
203.0250015
  0
LINE
  8
_0-0_0
  6
CONTINUOUS
 62
    7
 10
154.702484
 20
203.0250015
 11
154.702484
 21
202.37500750000001
  0
ARC
  8
_0-0_0
  6
CONTINUOUS
 62
    7
 10
154.952484
 20
202.37500750000001
 40
0.25
 50
180.00000900000003
 51
269.99999700000001
  0
LINE
  8
_0-0_0
  6
CONTINUOUS
 62
    7
 10
155.60247799999999
 20
202.12500750000001
 11
154.952484
 21
202.12500750000001
  0
LINE
  8
_0-0_0
  6
CONTINUOUS
 62
    7
 10
155.60247799999999
 20
202.12500750000001
 11
155.60247799999999
 21
201.7249985
  0
LINE
  8
_0-0_0
  6
CONTINUOUS
 62
    7
 10
75.95247599999999
 20
201.7249985
 11
76.602477999999991
 21
201.7249985
  0
ARC
  8
_0-0_0
  6
CONTINUOUS
 62
    7
 10
75.95247599999999
 20
201.4749985
 40
0.25
 50
90.000003000000007
 51
180.00000900000001
  0
LINE
  8
_0-0_0
  6
CONTINUOUS
 62
    7
 10
75.70247599999999
 20
201.4749985
 11
75.70247599999999
 21
200.82500450000001
  0
LINE
  8
_0-0_0
  6
CONTINUOUS
 62
    7
 10
75.302474999999987
 20
200.82500450000001
 11
75.70247599999999
 21
200.82500450000001
  0
LINE
  8
_0-0_0
  6
CONTINUOUS
 62
    7
 10
75.302474999999987
 20
200.82500450000001
 11
75.302474999999987
 21
201.4749985
  0
ARC
  8
_0-0_0
  6
CONTINUOUS
 62
    7
 10
75.052474999999987
 20
201.4749985
 40
0.25
 50
0
 51
90.000003000000007
  0
LINE
  8
_0-0_0
  6
CONTINUOUS
 62
    7
 10
74.402472999999986
 20
201.7249985
 11
75.052474999999987
 21
201.7249985
  0
LINE
  8
_0-0_0
  6
CONTINUOUS
 62
    7
 10
74.402472999999986
 20
201.7249985
 11
74.402472999999986
 21
202.12500750000001
  0
LINE
  8
_0-0_0
  6
CONTINUOUS
 62
    7
 10
75.052474999999987
 20
202.12500750000001
 11
74.402472999999986
 21
202.12500750000001
  0
ARC
  8
_0-0_0
  6
CONTINUOUS
 62
    7
 10
75.052474999999987
 20
202.37500750000001
 40
0.25
 50
269.99999700000001
 51
0
  0
LINE
  8
_0-0_0
  6
CONTINUOUS
 62
    7
 10
75.302474999999987
 20
202.37500750000001
 11
75.302474999999987
 21
203.0250015
  0
LINE
  8
_0-0_0
  6
CONTINUOUS
 62
    7
 10
75.70247599999999
 20
203.0250015
 11
75.302474999999987
 21
203.0250015
  0
LINE
  8
_0-0_0
  6
CONTINUOUS
 62
    7
 10
75.70247599999999
 20
203.0250015
 11
75.70247599999999
 21
202.37500750000001
  0
ARC
  8
_0-0_0
  6
CONTINUOUS
 62
    7
 10
75.95247599999999
 20
202.37500750000001
 40
0.25
 50
180.00000900000003
 51
269.99999700000001
  0
LINE
  8
_0-0_0
  6
CONTINUOUS
 62
    7
 10
76.602477999999991
 20
202.12500750000001
 11
75.95247599999999
 21
202.12500750000001
  0
LINE
  8
_0-0_0
  6
CONTINUOUS
 62
    7
 10
76.602477999999991
 20
202.12500750000001
 11
76.602477999999991
 21
201.7249985
  0
LINE
  8
_0-0_0
  6
CONTINUOUS
 62
    7
 10
77.052474999999987
 20
181.40196950000001
 11
77.052474999999987
 21
181.42499550000002
  0
LINE
  8
_0-0_0
  6
CONTINUOUS
 62
    7
 10
95.502471999999983
 20
199.42499549999999
 11
95.502471999999983
 21
186.4679945
  0
ARC
  8
_0-0_0
  6
CONTINUOUS
 62
    7
 10
92.502471999999983
 20
199.42499549999999
 40
3
 50
0
 51
90.000003000000007
  0
LINE
  8
_0-0_0
  6
CONTINUOUS
 62
    7
 10
131.50247199999998
 20
185.82500450000001
 11
131.50247199999998
 21
199.42499549999999
  0
LINE
  8
_0-0_0
  6
CONTINUOUS
 62
    7
 10
114.98995999999998
 20
195.59464249999999
 11
113.68995699999999
 21
199.09464249999999
  0
ARC
  8
_0-0_0
  6
CONTINUOUS
 62
    7
 10
112.20247599999999
 20
195.5250015
 40
0.2
 50
159.62357
 51
269.99999700000001
  0
LINE
  8
_0-0_0
  6
CONTINUOUS
 62
    7
 10
156.502487
 20
201.0250015
 11
173.177933
 21
201.0250015
  0
ARC
  8
_0-0_0
  6
CONTINUOUS
 62
    7
 10
173.177933
 20
199.0250015
 40
2
 50
71.565000999999995
 51
90.000003000000007
  0
LINE
  8
_0-0_0
  6
CONTINUOUS
 62
    7
 10
173.810394
 20
200.9223705
 11
173.69088699999998
 21
200.95798450000001
  0
LINE
  8
_0-0_0
  6
CONTINUOUS
 62
    7
 10
173.69088699999998
 20
200.95798450000001
 11
173.56933599999999
 21
200.9858625
  0
LINE
  8
_0-0_0
  6
CONTINUOUS
 62
    7
 10
173.56933599999999
 20
200.9858625
 11
173.446213
 21
201.0058975
  0
LINE
  8
_0-0_0
  6
CONTINUOUS
 62
    7
 10
173.446213
 20
201.0058975
 11
173.321991
 21
201.0180125
  0
LINE
  8
_0-0_0
  6
CONTINUOUS
 62
    7
 10
173.321991
 20
201.0180125
 11
173.197159
 21
201.0221635
  0
LINE
  8
_0-0_0
  6
CONTINUOUS
 62
    7
 10
173.197159
 20
201.0221635
 11
173.177933
 21
201.0220875
  0
LINE
  8
_0-0_0
  6
CONTINUOUS
 62
    7
 10
178.13493299999999
 20
199.48084249999999
 11
173.81037899999998
 21
200.9223705
  0
LINE
  8
_0-0_0
  6
CONTINUOUS
 62
    7
 10
177.976822
 20
184.92501049999998
 11
178.67018099999999
 21
184.92501049999998
  0
LINE
  8
_0-0_0
  6
CONTINUOUS
 62
    7
 10
177.976822
 20
184.92501049999998
 11
173.65226699999999
 21
184.92501049999998
  0
LINE
  8
_0-0_0
  6
CONTINUOUS
 62
    7
 10
173.177933
 20
184.92501049999998
 11
173.65226699999999
 21
184.92501049999998
  0
LINE
  8
_0-0_0
  6
CONTINUOUS
 62
    7
 10
168.502487
 20
184.92501049999998
 11
173.177933
 21
184.92501049999998
  0
LINE
  8
_0-0_0
  6
CONTINUOUS
 62
    7
 10
179.502487
 20
184.17496449999999
 11
179.502487
 21
185.29598250000001
  0
LINE
  8
_0-0_0
  6
CONTINUOUS
 62
    7
 10
179.502487
 20
186.2173085
 11
179.502487
 21
185.29598250000001
  0
LINE
  8
_0-0_0
  6
CONTINUOUS
 62
    7
 10
190.502487
 20
184.9749985
 11
190.502487
 21
192.95655049999999
  0
ARC
  8
_0-0_0
  6
CONTINUOUS
 62
    7
 10
184.328598
 20
193.47588350000001
 40
4.9238749999999998
 50
352.49423299999995
 51
1.5359699999999901
  0
LINE
  8
_0-0_0
  6
CONTINUOUS
 62
    7
 10
189.21031199999999
 20
187.6173015
 11
189.304642
 21
187.86392950000001
  0
LINE
  8
_0-0_0
  6
CONTINUOUS
 62
    7
 10
189.304642
 20
187.86392950000001
 11
189.38859599999998
 21
188.10388950000001
  0
LINE
  8
_0-0_0
  6
CONTINUOUS
 62
    7
 10
189.38859599999998
 20
188.10388950000001
 11
189.46275299999999
 21
188.3380205
  0
LINE
  8
_0-0_0
  6
CONTINUOUS
 62
    7
 10
189.46275299999999
 20
188.3380205
 11
189.52763399999998
 21
188.56705450000001
  0
LINE
  8
_0-0_0
  6
CONTINUOUS
 62
    7
 10
189.52763399999998
 20
188.56705450000001
 11
189.58367899999999
 21
188.79172550000001
  0
LINE
  8
_0-0_0
  6
CONTINUOUS
 62
    7
 10
189.58367899999999
 20
188.79172550000001
 11
189.63124099999999
 21
189.01270249999999
  0
LINE
  8
_0-0_0
  6
CONTINUOUS
 62
    7
 10
189.63124099999999
 20
189.01270249999999
 11
189.67063899999999
 21
189.23062849999999
  0
LINE
  8
_0-0_0
  6
CONTINUOUS
 62
    7
 10
189.67063899999999
 20
189.23062849999999
 11
189.70213299999998
 21
189.4460675
  0
LINE
  8
_0-0_0
  6
CONTINUOUS
 62
    7
 10
189.70213299999998
 20
189.4460675
 11
189.72590599999998
 21
189.65959950000001
  0
LINE
  8
_0-0_0
  6
CONTINUOUS
 62
    7
 10
189.72590599999998
 20
189.65959950000001
 11
189.74183599999998
 21
189.86731750000001
  0
LINE
  8
_0-0_0
  6
CONTINUOUS
 62
    7
 10
189.74183599999998
 20
189.86731750000001
 11
189.75059499999998
 21
190.07416549999999
  0
LINE
  8
_0-0_0
  6
CONTINUOUS
 62
    7
 10
189.75059499999998
 20
190.07416549999999
 11
189.752228
 21
190.2806315
  0
LINE
  8
_0-0_0
  6
CONTINUOUS
 62
    7
 10
189.752228
 20
190.2806315
 11
189.74676499999998
 21
190.48722050000001
  0
LINE
  8
_0-0_0
  6
CONTINUOUS
 62
    7
 10
189.74676499999998
 20
190.48722050000001
 11
189.73414599999998
 21
190.69440449999999
  0
LINE
  8
_0-0_0
  6
CONTINUOUS
 62
    7
 10
189.73414599999998
 20
190.69440449999999
 11
189.71433999999999
 21
190.9027025
  0
LINE
  8
_0-0_0
  6
CONTINUOUS
 62
    7
 10
189.71433999999999
 20
190.9027025
 11
189.68719499999997
 21
191.1126175
  0
LINE
  8
_0-0_0
  6
CONTINUOUS
 62
    7
 10
189.68719499999997
 20
191.1126175
 11
189.65254199999998
 21
191.32468449999999
  0
LINE
  8
_0-0_0
  6
CONTINUOUS
 62
    7
 10
189.65254199999998
 20
191.32468449999999
 11
189.61019899999999
 21
191.53943649999999
  0
LINE
  8
_0-0_0
  6
CONTINUOUS
 62
    7
 10
189.61019899999999
 20
191.53943649999999
 11
189.55987499999998
 21
191.7574535
  0
LINE
  8
_0-0_0
  6
CONTINUOUS
 62
    7
 10
189.55987499999998
 20
191.7574535
 11
189.50563
 21
191.96372249999999
  0
LINE
  8
_0-0_0
  6
CONTINUOUS
 62
    7
 10
189.50563
 20
191.96372249999999
 11
189.44392399999998
 21
192.1738355
  0
LINE
  8
_0-0_0
  6
CONTINUOUS
 62
    7
 10
189.44392399999998
 20
192.1738355
 11
189.374405
 21
192.38831350000001
  0
LINE
  8
_0-0_0
  6
CONTINUOUS
 62
    7
 10
189.374405
 20
192.38831350000001
 11
189.29669199999998
 21
192.6077195
  0
LINE
  8
_0-0_0
  6
CONTINUOUS
 62
    7
 10
189.29669199999998
 20
192.6077195
 11
189.21031199999999
 21
192.8326945
  0
ARC
  8
_0-0_0
  6
CONTINUOUS
 62
    7
 10
184.33875999999998
 20
186.9749985
 40
4.9136889999999998
 50
352.48898799999995
 51
7.5110139999999577
  0
LINE
  8
_0-0_0
  6
CONTINUOUS
 62
    7
 10
189.21031199999999
 20
186.3326945
 11
189.26480099999998
 21
186.26276350000001
  0
LINE
  8
_0-0_0
  6
CONTINUOUS
 62
    7
 10
189.26480099999998
 20
186.26276350000001
 11
189.31590299999999
 21
186.19393150000002
  0
LINE
  8
_0-0_0
  6
CONTINUOUS
 62
    7
 10
189.31590299999999
 20
186.19393150000002
 11
189.363541
 21
186.12642650000001
  0
LINE
  8
_0-0_0
  6
CONTINUOUS
 62
    7
 10
189.363541
 20
186.12642650000001
 11
189.40803499999998
 21
186.05988350000001
  0
LINE
  8
_0-0_0
  6
CONTINUOUS
 62
    7
 10
189.40803499999998
 20
186.05988350000001
 11
189.46275299999999
 21
185.97234350000002
  0
LINE
  8
_0-0_0
  6
CONTINUOUS
 62
    7
 10
189.46275299999999
 20
185.97234350000002
 11
189.51226799999998
 21
185.88623849999999
  0
LINE
  8
_0-0_0
  6
CONTINUOUS
 62
    7
 10
189.51226799999998
 20
185.88623849999999
 11
189.55673199999998
 21
185.80141450000002
  0
LINE
  8
_0-0_0
  6
CONTINUOUS
 62
    7
 10
189.55673199999998
 20
185.80141450000002
 11
189.60369899999998
 21
185.7010875
  0
LINE
  8
_0-0_0
  6
CONTINUOUS
 62
    7
 10
189.60369899999998
 20
185.7010875
 11
189.64390599999999
 21
185.60216550000001
  0
LINE
  8
_0-0_0
  6
CONTINUOUS
 62
    7
 10
189.64390599999999
 20
185.60216550000001
 11
189.67756599999998
 21
185.5044025
  0
LINE
  8
_0-0_0
  6
CONTINUOUS
 62
    7
 10
189.67756599999998
 20
185.5044025
 11
189.70486399999999
 21
185.4076005
  0
LINE
  8
_0-0_0
  6
CONTINUOUS
 62
    7
 10
189.70486399999999
 20
185.4076005
 11
189.72590599999998
 21
185.31154650000002
  0
LINE
  8
_0-0_0
  6
CONTINUOUS
 62
    7
 10
189.72590599999998
 20
185.31154650000002
 11
189.74183599999998
 21
185.2076945
  0
LINE
  8
_0-0_0
  6
CONTINUOUS
 62
    7
 10
189.74183599999998
 20
185.2076945
 11
189.75059499999998
 21
185.10427049999998
  0
LINE
  8
_0-0_0
  6
CONTINUOUS
 62
    7
 10
189.75059499999998
 20
185.10427049999998
 11
189.752228
 21
185.00102950000002
  0
LINE
  8
_0-0_0
  6
CONTINUOUS
 62
    7
 10
189.752228
 20
185.00102950000002
 11
189.74676499999998
 21
184.89774349999999
  0
LINE
  8
_0-0_0
  6
CONTINUOUS
 62
    7
 10
189.74676499999998
 20
184.89774349999999
 11
189.73414599999998
 21
184.7941515
  0
LINE
  8
_0-0_0
  6
CONTINUOUS
 62
    7
 10
189.73414599999998
 20
184.7941515
 11
189.71433999999999
 21
184.68999450000001
  0
LINE
  8
_0-0_0
  6
CONTINUOUS
 62
    7
 10
189.71433999999999
 20
184.68999450000001
 11
189.68719499999997
 21
184.58504449999998
  0
LINE
  8
_0-0_0
  6
CONTINUOUS
 62
    7
 10
189.68719499999997
 20
184.58504449999998
 11
189.65254199999998
 21
184.47901150000001
  0
LINE
  8
_0-0_0
  6
CONTINUOUS
 62
    7
 10
189.65254199999998
 20
184.47901150000001
 11
189.61019899999999
 21
184.3716355
  0
LINE
  8
_0-0_0
  6
CONTINUOUS
 62
    7
 10
189.61019899999999
 20
184.3716355
 11
189.55987499999998
 21
184.26262650000001
  0
LINE
  8
_0-0_0
  6
CONTINUOUS
 62
    7
 10
189.55987499999998
 20
184.26262650000001
 11
189.51419099999998
 21
184.1749805
  0
LINE
  8
_0-0_0
  6
CONTINUOUS
 62
    7
 10
179.502487
 20
194.1173015
 11
189.21031199999999
 21
194.1173015
  0
LINE
  8
_0-0_0
  6
CONTINUOUS
 62
    7
 10
179.502487
 20
192.8326945
 11
179.502487
 21
194.1173015
  0
LINE
  8
_0-0_0
  6
CONTINUOUS
 62
    7
 10
179.502487
 20
192.8326945
 11
189.21031199999999
 21
192.8326945
  0
ARC
  8
_0-0_0
  6
CONTINUOUS
 62
    7
 10
184.29057299999999
 20
193.47093950000001
 40
4.9620009999999999
 50
1.5813010000000001
 51
7.4847919999999997
  0
LINE
  8
_0-0_0
  6
CONTINUOUS
 62
    7
 10
179.202484
 20
188.01297750000001
 11
179.11901799999998
 21
188.39165450000002
  0
LINE
  8
_0-0_0
  6
CONTINUOUS
 62
    7
 10
179.11901799999998
 20
188.39165450000002
 11
179.07893399999998
 21
188.58318349999999
  0
LINE
  8
_0-0_0
  6
CONTINUOUS
 62
    7
 10
179.07893399999998
 20
188.58318349999999
 11
179.022842
 21
188.87320750000001
  0
LINE
  8
_0-0_0
  6
CONTINUOUS
 62
    7
 10
179.022842
 20
188.87320750000001
 11
178.98524499999999
 21
189.09279649999999
  0
LINE
  8
_0-0_0
  6
CONTINUOUS
 62
    7
 10
178.98524499999999
 20
189.09279649999999
 11
178.95260599999997
 21
189.31404850000001
  0
LINE
  8
_0-0_0
  6
CONTINUOUS
 62
    7
 10
178.95260599999997
 20
189.31404850000001
 11
178.925445
 21
189.5408405
  0
LINE
  8
_0-0_0
  6
CONTINUOUS
 62
    7
 10
178.925445
 20
189.5408405
 11
178.90537999999998
 21
189.76824149999999
  0
LINE
  8
_0-0_0
  6
CONTINUOUS
 62
    7
 10
178.90537999999998
 20
189.76824149999999
 11
178.898224
 21
189.88196550000001
  0
LINE
  8
_0-0_0
  6
CONTINUOUS
 62
    7
 10
178.898224
 20
189.88196550000001
 11
178.89306599999998
 21
189.9956435
  0
LINE
  8
_0-0_0
  6
CONTINUOUS
 62
    7
 10
178.89306599999998
 20
189.9956435
 11
178.889343
 21
190.1470875
  0
LINE
  8
_0-0_0
  6
CONTINUOUS
 62
    7
 10
178.889343
 20
190.1470875
 11
178.88928199999998
 21
190.29834750000001
  0
LINE
  8
_0-0_0
  6
CONTINUOUS
 62
    7
 10
178.88928199999998
 20
190.29834750000001
 11
178.89286799999999
 21
190.44939450000001
  0
LINE
  8
_0-0_0
  6
CONTINUOUS
 62
    7
 10
178.89286799999999
 20
190.44939450000001
 11
178.90237399999998
 21
190.6379475
  0
LINE
  8
_0-0_0
  6
CONTINUOUS
 62
    7
 10
178.90237399999998
 20
190.6379475
 11
178.917236
 21
190.82619450000001
  0
LINE
  8
_0-0_0
  6
CONTINUOUS
 62
    7
 10
178.917236
 20
190.82619450000001
 11
178.937164
 21
191.0141375
  0
LINE
  8
_0-0_0
  6
CONTINUOUS
 62
    7
 10
178.937164
 20
191.0141375
 11
178.953552
 21
191.1430125
  0
LINE
  8
_0-0_0
  6
CONTINUOUS
 62
    7
 10
178.953552
 20
191.1430125
 11
178.97195399999998
 21
191.2716595
  0
LINE
  8
_0-0_0
  6
CONTINUOUS
 62
    7
 10
178.97195399999998
 20
191.2716595
 11
178.99612399999998
 21
191.42359150000001
  0
LINE
  8
_0-0_0
  6
CONTINUOUS
 62
    7
 10
178.99612399999998
 20
191.42359150000001
 11
179.02252199999998
 21
191.5749285
  0
LINE
  8
_0-0_0
  6
CONTINUOUS
 62
    7
 10
179.02252199999998
 20
191.5749285
 11
179.078689
 21
191.86554749999999
  0
LINE
  8
_0-0_0
  6
CONTINUOUS
 62
    7
 10
179.078689
 20
191.86554749999999
 11
179.11885099999998
 21
192.0575025
  0
LINE
  8
_0-0_0
  6
CONTINUOUS
 62
    7
 10
179.11885099999998
 20
192.0575025
 11
179.202484
 21
192.4370045
  0
LINE
  8
_0-0_0
  6
CONTINUOUS
 62
    7
 10
179.502487
 20
188.66295650000001
 11
179.502487
 21
191.78705550000001
  0
LINE
  8
_0-0_0
  6
CONTINUOUS
 62
    7
 10
204.252487
 20
180.69956250000001
 11
204.002487
 21
180.67501049999998
  0
LINE
  8
_0-0_0
  6
CONTINUOUS
 62
    7
 10
204.002487
 20
180.67501049999998
 11
194.752487
 21
180.67501049999998
  0
LINE
  8
_0-0_0
  6
CONTINUOUS
 62
    7
 10
194.502487
 20
180.69956250000001
 11
194.752487
 21
180.67501049999998
  0
LINE
  8
_0-0_0
  6
CONTINUOUS
 62
    7
 10
204.252487
 20
183.6735765
 11
204.002487
 21
183.94754749999998
  0
LINE
  8
_0-0_0
  6
CONTINUOUS
 62
    7
 10
204.252487
 20
183.6735765
 11
204.002487
 21
183.7828595
  0
LINE
  8
_0-0_0
  6
CONTINUOUS
 62
    7
 10
204.252487
 20
183.51599849999999
 11
204.002487
 21
183.7828595
  0
LINE
  8
_0-0_0
  6
CONTINUOUS
 62
    7
 10
204.252487
 20
183.51599849999999
 11
204.002487
 21
183.59783149999998
  0
LINE
  8
_0-0_0
  6
CONTINUOUS
 62
    7
 10
204.252487
 20
183.3409805
 11
204.002487
 21
183.59783149999998
  0
LINE
  8
_0-0_0
  6
CONTINUOUS
 62
    7
 10
204.252487
 20
183.3409805
 11
204.002487
 21
183.3944625
  0
LINE
  8
_0-0_0
  6
CONTINUOUS
 62
    7
 10
204.252487
 20
183.15044449999999
 11
204.002487
 21
183.3944625
  0
LINE
  8
_0-0_0
  6
CONTINUOUS
 62
    7
 10
204.252487
 20
183.15044449999999
 11
204.002487
 21
183.17501049999998
  0
LINE
  8
_0-0_0
  6
CONTINUOUS
 62
    7
 10
204.252487
 20
182.94647950000001
 11
204.002487
 21
183.17501049999998
  0
LINE
  8
_0-0_0
  6
CONTINUOUS
 62
    7
 10
204.252487
 20
182.94647950000001
 11
204.002487
 21
182.94184150000001
  0
LINE
  8
_0-0_0
  6
CONTINUOUS
 62
    7
 10
204.252487
 20
182.73133050000001
 11
204.002487
 21
182.94184150000001
  0
LINE
  8
_0-0_0
  6
CONTINUOUS
 62
    7
 10
204.252487
 20
182.73133050000001
 11
204.002487
 21
182.69754749999998
  0
LINE
  8
_0-0_0
  6
CONTINUOUS
 62
    7
 10
204.252487
 20
182.50734750000001
 11
204.002487
 21
182.69754749999998
  0
LINE
  8
_0-0_0
  6
CONTINUOUS
 62
    7
 10
204.252487
 20
182.50734750000001
 11
204.002487
 21
182.44478650000002
  0
LINE
  8
_0-0_0
  6
CONTINUOUS
 62
    7
 10
204.252487
 20
182.27698549999999
 11
204.002487
 21
182.44478650000002
  0
LINE
  8
_0-0_0
  6
CONTINUOUS
 62
    7
 10
204.252487
 20
182.27698549999999
 11
204.002487
 21
182.18633249999999
  0
LINE
  8
_0-0_0
  6
CONTINUOUS
 62
    7
 10
204.252487
 20
182.04276249999998
 11
204.002487
 21
182.18633249999999
  0
LINE
  8
_0-0_0
  6
CONTINUOUS
 62
    7
 10
204.252487
 20
182.04276249999998
 11
204.002487
 21
181.92501049999998
  0
LINE
  8
_0-0_0
  6
CONTINUOUS
 62
    7
 10
204.252487
 20
181.8072435
 11
204.002487
 21
181.92501049999998
  0
LINE
  8
_0-0_0
  6
CONTINUOUS
 62
    7
 10
204.252487
 20
181.8072435
 11
204.002487
 21
181.66368850000001
  0
LINE
  8
_0-0_0
  6
CONTINUOUS
 62
    7
 10
204.252487
 20
181.57302049999998
 11
204.002487
 21
181.66368850000001
  0
LINE
  8
_0-0_0
  6
CONTINUOUS
 62
    7
 10
204.252487
 20
181.57302049999998
 11
204.002487
 21
181.4052355
  0
LINE
  8
_0-0_0
  6
CONTINUOUS
 62
    7
 10
204.252487
 20
181.3426585
 11
204.002487
 21
181.4052355
  0
LINE
  8
_0-0_0
  6
CONTINUOUS
 62
    7
 10
204.252487
 20
181.3426585
 11
204.002487
 21
181.15245850000002
  0
LINE
  8
_0-0_0
  6
CONTINUOUS
 62
    7
 10
204.252487
 20
181.11867549999999
 11
204.002487
 21
181.15245850000002
  0
LINE
  8
_0-0_0
  6
CONTINUOUS
 62
    7
 10
204.252487
 20
181.11867549999999
 11
204.002487
 21
180.9081645
  0
LINE
  8
_0-0_0
  6
CONTINUOUS
 62
    7
 10
204.252487
 20
180.9035265
 11
204.002487
 21
180.9081645
  0
LINE
  8
_0-0_0
  6
CONTINUOUS
 62
    7
 10
204.252487
 20
180.9035265
 11
204.002487
 21
180.67501049999998
  0
LINE
  8
_0-0_0
  6
CONTINUOUS
 62
    7
 10
204.252487
 20
180.69956250000001
 11
204.002487
 21
180.4555435
  0
LINE
  8
_0-0_0
  6
CONTINUOUS
 62
    7
 10
204.252487
 20
180.50902550000001
 11
204.002487
 21
180.4555435
  0
LINE
  8
_0-0_0
  6
CONTINUOUS
 62
    7
 10
204.252487
 20
180.50902550000001
 11
204.002487
 21
180.2521745
  0
LINE
  8
_0-0_0
  6
CONTINUOUS
 62
    7
 10
204.252487
 20
180.33400749999998
 11
204.002487
 21
180.2521745
  0
LINE
  8
_0-0_0
  6
CONTINUOUS
 62
    7
 10
204.252487
 20
180.33400749999998
 11
204.002487
 21
180.06714650000001
  0
LINE
  8
_0-0_0
  6
CONTINUOUS
 62
    7
 10
204.252487
 20
180.17642949999998
 11
204.002487
 21
180.06714650000001
  0
LINE
  8
_0-0_0
  6
CONTINUOUS
 62
    7
 10
204.252487
 20
180.17642949999998
 11
204.002487
 21
179.90245850000002
  0
LINE
  8
_0-0_0
  6
CONTINUOUS
 62
    7
 10
204.252487
 20
180.03800150000001
 11
204.002487
 21
179.90245850000002
  0
LINE
  8
_0-0_0
  6
CONTINUOUS
 62
    7
 10
204.252487
 20
180.03800150000001
 11
204.002487
 21
179.7599415
  0
LINE
  8
_0-0_0
  6
CONTINUOUS
 62
    7
 10
204.252487
 20
179.92023449999999
 11
204.002487
 21
179.7599415
  0
LINE
  8
_0-0_0
  6
CONTINUOUS
 62
    7
 10
204.252487
 20
179.92023449999999
 11
204.002487
 21
179.64113650000002
  0
LINE
  8
_0-0_0
  6
CONTINUOUS
 62
    7
 10
204.252487
 20
179.8244555
 11
204.002487
 21
179.64113650000002
  0
LINE
  8
_0-0_0
  6
CONTINUOUS
 62
    7
 10
204.252487
 20
179.8244555
 11
204.002487
 21
179.54735550000001
  0
LINE
  8
_0-0_0
  6
CONTINUOUS
 62
    7
 10
204.252487
 20
179.75167049999999
 11
204.002487
 21
179.54735550000001
  0
LINE
  8
_0-0_0
  6
CONTINUOUS
 62
    7
 10
204.252487
 20
179.75167049999999
 11
204.002487
 21
179.4796375
  0
LINE
  8
_0-0_0
  6
CONTINUOUS
 62
    7
 10
204.252487
 20
179.70270550000001
 11
204.002487
 21
179.4796375
  0
LINE
  8
_0-0_0
  6
CONTINUOUS
 62
    7
 10
204.252487
 20
179.70270550000001
 11
204.002487
 21
179.43869749999999
  0
LINE
  8
_0-0_0
  6
CONTINUOUS
 62
    7
 10
204.252487
 20
179.67809249999999
 11
204.002487
 21
179.43869749999999
  0
LINE
  8
_0-0_0
  6
CONTINUOUS
 62
    7
 10
204.252487
 20
179.67809249999999
 11
204.002487
 21
179.42501049999998
  0
LINE
  8
_0-0_0
  6
CONTINUOUS
 62
    7
 10
204.502487
 20
179.92501049999998
 11
204.502487
 21
183.68016850000001
  0
LINE
  8
_0-0_0
  6
CONTINUOUS
 62
    7
 10
204.12252799999999
 20
184.01361850000001
 11
204.002487
 21
184.09006449999998
  0
LINE
  8
_0-0_0
  6
CONTINUOUS
 62
    7
 10
204.252487
 20
183.81201950000002
 11
204.002487
 21
184.09006449999998
  0
LINE
  8
_0-0_0
  6
CONTINUOUS
 62
    7
 10
204.252487
 20
183.81201950000002
 11
204.002487
 21
183.94754749999998
  0
LINE
  8
_0-0_0
  6
CONTINUOUS
 62
    7
 10
204.002487
 20
183.7828595
 11
194.752487
 21
183.7828595
  0
LINE
  8
_0-0_0
  6
CONTINUOUS
 62
    7
 10
194.502487
 20
183.6735765
 11
194.752487
 21
183.7828595
  0
LINE
  8
_0-0_0
  6
CONTINUOUS
 62
    7
 10
204.002487
 20
183.59783149999998
 11
194.752487
 21
183.59783149999998
  0
LINE
  8
_0-0_0
  6
CONTINUOUS
 62
    7
 10
194.502487
 20
183.51599849999999
 11
194.752487
 21
183.59783149999998
  0
LINE
  8
_0-0_0
  6
CONTINUOUS
 62
    7
 10
204.002487
 20
183.3944625
 11
194.752487
 21
183.3944625
  0
LINE
  8
_0-0_0
  6
CONTINUOUS
 62
    7
 10
194.502487
 20
183.3409805
 11
194.752487
 21
183.3944625
  0
LINE
  8
_0-0_0
  6
CONTINUOUS
 62
    7
 10
204.002487
 20
183.17501049999998
 11
194.752487
 21
183.17501049999998
  0
LINE
  8
_0-0_0
  6
CONTINUOUS
 62
    7
 10
194.502487
 20
183.15044449999999
 11
194.752487
 21
183.17501049999998
  0
LINE
  8
_0-0_0
  6
CONTINUOUS
 62
    7
 10
204.002487
 20
182.94184150000001
 11
194.752487
 21
182.94184150000001
  0
LINE
  8
_0-0_0
  6
CONTINUOUS
 62
    7
 10
204.252487
 20
182.94647950000001
 11
194.502487
 21
182.94647950000001
  0
LINE
  8
_0-0_0
  6
CONTINUOUS
 62
    7
 10
194.502487
 20
182.94647950000001
 11
194.752487
 21
182.94184150000001
  0
LINE
  8
_0-0_0
  6
CONTINUOUS
 62
    7
 10
204.002487
 20
182.69754749999998
 11
194.752487
 21
182.69754749999998
  0
LINE
  8
_0-0_0
  6
CONTINUOUS
 62
    7
 10
204.252487
 20
182.73133050000001
 11
194.502487
 21
182.73133050000001
  0
LINE
  8
_0-0_0
  6
CONTINUOUS
 62
    7
 10
194.502487
 20
182.73133050000001
 11
194.752487
 21
182.69754749999998
  0
LINE
  8
_0-0_0
  6
CONTINUOUS
 62
    7
 10
204.002487
 20
182.44478650000002
 11
194.752487
 21
182.44478650000002
  0
LINE
  8
_0-0_0
  6
CONTINUOUS
 62
    7
 10
204.252487
 20
182.50734750000001
 11
194.502487
 21
182.50734750000001
  0
LINE
  8
_0-0_0
  6
CONTINUOUS
 62
    7
 10
194.502487
 20
182.50734750000001
 11
194.752487
 21
182.44478650000002
  0
LINE
  8
_0-0_0
  6
CONTINUOUS
 62
    7
 10
204.002487
 20
182.18633249999999
 11
194.752487
 21
182.18633249999999
  0
LINE
  8
_0-0_0
  6
CONTINUOUS
 62
    7
 10
204.252487
 20
182.27698549999999
 11
194.502487
 21
182.27698549999999
  0
LINE
  8
_0-0_0
  6
CONTINUOUS
 62
    7
 10
194.502487
 20
182.27698549999999
 11
194.752487
 21
182.18633249999999
  0
LINE
  8
_0-0_0
  6
CONTINUOUS
 62
    7
 10
204.002487
 20
181.92501049999998
 11
194.752487
 21
181.92501049999998
  0
LINE
  8
_0-0_0
  6
CONTINUOUS
 62
    7
 10
204.252487
 20
182.04276249999998
 11
194.502487
 21
182.04276249999998
  0
LINE
  8
_0-0_0
  6
CONTINUOUS
 62
    7
 10
194.502487
 20
182.04276249999998
 11
194.752487
 21
181.92501049999998
  0
LINE
  8
_0-0_0
  6
CONTINUOUS
 62
    7
 10
204.002487
 20
181.66368850000001
 11
194.752487
 21
181.66368850000001
  0
LINE
  8
_0-0_0
  6
CONTINUOUS
 62
    7
 10
204.252487
 20
181.8072435
 11
194.502487
 21
181.8072435
  0
LINE
  8
_0-0_0
  6
CONTINUOUS
 62
    7
 10
194.502487
 20
181.8072435
 11
194.752487
 21
181.66368850000001
  0
LINE
  8
_0-0_0
  6
CONTINUOUS
 62
    7
 10
204.002487
 20
181.4052355
 11
194.752487
 21
181.4052355
  0
LINE
  8
_0-0_0
  6
CONTINUOUS
 62
    7
 10
204.252487
 20
181.57302049999998
 11
194.502487
 21
181.57302049999998
  0
LINE
  8
_0-0_0
  6
CONTINUOUS
 62
    7
 10
194.502487
 20
181.57302049999998
 11
194.752487
 21
181.4052355
  0
LINE
  8
_0-0_0
  6
CONTINUOUS
 62
    7
 10
204.002487
 20
181.15245850000002
 11
194.752487
 21
181.15245850000002
  0
LINE
  8
_0-0_0
  6
CONTINUOUS
 62
    7
 10
204.252487
 20
181.3426585
 11
194.502487
 21
181.3426585
  0
LINE
  8
_0-0_0
  6
CONTINUOUS
 62
    7
 10
194.502487
 20
181.3426585
 11
194.752487
 21
181.15245850000002
  0
LINE
  8
_0-0_0
  6
CONTINUOUS
 62
    7
 10
204.002487
 20
180.9081645
 11
194.752487
 21
180.9081645
  0
LINE
  8
_0-0_0
  6
CONTINUOUS
 62
    7
 10
204.252487
 20
181.11867549999999
 11
194.502487
 21
181.11867549999999
  0
LINE
  8
_0-0_0
  6
CONTINUOUS
 62
    7
 10
194.502487
 20
181.11867549999999
 11
194.752487
 21
180.9081645
  0
LINE
  8
_0-0_0
  6
CONTINUOUS
 62
    7
 10
204.002487
 20
180.2521745
 11
194.752487
 21
180.2521745
  0
LINE
  8
_0-0_0
  6
CONTINUOUS
 62
    7
 10
194.502487
 20
180.50902550000001
 11
194.752487
 21
180.2521745
  0
LINE
  8
_0-0_0
  6
CONTINUOUS
 62
    7
 10
204.002487
 20
180.06714650000001
 11
194.752487
 21
180.06714650000001
  0
LINE
  8
_0-0_0
  6
CONTINUOUS
 62
    7
 10
194.502487
 20
180.33400749999998
 11
194.752487
 21
180.06714650000001
  0
LINE
  8
_0-0_0
  6
CONTINUOUS
 62
    7
 10
204.002487
 20
179.90245850000002
 11
194.752487
 21
179.90245850000002
  0
LINE
  8
_0-0_0
  6
CONTINUOUS
 62
    7
 10
194.502487
 20
180.17642949999998
 11
194.752487
 21
179.90245850000002
  0
LINE
  8
_0-0_0
  6
CONTINUOUS
 62
    7
 10
204.002487
 20
179.7599415
 11
194.752487
 21
179.7599415
  0
LINE
  8
_0-0_0
  6
CONTINUOUS
 62
    7
 10
194.502487
 20
180.03800150000001
 11
194.752487
 21
179.7599415
  0
LINE
  8
_0-0_0
  6
CONTINUOUS
 62
    7
 10
204.002487
 20
179.64113650000002
 11
194.752487
 21
179.64113650000002
  0
LINE
  8
_0-0_0
  6
CONTINUOUS
 62
    7
 10
194.502487
 20
179.92023449999999
 11
194.752487
 21
179.64113650000002
  0
LINE
  8
_0-0_0
  6
CONTINUOUS
 62
    7
 10
204.002487
 20
179.54735550000001
 11
194.752487
 21
179.54735550000001
  0
LINE
  8
_0-0_0
  6
CONTINUOUS
 62
    7
 10
194.502487
 20
179.8244555
 11
194.752487
 21
179.54735550000001
  0
LINE
  8
_0-0_0
  6
CONTINUOUS
 62
    7
 10
204.002487
 20
179.4796375
 11
194.752487
 21
179.4796375
  0
LINE
  8
_0-0_0
  6
CONTINUOUS
 62
    7
 10
194.502487
 20
179.75167049999999
 11
194.752487
 21
179.4796375
  0
LINE
  8
_0-0_0
  6
CONTINUOUS
 62
    7
 10
204.002487
 20
179.43869749999999
 11
194.752487
 21
179.43869749999999
  0
LINE
  8
_0-0_0
  6
CONTINUOUS
 62
    7
 10
194.502487
 20
179.70270550000001
 11
194.752487
 21
179.43869749999999
  0
LINE
  8
_0-0_0
  6
CONTINUOUS
 62
    7
 10
204.002487
 20
179.42501049999998
 11
194.752487
 21
179.42501049999998
  0
LINE
  8
_0-0_0
  6
CONTINUOUS
 62
    7
 10
194.502487
 20
179.67809249999999
 11
194.752487
 21
179.42501049999998
  0
LINE
  8
_0-0_0
  6
CONTINUOUS
 62
    7
 10
204.002487
 20
184.09006449999998
 11
194.752487
 21
184.09006449999998
  0
LINE
  8
_0-0_0
  6
CONTINUOUS
 62
    7
 10
204.252487
 20
183.92977150000002
 11
204.12252799999999
 21
184.01361850000001
  0
LINE
  8
_0-0_0
  6
CONTINUOUS
 62
    7
 10
194.502487
 20
183.92977150000002
 11
194.63246099999998
 21
184.01361850000001
  0
LINE
  8
_0-0_0
  6
CONTINUOUS
 62
    7
 10
194.63246099999998
 20
184.01361850000001
 11
194.752487
 21
184.09006449999998
  0
LINE
  8
_0-0_0
  6
CONTINUOUS
 62
    7
 10
204.002487
 20
183.94754749999998
 11
194.752487
 21
183.94754749999998
  0
LINE
  8
_0-0_0
  6
CONTINUOUS
 62
    7
 10
194.502487
 20
183.81201950000002
 11
194.752487
 21
183.94754749999998
  0
LINE
  8
_0-0_0
  6
CONTINUOUS
 62
    7
 10
204.252487
 20
183.92977150000002
 11
204.002487
 21
184.20886949999999
  0
LINE
  8
_0-0_0
  6
CONTINUOUS
 62
    7
 10
204.002487
 20
184.20886949999999
 11
194.752487
 21
184.20886949999999
  0
LINE
  8
_0-0_0
  6
CONTINUOUS
 62
    7
 10
194.502487
 20
183.92977150000002
 11
194.752487
 21
184.20886949999999
  0
LINE
  8
_0-0_0
  6
CONTINUOUS
 62
    7
 10
204.252487
 20
184.0255665
 11
204.002487
 21
184.20886949999999
  0
LINE
  8
_0-0_0
  6
CONTINUOUS
 62
    7
 10
194.502487
 20
184.0255665
 11
194.752487
 21
184.20886949999999
  0
LINE
  8
_0-0_0
  6
CONTINUOUS
 62
    7
 10
204.252487
 20
184.0255665
 11
204.002487
 21
184.3026505
  0
LINE
  8
_0-0_0
  6
CONTINUOUS
 62
    7
 10
204.002487
 20
184.3026505
 11
194.752487
 21
184.3026505
  0
LINE
  8
_0-0_0
  6
CONTINUOUS
 62
    7
 10
194.502487
 20
184.0255665
 11
194.752487
 21
184.3026505
  0
LINE
  8
_0-0_0
  6
CONTINUOUS
 62
    7
 10
204.252487
 20
184.09833550000002
 11
204.002487
 21
184.3026505
  0
LINE
  8
_0-0_0
  6
CONTINUOUS
 62
    7
 10
194.502487
 20
184.09833550000002
 11
194.752487
 21
184.3026505
  0
LINE
  8
_0-0_0
  6
CONTINUOUS
 62
    7
 10
204.252487
 20
184.09833550000002
 11
204.002487
 21
184.37036849999998
  0
LINE
  8
_0-0_0
  6
CONTINUOUS
 62
    7
 10
204.002487
 20
184.37036849999998
 11
194.752487
 21
184.37036849999998
  0
LINE
  8
_0-0_0
  6
CONTINUOUS
 62
    7
 10
194.502487
 20
184.09833550000002
 11
194.752487
 21
184.37036849999998
  0
LINE
  8
_0-0_0
  6
CONTINUOUS
 62
    7
 10
204.252487
 20
184.1473005
 11
204.002487
 21
184.37036849999998
  0
LINE
  8
_0-0_0
  6
CONTINUOUS
 62
    7
 10
194.502487
 20
184.1473005
 11
194.752487
 21
184.37036849999998
  0
LINE
  8
_0-0_0
  6
CONTINUOUS
 62
    7
 10
204.252487
 20
184.1473005
 11
204.002487
 21
184.41130850000002
  0
LINE
  8
_0-0_0
  6
CONTINUOUS
 62
    7
 10
204.002487
 20
184.41130850000002
 11
194.752487
 21
184.41130850000002
  0
LINE
  8
_0-0_0
  6
CONTINUOUS
 62
    7
 10
194.502487
 20
184.1473005
 11
194.752487
 21
184.41130850000002
  0
LINE
  8
_0-0_0
  6
CONTINUOUS
 62
    7
 10
204.252487
 20
184.17192850000001
 11
204.002487
 21
184.41130850000002
  0
LINE
  8
_0-0_0
  6
CONTINUOUS
 62
    7
 10
194.502487
 20
184.17192850000001
 11
194.752487
 21
184.41130850000002
  0
LINE
  8
_0-0_0
  6
CONTINUOUS
 62
    7
 10
204.252487
 20
184.17192850000001
 11
204.002487
 21
184.42501049999998
  0
LINE
  8
_0-0_0
  6
CONTINUOUS
 62
    7
 10
204.002487
 20
184.42501049999998
 11
194.752487
 21
184.42501049999998
  0
LINE
  8
_0-0_0
  6
CONTINUOUS
 62
    7
 10
194.502487
 20
184.17192850000001
 11
194.752487
 21
184.42501049999998
  0
LINE
  8
_0-0_0
  6
CONTINUOUS
 62
    7
 10
204.252487
 20
197.29956849999999
 11
204.002487
 21
197.2750015
  0
LINE
  8
_0-0_0
  6
CONTINUOUS
 62
    7
 10
204.002487
 20
197.2750015
 11
194.752487
 21
197.2750015
  0
LINE
  8
_0-0_0
  6
CONTINUOUS
 62
    7
 10
194.502487
 20
197.29956849999999
 11
194.752487
 21
197.2750015
  0
LINE
  8
_0-0_0
  6
CONTINUOUS
 62
    7
 10
204.252487
 20
200.2735825
 11
204.002487
 21
200.5475385
  0
LINE
  8
_0-0_0
  6
CONTINUOUS
 62
    7
 10
204.252487
 20
200.2735825
 11
204.002487
 21
200.38286550000001
  0
LINE
  8
_0-0_0
  6
CONTINUOUS
 62
    7
 10
204.252487
 20
200.11598950000001
 11
204.002487
 21
200.38286550000001
  0
LINE
  8
_0-0_0
  6
CONTINUOUS
 62
    7
 10
204.252487
 20
200.11598950000001
 11
204.002487
 21
200.1978225
  0
LINE
  8
_0-0_0
  6
CONTINUOUS
 62
    7
 10
204.252487
 20
199.94097149999999
 11
204.002487
 21
200.1978225
  0
LINE
  8
_0-0_0
  6
CONTINUOUS
 62
    7
 10
204.252487
 20
199.94097149999999
 11
204.002487
 21
199.99446850000001
  0
LINE
  8
_0-0_0
  6
CONTINUOUS
 62
    7
 10
204.252487
 20
199.75043450000001
 11
204.002487
 21
199.99446850000001
  0
LINE
  8
_0-0_0
  6
CONTINUOUS
 62
    7
 10
204.252487
 20
199.75043450000001
 11
204.002487
 21
199.7750015
  0
LINE
  8
_0-0_0
  6
CONTINUOUS
 62
    7
 10
204.252487
 20
199.54648549999999
 11
204.002487
 21
199.7750015
  0
LINE
  8
_0-0_0
  6
CONTINUOUS
 62
    7
 10
204.252487
 20
199.54648549999999
 11
204.002487
 21
199.54184749999999
  0
LINE
  8
_0-0_0
  6
CONTINUOUS
 62
    7
 10
204.252487
 20
199.33133649999999
 11
204.002487
 21
199.54184749999999
  0
LINE
  8
_0-0_0
  6
CONTINUOUS
 62
    7
 10
204.252487
 20
199.33133649999999
 11
204.002487
 21
199.2975385
  0
LINE
  8
_0-0_0
  6
CONTINUOUS
 62
    7
 10
204.252487
 20
199.1073375
 11
204.002487
 21
199.2975385
  0
LINE
  8
_0-0_0
  6
CONTINUOUS
 62
    7
 10
204.252487
 20
199.1073375
 11
204.002487
 21
199.04477650000001
  0
LINE
  8
_0-0_0
  6
CONTINUOUS
 62
    7
 10
204.252487
 20
198.87697550000001
 11
204.002487
 21
199.04477650000001
  0
LINE
  8
_0-0_0
  6
CONTINUOUS
 62
    7
 10
204.252487
 20
198.87697550000001
 11
204.002487
 21
198.78632350000001
  0
LINE
  8
_0-0_0
  6
CONTINUOUS
 62
    7
 10
204.252487
 20
198.6427535
 11
204.002487
 21
198.78632350000001
  0
LINE
  8
_0-0_0
  6
CONTINUOUS
 62
    7
 10
204.252487
 20
198.6427535
 11
204.002487
 21
198.5250015
  0
LINE
  8
_0-0_0
  6
CONTINUOUS
 62
    7
 10
204.252487
 20
198.40724950000001
 11
204.002487
 21
198.5250015
  0
LINE
  8
_0-0_0
  6
CONTINUOUS
 62
    7
 10
204.252487
 20
198.40724950000001
 11
204.002487
 21
198.26367949999999
  0
LINE
  8
_0-0_0
  6
CONTINUOUS
 62
    7
 10
204.252487
 20
198.17302749999999
 11
204.002487
 21
198.26367949999999
  0
LINE
  8
_0-0_0
  6
CONTINUOUS
 62
    7
 10
204.252487
 20
198.17302749999999
 11
204.002487
 21
198.00522649999999
  0
LINE
  8
_0-0_0
  6
CONTINUOUS
 62
    7
 10
204.252487
 20
197.9426655
 11
204.002487
 21
198.00522649999999
  0
LINE
  8
_0-0_0
  6
CONTINUOUS
 62
    7
 10
204.252487
 20
197.9426655
 11
204.002487
 21
197.7524645
  0
LINE
  8
_0-0_0
  6
CONTINUOUS
 62
    7
 10
204.252487
 20
197.71866650000001
 11
204.002487
 21
197.7524645
  0
LINE
  8
_0-0_0
  6
CONTINUOUS
 62
    7
 10
204.252487
 20
197.71866650000001
 11
204.002487
 21
197.50815550000002
  0
LINE
  8
_0-0_0
  6
CONTINUOUS
 62
    7
 10
204.252487
 20
197.50351750000002
 11
204.002487
 21
197.50815550000002
  0
LINE
  8
_0-0_0
  6
CONTINUOUS
 62
    7
 10
204.252487
 20
197.50351750000002
 11
204.002487
 21
197.2750015
  0
LINE
  8
_0-0_0
  6
CONTINUOUS
 62
    7
 10
204.252487
 20
197.29956849999999
 11
204.002487
 21
197.05553449999999
  0
LINE
  8
_0-0_0
  6
CONTINUOUS
 62
    7
 10
204.252487
 20
197.10903150000001
 11
204.002487
 21
197.05553449999999
  0
LINE
  8
_0-0_0
  6
CONTINUOUS
 62
    7
 10
204.252487
 20
197.10903150000001
 11
204.002487
 21
196.8521805
  0
LINE
  8
_0-0_0
  6
CONTINUOUS
 62
    7
 10
204.252487
 20
196.93401349999999
 11
204.002487
 21
196.8521805
  0
LINE
  8
_0-0_0
  6
CONTINUOUS
 62
    7
 10
204.252487
 20
196.93401349999999
 11
204.002487
 21
196.6671375
  0
LINE
  8
_0-0_0
  6
CONTINUOUS
 62
    7
 10
204.252487
 20
196.7764205
 11
204.002487
 21
196.6671375
  0
LINE
  8
_0-0_0
  6
CONTINUOUS
 62
    7
 10
204.252487
 20
196.7764205
 11
204.002487
 21
196.5024645
  0
LINE
  8
_0-0_0
  6
CONTINUOUS
 62
    7
 10
204.252487
 20
196.6379925
 11
204.002487
 21
196.5024645
  0
LINE
  8
_0-0_0
  6
CONTINUOUS
 62
    7
 10
204.252487
 20
196.6379925
 11
204.002487
 21
196.35993150000002
  0
LINE
  8
_0-0_0
  6
CONTINUOUS
 62
    7
 10
204.252487
 20
196.5202405
 11
204.002487
 21
196.35993150000002
  0
LINE
  8
_0-0_0
  6
CONTINUOUS
 62
    7
 10
204.252487
 20
196.5202405
 11
204.002487
 21
196.2411425
  0
LINE
  8
_0-0_0
  6
CONTINUOUS
 62
    7
 10
204.252487
 20
196.42444649999999
 11
204.002487
 21
196.2411425
  0
LINE
  8
_0-0_0
  6
CONTINUOUS
 62
    7
 10
204.252487
 20
196.42444649999999
 11
204.002487
 21
196.14736149999999
  0
LINE
  8
_0-0_0
  6
CONTINUOUS
 62
    7
 10
204.252487
 20
196.35166150000001
 11
204.002487
 21
196.14736149999999
  0
LINE
  8
_0-0_0
  6
CONTINUOUS
 62
    7
 10
204.252487
 20
196.35166150000001
 11
204.002487
 21
196.07962750000002
  0
LINE
  8
_0-0_0
  6
CONTINUOUS
 62
    7
 10
204.252487
 20
196.3026965
 11
204.002487
 21
196.07962750000002
  0
LINE
  8
_0-0_0
  6
CONTINUOUS
 62
    7
 10
204.252487
 20
196.3026965
 11
204.002487
 21
196.0387035
  0
LINE
  8
_0-0_0
  6
CONTINUOUS
 62
    7
 10
204.252487
 20
196.27808350000001
 11
204.002487
 21
196.0387035
  0
LINE
  8
_0-0_0
  6
CONTINUOUS
 62
    7
 10
204.252487
 20
196.27808350000001
 11
204.002487
 21
196.0250015
  0
LINE
  8
_0-0_0
  6
CONTINUOUS
 62
    7
 10
204.502487
 20
196.5250015
 11
204.502487
 21
200.2801585
  0
LINE
  8
_0-0_0
  6
CONTINUOUS
 62
    7
 10
204.12252799999999
 20
200.61362450000001
 11
204.002487
 21
200.69007149999999
  0
LINE
  8
_0-0_0
  6
CONTINUOUS
 62
    7
 10
204.252487
 20
200.41201050000001
 11
204.002487
 21
200.69007149999999
  0
LINE
  8
_0-0_0
  6
CONTINUOUS
 62
    7
 10
204.252487
 20
200.41201050000001
 11
204.002487
 21
200.5475385
  0
LINE
  8
_0-0_0
  6
CONTINUOUS
 62
    7
 10
204.002487
 20
200.38286550000001
 11
194.752487
 21
200.38286550000001
  0
LINE
  8
_0-0_0
  6
CONTINUOUS
 62
    7
 10
194.502487
 20
200.2735825
 11
194.752487
 21
200.38286550000001
  0
LINE
  8
_0-0_0
  6
CONTINUOUS
 62
    7
 10
204.002487
 20
200.1978225
 11
194.752487
 21
200.1978225
  0
LINE
  8
_0-0_0
  6
CONTINUOUS
 62
    7
 10
194.502487
 20
200.11598950000001
 11
194.752487
 21
200.1978225
  0
LINE
  8
_0-0_0
  6
CONTINUOUS
 62
    7
 10
204.002487
 20
199.99446850000001
 11
194.752487
 21
199.99446850000001
  0
LINE
  8
_0-0_0
  6
CONTINUOUS
 62
    7
 10
194.502487
 20
199.94097149999999
 11
194.752487
 21
199.99446850000001
  0
LINE
  8
_0-0_0
  6
CONTINUOUS
 62
    7
 10
204.002487
 20
199.7750015
 11
194.752487
 21
199.7750015
  0
LINE
  8
_0-0_0
  6
CONTINUOUS
 62
    7
 10
194.502487
 20
199.75043450000001
 11
194.752487
 21
199.7750015
  0
LINE
  8
_0-0_0
  6
CONTINUOUS
 62
    7
 10
204.002487
 20
199.54184749999999
 11
194.752487
 21
199.54184749999999
  0
LINE
  8
_0-0_0
  6
CONTINUOUS
 62
    7
 10
204.252487
 20
199.54648549999999
 11
194.502487
 21
199.54648549999999
  0
LINE
  8
_0-0_0
  6
CONTINUOUS
 62
    7
 10
194.502487
 20
199.54648549999999
 11
194.752487
 21
199.54184749999999
  0
LINE
  8
_0-0_0
  6
CONTINUOUS
 62
    7
 10
204.002487
 20
199.2975385
 11
194.752487
 21
199.2975385
  0
LINE
  8
_0-0_0
  6
CONTINUOUS
 62
    7
 10
204.252487
 20
199.33133649999999
 11
194.502487
 21
199.33133649999999
  0
LINE
  8
_0-0_0
  6
CONTINUOUS
 62
    7
 10
194.502487
 20
199.33133649999999
 11
194.752487
 21
199.2975385
  0
LINE
  8
_0-0_0
  6
CONTINUOUS
 62
    7
 10
204.002487
 20
199.04477650000001
 11
194.752487
 21
199.04477650000001
  0
LINE
  8
_0-0_0
  6
CONTINUOUS
 62
    7
 10
204.252487
 20
199.1073375
 11
194.502487
 21
199.1073375
  0
LINE
  8
_0-0_0
  6
CONTINUOUS
 62
    7
 10
194.502487
 20
199.1073375
 11
194.752487
 21
199.04477650000001
  0
LINE
  8
_0-0_0
  6
CONTINUOUS
 62
    7
 10
204.002487
 20
198.78632350000001
 11
194.752487
 21
198.78632350000001
  0
LINE
  8
_0-0_0
  6
CONTINUOUS
 62
    7
 10
204.252487
 20
198.87697550000001
 11
194.502487
 21
198.87697550000001
  0
LINE
  8
_0-0_0
  6
CONTINUOUS
 62
    7
 10
194.502487
 20
198.87697550000001
 11
194.752487
 21
198.78632350000001
  0
LINE
  8
_0-0_0
  6
CONTINUOUS
 62
    7
 10
204.002487
 20
198.5250015
 11
194.752487
 21
198.5250015
  0
LINE
  8
_0-0_0
  6
CONTINUOUS
 62
    7
 10
204.252487
 20
198.6427535
 11
194.502487
 21
198.6427535
  0
LINE
  8
_0-0_0
  6
CONTINUOUS
 62
    7
 10
194.502487
 20
198.6427535
 11
194.752487
 21
198.5250015
  0
LINE
  8
_0-0_0
  6
CONTINUOUS
 62
    7
 10
204.002487
 20
198.26367949999999
 11
194.752487
 21
198.26367949999999
  0
LINE
  8
_0-0_0
  6
CONTINUOUS
 62
    7
 10
204.252487
 20
198.40724950000001
 11
194.502487
 21
198.40724950000001
  0
LINE
  8
_0-0_0
  6
CONTINUOUS
 62
    7
 10
194.502487
 20
198.40724950000001
 11
194.752487
 21
198.26367949999999
  0
LINE
  8
_0-0_0
  6
CONTINUOUS
 62
    7
 10
204.002487
 20
198.00522649999999
 11
194.752487
 21
198.00522649999999
  0
LINE
  8
_0-0_0
  6
CONTINUOUS
 62
    7
 10
204.252487
 20
198.17302749999999
 11
194.502487
 21
198.17302749999999
  0
LINE
  8
_0-0_0
  6
CONTINUOUS
 62
    7
 10
194.502487
 20
198.17302749999999
 11
194.752487
 21
198.00522649999999
  0
LINE
  8
_0-0_0
  6
CONTINUOUS
 62
    7
 10
204.002487
 20
197.7524645
 11
194.752487
 21
197.7524645
  0
LINE
  8
_0-0_0
  6
CONTINUOUS
 62
    7
 10
204.252487
 20
197.9426655
 11
194.502487
 21
197.9426655
  0
LINE
  8
_0-0_0
  6
CONTINUOUS
 62
    7
 10
194.502487
 20
197.9426655
 11
194.752487
 21
197.7524645
  0
LINE
  8
_0-0_0
  6
CONTINUOUS
 62
    7
 10
204.002487
 20
197.50815550000002
 11
194.752487
 21
197.50815550000002
  0
LINE
  8
_0-0_0
  6
CONTINUOUS
 62
    7
 10
204.252487
 20
197.71866650000001
 11
194.502487
 21
197.71866650000001
  0
LINE
  8
_0-0_0
  6
CONTINUOUS
 62
    7
 10
194.502487
 20
197.71866650000001
 11
194.752487
 21
197.50815550000002
  0
LINE
  8
_0-0_0
  6
CONTINUOUS
 62
    7
 10
204.002487
 20
196.8521805
 11
194.752487
 21
196.8521805
  0
LINE
  8
_0-0_0
  6
CONTINUOUS
 62
    7
 10
194.502487
 20
197.10903150000001
 11
194.752487
 21
196.8521805
  0
LINE
  8
_0-0_0
  6
CONTINUOUS
 62
    7
 10
204.002487
 20
196.6671375
 11
194.752487
 21
196.6671375
  0
LINE
  8
_0-0_0
  6
CONTINUOUS
 62
    7
 10
194.502487
 20
196.93401349999999
 11
194.752487
 21
196.6671375
  0
LINE
  8
_0-0_0
  6
CONTINUOUS
 62
    7
 10
204.002487
 20
196.5024645
 11
194.752487
 21
196.5024645
  0
LINE
  8
_0-0_0
  6
CONTINUOUS
 62
    7
 10
194.502487
 20
196.7764205
 11
194.752487
 21
196.5024645
  0
LINE
  8
_0-0_0
  6
CONTINUOUS
 62
    7
 10
204.002487
 20
196.35993150000002
 11
194.752487
 21
196.35993150000002
  0
LINE
  8
_0-0_0
  6
CONTINUOUS
 62
    7
 10
194.502487
 20
196.6379925
 11
194.752487
 21
196.35993150000002
  0
LINE
  8
_0-0_0
  6
CONTINUOUS
 62
    7
 10
204.002487
 20
196.2411425
 11
194.752487
 21
196.2411425
  0
LINE
  8
_0-0_0
  6
CONTINUOUS
 62
    7
 10
194.502487
 20
196.5202405
 11
194.752487
 21
196.2411425
  0
LINE
  8
_0-0_0
  6
CONTINUOUS
 62
    7
 10
204.002487
 20
196.14736149999999
 11
194.752487
 21
196.14736149999999
  0
LINE
  8
_0-0_0
  6
CONTINUOUS
 62
    7
 10
194.502487
 20
196.42444649999999
 11
194.752487
 21
196.14736149999999
  0
LINE
  8
_0-0_0
  6
CONTINUOUS
 62
    7
 10
204.002487
 20
196.07962750000002
 11
194.752487
 21
196.07962750000002
  0
LINE
  8
_0-0_0
  6
CONTINUOUS
 62
    7
 10
194.502487
 20
196.35166150000001
 11
194.752487
 21
196.07962750000002
  0
LINE
  8
_0-0_0
  6
CONTINUOUS
 62
    7
 10
204.002487
 20
196.0387035
 11
194.752487
 21
196.0387035
  0
LINE
  8
_0-0_0
  6
CONTINUOUS
 62
    7
 10
194.502487
 20
196.3026965
 11
194.752487
 21
196.0387035
  0
LINE
  8
_0-0_0
  6
CONTINUOUS
 62
    7
 10
204.002487
 20
196.0250015
 11
194.752487
 21
196.0250015
  0
LINE
  8
_0-0_0
  6
CONTINUOUS
 62
    7
 10
194.502487
 20
196.27808350000001
 11
194.752487
 21
196.0250015
  0
LINE
  8
_0-0_0
  6
CONTINUOUS
 62
    7
 10
204.002487
 20
200.69007149999999
 11
194.752487
 21
200.69007149999999
  0
LINE
  8
_0-0_0
  6
CONTINUOUS
 62
    7
 10
204.252487
 20
200.5297625
 11
204.12252799999999
 21
200.61362450000001
  0
LINE
  8
_0-0_0
  6
CONTINUOUS
 62
    7
 10
194.502487
 20
200.5297625
 11
194.63246099999998
 21
200.61362450000001
  0
LINE
  8
_0-0_0
  6
CONTINUOUS
 62
    7
 10
194.63246099999998
 20
200.61362450000001
 11
194.752487
 21
200.69007149999999
  0
LINE
  8
_0-0_0
  6
CONTINUOUS
 62
    7
 10
204.002487
 20
200.5475385
 11
194.752487
 21
200.5475385
  0
LINE
  8
_0-0_0
  6
CONTINUOUS
 62
    7
 10
194.502487
 20
200.41201050000001
 11
194.752487
 21
200.5475385
  0
LINE
  8
_0-0_0
  6
CONTINUOUS
 62
    7
 10
204.252487
 20
200.5297625
 11
204.002487
 21
200.80886050000001
  0
LINE
  8
_0-0_0
  6
CONTINUOUS
 62
    7
 10
204.002487
 20
200.80886050000001
 11
194.752487
 21
200.80886050000001
  0
LINE
  8
_0-0_0
  6
CONTINUOUS
 62
    7
 10
194.502487
 20
200.5297625
 11
194.752487
 21
200.80886050000001
  0
LINE
  8
_0-0_0
  6
CONTINUOUS
 62
    7
 10
204.252487
 20
200.62555650000002
 11
204.002487
 21
200.80886050000001
  0
LINE
  8
_0-0_0
  6
CONTINUOUS
 62
    7
 10
194.502487
 20
200.62555650000002
 11
194.752487
 21
200.80886050000001
  0
LINE
  8
_0-0_0
  6
CONTINUOUS
 62
    7
 10
204.252487
 20
200.62555650000002
 11
204.002487
 21
200.90264150000002
  0
LINE
  8
_0-0_0
  6
CONTINUOUS
 62
    7
 10
204.002487
 20
200.90264150000002
 11
194.752487
 21
200.90264150000002
  0
LINE
  8
_0-0_0
  6
CONTINUOUS
 62
    7
 10
194.502487
 20
200.62555650000002
 11
194.752487
 21
200.90264150000002
  0
LINE
  8
_0-0_0
  6
CONTINUOUS
 62
    7
 10
204.252487
 20
200.6983415
 11
204.002487
 21
200.90264150000002
  0
LINE
  8
_0-0_0
  6
CONTINUOUS
 62
    7
 10
194.502487
 20
200.6983415
 11
194.752487
 21
200.90264150000002
  0
LINE
  8
_0-0_0
  6
CONTINUOUS
 62
    7
 10
204.252487
 20
200.6983415
 11
204.002487
 21
200.97037549999999
  0
LINE
  8
_0-0_0
  6
CONTINUOUS
 62
    7
 10
204.002487
 20
200.97037549999999
 11
194.752487
 21
200.97037549999999
  0
LINE
  8
_0-0_0
  6
CONTINUOUS
 62
    7
 10
194.502487
 20
200.6983415
 11
194.752487
 21
200.97037549999999
  0
LINE
  8
_0-0_0
  6
CONTINUOUS
 62
    7
 10
204.252487
 20
200.74729149999999
 11
204.002487
 21
200.97037549999999
  0
LINE
  8
_0-0_0
  6
CONTINUOUS
 62
    7
 10
194.502487
 20
200.74729149999999
 11
194.752487
 21
200.97037549999999
  0
LINE
  8
_0-0_0
  6
CONTINUOUS
 62
    7
 10
204.252487
 20
200.74729149999999
 11
204.002487
 21
201.01129950000001
  0
LINE
  8
_0-0_0
  6
CONTINUOUS
 62
    7
 10
204.002487
 20
201.01129950000001
 11
194.752487
 21
201.01129950000001
  0
LINE
  8
_0-0_0
  6
CONTINUOUS
 62
    7
 10
194.502487
 20
200.74729149999999
 11
194.752487
 21
201.01129950000001
  0
LINE
  8
_0-0_0
  6
CONTINUOUS
 62
    7
 10
204.252487
 20
200.7719195
 11
204.002487
 21
201.01129950000001
  0
LINE
  8
_0-0_0
  6
CONTINUOUS
 62
    7
 10
194.502487
 20
200.7719195
 11
194.752487
 21
201.01129950000001
  0
LINE
  8
_0-0_0
  6
CONTINUOUS
 62
    7
 10
204.252487
 20
200.7719195
 11
204.002487
 21
201.0250015
  0
LINE
  8
_0-0_0
  6
CONTINUOUS
 62
    7
 10
204.002487
 20
201.0250015
 11
194.752487
 21
201.0250015
  0
LINE
  8
_0-0_0
  6
CONTINUOUS
 62
    7
 10
194.502487
 20
200.7719195
 11
194.752487
 21
201.0250015
  0
LINE
  8
_0-0_0
  6
CONTINUOUS
 62
    7
 10
249.702484
 20
186.2249985
 11
249.702484
 21
186.22635650000001
  0
LINE
  8
_0-0_0
  6
CONTINUOUS
 62
    7
 10
249.702484
 20
186.22635650000001
 11
249.702484
 21
194.2249985
  0
LINE
  8
_0-0_0
  6
CONTINUOUS
 62
    7
 10
194.502487
 20
200.41201050000001
 11
194.752487
 21
200.69007149999999
  0
LINE
  8
_0-0_0
  6
CONTINUOUS
 62
    7
 10
204.502487
 20
200.2801585
 11
204.502487
 21
200.5250015
  0
LINE
  8
_0-0_0
  6
CONTINUOUS
 62
    7
 10
194.502487
 20
196.27808350000001
 11
194.752487
 21
196.0387035
  0
LINE
  8
_0-0_0
  6
CONTINUOUS
 62
    7
 10
194.502487
 20
196.3026965
 11
194.752487
 21
196.07962750000002
  0
LINE
  8
_0-0_0
  6
CONTINUOUS
 62
    7
 10
194.502487
 20
196.35166150000001
 11
194.752487
 21
196.14736149999999
  0
LINE
  8
_0-0_0
  6
CONTINUOUS
 62
    7
 10
194.502487
 20
196.42444649999999
 11
194.752487
 21
196.2411425
  0
LINE
  8
_0-0_0
  6
CONTINUOUS
 62
    7
 10
194.502487
 20
196.5202405
 11
194.752487
 21
196.35993150000002
  0
LINE
  8
_0-0_0
  6
CONTINUOUS
 62
    7
 10
194.502487
 20
196.6379925
 11
194.752487
 21
196.5024645
  0
LINE
  8
_0-0_0
  6
CONTINUOUS
 62
    7
 10
194.502487
 20
196.7764205
 11
194.752487
 21
196.6671375
  0
LINE
  8
_0-0_0
  6
CONTINUOUS
 62
    7
 10
194.502487
 20
196.93401349999999
 11
194.752487
 21
196.8521805
  0
LINE
  8
_0-0_0
  6
CONTINUOUS
 62
    7
 10
204.002487
 20
197.05553449999999
 11
194.752487
 21
197.05553449999999
  0
LINE
  8
_0-0_0
  6
CONTINUOUS
 62
    7
 10
194.502487
 20
197.10903150000001
 11
194.752487
 21
197.05553449999999
  0
LINE
  8
_0-0_0
  6
CONTINUOUS
 62
    7
 10
194.502487
 20
197.50351750000002
 11
194.752487
 21
197.50815550000002
  0
LINE
  8
_0-0_0
  6
CONTINUOUS
 62
    7
 10
204.252487
 20
197.50351750000002
 11
194.502487
 21
197.50351750000002
  0
LINE
  8
_0-0_0
  6
CONTINUOUS
 62
    7
 10
194.502487
 20
197.71866650000001
 11
194.752487
 21
197.7524645
  0
LINE
  8
_0-0_0
  6
CONTINUOUS
 62
    7
 10
194.502487
 20
197.9426655
 11
194.752487
 21
198.00522649999999
  0
LINE
  8
_0-0_0
  6
CONTINUOUS
 62
    7
 10
194.502487
 20
198.17302749999999
 11
194.752487
 21
198.26367949999999
  0
LINE
  8
_0-0_0
  6
CONTINUOUS
 62
    7
 10
194.502487
 20
198.40724950000001
 11
194.752487
 21
198.5250015
  0
LINE
  8
_0-0_0
  6
CONTINUOUS
 62
    7
 10
194.502487
 20
198.6427535
 11
194.752487
 21
198.78632350000001
  0
LINE
  8
_0-0_0
  6
CONTINUOUS
 62
    7
 10
194.502487
 20
198.87697550000001
 11
194.752487
 21
199.04477650000001
  0
LINE
  8
_0-0_0
  6
CONTINUOUS
 62
    7
 10
194.502487
 20
199.1073375
 11
194.752487
 21
199.2975385
  0
LINE
  8
_0-0_0
  6
CONTINUOUS
 62
    7
 10
194.502487
 20
199.33133649999999
 11
194.752487
 21
199.54184749999999
  0
LINE
  8
_0-0_0
  6
CONTINUOUS
 62
    7
 10
194.502487
 20
199.54648549999999
 11
194.752487
 21
199.7750015
  0
LINE
  8
_0-0_0
  6
CONTINUOUS
 62
    7
 10
194.502487
 20
199.75043450000001
 11
194.752487
 21
199.99446850000001
  0
LINE
  8
_0-0_0
  6
CONTINUOUS
 62
    7
 10
194.502487
 20
199.94097149999999
 11
194.752487
 21
200.1978225
  0
LINE
  8
_0-0_0
  6
CONTINUOUS
 62
    7
 10
194.502487
 20
200.11598950000001
 11
194.752487
 21
200.38286550000001
  0
LINE
  8
_0-0_0
  6
CONTINUOUS
 62
    7
 10
194.502487
 20
200.2735825
 11
194.752487
 21
200.5475385
  0
LINE
  8
_0-0_0
  6
CONTINUOUS
 62
    7
 10
194.502487
 20
197.29956849999999
 11
194.752487
 21
197.05553449999999
  0
LINE
  8
_0-0_0
  6
CONTINUOUS
 62
    7
 10
194.502487
 20
197.50351750000002
 11
194.752487
 21
197.2750015
  0
LINE
  8
_0-0_0
  6
CONTINUOUS
 62
    7
 10
194.502487
 20
183.81201950000002
 11
194.752487
 21
184.09006449999998
  0
LINE
  8
_0-0_0
  6
CONTINUOUS
 62
    7
 10
204.502487
 20
183.68016850000001
 11
204.502487
 21
183.92501049999998
  0
LINE
  8
_0-0_0
  6
CONTINUOUS
 62
    7
 10
194.502487
 20
179.67809249999999
 11
194.752487
 21
179.43869749999999
  0
LINE
  8
_0-0_0
  6
CONTINUOUS
 62
    7
 10
194.502487
 20
179.70270550000001
 11
194.752487
 21
179.4796375
  0
LINE
  8
_0-0_0
  6
CONTINUOUS
 62
    7
 10
194.502487
 20
179.75167049999999
 11
194.752487
 21
179.54735550000001
  0
LINE
  8
_0-0_0
  6
CONTINUOUS
 62
    7
 10
194.502487
 20
179.8244555
 11
194.752487
 21
179.64113650000002
  0
LINE
  8
_0-0_0
  6
CONTINUOUS
 62
    7
 10
194.502487
 20
179.92023449999999
 11
194.752487
 21
179.7599415
  0
LINE
  8
_0-0_0
  6
CONTINUOUS
 62
    7
 10
194.502487
 20
180.03800150000001
 11
194.752487
 21
179.90245850000002
  0
LINE
  8
_0-0_0
  6
CONTINUOUS
 62
    7
 10
194.502487
 20
180.17642949999998
 11
194.752487
 21
180.06714650000001
  0
LINE
  8
_0-0_0
  6
CONTINUOUS
 62
    7
 10
194.502487
 20
180.33400749999998
 11
194.752487
 21
180.2521745
  0
LINE
  8
_0-0_0
  6
CONTINUOUS
 62
    7
 10
204.002487
 20
180.4555435
 11
194.752487
 21
180.4555435
  0
LINE
  8
_0-0_0
  6
CONTINUOUS
 62
    7
 10
194.502487
 20
180.50902550000001
 11
194.752487
 21
180.4555435
  0
LINE
  8
_0-0_0
  6
CONTINUOUS
 62
    7
 10
194.502487
 20
180.9035265
 11
194.752487
 21
180.9081645
  0
LINE
  8
_0-0_0
  6
CONTINUOUS
 62
    7
 10
204.252487
 20
180.9035265
 11
194.502487
 21
180.9035265
  0
LINE
  8
_0-0_0
  6
CONTINUOUS
 62
    7
 10
194.502487
 20
181.11867549999999
 11
194.752487
 21
181.15245850000002
  0
LINE
  8
_0-0_0
  6
CONTINUOUS
 62
    7
 10
194.502487
 20
181.3426585
 11
194.752487
 21
181.4052355
  0
LINE
  8
_0-0_0
  6
CONTINUOUS
 62
    7
 10
194.502487
 20
181.57302049999998
 11
194.752487
 21
181.66368850000001
  0
LINE
  8
_0-0_0
  6
CONTINUOUS
 62
    7
 10
194.502487
 20
181.8072435
 11
194.752487
 21
181.92501049999998
  0
LINE
  8
_0-0_0
  6
CONTINUOUS
 62
    7
 10
194.502487
 20
182.04276249999998
 11
194.752487
 21
182.18633249999999
  0
LINE
  8
_0-0_0
  6
CONTINUOUS
 62
    7
 10
194.502487
 20
182.27698549999999
 11
194.752487
 21
182.44478650000002
  0
LINE
  8
_0-0_0
  6
CONTINUOUS
 62
    7
 10
194.502487
 20
182.50734750000001
 11
194.752487
 21
182.69754749999998
  0
LINE
  8
_0-0_0
  6
CONTINUOUS
 62
    7
 10
194.502487
 20
182.73133050000001
 11
194.752487
 21
182.94184150000001
  0
LINE
  8
_0-0_0
  6
CONTINUOUS
 62
    7
 10
194.502487
 20
182.94647950000001
 11
194.752487
 21
183.17501049999998
  0
LINE
  8
_0-0_0
  6
CONTINUOUS
 62
    7
 10
194.502487
 20
183.15044449999999
 11
194.752487
 21
183.3944625
  0
LINE
  8
_0-0_0
  6
CONTINUOUS
 62
    7
 10
194.502487
 20
183.3409805
 11
194.752487
 21
183.59783149999998
  0
LINE
  8
_0-0_0
  6
CONTINUOUS
 62
    7
 10
194.502487
 20
183.51599849999999
 11
194.752487
 21
183.7828595
  0
LINE
  8
_0-0_0
  6
CONTINUOUS
 62
    7
 10
194.502487
 20
183.6735765
 11
194.752487
 21
183.94754749999998
  0
LINE
  8
_0-0_0
  6
CONTINUOUS
 62
    7
 10
194.502487
 20
180.69956250000001
 11
194.752487
 21
180.4555435
  0
LINE
  8
_0-0_0
  6
CONTINUOUS
 62
    7
 10
194.502487
 20
180.9035265
 11
194.752487
 21
180.67501049999998
  0
LINE
  8
_0-0_0
  6
CONTINUOUS
 62
    7
 10
191.702484
 20
185.6868815
 11
191.702484
 21
187.9559405
  0
LINE
  8
_0-0_0
  6
CONTINUOUS
 62
    7
 10
191.702484
 20
187.9559405
 11
191.702484
 21
194.7631145
  0
LINE
  8
_0-0_0
  6
CONTINUOUS
 62
    7
 10
194.502487
 20
197.50351750000002
 11
194.502487
 21
197.71866650000001
  0
LINE
  8
_0-0_0
  6
CONTINUOUS
 62
    7
 10
194.502487
 20
197.71866650000001
 11
194.502487
 21
197.9426655
  0
LINE
  8
_0-0_0
  6
CONTINUOUS
 62
    7
 10
194.502487
 20
197.9426655
 11
194.502487
 21
198.17302749999999
  0
LINE
  8
_0-0_0
  6
CONTINUOUS
 62
    7
 10
194.502487
 20
198.17302749999999
 11
194.502487
 21
198.40724950000001
  0
LINE
  8
_0-0_0
  6
CONTINUOUS
 62
    7
 10
194.502487
 20
198.40724950000001
 11
194.502487
 21
198.6427535
  0
LINE
  8
_0-0_0
  6
CONTINUOUS
 62
    7
 10
194.502487
 20
198.6427535
 11
194.502487
 21
198.87697550000001
  0
LINE
  8
_0-0_0
  6
CONTINUOUS
 62
    7
 10
194.502487
 20
198.87697550000001
 11
194.502487
 21
199.1073375
  0
LINE
  8
_0-0_0
  6
CONTINUOUS
 62
    7
 10
194.502487
 20
199.1073375
 11
194.502487
 21
199.33133649999999
  0
LINE
  8
_0-0_0
  6
CONTINUOUS
 62
    7
 10
194.502487
 20
199.33133649999999
 11
194.502487
 21
199.54648549999999
  0
LINE
  8
_0-0_0
  6
CONTINUOUS
 62
    7
 10
194.502487
 20
199.54648549999999
 11
194.502487
 21
199.75043450000001
  0
LINE
  8
_0-0_0
  6
CONTINUOUS
 62
    7
 10
194.502487
 20
199.75043450000001
 11
194.502487
 21
199.94097149999999
  0
LINE
  8
_0-0_0
  6
CONTINUOUS
 62
    7
 10
194.502487
 20
199.94097149999999
 11
194.502487
 21
200.11598950000001
  0
LINE
  8
_0-0_0
  6
CONTINUOUS
 62
    7
 10
194.502487
 20
200.11598950000001
 11
194.502487
 21
200.2735825
  0
LINE
  8
_0-0_0
  6
CONTINUOUS
 62
    7
 10
194.502487
 20
200.2735825
 11
194.502487
 21
200.41201050000001
  0
LINE
  8
_0-0_0
  6
CONTINUOUS
 62
    7
 10
194.502487
 20
200.41201050000001
 11
194.502487
 21
200.49956549999999
  0
LINE
  8
_0-0_0
  6
CONTINUOUS
 62
    7
 10
194.502487
 20
200.49956549999999
 11
194.502487
 21
200.5297625
  0
LINE
  8
_0-0_0
  6
CONTINUOUS
 62
    7
 10
194.502487
 20
200.5297625
 11
194.502487
 21
200.62555650000002
  0
LINE
  8
_0-0_0
  6
CONTINUOUS
 62
    7
 10
194.502487
 20
200.62555650000002
 11
194.502487
 21
200.6983415
  0
LINE
  8
_0-0_0
  6
CONTINUOUS
 62
    7
 10
194.502487
 20
200.6983415
 11
194.502487
 21
200.7750015
  0
LINE
  8
_0-0_0
  6
CONTINUOUS
 62
    7
 10
194.502487
 20
200.74729149999999
 11
194.502487
 21
200.7719195
  0
LINE
  8
_0-0_0
  6
CONTINUOUS
 62
    7
 10
194.502487
 20
200.7719195
 11
194.502487
 21
200.7750015
  0
LINE
  8
_0-0_0
  6
CONTINUOUS
 62
    7
 10
194.502487
 20
196.2750015
 11
194.502487
 21
196.27808350000001
  0
LINE
  8
_0-0_0
  6
CONTINUOUS
 62
    7
 10
194.502487
 20
196.27808350000001
 11
194.502487
 21
196.3026965
  0
LINE
  8
_0-0_0
  6
CONTINUOUS
 62
    7
 10
194.502487
 20
196.3026965
 11
194.502487
 21
196.35166150000001
  0
LINE
  8
_0-0_0
  6
CONTINUOUS
 62
    7
 10
194.502487
 20
196.2750015
 11
194.502487
 21
196.42444649999999
  0
LINE
  8
_0-0_0
  6
CONTINUOUS
 62
    7
 10
194.502487
 20
196.42444649999999
 11
194.502487
 21
196.5202405
  0
LINE
  8
_0-0_0
  6
CONTINUOUS
 62
    7
 10
194.502487
 20
196.5202405
 11
194.502487
 21
196.6379925
  0
LINE
  8
_0-0_0
  6
CONTINUOUS
 62
    7
 10
194.502487
 20
196.6379925
 11
194.502487
 21
196.7764205
  0
LINE
  8
_0-0_0
  6
CONTINUOUS
 62
    7
 10
194.502487
 20
196.7764205
 11
194.502487
 21
196.93401349999999
  0
LINE
  8
_0-0_0
  6
CONTINUOUS
 62
    7
 10
194.502487
 20
196.93401349999999
 11
194.502487
 21
197.10903150000001
  0
LINE
  8
_0-0_0
  6
CONTINUOUS
 62
    7
 10
194.502487
 20
197.10903150000001
 11
194.502487
 21
197.29956849999999
  0
LINE
  8
_0-0_0
  6
CONTINUOUS
 62
    7
 10
194.502487
 20
197.44629649999999
 11
194.502487
 21
197.50351750000002
  0
LINE
  8
_0-0_0
  6
CONTINUOUS
 62
    7
 10
194.502487
 20
197.29956849999999
 11
194.502487
 21
197.44629649999999
  0
LINE
  8
_0-0_0
  6
CONTINUOUS
 62
    7
 10
194.502487
 20
180.9035265
 11
194.502487
 21
181.11867549999999
  0
LINE
  8
_0-0_0
  6
CONTINUOUS
 62
    7
 10
194.502487
 20
181.11867549999999
 11
194.502487
 21
181.3426585
  0
LINE
  8
_0-0_0
  6
CONTINUOUS
 62
    7
 10
194.502487
 20
181.3426585
 11
194.502487
 21
181.57302049999998
  0
LINE
  8
_0-0_0
  6
CONTINUOUS
 62
    7
 10
194.502487
 20
181.57302049999998
 11
194.502487
 21
181.8072435
  0
LINE
  8
_0-0_0
  6
CONTINUOUS
 62
    7
 10
194.502487
 20
181.8072435
 11
194.502487
 21
182.04276249999998
  0
LINE
  8
_0-0_0
  6
CONTINUOUS
 62
    7
 10
194.502487
 20
182.04276249999998
 11
194.502487
 21
182.27698549999999
  0
LINE
  8
_0-0_0
  6
CONTINUOUS
 62
    7
 10
194.502487
 20
182.27698549999999
 11
194.502487
 21
182.50734750000001
  0
LINE
  8
_0-0_0
  6
CONTINUOUS
 62
    7
 10
194.502487
 20
182.50734750000001
 11
194.502487
 21
182.73133050000001
  0
LINE
  8
_0-0_0
  6
CONTINUOUS
 62
    7
 10
194.502487
 20
182.73133050000001
 11
194.502487
 21
182.94647950000001
  0
LINE
  8
_0-0_0
  6
CONTINUOUS
 62
    7
 10
194.502487
 20
182.94647950000001
 11
194.502487
 21
183.15044449999999
  0
LINE
  8
_0-0_0
  6
CONTINUOUS
 62
    7
 10
194.502487
 20
183.15044449999999
 11
194.502487
 21
183.3409805
  0
LINE
  8
_0-0_0
  6
CONTINUOUS
 62
    7
 10
194.502487
 20
183.3409805
 11
194.502487
 21
183.51599849999999
  0
LINE
  8
_0-0_0
  6
CONTINUOUS
 62
    7
 10
194.502487
 20
183.51599849999999
 11
194.502487
 21
183.6735765
  0
LINE
  8
_0-0_0
  6
CONTINUOUS
 62
    7
 10
194.502487
 20
183.6735765
 11
194.502487
 21
183.81201950000002
  0
LINE
  8
_0-0_0
  6
CONTINUOUS
 62
    7
 10
194.502487
 20
183.81201950000002
 11
194.502487
 21
183.89955850000001
  0
LINE
  8
_0-0_0
  6
CONTINUOUS
 62
    7
 10
194.502487
 20
183.89955850000001
 11
194.502487
 21
183.92977150000002
  0
LINE
  8
_0-0_0
  6
CONTINUOUS
 62
    7
 10
194.502487
 20
183.92977150000002
 11
194.502487
 21
184.0255665
  0
LINE
  8
_0-0_0
  6
CONTINUOUS
 62
    7
 10
194.502487
 20
184.0255665
 11
194.502487
 21
184.09833550000002
  0
LINE
  8
_0-0_0
  6
CONTINUOUS
 62
    7
 10
194.502487
 20
184.09833550000002
 11
194.502487
 21
184.1473005
  0
LINE
  8
_0-0_0
  6
CONTINUOUS
 62
    7
 10
194.502487
 20
184.1473005
 11
194.502487
 21
184.17501049999998
  0
LINE
  8
_0-0_0
  6
CONTINUOUS
 62
    7
 10
194.502487
 20
184.17192850000001
 11
194.502487
 21
184.17501049999998
  0
LINE
  8
_0-0_0
  6
CONTINUOUS
 62
    7
 10
194.502487
 20
179.67501049999998
 11
194.502487
 21
179.67809249999999
  0
LINE
  8
_0-0_0
  6
CONTINUOUS
 62
    7
 10
194.502487
 20
179.67809249999999
 11
194.502487
 21
179.70270550000001
  0
LINE
  8
_0-0_0
  6
CONTINUOUS
 62
    7
 10
194.502487
 20
179.70270550000001
 11
194.502487
 21
179.75167049999999
  0
LINE
  8
_0-0_0
  6
CONTINUOUS
 62
    7
 10
194.502487
 20
179.75167049999999
 11
194.502487
 21
179.8244555
  0
LINE
  8
_0-0_0
  6
CONTINUOUS
 62
    7
 10
194.502487
 20
179.8244555
 11
194.502487
 21
179.92023449999999
  0
LINE
  8
_0-0_0
  6
CONTINUOUS
 62
    7
 10
194.502487
 20
179.92023449999999
 11
194.502487
 21
180.03800150000001
  0
LINE
  8
_0-0_0
  6
CONTINUOUS
 62
    7
 10
194.502487
 20
180.03800150000001
 11
194.502487
 21
180.17642949999998
  0
LINE
  8
_0-0_0
  6
CONTINUOUS
 62
    7
 10
194.502487
 20
180.17642949999998
 11
194.502487
 21
180.33400749999998
  0
LINE
  8
_0-0_0
  6
CONTINUOUS
 62
    7
 10
194.502487
 20
180.33400749999998
 11
194.502487
 21
180.50902550000001
  0
LINE
  8
_0-0_0
  6
CONTINUOUS
 62
    7
 10
194.502487
 20
180.50902550000001
 11
194.502487
 21
180.69956250000001
  0
LINE
  8
_0-0_0
  6
CONTINUOUS
 62
    7
 10
194.502487
 20
180.84629050000001
 11
194.502487
 21
180.9035265
  0
LINE
  8
_0-0_0
  6
CONTINUOUS
 62
    7
 10
194.502487
 20
180.69956250000001
 11
194.502487
 21
180.84629050000001
  0
LINE
  8
_0-0_0
  6
CONTINUOUS
 62
    7
 10
190.90248099999999
 20
187.7249985
 11
190.90248099999999
 21
195.2249985
  0
LINE
  8
_0-0_0
  6
CONTINUOUS
 62
    7
 10
190.90248099999999
 20
185.2249985
 11
190.90248099999999
 21
187.7249985
  0
LINE
  8
_0-0_0
  6
CONTINUOUS
 62
    7
 10
179.502487
 20
196.7249985
 11
189.21031199999999
 21
196.7249985
  0
LINE
  8
_0-0_0
  6
CONTINUOUS
 62
    7
 10
189.252487
 20
196.7249985
 11
189.21031199999999
 21
196.7249985
  0
LINE
  8
_0-0_0
  6
CONTINUOUS
 62
    7
 10
179.202484
 20
188.01297750000001
 11
179.261291
 21
187.76613650000002
  0
LINE
  8
_0-0_0
  6
CONTINUOUS
 62
    7
 10
179.261291
 20
187.76613650000002
 11
179.31104999999999
 21
187.5738145
  0
LINE
  8
_0-0_0
  6
CONTINUOUS
 62
    7
 10
179.31104999999999
 20
187.5738145
 11
179.382172
 21
187.30806749999999
  0
LINE
  8
_0-0_0
  6
CONTINUOUS
 62
    7
 10
179.382172
 20
187.30806749999999
 11
179.415131
 21
187.18137350000001
  0
LINE
  8
_0-0_0
  6
CONTINUOUS
 62
    7
 10
179.415131
 20
187.18137350000001
 11
179.44038399999999
 21
187.07791850000001
  0
LINE
  8
_0-0_0
  6
CONTINUOUS
 62
    7
 10
179.44038399999999
 20
187.07791850000001
 11
179.46241799999999
 21
186.9779585
  0
LINE
  8
_0-0_0
  6
CONTINUOUS
 62
    7
 10
179.46241799999999
 20
186.9779585
 11
179.48380999999998
 21
186.8602525
  0
LINE
  8
_0-0_0
  6
CONTINUOUS
 62
    7
 10
179.48380999999998
 20
186.8602525
 11
179.49237099999999
 21
186.79811849999999
  0
LINE
  8
_0-0_0
  6
CONTINUOUS
 62
    7
 10
179.49237099999999
 20
186.79811849999999
 11
179.498459
 21
186.7375255
  0
LINE
  8
_0-0_0
  6
CONTINUOUS
 62
    7
 10
179.498459
 20
186.7375255
 11
179.501465
 21
186.68828550000001
  0
LINE
  8
_0-0_0
  6
CONTINUOUS
 62
    7
 10
179.501465
 20
186.68828550000001
 11
179.502487
 21
186.64006849999998
  0
LINE
  8
_0-0_0
  6
CONTINUOUS
 62
    7
 10
179.202484
 20
192.4370045
 11
179.26127599999998
 21
192.6838305
  0
LINE
  8
_0-0_0
  6
CONTINUOUS
 62
    7
 10
179.26127599999998
 20
192.6838305
 11
179.31104999999999
 21
192.87616750000001
  0
LINE
  8
_0-0_0
  6
CONTINUOUS
 62
    7
 10
179.31104999999999
 20
192.87616750000001
 11
179.382172
 21
193.14196050000001
  0
LINE
  8
_0-0_0
  6
CONTINUOUS
 62
    7
 10
179.382172
 20
193.14196050000001
 11
179.415131
 21
193.26868450000001
  0
LINE
  8
_0-0_0
  6
CONTINUOUS
 62
    7
 10
179.415131
 20
193.26868450000001
 11
179.44039899999999
 21
193.37209350000001
  0
LINE
  8
_0-0_0
  6
CONTINUOUS
 62
    7
 10
179.44039899999999
 20
193.37209350000001
 11
179.46241799999999
 21
193.4720385
  0
LINE
  8
_0-0_0
  6
CONTINUOUS
 62
    7
 10
179.46241799999999
 20
193.4720385
 11
179.48379499999999
 21
193.58974449999999
  0
LINE
  8
_0-0_0
  6
CONTINUOUS
 62
    7
 10
179.48379499999999
 20
193.58974449999999
 11
179.49237099999999
 21
193.65187850000001
  0
LINE
  8
_0-0_0
  6
CONTINUOUS
 62
    7
 10
179.49237099999999
 20
193.65187850000001
 11
179.498459
 21
193.71248650000001
  0
LINE
  8
_0-0_0
  6
CONTINUOUS
 62
    7
 10
179.498459
 20
193.71248650000001
 11
179.501465
 21
193.76172650000001
  0
LINE
  8
_0-0_0
  6
CONTINUOUS
 62
    7
 10
179.501465
 20
193.76172650000001
 11
179.502487
 21
193.8099445
  0
LINE
  8
_0-0_0
  6
CONTINUOUS
 62
    7
 10
179.502487
 20
188.66295650000001
 11
179.502487
 21
187.6173015
  0
LINE
  8
_0-0_0
  6
CONTINUOUS
 62
    7
 10
179.502487
 20
186.3326945
 11
179.502487
 21
187.6173015
  0
LINE
  8
_0-0_0
  6
CONTINUOUS
 62
    7
 10
179.502487
 20
186.2173085
 11
179.502487
 21
186.3326945
  0
ARC
  8
_0-0_0
  6
CONTINUOUS
 62
    7
 10
177.502487
 20
197.5834735
 40
2
 50
0
 51
71.565000999999995
  0
LINE
  8
_0-0_0
  6
CONTINUOUS
 62
    7
 10
189.21031199999999
 20
196.7249985
 11
189.26480099999998
 21
196.6550675
  0
LINE
  8
_0-0_0
  6
CONTINUOUS
 62
    7
 10
189.26480099999998
 20
196.6550675
 11
189.31590299999999
 21
196.58623550000002
  0
LINE
  8
_0-0_0
  6
CONTINUOUS
 62
    7
 10
189.31590299999999
 20
196.58623550000002
 11
189.363541
 21
196.5187305
  0
LINE
  8
_0-0_0
  6
CONTINUOUS
 62
    7
 10
189.363541
 20
196.5187305
 11
189.40803499999998
 21
196.45218650000001
  0
LINE
  8
_0-0_0
  6
CONTINUOUS
 62
    7
 10
189.40803499999998
 20
196.45218650000001
 11
189.46275299999999
 21
196.36464649999999
  0
LINE
  8
_0-0_0
  6
CONTINUOUS
 62
    7
 10
189.46275299999999
 20
196.36464649999999
 11
189.51226799999998
 21
196.27854149999999
  0
LINE
  8
_0-0_0
  6
CONTINUOUS
 62
    7
 10
189.51226799999998
 20
196.27854149999999
 11
189.55673199999998
 21
196.1937025
  0
LINE
  8
_0-0_0
  6
CONTINUOUS
 62
    7
 10
189.55673199999998
 20
196.1937025
 11
189.60369899999998
 21
196.0933915
  0
LINE
  8
_0-0_0
  6
CONTINUOUS
 62
    7
 10
189.60369899999998
 20
196.0933915
 11
189.64390599999999
 21
195.99446850000001
  0
LINE
  8
_0-0_0
  6
CONTINUOUS
 62
    7
 10
189.64390599999999
 20
195.99446850000001
 11
189.67756599999998
 21
195.8967055
  0
LINE
  8
_0-0_0
  6
CONTINUOUS
 62
    7
 10
189.67756599999998
 20
195.8967055
 11
189.70486399999999
 21
195.7999035
  0
LINE
  8
_0-0_0
  6
CONTINUOUS
 62
    7
 10
189.70486399999999
 20
195.7999035
 11
189.72590599999998
 21
195.70384949999999
  0
LINE
  8
_0-0_0
  6
CONTINUOUS
 62
    7
 10
189.72590599999998
 20
195.70384949999999
 11
189.74183599999998
 21
195.5999985
  0
LINE
  8
_0-0_0
  6
CONTINUOUS
 62
    7
 10
189.74183599999998
 20
195.5999985
 11
189.75059499999998
 21
195.49657450000001
  0
LINE
  8
_0-0_0
  6
CONTINUOUS
 62
    7
 10
189.75059499999998
 20
195.49657450000001
 11
189.752228
 21
195.39333350000001
  0
LINE
  8
_0-0_0
  6
CONTINUOUS
 62
    7
 10
189.752228
 20
195.39333350000001
 11
189.74676499999998
 21
195.29004649999999
  0
LINE
  8
_0-0_0
  6
CONTINUOUS
 62
    7
 10
189.74676499999998
 20
195.29004649999999
 11
189.73414599999998
 21
195.1864545
  0
LINE
  8
_0-0_0
  6
CONTINUOUS
 62
    7
 10
189.73414599999998
 20
195.1864545
 11
189.71433999999999
 21
195.08229850000001
  0
LINE
  8
_0-0_0
  6
CONTINUOUS
 62
    7
 10
189.71433999999999
 20
195.08229850000001
 11
189.68719499999997
 21
194.97734850000001
  0
LINE
  8
_0-0_0
  6
CONTINUOUS
 62
    7
 10
189.68719499999997
 20
194.97734850000001
 11
189.65254199999998
 21
194.87131450000001
  0
LINE
  8
_0-0_0
  6
CONTINUOUS
 62
    7
 10
189.65254199999998
 20
194.87131450000001
 11
189.61019899999999
 21
194.76393849999999
  0
LINE
  8
_0-0_0
  6
CONTINUOUS
 62
    7
 10
189.61019899999999
 20
194.76393849999999
 11
189.55987499999998
 21
194.65493050000001
  0
LINE
  8
_0-0_0
  6
CONTINUOUS
 62
    7
 10
189.55987499999998
 20
194.65493050000001
 11
189.50563
 21
194.5517955
  0
LINE
  8
_0-0_0
  6
CONTINUOUS
 62
    7
 10
189.50563
 20
194.5517955
 11
189.44392399999998
 21
194.44673950000001
  0
LINE
  8
_0-0_0
  6
CONTINUOUS
 62
    7
 10
189.44392399999998
 20
194.44673950000001
 11
189.374405
 21
194.33950050000001
  0
LINE
  8
_0-0_0
  6
CONTINUOUS
 62
    7
 10
189.374405
 20
194.33950050000001
 11
189.29669199999998
 21
194.22978950000001
  0
LINE
  8
_0-0_0
  6
CONTINUOUS
 62
    7
 10
189.29669199999998
 20
194.22978950000001
 11
189.21031199999999
 21
194.1173015
  0
LINE
  8
_0-0_0
  6
CONTINUOUS
 62
    7
 10
179.502487
 20
194.23268849999999
 11
179.502487
 21
194.1173015
  0
LINE
  8
_0-0_0
  6
CONTINUOUS
 62
    7
 10
179.502487
 20
192.8326945
 11
179.502487
 21
191.78705550000001
  0
LINE
  8
_0-0_0
  6
CONTINUOUS
 62
    7
 10
179.502487
 20
187.6173015
 11
189.21031199999999
 21
187.6173015
  0
LINE
  8
_0-0_0
  6
CONTINUOUS
 62
    7
 10
179.502487
 20
186.3326945
 11
189.21031199999999
 21
186.3326945
  0
LINE
  8
_0-0_0
  6
CONTINUOUS
 62
    7
 10
190.502487
 20
192.95655049999999
 11
190.502487
 21
195.4749985
  0
LINE
  8
_0-0_0
  6
CONTINUOUS
 62
    7
 10
179.502487
 20
197.5834735
 11
179.502487
 21
194.23268849999999
  0
LINE
  8
_0-0_0
  6
CONTINUOUS
 62
    7
 10
168.502487
 20
179.42501049999998
 11
168.502487
 21
179.6750715
  0
LINE
  8
_0-0_0
  6
CONTINUOUS
 62
    7
 10
144.002487
 20
199.5250015
 11
139.00247199999998
 21
199.5250015
  0
ARC
  8
_0-0_0
  6
CONTINUOUS
 62
    7
 10
139.00247199999998
 20
195.0250015
 40
4.5
 50
90.000003000000007
 51
269.99999700000006
  0
LINE
  8
_0-0_0
  6
CONTINUOUS
 62
    7
 10
144.002487
 20
190.5250015
 11
139.00247199999998
 21
190.5250015
  0
ARC
  8
_0-0_0
  6
CONTINUOUS
 62
    7
 10
144.002487
 20
195.0250015
 40
4.5
 50
269.99999700000001
 51
90.000002999999992
  0
LINE
  8
_0-0_0
  6
CONTINUOUS
 62
    7
 10
88.002471999999983
 20
199.5250015
 11
83.002471999999983
 21
199.5250015
  0
ARC
  8
_0-0_0
  6
CONTINUOUS
 62
    7
 10
83.002471999999983
 20
195.0250015
 40
4.5
 50
90.000003000000007
 51
269.99999700000006
  0
LINE
  8
_0-0_0
  6
CONTINUOUS
 62
    7
 10
88.002471999999983
 20
190.5250015
 11
83.002471999999983
 21
190.5250015
  0
ARC
  8
_0-0_0
  6
CONTINUOUS
 62
    7
 10
88.002471999999983
 20
195.0250015
 40
4.5
 50
269.99999700000001
 51
90.000002999999992
  0
LINE
  8
_0-0_0
  6
CONTINUOUS
 62
    7
 10
113.31498699999999
 20
199.09464249999999
 11
112.01499199999999
 21
195.59464249999999
  0
LINE
  8
_0-0_0
  6
CONTINUOUS
 62
    7
 10
112.20247599999999
 20
195.32500450000001
 11
114.80247499999999
 21
195.32500450000001
  0
ARC
  8
_0-0_0
  6
CONTINUOUS
 62
    7
 10
114.80247499999999
 20
195.5250015
 40
0.2
 50
269.99999700000001
 51
20.376435000000019
  0
ARC
  8
_0-0_0
  6
CONTINUOUS
 62
    7
 10
113.50247199999998
 20
199.0250015
 40
0.2
 50
20.376434999999997
 51
159.62357000000003
  0
LINE
  8
_0-0_0
  6
CONTINUOUS
 62
    7
 10
168.502487
 20
179.42501049999998
 11
168.502487
 21
181.42501049999998
  0
ARC
  8
_0-0_0
  6
CONTINUOUS
 62
    7
 10
134.50247199999998
 20
185.82500450000001
 40
3
 50
180.00000900000003
 51
269.99999700000001
  0
LINE
  8
_0-0_0
  6
CONTINUOUS
 62
    7
 10
134.50247199999998
 20
182.82500450000001
 11
149.502487
 21
182.82500450000001
  0
ARC
  8
_0-0_0
  6
CONTINUOUS
 62
    7
 10
149.502487
 20
185.82500450000001
 40
3
 50
269.99999700000001
 51
0
  0
ARC
  8
_0-0_0
  6
CONTINUOUS
 62
    7
 10
149.502487
 20
199.42499549999999
 40
3
 50
0
 51
90.000003000000007
  0
LINE
  8
_0-0_0
  6
CONTINUOUS
 62
    7
 10
149.502487
 20
202.42499549999999
 11
134.50247199999998
 21
202.42499549999999
  0
ARC
  8
_0-0_0
  6
CONTINUOUS
 62
    7
 10
134.50247199999998
 20
199.42499549999999
 40
3
 50
90.000003000000007
 51
180.00000900000001
  0
ARC
  8
_0-0_0
  6
CONTINUOUS
 62
    7
 10
80.592154999999991
 20
187.9146805
 40
5.089683
 50
180.00000900000003
 51
269.99999700000001
  0
LINE
  8
_0-0_0
  6
CONTINUOUS
 62
    7
 10
80.592154999999991
 20
182.82500450000001
 11
91.859481999999986
 21
182.82500450000001
  0
ARC
  8
_0-0_0
  6
CONTINUOUS
 62
    7
 10
91.859481999999986
 20
186.4679945
 40
3.6429879999999999
 50
269.99999700000001
 51
0.0000099999999886
  0
LINE
  8
_0-0_0
  6
CONTINUOUS
 62
    7
 10
92.502471999999983
 20
202.42499549999999
 11
79.168532999999968
 21
202.42499549999999
  0
ARC
  8
_0-0_0
  6
CONTINUOUS
 62
    7
 10
79.168532999999968
 20
201.42499549999999
 40
1
 50
90.000003000000007
 51
172.23356100000001
  0
ARC
  8
_0-0_0
  6
CONTINUOUS
 62
    7
 10
76.502478999999994
 20
198.36269350000001
 40
1
 50
105.68034800000001
 51
180.00000900000001
  0
LINE
  8
_0-0_0
  6
CONTINUOUS
 62
    7
 10
133.90248099999999
 20
202.42499549999999
 11
133.90248099999999
 21
202.36438749999999
  0
LINE
  8
_0-0_0
  6
CONTINUOUS
 62
    7
 10
92.502471999999983
 20
182.8821945
 11
92.502471999999983
 21
182.8290935
  0
LINE
  8
_0-0_0
  6
CONTINUOUS
 62
    7
 10
133.90248099999999
 20
182.88561250000001
 11
133.90248099999999
 21
182.8290935
  0
LINE
  8
_0-0_0
  6
CONTINUOUS
 62
    7
 10
190.502487
 20
184.9749985
 11
189.702484
 21
184.17499550000002
  0
LINE
  8
_0-0_0
  6
CONTINUOUS
 62
    7
 10
204.502487
 20
179.92501049999998
 11
204.00265499999998
 21
179.4251635
  0
LINE
  8
_0-0_0
  6
CONTINUOUS
 62
    7
 10
204.502487
 20
196.5250015
 11
204.00265499999998
 21
196.02515450000001
  0
LINE
  8
_0-0_0
  6
CONTINUOUS
 62
    7
 10
191.702484
 20
194.2249985
 11
249.702484
 21
194.2249985
  0
LINE
  8
_0-0_0
  6
CONTINUOUS
 62
    7
 10
191.702484
 20
186.2249985
 11
249.702484
 21
186.2249985
  0
LINE
  8
_0-0_0
  6
CONTINUOUS
 62
    7
 10
204.502487
 20
200.5250015
 11
204.00265499999998
 21
201.02484849999999
  0
LINE
  8
_0-0_0
  6
CONTINUOUS
 62
    7
 10
204.502487
 20
183.92501049999998
 11
204.00265499999998
 21
184.42484250000001
  0
LINE
  8
_0-0_0
  6
CONTINUOUS
 62
    7
 10
194.502487
 20
200.7750015
 11
194.752487
 21
201.0250015
  0
LINE
  8
_0-0_0
  6
CONTINUOUS
 62
    7
 10
194.502487
 20
196.2750015
 11
194.752487
 21
196.0250015
  0
LINE
  8
_0-0_0
  6
CONTINUOUS
 62
    7
 10
194.502487
 20
184.17501049999998
 11
194.752487
 21
184.42501049999998
  0
LINE
  8
_0-0_0
  6
CONTINUOUS
 62
    7
 10
194.502487
 20
179.67501049999998
 11
194.752487
 21
179.42501049999998
  0
LINE
  8
_0-0_0
  6
CONTINUOUS
 62
    7
 10
191.702484
 20
194.7631145
 11
190.90248099999999
 21
195.2249985
  0
LINE
  8
_0-0_0
  6
CONTINUOUS
 62
    7
 10
191.702484
 20
185.6868815
 11
190.90248099999999
 21
185.2249985
  0
LINE
  8
_0-0_0
  6
CONTINUOUS
 62
    7
 10
174.25244099999998
 20
200.7750015
 11
194.502487
 21
200.7750015
  0
LINE
  8
_0-0_0
  6
CONTINUOUS
 62
    7
 10
189.702484
 20
196.2750015
 11
194.502487
 21
196.2750015
  0
LINE
  8
_0-0_0
  6
CONTINUOUS
 62
    7
 10
168.502487
 20
184.17501049999998
 11
194.502487
 21
184.17501049999998
  0
LINE
  8
_0-0_0
  6
CONTINUOUS
 62
    7
 10
168.502487
 20
179.67501049999998
 11
194.502487
 21
179.67501049999998
  0
LINE
  8
_0-0_0
  6
CONTINUOUS
 62
    7
 10
190.502487
 20
195.2249985
 11
190.90248099999999
 21
195.2249985
  0
LINE
  8
_0-0_0
  6
CONTINUOUS
 62
    7
 10
190.502487
 20
185.2249985
 11
190.90248099999999
 21
185.2249985
  0
LINE
  8
_0-0_0
  6
CONTINUOUS
 62
    7
 10
190.502487
 20
195.4749985
 11
189.252487
 21
196.7249985
  0
LINE
  8
_0-0_0
  6
CONTINUOUS
 62
    7
 10
59.502471999999983
 20
219.12500750000001
 11
61.957245
 21
219.12500750000001
  0
LINE
  8
_0-0_0
  6
CONTINUOUS
 62
    7
 10
59.502471999999983
 20
205.92499549999999
 11
59.502471999999983
 21
219.12500750000001
  0
LINE
  8
_0-0_0
  6
CONTINUOUS
 62
    7
 10
412.50247200000001
 20
205.92499549999999
 11
412.50247200000001
 21
219.12500750000001
  0
LINE
  8
_0-0_0
  6
CONTINUOUS
 62
    7
 10
410.04769899999997
 20
219.12500750000001
 11
412.50247200000001
 21
219.12500750000001
  0
ARC
  8
_0-0_0
  6
CONTINUOUS
 62
    7
 10
403.50247200000001
 20
223.7249985
 40
8
 50
215.099627
 51
324.90037799999999
  0
LINE
  8
_0-0_0
  6
CONTINUOUS
 62
    7
 10
75.047707000000003
 20
219.12500750000001
 11
396.957245
 21
219.12500750000001
  0
ARC
  8
_0-0_0
  6
CONTINUOUS
 62
    7
 10
68.502471999999983
 20
223.7249985
 40
8
 50
215.099627
 51
324.90037799999999
  0
LINE
  8
_0-0_0
  6
CONTINUOUS
 62
    7
 10
61.957245
 20
219.12500750000001
 11
61.868262999999985
 21
219.25429550000001
  0
LINE
  8
_0-0_0
  6
CONTINUOUS
 62
    7
 10
75.047707000000003
 20
219.12500750000001
 11
75.136687999999992
 21
219.25429550000001
  0
LINE
  8
_0-0_0
  6
CONTINUOUS
 62
    7
 10
75.229827999999998
 20
219.3957135
 11
75.136687999999992
 21
219.25429550000001
  0
LINE
  8
_0-0_0
  6
CONTINUOUS
 62
    7
 10
75.229827999999998
 20
219.3957135
 11
75.311293999999975
 21
219.5250015
  0
ARC
  8
_0-0_0
  6
CONTINUOUS
 62
    7
 10
68.502471999999983
 20
223.7249985
 40
8
 50
328.33175599999993
 51
334.05550899999992
  0
LINE
  8
_0-0_0
  6
CONTINUOUS
 62
    7
 10
75.696227999999991
 20
220.2249985
 11
75.757705999999985
 21
220.3542865
  0
LINE
  8
_0-0_0
  6
CONTINUOUS
 62
    7
 10
75.821746999999988
 20
220.49570449999999
 11
75.757705999999985
 21
220.3542865
  0
LINE
  8
_0-0_0
  6
CONTINUOUS
 62
    7
 10
75.821746999999988
 20
220.49570449999999
 11
75.877433999999994
 21
220.62500750000001
  0
ARC
  8
_0-0_0
  6
CONTINUOUS
 62
    7
 10
68.502471999999983
 20
223.7249985
 40
8
 50
337.20097500000003
 51
342.54240199999998
  0
LINE
  8
_0-0_0
  6
CONTINUOUS
 62
    7
 10
76.13399499999997
 20
221.32500450000001
 11
76.173453999999992
 21
221.45429250000001
  0
LINE
  8
_0-0_0
  6
CONTINUOUS
 62
    7
 10
76.213904999999983
 20
221.5957105
 11
76.173453999999992
 21
221.45429250000001
  0
LINE
  8
_0-0_0
  6
CONTINUOUS
 62
    7
 10
76.213904999999983
 20
221.5957105
 11
76.248444000000006
 21
221.7249985
  0
ARC
  8
_0-0_0
  6
CONTINUOUS
 62
    7
 10
68.502471999999983
 20
223.7249985
 40
8
 50
345.52249499999999
 51
350.64797900000002
  0
LINE
  8
_0-0_0
  6
CONTINUOUS
 62
    7
 10
76.39614899999998
 20
222.42499549999999
 11
76.416350999999992
 21
222.55429850000002
  0
LINE
  8
_0-0_0
  6
CONTINUOUS
 62
    7
 10
76.435989000000006
 20
222.6957165
 11
76.416350999999992
 21
222.55429850000002
  0
LINE
  8
_0-0_0
  6
CONTINUOUS
 62
    7
 10
76.435989000000006
 20
222.6957165
 11
76.451690999999983
 21
222.82500450000001
  0
ARC
  8
_0-0_0
  6
CONTINUOUS
 62
    7
 10
68.502471999999983
 20
223.7249985
 40
8
 50
353.54056400000002
 51
358.56744600000002
  0
LINE
  8
_0-0_0
  6
CONTINUOUS
 62
    7
 10
76.499977000000001
 20
223.5250015
 11
76.502166999999986
 21
223.6542895
  0
LINE
  8
_0-0_0
  6
CONTINUOUS
 62
    7
 10
76.502166999999986
 20
223.6542895
 11
76.502478999999994
 21
223.7249985
  0
LINE
  8
_0-0_0
  6
CONTINUOUS
 62
    7
 10
60.502784999999989
 20
223.6542895
 11
60.502471999999983
 21
223.7249985
  0
LINE
  8
_0-0_0
  6
CONTINUOUS
 62
    7
 10
60.504974000000004
 20
223.5250015
 11
60.502784999999989
 21
223.6542895
  0
ARC
  8
_0-0_0
  6
CONTINUOUS
 62
    7
 10
68.502471999999983
 20
223.7249985
 40
8
 50
181.432545
 51
186.45945499999999
  0
LINE
  8
_0-0_0
  6
CONTINUOUS
 62
    7
 10
60.568961999999999
 20
222.6957165
 11
60.553260999999992
 21
222.82500450000001
  0
LINE
  8
_0-0_0
  6
CONTINUOUS
 62
    7
 10
60.568961999999999
 20
222.6957165
 11
60.588599999999985
 21
222.55429850000002
  0
LINE
  8
_0-0_0
  6
CONTINUOUS
 62
    7
 10
60.608802999999995
 20
222.42499549999999
 11
60.588599999999985
 21
222.55429850000002
  0
ARC
  8
_0-0_0
  6
CONTINUOUS
 62
    7
 10
68.502471999999983
 20
223.7249985
 40
8
 50
189.35203999999999
 51
194.47751
  0
LINE
  8
_0-0_0
  6
CONTINUOUS
 62
    7
 10
60.791045999999994
 20
221.5957105
 11
60.756507999999997
 21
221.7249985
  0
LINE
  8
_0-0_0
  6
CONTINUOUS
 62
    7
 10
60.791045999999994
 20
221.5957105
 11
60.831496999999985
 21
221.45429250000001
  0
LINE
  8
_0-0_0
  6
CONTINUOUS
 62
    7
 10
60.870963999999987
 20
221.32500450000001
 11
60.831496999999985
 21
221.45429250000001
  0
ARC
  8
_0-0_0
  6
CONTINUOUS
 62
    7
 10
68.502471999999983
 20
223.7249985
 40
8
 50
197.45760300000001
 51
202.79902999999999
  0
LINE
  8
_0-0_0
  6
CONTINUOUS
 62
    7
 10
61.183204999999987
 20
220.49570449999999
 11
61.127517999999981
 21
220.62500750000001
  0
LINE
  8
_0-0_0
  6
CONTINUOUS
 62
    7
 10
61.183204999999987
 20
220.49570449999999
 11
61.24724599999999
 21
220.3542865
  0
LINE
  8
_0-0_0
  6
CONTINUOUS
 62
    7
 10
61.308722999999986
 20
220.2249985
 11
61.24724599999999
 21
220.3542865
  0
ARC
  8
_0-0_0
  6
CONTINUOUS
 62
    7
 10
68.502471999999983
 20
223.7249985
 40
8
 50
205.94448199999999
 51
211.66823500000001
  0
LINE
  8
_0-0_0
  6
CONTINUOUS
 62
    7
 10
61.775124000000005
 20
219.3957135
 11
61.693656999999973
 21
219.5250015
  0
LINE
  8
_0-0_0
  6
CONTINUOUS
 62
    7
 10
61.775124000000005
 20
219.3957135
 11
61.868262999999985
 21
219.25429550000001
  0
LINE
  8
_0-0_0
  6
CONTINUOUS
 62
    7
 10
396.957245
 20
219.12500750000001
 11
396.86825599999997
 21
219.25429550000001
  0
LINE
  8
_0-0_0
  6
CONTINUOUS
 62
    7
 10
395.50277699999998
 20
223.6542895
 11
395.50247200000001
 21
223.7249985
  0
LINE
  8
_0-0_0
  6
CONTINUOUS
 62
    7
 10
395.504974
 20
223.5250015
 11
395.50277699999998
 21
223.6542895
  0
ARC
  8
_0-0_0
  6
CONTINUOUS
 62
    7
 10
403.50247200000001
 20
223.7249985
 40
8
 50
181.432545
 51
186.45945499999999
  0
LINE
  8
_0-0_0
  6
CONTINUOUS
 62
    7
 10
395.56896999999998
 20
222.6957165
 11
395.55325299999998
 21
222.82500450000001
  0
LINE
  8
_0-0_0
  6
CONTINUOUS
 62
    7
 10
395.56896999999998
 20
222.6957165
 11
395.58859200000001
 21
222.55429850000002
  0
LINE
  8
_0-0_0
  6
CONTINUOUS
 62
    7
 10
395.60879499999999
 20
222.42499549999999
 11
395.58859200000001
 21
222.55429850000002
  0
ARC
  8
_0-0_0
  6
CONTINUOUS
 62
    7
 10
403.50247200000001
 20
223.7249985
 40
8
 50
189.35203999999999
 51
194.47751
  0
LINE
  8
_0-0_0
  6
CONTINUOUS
 62
    7
 10
395.79104599999999
 20
221.5957105
 11
395.75650000000002
 21
221.7249985
  0
LINE
  8
_0-0_0
  6
CONTINUOUS
 62
    7
 10
395.79104599999999
 20
221.5957105
 11
395.83148199999999
 21
221.45429250000001
  0
LINE
  8
_0-0_0
  6
CONTINUOUS
 62
    7
 10
395.87097199999999
 20
221.32500450000001
 11
395.83148199999999
 21
221.45429250000001
  0
ARC
  8
_0-0_0
  6
CONTINUOUS
 62
    7
 10
403.50247200000001
 20
223.7249985
 40
8
 50
197.45760300000001
 51
202.79902999999999
  0
LINE
  8
_0-0_0
  6
CONTINUOUS
 62
    7
 10
396.18319700000001
 20
220.49570449999999
 11
396.12750199999999
 21
220.62500750000001
  0
LINE
  8
_0-0_0
  6
CONTINUOUS
 62
    7
 10
396.18319700000001
 20
220.49570449999999
 11
396.247253
 21
220.3542865
  0
LINE
  8
_0-0_0
  6
CONTINUOUS
 62
    7
 10
396.308716
 20
220.2249985
 11
396.247253
 21
220.3542865
  0
ARC
  8
_0-0_0
  6
CONTINUOUS
 62
    7
 10
403.50247200000001
 20
223.7249985
 40
8
 50
205.94448199999999
 51
211.66823500000001
  0
LINE
  8
_0-0_0
  6
CONTINUOUS
 62
    7
 10
396.77511599999997
 20
219.3957135
 11
396.69366400000001
 21
219.5250015
  0
LINE
  8
_0-0_0
  6
CONTINUOUS
 62
    7
 10
396.77511599999997
 20
219.3957135
 11
396.86825599999997
 21
219.25429550000001
  0
LINE
  8
_0-0_0
  6
CONTINUOUS
 62
    7
 10
410.04769899999997
 20
219.12500750000001
 11
410.13668799999999
 21
219.25429550000001
  0
LINE
  8
_0-0_0
  6
CONTINUOUS
 62
    7
 10
410.229828
 20
219.3957135
 11
410.13668799999999
 21
219.25429550000001
  0
LINE
  8
_0-0_0
  6
CONTINUOUS
 62
    7
 10
410.229828
 20
219.3957135
 11
410.31127900000001
 21
219.5250015
  0
ARC
  8
_0-0_0
  6
CONTINUOUS
 62
    7
 10
403.50247200000001
 20
223.7249985
 40
8
 50
328.33175599999993
 51
334.05550899999992
  0
LINE
  8
_0-0_0
  6
CONTINUOUS
 62
    7
 10
410.69622799999996
 20
220.2249985
 11
410.75768999999997
 21
220.3542865
  0
LINE
  8
_0-0_0
  6
CONTINUOUS
 62
    7
 10
410.82174700000002
 20
220.49570449999999
 11
410.75768999999997
 21
220.3542865
  0
LINE
  8
_0-0_0
  6
CONTINUOUS
 62
    7
 10
410.82174700000002
 20
220.49570449999999
 11
410.87744099999998
 21
220.62500750000001
  0
ARC
  8
_0-0_0
  6
CONTINUOUS
 62
    7
 10
403.50247200000001
 20
223.7249985
 40
8
 50
337.20097500000003
 51
342.54240199999998
  0
LINE
  8
_0-0_0
  6
CONTINUOUS
 62
    7
 10
411.13397199999997
 20
221.32500450000001
 11
411.17346199999997
 21
221.45429250000001
  0
LINE
  8
_0-0_0
  6
CONTINUOUS
 62
    7
 10
411.21389799999997
 20
221.5957105
 11
411.17346199999997
 21
221.45429250000001
  0
LINE
  8
_0-0_0
  6
CONTINUOUS
 62
    7
 10
411.21389799999997
 20
221.5957105
 11
411.24844400000001
 21
221.7249985
  0
ARC
  8
_0-0_0
  6
CONTINUOUS
 62
    7
 10
403.50247200000001
 20
223.7249985
 40
8
 50
345.52249499999999
 51
350.64797900000002
  0
LINE
  8
_0-0_0
  6
CONTINUOUS
 62
    7
 10
411.39614899999998
 20
222.42499549999999
 11
411.41635099999996
 21
222.55429850000002
  0
LINE
  8
_0-0_0
  6
CONTINUOUS
 62
    7
 10
411.43597399999999
 20
222.6957165
 11
411.41635099999996
 21
222.55429850000002
  0
LINE
  8
_0-0_0
  6
CONTINUOUS
 62
    7
 10
411.43597399999999
 20
222.6957165
 11
411.45169099999998
 21
222.82500450000001
  0
ARC
  8
_0-0_0
  6
CONTINUOUS
 62
    7
 10
403.50247200000001
 20
223.7249985
 40
8
 50
353.54056400000002
 51
358.56744600000002
  0
LINE
  8
_0-0_0
  6
CONTINUOUS
 62
    7
 10
411.49996899999996
 20
223.5250015
 11
411.50216699999999
 21
223.6542895
  0
LINE
  8
_0-0_0
  6
CONTINUOUS
 62
    7
 10
411.50216699999999
 20
223.6542895
 11
411.50247200000001
 21
223.7249985
  0
LINE
  8
_0-0_0
  6
CONTINUOUS
 62
    7
 10
412.50247200000001
 20
219.25429550000001
 11
412.50247200000001
 21
219.12500750000001
  0
LINE
  8
_0-0_0
  6
CONTINUOUS
 62
    7
 10
412.50247200000001
 20
228.05429850000002
 11
412.50247200000001
 21
228.1957165
  0
LINE
  8
_0-0_0
  6
CONTINUOUS
 62
    7
 10
412.50247200000001
 20
228.05429850000002
 11
412.50247200000001
 21
227.92499549999999
  0
LINE
  8
_0-0_0
  6
CONTINUOUS
 62
    7
 10
412.50247200000001
 20
227.2249985
 11
412.50247200000001
 21
227.92499549999999
  0
LINE
  8
_0-0_0
  6
CONTINUOUS
 62
    7
 10
412.50247200000001
 20
227.0957105
 11
412.50247200000001
 21
227.2249985
  0
LINE
  8
_0-0_0
  6
CONTINUOUS
 62
    7
 10
412.50247200000001
 20
226.95429250000001
 11
412.50247200000001
 21
227.0957105
  0
LINE
  8
_0-0_0
  6
CONTINUOUS
 62
    7
 10
412.50247200000001
 20
226.95429250000001
 11
412.50247200000001
 21
226.82500450000001
  0
LINE
  8
_0-0_0
  6
CONTINUOUS
 62
    7
 10
412.50247200000001
 20
226.12500750000001
 11
412.50247200000001
 21
226.82500450000001
  0
LINE
  8
_0-0_0
  6
CONTINUOUS
 62
    7
 10
412.50247200000001
 20
225.99570449999999
 11
412.50247200000001
 21
226.12500750000001
  0
LINE
  8
_0-0_0
  6
CONTINUOUS
 62
    7
 10
412.50247200000001
 20
225.8542865
 11
412.50247200000001
 21
225.99570449999999
  0
LINE
  8
_0-0_0
  6
CONTINUOUS
 62
    7
 10
412.50247200000001
 20
225.8542865
 11
412.50247200000001
 21
225.7249985
  0
LINE
  8
_0-0_0
  6
CONTINUOUS
 62
    7
 10
412.50247200000001
 20
225.0250015
 11
412.50247200000001
 21
225.7249985
  0
LINE
  8
_0-0_0
  6
CONTINUOUS
 62
    7
 10
412.50247200000001
 20
224.8957135
 11
412.50247200000001
 21
225.0250015
  0
LINE
  8
_0-0_0
  6
CONTINUOUS
 62
    7
 10
412.50247200000001
 20
224.75429550000001
 11
412.50247200000001
 21
224.8957135
  0
LINE
  8
_0-0_0
  6
CONTINUOUS
 62
    7
 10
412.50247200000001
 20
224.75429550000001
 11
412.50247200000001
 21
224.62500750000001
  0
LINE
  8
_0-0_0
  6
CONTINUOUS
 62
    7
 10
412.50247200000001
 20
223.92499549999999
 11
412.50247200000001
 21
224.62500750000001
  0
LINE
  8
_0-0_0
  6
CONTINUOUS
 62
    7
 10
412.50247200000001
 20
223.79570749999999
 11
412.50247200000001
 21
223.92499549999999
  0
LINE
  8
_0-0_0
  6
CONTINUOUS
 62
    7
 10
412.50247200000001
 20
223.6542895
 11
412.50247200000001
 21
223.79570749999999
  0
LINE
  8
_0-0_0
  6
CONTINUOUS
 62
    7
 10
412.50247200000001
 20
223.6542895
 11
412.50247200000001
 21
223.5250015
  0
LINE
  8
_0-0_0
  6
CONTINUOUS
 62
    7
 10
412.50247200000001
 20
222.82500450000001
 11
412.50247200000001
 21
223.5250015
  0
LINE
  8
_0-0_0
  6
CONTINUOUS
 62
    7
 10
412.50247200000001
 20
222.6957165
 11
412.50247200000001
 21
222.82500450000001
  0
LINE
  8
_0-0_0
  6
CONTINUOUS
 62
    7
 10
412.50247200000001
 20
222.55429850000002
 11
412.50247200000001
 21
222.6957165
  0
LINE
  8
_0-0_0
  6
CONTINUOUS
 62
    7
 10
412.50247200000001
 20
222.55429850000002
 11
412.50247200000001
 21
222.42499549999999
  0
LINE
  8
_0-0_0
  6
CONTINUOUS
 62
    7
 10
412.50247200000001
 20
221.7249985
 11
412.50247200000001
 21
222.42499549999999
  0
LINE
  8
_0-0_0
  6
CONTINUOUS
 62
    7
 10
412.50247200000001
 20
221.5957105
 11
412.50247200000001
 21
221.7249985
  0
LINE
  8
_0-0_0
  6
CONTINUOUS
 62
    7
 10
412.50247200000001
 20
221.45429250000001
 11
412.50247200000001
 21
221.5957105
  0
LINE
  8
_0-0_0
  6
CONTINUOUS
 62
    7
 10
412.50247200000001
 20
221.45429250000001
 11
412.50247200000001
 21
221.32500450000001
  0
LINE
  8
_0-0_0
  6
CONTINUOUS
 62
    7
 10
412.50247200000001
 20
220.62500750000001
 11
412.50247200000001
 21
221.32500450000001
  0
LINE
  8
_0-0_0
  6
CONTINUOUS
 62
    7
 10
412.50247200000001
 20
220.49570449999999
 11
412.50247200000001
 21
220.62500750000001
  0
LINE
  8
_0-0_0
  6
CONTINUOUS
 62
    7
 10
412.50247200000001
 20
220.3542865
 11
412.50247200000001
 21
220.49570449999999
  0
LINE
  8
_0-0_0
  6
CONTINUOUS
 62
    7
 10
412.50247200000001
 20
220.3542865
 11
412.50247200000001
 21
220.2249985
  0
LINE
  8
_0-0_0
  6
CONTINUOUS
 62
    7
 10
412.50247200000001
 20
219.5250015
 11
412.50247200000001
 21
220.2249985
  0
LINE
  8
_0-0_0
  6
CONTINUOUS
 62
    7
 10
412.50247200000001
 20
219.3957135
 11
412.50247200000001
 21
219.5250015
  0
LINE
  8
_0-0_0
  6
CONTINUOUS
 62
    7
 10
412.50247200000001
 20
219.25429550000001
 11
412.50247200000001
 21
219.3957135
  0
LINE
  8
_0-0_0
  6
CONTINUOUS
 62
    7
 10
412.50247200000001
 20
205.42499549999999
 11
412.50247200000001
 21
205.92499549999999
  0
LINE
  8
_0-0_0
  6
CONTINUOUS
 62
    7
 10
412.50247200000001
 20
233.92499549999999
 11
412.50247200000001
 21
233.33103149999999
  0
LINE
  8
_0-0_0
  6
CONTINUOUS
 62
    7
 10
412.50247200000001
 20
228.32500450000001
 11
412.50247200000001
 21
233.33103149999999
  0
LINE
  8
_0-0_0
  6
CONTINUOUS
 62
    7
 10
412.50247200000001
 20
228.1957165
 11
412.50247200000001
 21
228.32500450000001
  0
LINE
  8
_0-0_0
  6
CONTINUOUS
 62
    7
 10
59.502471999999983
 20
205.42499549999999
 11
59.502471999999983
 21
205.92499549999999
  0
LINE
  8
_0-0_0
  6
CONTINUOUS
 62
    7
 10
59.502471999999983
 20
205.42499549999999
 11
412.50247200000001
 21
205.42499549999999
  0
LINE
  8
_0-0_0
  6
CONTINUOUS
 62
    7
 10
59.502471999999983
 20
219.25429550000001
 11
59.502471999999983
 21
219.3957135
  0
LINE
  8
_0-0_0
  6
CONTINUOUS
 62
    7
 10
59.502471999999983
 20
219.25429550000001
 11
59.502471999999983
 21
219.12500750000001
  0
LINE
  8
_0-0_0
  6
CONTINUOUS
 62
    7
 10
59.502471999999983
 20
233.92499549999999
 11
59.502471999999983
 21
233.33103149999999
  0
LINE
  8
_0-0_0
  6
CONTINUOUS
 62
    7
 10
59.502471999999983
 20
228.32500450000001
 11
59.502471999999983
 21
233.33103149999999
  0
LINE
  8
_0-0_0
  6
CONTINUOUS
 62
    7
 10
59.502471999999983
 20
228.1957165
 11
59.502471999999983
 21
228.32500450000001
  0
LINE
  8
_0-0_0
  6
CONTINUOUS
 62
    7
 10
59.502471999999983
 20
228.05429850000002
 11
59.502471999999983
 21
228.1957165
  0
LINE
  8
_0-0_0
  6
CONTINUOUS
 62
    7
 10
59.502471999999983
 20
228.05429850000002
 11
59.502471999999983
 21
227.92499549999999
  0
LINE
  8
_0-0_0
  6
CONTINUOUS
 62
    7
 10
59.502471999999983
 20
227.2249985
 11
59.502471999999983
 21
227.92499549999999
  0
LINE
  8
_0-0_0
  6
CONTINUOUS
 62
    7
 10
59.502471999999983
 20
227.0957105
 11
59.502471999999983
 21
227.2249985
  0
LINE
  8
_0-0_0
  6
CONTINUOUS
 62
    7
 10
59.502471999999983
 20
226.95429250000001
 11
59.502471999999983
 21
227.0957105
  0
LINE
  8
_0-0_0
  6
CONTINUOUS
 62
    7
 10
59.502471999999983
 20
226.95429250000001
 11
59.502471999999983
 21
226.82500450000001
  0
LINE
  8
_0-0_0
  6
CONTINUOUS
 62
    7
 10
59.502471999999983
 20
226.12500750000001
 11
59.502471999999983
 21
226.82500450000001
  0
LINE
  8
_0-0_0
  6
CONTINUOUS
 62
    7
 10
59.502471999999983
 20
225.99570449999999
 11
59.502471999999983
 21
226.12500750000001
  0
LINE
  8
_0-0_0
  6
CONTINUOUS
 62
    7
 10
59.502471999999983
 20
225.8542865
 11
59.502471999999983
 21
225.99570449999999
  0
LINE
  8
_0-0_0
  6
CONTINUOUS
 62
    7
 10
59.502471999999983
 20
225.8542865
 11
59.502471999999983
 21
225.7249985
  0
LINE
  8
_0-0_0
  6
CONTINUOUS
 62
    7
 10
59.502471999999983
 20
225.0250015
 11
59.502471999999983
 21
225.7249985
  0
LINE
  8
_0-0_0
  6
CONTINUOUS
 62
    7
 10
59.502471999999983
 20
224.8957135
 11
59.502471999999983
 21
225.0250015
  0
LINE
  8
_0-0_0
  6
CONTINUOUS
 62
    7
 10
59.502471999999983
 20
224.75429550000001
 11
59.502471999999983
 21
224.8957135
  0
LINE
  8
_0-0_0
  6
CONTINUOUS
 62
    7
 10
59.502471999999983
 20
224.75429550000001
 11
59.502471999999983
 21
224.62500750000001
  0
LINE
  8
_0-0_0
  6
CONTINUOUS
 62
    7
 10
59.502471999999983
 20
223.92499549999999
 11
59.502471999999983
 21
224.62500750000001
  0
LINE
  8
_0-0_0
  6
CONTINUOUS
 62
    7
 10
59.502471999999983
 20
223.79570749999999
 11
59.502471999999983
 21
223.92499549999999
  0
LINE
  8
_0-0_0
  6
CONTINUOUS
 62
    7
 10
59.502471999999983
 20
223.6542895
 11
59.502471999999983
 21
223.79570749999999
  0
LINE
  8
_0-0_0
  6
CONTINUOUS
 62
    7
 10
59.502471999999983
 20
223.6542895
 11
59.502471999999983
 21
223.5250015
  0
LINE
  8
_0-0_0
  6
CONTINUOUS
 62
    7
 10
59.502471999999983
 20
222.82500450000001
 11
59.502471999999983
 21
223.5250015
  0
LINE
  8
_0-0_0
  6
CONTINUOUS
 62
    7
 10
59.502471999999983
 20
222.6957165
 11
59.502471999999983
 21
222.82500450000001
  0
LINE
  8
_0-0_0
  6
CONTINUOUS
 62
    7
 10
59.502471999999983
 20
222.55429850000002
 11
59.502471999999983
 21
222.6957165
  0
LINE
  8
_0-0_0
  6
CONTINUOUS
 62
    7
 10
59.502471999999983
 20
222.55429850000002
 11
59.502471999999983
 21
222.42499549999999
  0
LINE
  8
_0-0_0
  6
CONTINUOUS
 62
    7
 10
59.502471999999983
 20
221.7249985
 11
59.502471999999983
 21
222.42499549999999
  0
LINE
  8
_0-0_0
  6
CONTINUOUS
 62
    7
 10
59.502471999999983
 20
221.5957105
 11
59.502471999999983
 21
221.7249985
  0
LINE
  8
_0-0_0
  6
CONTINUOUS
 62
    7
 10
59.502471999999983
 20
221.45429250000001
 11
59.502471999999983
 21
221.5957105
  0
LINE
  8
_0-0_0
  6
CONTINUOUS
 62
    7
 10
59.502471999999983
 20
221.45429250000001
 11
59.502471999999983
 21
221.32500450000001
  0
LINE
  8
_0-0_0
  6
CONTINUOUS
 62
    7
 10
59.502471999999983
 20
220.62500750000001
 11
59.502471999999983
 21
221.32500450000001
  0
LINE
  8
_0-0_0
  6
CONTINUOUS
 62
    7
 10
59.502471999999983
 20
220.49570449999999
 11
59.502471999999983
 21
220.62500750000001
  0
LINE
  8
_0-0_0
  6
CONTINUOUS
 62
    7
 10
59.502471999999983
 20
220.3542865
 11
59.502471999999983
 21
220.49570449999999
  0
LINE
  8
_0-0_0
  6
CONTINUOUS
 62
    7
 10
59.502471999999983
 20
220.3542865
 11
59.502471999999983
 21
220.2249985
  0
LINE
  8
_0-0_0
  6
CONTINUOUS
 62
    7
 10
59.502471999999983
 20
219.5250015
 11
59.502471999999983
 21
220.2249985
  0
LINE
  8
_0-0_0
  6
CONTINUOUS
 62
    7
 10
59.502471999999983
 20
219.3957135
 11
59.502471999999983
 21
219.5250015
  0
LINE
  8
_0-0_0
  6
CONTINUOUS
 62
    7
 10
330.00247200000001
 20
211.42499549999999
 11
337.00247200000001
 21
211.42499549999999
  0
ARC
  8
_0-0_0
  6
CONTINUOUS
 62
    7
 10
330.00247200000001
 20
210.92499549999999
 40
0.5
 50
90.000003000000007
 51
180.00000900000001
  0
LINE
  8
_0-0_0
  6
CONTINUOUS
 62
    7
 10
329.50247200000001
 20
210.92499549999999
 11
329.50247200000001
 21
206.92499549999999
  0
ARC
  8
_0-0_0
  6
CONTINUOUS
 62
    7
 10
330.00247200000001
 20
206.92499549999999
 40
0.5
 50
180.00000900000003
 51
269.99999700000001
  0
LINE
  8
_0-0_0
  6
CONTINUOUS
 62
    7
 10
337.00247200000001
 20
206.42499549999999
 11
330.00247200000001
 21
206.42499549999999
  0
ARC
  8
_0-0_0
  6
CONTINUOUS
 62
    7
 10
337.00247200000001
 20
206.92499549999999
 40
0.5
 50
269.99999700000001
 51
0
  0
LINE
  8
_0-0_0
  6
CONTINUOUS
 62
    7
 10
337.50247200000001
 20
206.92499549999999
 11
337.50247200000001
 21
210.92499549999999
  0
ARC
  8
_0-0_0
  6
CONTINUOUS
 62
    7
 10
337.00247200000001
 20
210.92499549999999
 40
0.5
 50
0
 51
90.000003000000007
  0
ARC
  8
_0-0_0
  6
CONTINUOUS
 62
    7
 10
110.00247199999998
 20
210.92499549999999
 40
0.5
 50
90.000003000000007
 51
180.00000900000001
  0
LINE
  8
_0-0_0
  6
CONTINUOUS
 62
    7
 10
109.50247199999998
 20
210.92499549999999
 11
109.50247199999998
 21
206.92499549999999
  0
ARC
  8
_0-0_0
  6
CONTINUOUS
 62
    7
 10
110.00247199999998
 20
206.92499549999999
 40
0.5
 50
180.00000900000003
 51
269.99999700000001
  0
LINE
  8
_0-0_0
  6
CONTINUOUS
 62
    7
 10
117.00247199999998
 20
206.42499549999999
 11
110.00247199999998
 21
206.42499549999999
  0
ARC
  8
_0-0_0
  6
CONTINUOUS
 62
    7
 10
117.00247199999998
 20
206.92499549999999
 40
0.5
 50
269.99999700000001
 51
0
  0
LINE
  8
_0-0_0
  6
CONTINUOUS
 62
    7
 10
117.50247199999998
 20
206.92499549999999
 11
117.50247199999998
 21
210.92499549999999
  0
ARC
  8
_0-0_0
  6
CONTINUOUS
 62
    7
 10
117.00247199999998
 20
210.92499549999999
 40
0.5
 50
0
 51
90.000003000000007
  0
LINE
  8
_0-0_0
  6
CONTINUOUS
 62
    7
 10
110.00247199999998
 20
211.42499549999999
 11
117.00247199999998
 21
211.42499549999999
  0
LINE
  8
_0-0_0
  6
CONTINUOUS
 62
    7
 10
59.502471999999983
 20
219.5250015
 11
61.693656999999973
 21
219.5250015
  0
LINE
  8
_0-0_0
  6
CONTINUOUS
 62
    7
 10
59.502471999999983
 20
220.2249985
 11
61.308722999999986
 21
220.2249985
  0
LINE
  8
_0-0_0
  6
CONTINUOUS
 62
    7
 10
59.502471999999983
 20
220.62500750000001
 11
61.127517999999981
 21
220.62500750000001
  0
LINE
  8
_0-0_0
  6
CONTINUOUS
 62
    7
 10
59.502471999999983
 20
221.32500450000001
 11
60.870963999999987
 21
221.32500450000001
  0
LINE
  8
_0-0_0
  6
CONTINUOUS
 62
    7
 10
59.502471999999983
 20
221.7249985
 11
60.756507999999997
 21
221.7249985
  0
LINE
  8
_0-0_0
  6
CONTINUOUS
 62
    7
 10
59.502471999999983
 20
222.42499549999999
 11
60.608802999999995
 21
222.42499549999999
  0
LINE
  8
_0-0_0
  6
CONTINUOUS
 62
    7
 10
59.502471999999983
 20
222.82500450000001
 11
60.553260999999992
 21
222.82500450000001
  0
LINE
  8
_0-0_0
  6
CONTINUOUS
 62
    7
 10
59.502471999999983
 20
223.5250015
 11
60.504974000000004
 21
223.5250015
  0
LINE
  8
_0-0_0
  6
CONTINUOUS
 62
    7
 10
60.502471999999983
 20
223.7249985
 11
60.502784999999989
 21
223.79570749999999
  0
LINE
  8
_0-0_0
  6
CONTINUOUS
 62
    7
 10
76.502478999999994
 20
223.7249985
 11
76.502166999999986
 21
223.79570749999999
  0
LINE
  8
_0-0_0
  6
CONTINUOUS
 62
    7
 10
76.499977000000001
 20
223.92499549999999
 11
76.502166999999986
 21
223.79570749999999
  0
ARC
  8
_0-0_0
  6
CONTINUOUS
 62
    7
 10
68.502471999999983
 20
223.7249985
 40
8
 50
1.432544
 51
6.4594489999999993
  0
LINE
  8
_0-0_0
  6
CONTINUOUS
 62
    7
 10
76.435989000000006
 20
224.75429550000001
 11
76.451690999999983
 21
224.62500750000001
  0
LINE
  8
_0-0_0
  6
CONTINUOUS
 62
    7
 10
76.435989000000006
 20
224.75429550000001
 11
76.416350999999992
 21
224.8957135
  0
LINE
  8
_0-0_0
  6
CONTINUOUS
 62
    7
 10
76.39614899999998
 20
225.0250015
 11
76.416350999999992
 21
224.8957135
  0
ARC
  8
_0-0_0
  6
CONTINUOUS
 62
    7
 10
68.502471999999983
 20
223.7249985
 40
8
 50
9.3520350000000008
 51
14.477510999999998
  0
LINE
  8
_0-0_0
  6
CONTINUOUS
 62
    7
 10
76.213904999999983
 20
225.8542865
 11
76.248444000000006
 21
225.7249985
  0
LINE
  8
_0-0_0
  6
CONTINUOUS
 62
    7
 10
76.213904999999983
 20
225.8542865
 11
76.173453999999992
 21
225.99570449999999
  0
LINE
  8
_0-0_0
  6
CONTINUOUS
 62
    7
 10
76.13399499999997
 20
226.12500750000001
 11
76.173453999999992
 21
225.99570449999999
  0
ARC
  8
_0-0_0
  6
CONTINUOUS
 62
    7
 10
68.502471999999983
 20
223.7249985
 40
8
 50
17.457602999999999
 51
22.799030999999999
  0
LINE
  8
_0-0_0
  6
CONTINUOUS
 62
    7
 10
75.821746999999988
 20
226.95429250000001
 11
75.877433999999994
 21
226.82500450000001
  0
LINE
  8
_0-0_0
  6
CONTINUOUS
 62
    7
 10
75.821746999999988
 20
226.95429250000001
 11
75.757705999999985
 21
227.0957105
  0
LINE
  8
_0-0_0
  6
CONTINUOUS
 62
    7
 10
75.696227999999991
 20
227.2249985
 11
75.757705999999985
 21
227.0957105
  0
ARC
  8
_0-0_0
  6
CONTINUOUS
 62
    7
 10
68.502471999999983
 20
223.7249985
 40
8
 50
25.944476999999999
 51
31.668240000000001
  0
LINE
  8
_0-0_0
  6
CONTINUOUS
 62
    7
 10
75.229827999999998
 20
228.05429850000002
 11
75.311293999999975
 21
227.92499549999999
  0
LINE
  8
_0-0_0
  6
CONTINUOUS
 62
    7
 10
75.229827999999998
 20
228.05429850000002
 11
75.136687999999992
 21
228.1957165
  0
LINE
  8
_0-0_0
  6
CONTINUOUS
 62
    7
 10
75.047707000000003
 20
228.32500450000001
 11
75.136687999999992
 21
228.1957165
  0
ARC
  8
_0-0_0
  6
CONTINUOUS
 62
    7
 10
68.502471999999983
 20
223.7249985
 40
8
 50
35.099632
 51
144.900373
  0
LINE
  8
_0-0_0
  6
CONTINUOUS
 62
    7
 10
61.957245
 20
228.32500450000001
 11
61.868262999999985
 21
228.1957165
  0
LINE
  8
_0-0_0
  6
CONTINUOUS
 62
    7
 10
61.775124000000005
 20
228.05429850000002
 11
61.868262999999985
 21
228.1957165
  0
LINE
  8
_0-0_0
  6
CONTINUOUS
 62
    7
 10
61.775124000000005
 20
228.05429850000002
 11
61.693656999999973
 21
227.92499549999999
  0
ARC
  8
_0-0_0
  6
CONTINUOUS
 62
    7
 10
68.502471999999983
 20
223.7249985
 40
8
 50
148.33176499999999
 51
154.05551800000001
  0
LINE
  8
_0-0_0
  6
CONTINUOUS
 62
    7
 10
61.308722999999986
 20
227.2249985
 11
61.24724599999999
 21
227.0957105
  0
LINE
  8
_0-0_0
  6
CONTINUOUS
 62
    7
 10
61.183204999999987
 20
226.95429250000001
 11
61.24724599999999
 21
227.0957105
  0
LINE
  8
_0-0_0
  6
CONTINUOUS
 62
    7
 10
61.183204999999987
 20
226.95429250000001
 11
61.127517999999981
 21
226.82500450000001
  0
ARC
  8
_0-0_0
  6
CONTINUOUS
 62
    7
 10
68.502471999999983
 20
223.7249985
 40
8
 50
157.20097000000001
 51
162.54239699999999
  0
LINE
  8
_0-0_0
  6
CONTINUOUS
 62
    7
 10
60.870963999999987
 20
226.12500750000001
 11
60.831496999999985
 21
225.99570449999999
  0
LINE
  8
_0-0_0
  6
CONTINUOUS
 62
    7
 10
60.791045999999994
 20
225.8542865
 11
60.831496999999985
 21
225.99570449999999
  0
LINE
  8
_0-0_0
  6
CONTINUOUS
 62
    7
 10
60.791045999999994
 20
225.8542865
 11
60.756507999999997
 21
225.7249985
  0
ARC
  8
_0-0_0
  6
CONTINUOUS
 62
    7
 10
68.502471999999983
 20
223.7249985
 40
8
 50
165.52249
 51
170.64796000000001
  0
LINE
  8
_0-0_0
  6
CONTINUOUS
 62
    7
 10
60.608802999999995
 20
225.0250015
 11
60.588599999999985
 21
224.8957135
  0
LINE
  8
_0-0_0
  6
CONTINUOUS
 62
    7
 10
60.568961999999999
 20
224.75429550000001
 11
60.588599999999985
 21
224.8957135
  0
LINE
  8
_0-0_0
  6
CONTINUOUS
 62
    7
 10
60.568961999999999
 20
224.75429550000001
 11
60.553260999999992
 21
224.62500750000001
  0
ARC
  8
_0-0_0
  6
CONTINUOUS
 62
    7
 10
68.502471999999983
 20
223.7249985
 40
8
 50
173.54054500000001
 51
178.567455
  0
LINE
  8
_0-0_0
  6
CONTINUOUS
 62
    7
 10
60.504974000000004
 20
223.92499549999999
 11
60.502784999999989
 21
223.79570749999999
  0
CIRCLE
  8
_0-0_0
  6
CONTINUOUS
 62
    7
 10
68.502471999999983
 20
223.7249985
 40
7.5
  0
LINE
  8
_0-0_0
  6
CONTINUOUS
 62
    7
 10
395.50247200000001
 20
223.7249985
 11
395.50277699999998
 21
223.79570749999999
  0
LINE
  8
_0-0_0
  6
CONTINUOUS
 62
    7
 10
76.499977000000001
 20
223.5250015
 11
395.504974
 21
223.5250015
  0
LINE
  8
_0-0_0
  6
CONTINUOUS
 62
    7
 10
76.451690999999983
 20
222.82500450000001
 11
395.55325299999998
 21
222.82500450000001
  0
LINE
  8
_0-0_0
  6
CONTINUOUS
 62
    7
 10
76.39614899999998
 20
222.42499549999999
 11
395.60879499999999
 21
222.42499549999999
  0
LINE
  8
_0-0_0
  6
CONTINUOUS
 62
    7
 10
76.248444000000006
 20
221.7249985
 11
395.75650000000002
 21
221.7249985
  0
LINE
  8
_0-0_0
  6
CONTINUOUS
 62
    7
 10
76.13399499999997
 20
221.32500450000001
 11
395.87097199999999
 21
221.32500450000001
  0
LINE
  8
_0-0_0
  6
CONTINUOUS
 62
    7
 10
75.877433999999994
 20
220.62500750000001
 11
396.12750199999999
 21
220.62500750000001
  0
LINE
  8
_0-0_0
  6
CONTINUOUS
 62
    7
 10
75.696227999999991
 20
220.2249985
 11
396.308716
 21
220.2249985
  0
LINE
  8
_0-0_0
  6
CONTINUOUS
 62
    7
 10
75.311293999999975
 20
219.5250015
 11
396.69366400000001
 21
219.5250015
  0
LINE
  8
_0-0_0
  6
CONTINUOUS
 62
    7
 10
411.50247200000001
 20
223.7249985
 11
411.50216699999999
 21
223.79570749999999
  0
LINE
  8
_0-0_0
  6
CONTINUOUS
 62
    7
 10
411.49996899999996
 20
223.5250015
 11
412.50247200000001
 21
223.5250015
  0
LINE
  8
_0-0_0
  6
CONTINUOUS
 62
    7
 10
411.45169099999998
 20
222.82500450000001
 11
412.50247200000001
 21
222.82500450000001
  0
LINE
  8
_0-0_0
  6
CONTINUOUS
 62
    7
 10
411.39614899999998
 20
222.42499549999999
 11
412.50247200000001
 21
222.42499549999999
  0
LINE
  8
_0-0_0
  6
CONTINUOUS
 62
    7
 10
411.24844400000001
 20
221.7249985
 11
412.50247200000001
 21
221.7249985
  0
LINE
  8
_0-0_0
  6
CONTINUOUS
 62
    7
 10
411.13397199999997
 20
221.32500450000001
 11
412.50247200000001
 21
221.32500450000001
  0
LINE
  8
_0-0_0
  6
CONTINUOUS
 62
    7
 10
410.87744099999998
 20
220.62500750000001
 11
412.50247200000001
 21
220.62500750000001
  0
LINE
  8
_0-0_0
  6
CONTINUOUS
 62
    7
 10
410.69622799999996
 20
220.2249985
 11
412.50247200000001
 21
220.2249985
  0
LINE
  8
_0-0_0
  6
CONTINUOUS
 62
    7
 10
410.31127900000001
 20
219.5250015
 11
412.50247200000001
 21
219.5250015
  0
LINE
  8
_0-0_0
  6
CONTINUOUS
 62
    7
 10
410.04769899999997
 20
228.32500450000001
 11
410.13668799999999
 21
228.1957165
  0
ARC
  8
_0-0_0
  6
CONTINUOUS
 62
    7
 10
403.50247200000001
 20
223.7249985
 40
8
 50
35.099632
 51
144.900373
  0
LINE
  8
_0-0_0
  6
CONTINUOUS
 62
    7
 10
396.957245
 20
228.32500450000001
 11
396.86825599999997
 21
228.1957165
  0
LINE
  8
_0-0_0
  6
CONTINUOUS
 62
    7
 10
396.77511599999997
 20
228.05429850000002
 11
396.86825599999997
 21
228.1957165
  0
LINE
  8
_0-0_0
  6
CONTINUOUS
 62
    7
 10
396.77511599999997
 20
228.05429850000002
 11
396.69366400000001
 21
227.92499549999999
  0
ARC
  8
_0-0_0
  6
CONTINUOUS
 62
    7
 10
403.50247200000001
 20
223.7249985
 40
8
 50
148.33176499999999
 51
154.05551800000001
  0
LINE
  8
_0-0_0
  6
CONTINUOUS
 62
    7
 10
396.308716
 20
227.2249985
 11
396.247253
 21
227.0957105
  0
LINE
  8
_0-0_0
  6
CONTINUOUS
 62
    7
 10
396.18319700000001
 20
226.95429250000001
 11
396.247253
 21
227.0957105
  0
LINE
  8
_0-0_0
  6
CONTINUOUS
 62
    7
 10
396.18319700000001
 20
226.95429250000001
 11
396.12750199999999
 21
226.82500450000001
  0
ARC
  8
_0-0_0
  6
CONTINUOUS
 62
    7
 10
403.50247200000001
 20
223.7249985
 40
8
 50
157.20097000000001
 51
162.54239699999999
  0
LINE
  8
_0-0_0
  6
CONTINUOUS
 62
    7
 10
395.87097199999999
 20
226.12500750000001
 11
395.83148199999999
 21
225.99570449999999
  0
LINE
  8
_0-0_0
  6
CONTINUOUS
 62
    7
 10
395.79104599999999
 20
225.8542865
 11
395.83148199999999
 21
225.99570449999999
  0
LINE
  8
_0-0_0
  6
CONTINUOUS
 62
    7
 10
395.79104599999999
 20
225.8542865
 11
395.75650000000002
 21
225.7249985
  0
ARC
  8
_0-0_0
  6
CONTINUOUS
 62
    7
 10
403.50247200000001
 20
223.7249985
 40
8
 50
165.52249
 51
170.64796000000001
  0
LINE
  8
_0-0_0
  6
CONTINUOUS
 62
    7
 10
395.60879499999999
 20
225.0250015
 11
395.58859200000001
 21
224.8957135
  0
LINE
  8
_0-0_0
  6
CONTINUOUS
 62
    7
 10
395.56896999999998
 20
224.75429550000001
 11
395.58859200000001
 21
224.8957135
  0
LINE
  8
_0-0_0
  6
CONTINUOUS
 62
    7
 10
395.56896999999998
 20
224.75429550000001
 11
395.55325299999998
 21
224.62500750000001
  0
ARC
  8
_0-0_0
  6
CONTINUOUS
 62
    7
 10
403.50247200000001
 20
223.7249985
 40
8
 50
173.54054500000001
 51
178.567455
  0
LINE
  8
_0-0_0
  6
CONTINUOUS
 62
    7
 10
395.504974
 20
223.92499549999999
 11
395.50277699999998
 21
223.79570749999999
  0
LINE
  8
_0-0_0
  6
CONTINUOUS
 62
    7
 10
411.49996899999996
 20
223.92499549999999
 11
411.50216699999999
 21
223.79570749999999
  0
ARC
  8
_0-0_0
  6
CONTINUOUS
 62
    7
 10
403.50247200000001
 20
223.7249985
 40
8
 50
1.432544
 51
6.4594489999999993
  0
LINE
  8
_0-0_0
  6
CONTINUOUS
 62
    7
 10
411.43597399999999
 20
224.75429550000001
 11
411.45169099999998
 21
224.62500750000001
  0
LINE
  8
_0-0_0
  6
CONTINUOUS
 62
    7
 10
411.43597399999999
 20
224.75429550000001
 11
411.41635099999996
 21
224.8957135
  0
LINE
  8
_0-0_0
  6
CONTINUOUS
 62
    7
 10
411.39614899999998
 20
225.0250015
 11
411.41635099999996
 21
224.8957135
  0
ARC
  8
_0-0_0
  6
CONTINUOUS
 62
    7
 10
403.50247200000001
 20
223.7249985
 40
8
 50
9.3520350000000008
 51
14.477510999999998
  0
LINE
  8
_0-0_0
  6
CONTINUOUS
 62
    7
 10
411.21389799999997
 20
225.8542865
 11
411.24844400000001
 21
225.7249985
  0
LINE
  8
_0-0_0
  6
CONTINUOUS
 62
    7
 10
411.21389799999997
 20
225.8542865
 11
411.17346199999997
 21
225.99570449999999
  0
LINE
  8
_0-0_0
  6
CONTINUOUS
 62
    7
 10
411.13397199999997
 20
226.12500750000001
 11
411.17346199999997
 21
225.99570449999999
  0
ARC
  8
_0-0_0
  6
CONTINUOUS
 62
    7
 10
403.50247200000001
 20
223.7249985
 40
8
 50
17.457602999999999
 51
22.799030999999999
  0
LINE
  8
_0-0_0
  6
CONTINUOUS
 62
    7
 10
410.82174700000002
 20
226.95429250000001
 11
410.87744099999998
 21
226.82500450000001
  0
LINE
  8
_0-0_0
  6
CONTINUOUS
 62
    7
 10
410.82174700000002
 20
226.95429250000001
 11
410.75768999999997
 21
227.0957105
  0
LINE
  8
_0-0_0
  6
CONTINUOUS
 62
    7
 10
410.69622799999996
 20
227.2249985
 11
410.75768999999997
 21
227.0957105
  0
ARC
  8
_0-0_0
  6
CONTINUOUS
 62
    7
 10
403.50247200000001
 20
223.7249985
 40
8
 50
25.944476999999999
 51
31.668240000000001
  0
LINE
  8
_0-0_0
  6
CONTINUOUS
 62
    7
 10
410.229828
 20
228.05429850000002
 11
410.31127900000001
 21
227.92499549999999
  0
LINE
  8
_0-0_0
  6
CONTINUOUS
 62
    7
 10
410.229828
 20
228.05429850000002
 11
410.13668799999999
 21
228.1957165
  0
CIRCLE
  8
_0-0_0
  6
CONTINUOUS
 62
    7
 10
403.50247200000001
 20
223.7249985
 40
7.5
  0
LINE
  8
_0-0_0
  6
CONTINUOUS
 62
    7
 10
410.31127900000001
 20
227.92499549999999
 11
412.50247200000001
 21
227.92499549999999
  0
LINE
  8
_0-0_0
  6
CONTINUOUS
 62
    7
 10
410.69622799999996
 20
227.2249985
 11
412.50247200000001
 21
227.2249985
  0
LINE
  8
_0-0_0
  6
CONTINUOUS
 62
    7
 10
410.87744099999998
 20
226.82500450000001
 11
412.50247200000001
 21
226.82500450000001
  0
LINE
  8
_0-0_0
  6
CONTINUOUS
 62
    7
 10
411.13397199999997
 20
226.12500750000001
 11
412.50247200000001
 21
226.12500750000001
  0
LINE
  8
_0-0_0
  6
CONTINUOUS
 62
    7
 10
411.24844400000001
 20
225.7249985
 11
412.50247200000001
 21
225.7249985
  0
LINE
  8
_0-0_0
  6
CONTINUOUS
 62
    7
 10
411.39614899999998
 20
225.0250015
 11
412.50247200000001
 21
225.0250015
  0
LINE
  8
_0-0_0
  6
CONTINUOUS
 62
    7
 10
411.45169099999998
 20
224.62500750000001
 11
412.50247200000001
 21
224.62500750000001
  0
LINE
  8
_0-0_0
  6
CONTINUOUS
 62
    7
 10
411.49996899999996
 20
223.92499549999999
 11
412.50247200000001
 21
223.92499549999999
  0
LINE
  8
_0-0_0
  6
CONTINUOUS
 62
    7
 10
413.00247200000001
 20
207.2249985
 11
412.50247200000001
 21
207.2249985
  0
LINE
  8
_0-0_0
  6
CONTINUOUS
 62
    7
 10
413.00247200000001
 20
209.42499549999999
 11
412.50247200000001
 21
209.42499549999999
  0
LINE
  8
_0-0_0
  6
CONTINUOUS
 62
    7
 10
413.00247200000001
 20
211.7249985
 11
412.50247200000001
 21
211.7249985
  0
LINE
  8
_0-0_0
  6
CONTINUOUS
 62
    7
 10
412.50247200000001
 20
214.0250015
 11
413.00247200000001
 21
214.0250015
  0
LINE
  8
_0-0_0
  6
CONTINUOUS
 62
    7
 10
413.00247200000001
 20
234.2249985
 11
413.00247200000001
 21
234.12500750000001
  0
LINE
  8
_0-0_0
  6
CONTINUOUS
 62
    7
 10
59.002471999999983
 20
234.2249985
 11
59.002471999999983
 21
234.12500750000001
  0
LINE
  8
_0-0_0
  6
CONTINUOUS
 62
    7
 10
59.002471999999983
 20
214.0250015
 11
59.502471999999983
 21
214.0250015
  0
LINE
  8
_0-0_0
  6
CONTINUOUS
 62
    7
 10
59.502471999999983
 20
233.92499549999999
 11
412.50247200000001
 21
233.92499549999999
  0
LINE
  8
_0-0_0
  6
CONTINUOUS
 62
    7
 10
59.502471999999983
 20
233.33103149999999
 11
412.50247200000001
 21
233.33103149999999
  0
LINE
  8
_0-0_0
  6
CONTINUOUS
 62
    7
 10
75.047707000000003
 20
228.32500450000001
 11
396.957245
 21
228.32500450000001
  0
LINE
  8
_0-0_0
  6
CONTINUOUS
 62
    7
 10
410.04769899999997
 20
228.32500450000001
 11
412.50247200000001
 21
228.32500450000001
  0
LINE
  8
_0-0_0
  6
CONTINUOUS
 62
    7
 10
59.502471999999983
 20
228.32500450000001
 11
61.957245
 21
228.32500450000001
  0
LINE
  8
_0-0_0
  6
CONTINUOUS
 62
    7
 10
59.002471999999983
 20
207.2249985
 11
59.502471999999983
 21
207.2249985
  0
LINE
  8
_0-0_0
  6
CONTINUOUS
 62
    7
 10
59.002471999999983
 20
209.42499549999999
 11
59.502471999999983
 21
209.42499549999999
  0
LINE
  8
_0-0_0
  6
CONTINUOUS
 62
    7
 10
59.002471999999983
 20
211.7249985
 11
59.502471999999983
 21
211.7249985
  0
LINE
  8
_0-0_0
  6
CONTINUOUS
 62
    7
 10
59.502471999999983
 20
227.92499549999999
 11
61.693656999999973
 21
227.92499549999999
  0
LINE
  8
_0-0_0
  6
CONTINUOUS
 62
    7
 10
59.502471999999983
 20
227.2249985
 11
61.308722999999986
 21
227.2249985
  0
LINE
  8
_0-0_0
  6
CONTINUOUS
 62
    7
 10
59.502471999999983
 20
226.82500450000001
 11
61.127517999999981
 21
226.82500450000001
  0
LINE
  8
_0-0_0
  6
CONTINUOUS
 62
    7
 10
59.502471999999983
 20
226.12500750000001
 11
60.870963999999987
 21
226.12500750000001
  0
LINE
  8
_0-0_0
  6
CONTINUOUS
 62
    7
 10
59.502471999999983
 20
225.7249985
 11
60.756507999999997
 21
225.7249985
  0
LINE
  8
_0-0_0
  6
CONTINUOUS
 62
    7
 10
59.502471999999983
 20
225.0250015
 11
60.608802999999995
 21
225.0250015
  0
LINE
  8
_0-0_0
  6
CONTINUOUS
 62
    7
 10
59.502471999999983
 20
224.62500750000001
 11
60.553260999999992
 21
224.62500750000001
  0
LINE
  8
_0-0_0
  6
CONTINUOUS
 62
    7
 10
59.502471999999983
 20
223.92499549999999
 11
60.504974000000004
 21
223.92499549999999
  0
LINE
  8
_0-0_0
  6
CONTINUOUS
 62
    7
 10
75.311293999999975
 20
227.92499549999999
 11
396.69366400000001
 21
227.92499549999999
  0
LINE
  8
_0-0_0
  6
CONTINUOUS
 62
    7
 10
75.696227999999991
 20
227.2249985
 11
396.308716
 21
227.2249985
  0
LINE
  8
_0-0_0
  6
CONTINUOUS
 62
    7
 10
75.877433999999994
 20
226.82500450000001
 11
396.12750199999999
 21
226.82500450000001
  0
LINE
  8
_0-0_0
  6
CONTINUOUS
 62
    7
 10
76.13399499999997
 20
226.12500750000001
 11
395.87097199999999
 21
226.12500750000001
  0
LINE
  8
_0-0_0
  6
CONTINUOUS
 62
    7
 10
76.248444000000006
 20
225.7249985
 11
395.75650000000002
 21
225.7249985
  0
LINE
  8
_0-0_0
  6
CONTINUOUS
 62
    7
 10
76.39614899999998
 20
225.0250015
 11
395.60879499999999
 21
225.0250015
  0
LINE
  8
_0-0_0
  6
CONTINUOUS
 62
    7
 10
76.451690999999983
 20
224.62500750000001
 11
395.55325299999998
 21
224.62500750000001
  0
LINE
  8
_0-0_0
  6
CONTINUOUS
 62
    7
 10
76.499977000000001
 20
223.92499549999999
 11
395.504974
 21
223.92499549999999
  0
LINE
  8
_0-0_0
  6
CONTINUOUS
 62
    7
 10
413.00247200000001
 20
205.7249985
 11
412.50247200000001
 21
205.7249985
  0
LINE
  8
_0-0_0
  6
CONTINUOUS
 62
    7
 10
413.00247200000001
 20
233.32500450000001
 11
413.00247200000001
 21
234.12500750000001
  0
LINE
  8
_0-0_0
  6
CONTINUOUS
 62
    7
 10
413.00247200000001
 20
205.5250015
 11
413.00247200000001
 21
233.32500450000001
  0
LINE
  8
_0-0_0
  6
CONTINUOUS
 62
    7
 10
59.002471999999983
 20
233.32500450000001
 11
59.002471999999983
 21
234.12500750000001
  0
LINE
  8
_0-0_0
  6
CONTINUOUS
 62
    7
 10
59.002471999999983
 20
205.5250015
 11
59.002471999999983
 21
233.32500450000001
  0
ARC
  8
_0-0_0
  6
CONTINUOUS
 62
    7
 10
68.502471999999983
 20
224.42499549999999
 40
12.800000000000001
 50
73.932597000000001
 51
106.06740099999999
  0
ARC
  8
_0-0_0
  6
CONTINUOUS
 62
    7
 10
403.50247200000001
 20
224.42499549999999
 40
12.800000000000001
 50
73.932597000000001
 51
106.06740099999999
  0
LINE
  8
_0-0_0
  6
CONTINUOUS
 62
    7
 10
413.00247200000001
 20
234.2249985
 11
413.00247200000001
 21
236.7249985
  0
LINE
  8
_0-0_0
  6
CONTINUOUS
 62
    7
 10
59.002471999999983
 20
236.7249985
 11
413.00247200000001
 21
236.7249985
  0
LINE
  8
_0-0_0
  6
CONTINUOUS
 62
    7
 10
59.002471999999983
 20
234.2249985
 11
59.002471999999983
 21
236.7249985
  0
LINE
  8
_0-0_0
  6
CONTINUOUS
 62
    7
 10
59.002471999999983
 20
205.7249985
 11
59.502471999999983
 21
205.7249985
  0
ARC
  8
_0-0_0
  6
CONTINUOUS
 62
    7
 10
334.80246
 20
210.62500750000001
 40
0.2
 50
339.62356199999999
 51
90.000002999999978
  0
LINE
  8
_0-0_0
  6
CONTINUOUS
 62
    7
 10
334.98996
 20
210.55536649999999
 11
333.68997200000001
 21
207.05536649999999
  0
ARC
  8
_0-0_0
  6
CONTINUOUS
 62
    7
 10
333.50247200000001
 20
207.12500750000001
 40
0.2
 50
200.37643
 51
339.62356199999999
  0
LINE
  8
_0-0_0
  6
CONTINUOUS
 62
    7
 10
332.01498399999997
 20
210.55536649999999
 11
333.31497200000001
 21
207.05536649999999
  0
ARC
  8
_0-0_0
  6
CONTINUOUS
 62
    7
 10
332.20248399999997
 20
210.62500750000001
 40
0.2
 50
90.000003000000007
 51
200.37643
  0
LINE
  8
_0-0_0
  6
CONTINUOUS
 62
    7
 10
332.20248399999997
 20
210.82500450000001
 11
334.80246
 21
210.82500450000001
  0
ARC
  8
_0-0_0
  6
CONTINUOUS
 62
    7
 10
114.80247499999999
 20
210.62500750000001
 40
0.2
 50
339.62356199999999
 51
90.000002999999978
  0
LINE
  8
_0-0_0
  6
CONTINUOUS
 62
    7
 10
114.98995999999998
 20
210.55536649999999
 11
113.68995699999999
 21
207.05536649999999
  0
ARC
  8
_0-0_0
  6
CONTINUOUS
 62
    7
 10
113.50247199999998
 20
207.12500750000001
 40
0.2
 50
200.37643
 51
339.62356199999999
  0
LINE
  8
_0-0_0
  6
CONTINUOUS
 62
    7
 10
112.01499199999999
 20
210.55536649999999
 11
113.31498699999999
 21
207.05536649999999
  0
ARC
  8
_0-0_0
  6
CONTINUOUS
 62
    7
 10
112.20247599999999
 20
210.62500750000001
 40
0.2
 50
90.000003000000007
 51
200.37643
  0
LINE
  8
_0-0_0
  6
CONTINUOUS
 62
    7
 10
112.20247599999999
 20
210.82500450000001
 11
114.80247499999999
 21
210.82500450000001
  0
CIRCLE
  8
_0-0_0
  6
CONTINUOUS
 62
    7
 10
68.502471999999983
 20
223.7249985
 40
5
  0
CIRCLE
  8
_0-0_0
  6
CONTINUOUS
 62
    7
 10
403.50247200000001
 20
223.7249985
 40
5
  0
LINE
  8
_0-0_0
  6
CONTINUOUS
 62
    7
 10
414.00247200000001
 20
233.32500450000001
 11
413.00247200000001
 21
233.32500450000001
  0
LINE
  8
_0-0_0
  6
CONTINUOUS
 62
    7
 10
414.00247200000001
 20
234.3619765
 11
413.00247200000001
 21
234.3619765
  0
LINE
  8
_0-0_0
  6
CONTINUOUS
 62
    7
 10
414.00247200000001
 20
205.5250015
 11
413.00247200000001
 21
205.5250015
  0
LINE
  8
_0-0_0
  6
CONTINUOUS
 62
    7
 10
58.002471999999983
 20
233.32500450000001
 11
59.002471999999983
 21
233.32500450000001
  0
LINE
  8
_0-0_0
  6
CONTINUOUS
 62
    7
 10
58.002471999999983
 20
234.32500450000001
 11
59.002471999999983
 21
234.32500450000001
  0
LINE
  8
_0-0_0
  6
CONTINUOUS
 62
    7
 10
58.002471999999983
 20
205.5250015
 11
59.002471999999983
 21
205.5250015
  0
LINE
  8
_0-0_0
  6
CONTINUOUS
 62
    7
 10
414.00247200000001
 20
236.5250015
 11
413.00247200000001
 21
236.5250015
  0
LINE
  8
_0-0_0
  6
CONTINUOUS
 62
    7
 10
58.002471999999983
 20
236.5250015
 11
59.002471999999983
 21
236.5250015
  0
LINE
  8
_0-0_0
  6
CONTINUOUS
 62
    7
 10
415.00247200000001
 20
232.91078949999999
 11
415.001465
 21
232.92929850000002
  0
LINE
  8
_0-0_0
  6
CONTINUOUS
 62
    7
 10
415.001465
 20
232.92929850000002
 11
414.99847399999999
 21
232.94773050000001
  0
LINE
  8
_0-0_0
  6
CONTINUOUS
 62
    7
 10
414.99847399999999
 20
232.94773050000001
 11
414.993225
 21
232.96686550000001
  0
LINE
  8
_0-0_0
  6
CONTINUOUS
 62
    7
 10
414.993225
 20
232.96686550000001
 11
414.98586999999998
 21
232.98587750000002
  0
LINE
  8
_0-0_0
  6
CONTINUOUS
 62
    7
 10
414.98586999999998
 20
232.98587750000002
 11
414.96530100000001
 21
233.0226055
  0
LINE
  8
_0-0_0
  6
CONTINUOUS
 62
    7
 10
414.96530100000001
 20
233.0226055
 11
414.93691999999999
 21
233.05829650000001
  0
LINE
  8
_0-0_0
  6
CONTINUOUS
 62
    7
 10
414.93691999999999
 20
233.05829650000001
 11
414.90103099999999
 21
233.0925675
  0
LINE
  8
_0-0_0
  6
CONTINUOUS
 62
    7
 10
414.90103099999999
 20
233.0925675
 11
414.852417
 21
233.12903550000001
  0
LINE
  8
_0-0_0
  6
CONTINUOUS
 62
    7
 10
414.852417
 20
233.12903550000001
 11
414.79562399999998
 21
233.1630475
  0
LINE
  8
_0-0_0
  6
CONTINUOUS
 62
    7
 10
414.79562399999998
 20
233.1630475
 11
414.73147599999999
 21
233.1942975
  0
LINE
  8
_0-0_0
  6
CONTINUOUS
 62
    7
 10
414.73147599999999
 20
233.1942975
 11
414.66082799999998
 21
233.22254150000001
  0
LINE
  8
_0-0_0
  6
CONTINUOUS
 62
    7
 10
414.66082799999998
 20
233.22254150000001
 11
414.61276199999998
 21
233.2388995
  0
LINE
  8
_0-0_0
  6
CONTINUOUS
 62
    7
 10
414.61276199999998
 20
233.2388995
 11
414.56262199999998
 21
233.25389849999999
  0
LINE
  8
_0-0_0
  6
CONTINUOUS
 62
    7
 10
414.56262199999998
 20
233.25389849999999
 11
414.50592
 21
233.26866950000002
  0
LINE
  8
_0-0_0
  6
CONTINUOUS
 62
    7
 10
414.50592
 20
233.26866950000002
 11
414.44732699999997
 21
233.28176150000002
  0
LINE
  8
_0-0_0
  6
CONTINUOUS
 62
    7
 10
414.44732699999997
 20
233.28176150000002
 11
414.330536
 21
233.30207050000001
  0
LINE
  8
_0-0_0
  6
CONTINUOUS
 62
    7
 10
414.330536
 20
233.30207050000001
 11
414.22311400000001
 21
233.3147965
  0
LINE
  8
_0-0_0
  6
CONTINUOUS
 62
    7
 10
414.22311400000001
 20
233.3147965
 11
414.11334199999999
 21
233.3224415
  0
LINE
  8
_0-0_0
  6
CONTINUOUS
 62
    7
 10
414.11334199999999
 20
233.3224415
 11
414.00247200000001
 21
233.32500450000001
  0
LINE
  8
_0-0_0
  6
CONTINUOUS
 62
    7
 10
415.00247200000001
 20
232.91078949999999
 11
415.00247200000001
 21
233.91085050000001
  0
LINE
  8
_0-0_0
  6
CONTINUOUS
 62
    7
 10
415.00247200000001
 20
233.91085050000001
 11
414.999573
 21
233.9424205
  0
LINE
  8
_0-0_0
  6
CONTINUOUS
 62
    7
 10
414.999573
 20
233.9424205
 11
414.99084499999998
 21
233.97449449999999
  0
LINE
  8
_0-0_0
  6
CONTINUOUS
 62
    7
 10
414.99084499999998
 20
233.97449449999999
 11
414.97628800000001
 21
234.0067675
  0
LINE
  8
_0-0_0
  6
CONTINUOUS
 62
    7
 10
414.97628800000001
 20
234.0067675
 11
414.95605499999999
 21
234.03893250000002
  0
LINE
  8
_0-0_0
  6
CONTINUOUS
 62
    7
 10
414.95605499999999
 20
234.03893250000002
 11
414.93948399999999
 21
234.0601575
  0
LINE
  8
_0-0_0
  6
CONTINUOUS
 62
    7
 10
414.93948399999999
 20
234.0601575
 11
414.92053199999998
 21
234.0811085
  0
LINE
  8
_0-0_0
  6
CONTINUOUS
 62
    7
 10
414.92053199999998
 20
234.0811085
 11
414.87579299999999
 21
234.1218945
  0
LINE
  8
_0-0_0
  6
CONTINUOUS
 62
    7
 10
414.87579299999999
 20
234.1218945
 11
414.82254
 21
234.1606525
  0
LINE
  8
_0-0_0
  6
CONTINUOUS
 62
    7
 10
414.82254
 20
234.1606525
 11
414.77261299999998
 21
234.19084950000001
  0
LINE
  8
_0-0_0
  6
CONTINUOUS
 62
    7
 10
414.77261299999998
 20
234.19084950000001
 11
414.71792599999998
 21
234.21906250000001
  0
LINE
  8
_0-0_0
  6
CONTINUOUS
 62
    7
 10
414.71792599999998
 20
234.21906250000001
 11
414.65893499999999
 21
234.24509449999999
  0
LINE
  8
_0-0_0
  6
CONTINUOUS
 62
    7
 10
414.65893499999999
 20
234.24509449999999
 11
414.61218300000002
 21
234.26309950000001
  0
LINE
  8
_0-0_0
  6
CONTINUOUS
 62
    7
 10
414.61218300000002
 20
234.26309950000001
 11
414.56350700000002
 21
234.27970150000002
  0
LINE
  8
_0-0_0
  6
CONTINUOUS
 62
    7
 10
414.56350700000002
 20
234.27970150000002
 11
414.46112099999999
 21
234.3085705
  0
LINE
  8
_0-0_0
  6
CONTINUOUS
 62
    7
 10
414.46112099999999
 20
234.3085705
 11
414.353363
 21
234.3314135
  0
LINE
  8
_0-0_0
  6
CONTINUOUS
 62
    7
 10
414.353363
 20
234.3314135
 11
414.24176
 21
234.34799950000001
  0
LINE
  8
_0-0_0
  6
CONTINUOUS
 62
    7
 10
414.24176
 20
234.34799950000001
 11
414.12768499999999
 21
234.3581925
  0
LINE
  8
_0-0_0
  6
CONTINUOUS
 62
    7
 10
414.12768499999999
 20
234.3581925
 11
414.00247200000001
 21
234.3619765
  0
ARC
  8
_0-0_0
  6
CONTINUOUS
 62
    7
 10
414.00247200000001
 20
206.5250015
 40
1
 50
269.99999700000001
 51
0
  0
LINE
  8
_0-0_0
  6
CONTINUOUS
 62
    7
 10
415.00247200000001
 20
206.5250015
 11
415.00247200000001
 21
232.91078949999999
  0
LINE
  8
_0-0_0
  6
CONTINUOUS
 62
    7
 10
57.002471999999983
 20
232.91078949999999
 11
57.00347099999999
 21
232.92929850000002
  0
LINE
  8
_0-0_0
  6
CONTINUOUS
 62
    7
 10
57.00347099999999
 20
232.92929850000002
 11
57.006469999999979
 21
232.94773050000001
  0
LINE
  8
_0-0_0
  6
CONTINUOUS
 62
    7
 10
57.006469999999979
 20
232.94773050000001
 11
57.011710999999991
 21
232.96686550000001
  0
LINE
  8
_0-0_0
  6
CONTINUOUS
 62
    7
 10
57.011710999999991
 20
232.96686550000001
 11
57.01908899999998
 21
232.98587750000002
  0
LINE
  8
_0-0_0
  6
CONTINUOUS
 62
    7
 10
57.01908899999998
 20
232.98587750000002
 11
57.039634999999976
 21
233.0226055
  0
LINE
  8
_0-0_0
  6
CONTINUOUS
 62
    7
 10
57.039634999999976
 20
233.0226055
 11
57.068030999999991
 21
233.05829650000001
  0
LINE
  8
_0-0_0
  6
CONTINUOUS
 62
    7
 10
57.068030999999991
 20
233.05829650000001
 11
57.10391199999998
 21
233.0925675
  0
LINE
  8
_0-0_0
  6
CONTINUOUS
 62
    7
 10
57.10391199999998
 20
233.0925675
 11
57.152534000000003
 21
233.12903550000001
  0
LINE
  8
_0-0_0
  6
CONTINUOUS
 62
    7
 10
57.152534000000003
 20
233.12903550000001
 11
57.209319999999991
 21
233.1630475
  0
LINE
  8
_0-0_0
  6
CONTINUOUS
 62
    7
 10
57.209319999999991
 20
233.1630475
 11
57.27346
 21
233.1942975
  0
LINE
  8
_0-0_0
  6
CONTINUOUS
 62
    7
 10
57.27346
 20
233.1942975
 11
57.344109000000003
 21
233.22254150000001
  0
LINE
  8
_0-0_0
  6
CONTINUOUS
 62
    7
 10
57.344109000000003
 20
233.22254150000001
 11
57.392188999999973
 21
233.2388995
  0
LINE
  8
_0-0_0
  6
CONTINUOUS
 62
    7
 10
57.392188999999973
 20
233.2388995
 11
57.442328999999972
 21
233.25389849999999
  0
LINE
  8
_0-0_0
  6
CONTINUOUS
 62
    7
 10
57.442328999999972
 20
233.25389849999999
 11
57.499031000000002
 21
233.26866950000002
  0
LINE
  8
_0-0_0
  6
CONTINUOUS
 62
    7
 10
57.499031000000002
 20
233.26866950000002
 11
57.557631999999984
 21
233.28176150000002
  0
LINE
  8
_0-0_0
  6
CONTINUOUS
 62
    7
 10
57.557631999999984
 20
233.28176150000002
 11
57.674415999999979
 21
233.30207050000001
  0
LINE
  8
_0-0_0
  6
CONTINUOUS
 62
    7
 10
57.674415999999979
 20
233.30207050000001
 11
57.781821999999977
 21
233.3147965
  0
LINE
  8
_0-0_0
  6
CONTINUOUS
 62
    7
 10
57.781821999999977
 20
233.3147965
 11
57.891593999999998
 21
233.3224415
  0
LINE
  8
_0-0_0
  6
CONTINUOUS
 62
    7
 10
57.891593999999998
 20
233.3224415
 11
58.002471999999983
 21
233.32500450000001
  0
LINE
  8
_0-0_0
  6
CONTINUOUS
 62
    7
 10
57.002471999999983
 20
233.88045450000001
 11
57.005362999999988
 21
233.91135450000002
  0
LINE
  8
_0-0_0
  6
CONTINUOUS
 62
    7
 10
57.005362999999988
 20
233.91135450000002
 11
57.014060999999998
 21
233.94278750000001
  0
LINE
  8
_0-0_0
  6
CONTINUOUS
 62
    7
 10
57.014060999999998
 20
233.94278750000001
 11
57.028548999999998
 21
233.97446450000001
  0
LINE
  8
_0-0_0
  6
CONTINUOUS
 62
    7
 10
57.028548999999998
 20
233.97446450000001
 11
57.04871399999999
 21
234.00605050000001
  0
LINE
  8
_0-0_0
  6
CONTINUOUS
 62
    7
 10
57.04871399999999
 20
234.00605050000001
 11
57.065230999999983
 21
234.02692450000001
  0
LINE
  8
_0-0_0
  6
CONTINUOUS
 62
    7
 10
57.065230999999983
 20
234.02692450000001
 11
57.084136999999998
 21
234.04755349999999
  0
LINE
  8
_0-0_0
  6
CONTINUOUS
 62
    7
 10
57.084136999999998
 20
234.04755349999999
 11
57.128775999999988
 21
234.08769950000001
  0
LINE
  8
_0-0_0
  6
CONTINUOUS
 62
    7
 10
57.128775999999988
 20
234.08769950000001
 11
57.181907999999993
 21
234.12589249999999
  0
LINE
  8
_0-0_0
  6
CONTINUOUS
 62
    7
 10
57.181907999999993
 20
234.12589249999999
 11
57.231803999999983
 21
234.1557085
  0
LINE
  8
_0-0_0
  6
CONTINUOUS
 62
    7
 10
57.231803999999983
 20
234.1557085
 11
57.286475999999993
 21
234.18358649999999
  0
LINE
  8
_0-0_0
  6
CONTINUOUS
 62
    7
 10
57.286475999999993
 20
234.18358649999999
 11
57.345450999999997
 21
234.2093275
  0
LINE
  8
_0-0_0
  6
CONTINUOUS
 62
    7
 10
57.345450999999997
 20
234.2093275
 11
57.392211999999972
 21
234.22711950000001
  0
LINE
  8
_0-0_0
  6
CONTINUOUS
 62
    7
 10
57.392211999999972
 20
234.22711950000001
 11
57.440909999999974
 21
234.2435375
  0
LINE
  8
_0-0_0
  6
CONTINUOUS
 62
    7
 10
57.440909999999974
 20
234.2435375
 11
57.543342999999993
 21
234.27211750000001
  0
LINE
  8
_0-0_0
  6
CONTINUOUS
 62
    7
 10
57.543342999999993
 20
234.27211750000001
 11
57.651161000000002
 21
234.2947155
  0
LINE
  8
_0-0_0
  6
CONTINUOUS
 62
    7
 10
57.651161000000002
 20
234.2947155
 11
57.762847999999991
 21
234.31113450000001
  0
LINE
  8
_0-0_0
  6
CONTINUOUS
 62
    7
 10
57.762847999999991
 20
234.31113450000001
 11
57.877005999999994
 21
234.3212355
  0
LINE
  8
_0-0_0
  6
CONTINUOUS
 62
    7
 10
57.877005999999994
 20
234.3212355
 11
58.002471999999983
 21
234.32500450000001
  0
LINE
  8
_0-0_0
  6
CONTINUOUS
 62
    7
 10
57.002471999999983
 20
232.91078949999999
 11
57.002471999999983
 21
233.88045450000001
  0
ARC
  8
_0-0_0
  6
CONTINUOUS
 62
    7
 10
58.002471999999983
 20
206.5250015
 40
1
 50
180.00000900000003
 51
269.99999700000001
  0
LINE
  8
_0-0_0
  6
CONTINUOUS
 62
    7
 10
57.002471999999983
 20
206.5250015
 11
57.002471999999983
 21
232.91078949999999
  0
LINE
  8
_0-0_0
  6
CONTINUOUS
 62
    7
 10
415.00247200000001
 20
233.91085050000001
 11
415.00247200000001
 21
235.5250015
  0
ARC
  8
_0-0_0
  6
CONTINUOUS
 62
    7
 10
414.00247200000001
 20
235.5250015
 40
1
 50
0
 51
90.000003000000007
  0
ARC
  8
_0-0_0
  6
CONTINUOUS
 62
    7
 10
58.002471999999983
 20
235.5250015
 40
1
 50
90.000003000000007
 51
180.00000900000001
  0
LINE
  8
_0-0_0
  6
CONTINUOUS
 62
    7
 10
57.002471999999983
 20
233.88045450000001
 11
57.002471999999983
 21
235.5250015
  0
LINE
  8
_0-0_0
  6
CONTINUOUS
 62
    7
 10
29.092603999999994
 20
205.52501649999999
 11
29.092603999999994
 21
204.92499549999999
  0
LINE
  8
_0-0_0
  6
CONTINUOUS
 62
    7
 10
31.592603999999994
 20
199.68000050000001
 11
31.592603999999994
 21
201.92499549999999
  0
LINE
  8
_0-0_0
  6
CONTINUOUS
 62
    7
 10
32.592603999999994
 20
201.92499549999999
 11
32.592603999999994
 21
203.92499549999999
  0
ARC
  8
_0-0_0
  6
CONTINUOUS
 62
    7
 10
32.092603999999994
 20
203.92499549999999
 40
0.5
 50
0
 51
90.000003000000007
  0
LINE
  8
_0-0_0
  6
CONTINUOUS
 62
    7
 10
32.092603999999994
 20
204.42499549999999
 11
30.592603999999994
 21
204.42499549999999
  0
ARC
  8
_0-0_0
  6
CONTINUOUS
 62
    7
 10
30.592603999999994
 20
205.42499549999999
 40
1
 50
180.00000900000003
 51
269.99999700000001
  0
LINE
  8
_0-0_0
  6
CONTINUOUS
 62
    7
 10
29.592603999999994
 20
205.52501649999999
 11
29.592603999999994
 21
205.42499549999999
  0
ARC
  8
_0-0_0
  6
CONTINUOUS
 62
    7
 10
30.592603999999994
 20
204.92499549999999
 40
1.5
 50
180.00000900000003
 51
269.99999700000001
  0
LINE
  8
_0-0_0
  6
CONTINUOUS
 62
    7
 10
30.592603999999994
 20
203.42499549999999
 11
29.89260299999998
 21
203.42499549999999
  0
ARC
  8
_0-0_0
  6
CONTINUOUS
 62
    7
 10
29.89260299999998
 20
204.42499549999999
 40
1
 50
180.00000900000003
 51
269.99999700000001
  0
LINE
  8
_0-0_0
  6
CONTINUOUS
 62
    7
 10
28.892605000000003
 20
205.42499549999999
 11
28.892605000000003
 21
204.42499549999999
  0
LINE
  8
_0-0_0
  6
CONTINUOUS
 62
    7
 10
20.692603999999989
 20
204.42499549999999
 11
20.692603999999989
 21
205.42499549999999
  0
ARC
  8
_0-0_0
  6
CONTINUOUS
 62
    7
 10
19.692603999999989
 20
204.42499549999999
 40
1
 50
269.99999700000001
 51
0
  0
LINE
  8
_0-0_0
  6
CONTINUOUS
 62
    7
 10
19.692603999999989
 20
203.42499549999999
 11
19.492604999999998
 21
203.42499549999999
  0
ARC
  8
_0-0_0
  6
CONTINUOUS
 62
    7
 10
19.492604999999998
 20
204.42499549999999
 40
1
 50
269.99999700000001
 51
0
  0
LINE
  8
_0-0_0
  6
CONTINUOUS
 62
    7
 10
20.492604999999998
 20
204.42499549999999
 11
20.492604999999998
 21
205.52501649999999
  0
LINE
  8
_0-0_0
  6
CONTINUOUS
 62
    7
 10
19.992604999999998
 20
205.42499549999999
 11
19.992604999999998
 21
205.52501649999999
  0
ARC
  8
_0-0_0
  6
CONTINUOUS
 62
    7
 10
18.992604999999998
 20
205.42499549999999
 40
1
 50
269.99999700000001
 51
0
  0
LINE
  8
_0-0_0
  6
CONTINUOUS
 62
    7
 10
18.992604999999998
 20
204.42499549999999
 11
17.492604999999998
 21
204.42499549999999
  0
ARC
  8
_0-0_0
  6
CONTINUOUS
 62
    7
 10
17.492604999999998
 20
203.92499549999999
 40
0.5
 50
90.000003000000007
 51
180.00000900000001
  0
LINE
  8
_0-0_0
  6
CONTINUOUS
 62
    7
 10
16.992604999999998
 20
203.92499549999999
 11
16.992604999999998
 21
201.92499549999999
  0
LINE
  8
_0-0_0
  6
CONTINUOUS
 62
    7
 10
17.992604999999998
 20
199.68000050000001
 11
17.992604999999998
 21
201.92499549999999
  0
LINE
  8
_0-0_0
  6
CONTINUOUS
 62
    7
 10
16.092604999999992
 20
181.32500450000001
 11
16.092604999999992
 21
199.68000050000001
  0
LINE
  8
_0-0_0
  6
CONTINUOUS
 62
    7
 10
32.89260299999998
 20
181.32500450000001
 11
32.89260299999998
 21
199.68000050000001
  0
CIRCLE
  8
_0-0_0
  6
CONTINUOUS
 62
    7
 10
24.792603999999983
 20
201.92499549999999
 40
2.0499999999999998
  0
LINE
  8
_0-0_0
  6
CONTINUOUS
 62
    7
 10
32.89260299999998
 20
203.42499549999999
 11
32.89260299999998
 21
203.4000015
  0
LINE
  8
_0-0_0
  6
CONTINUOUS
 62
    7
 10
32.89260299999998
 20
200.17993949999999
 11
32.89260299999998
 21
200.45000450000001
  0
LINE
  8
_0-0_0
  6
CONTINUOUS
 62
    7
 10
32.89260299999998
 20
199.68000050000001
 11
32.89260299999998
 21
200.18000050000001
  0
LINE
  8
_0-0_0
  6
CONTINUOUS
 62
    7
 10
32.89260299999998
 20
179.32500450000001
 11
32.89260299999998
 21
181.32500450000001
  0
LINE
  8
_0-0_0
  6
CONTINUOUS
 62
    7
 10
16.092604999999992
 20
179.32500450000001
 11
16.092604999999992
 21
181.32500450000001
  0
LINE
  8
_0-0_0
  6
CONTINUOUS
 62
    7
 10
16.092604999999992
 20
179.32500450000001
 11
32.89260299999998
 21
179.32500450000001
  0
LINE
  8
_0-0_0
  6
CONTINUOUS
 62
    7
 10
16.092604999999992
 20
203.42499549999999
 11
16.092604999999992
 21
201.92499549999999
  0
LINE
  8
_0-0_0
  6
CONTINUOUS
 62
    7
 10
16.092604999999992
 20
200.18000050000001
 11
16.092604999999992
 21
201.92499549999999
  0
LINE
  8
_0-0_0
  6
CONTINUOUS
 62
    7
 10
16.092604999999992
 20
199.68000050000001
 11
16.092604999999992
 21
200.18000050000001
  0
LINE
  8
_0-0_0
  6
CONTINUOUS
 62
    7
 10
16.992604999999998
 20
200.18007650000001
 11
16.992604999999998
 21
201.92499549999999
  0
ARC
  8
_0-0_0
  6
CONTINUOUS
 62
    7
 10
31.292603999999983
 20
181.42501049999998
 40
2
 50
323.13010300000002
 51
0.0000000000000127
  0
LINE
  8
_0-0_0
  6
CONTINUOUS
 62
    7
 10
33.292603999999983
 20
181.42501049999998
 11
33.292603999999983
 21
182.82506549999999
  0
LINE
  8
_0-0_0
  6
CONTINUOUS
 62
    7
 10
33.592603999999994
 20
187.9146805
 11
33.592603999999994
 21
198.36269350000001
  0
LINE
  8
_0-0_0
  6
CONTINUOUS
 62
    7
 10
33.592603999999994
 20
199.32547750000001
 11
33.592603999999994
 21
201.56014250000001
  0
LINE
  8
_0-0_0
  6
CONTINUOUS
 62
    7
 10
16.092604999999992
 20
203.42499549999999
 11
16.992604999999998
 21
203.42499549999999
  0
LINE
  8
_0-0_0
  6
CONTINUOUS
 62
    7
 10
15.992604999999998
 20
182.82500450000001
 11
16.092604999999992
 21
182.82500450000001
  0
LINE
  8
_0-0_0
  6
CONTINUOUS
 62
    7
 10
15.992604999999998
 20
182.82500450000001
 11
15.992604999999998
 21
187.9146805
  0
LINE
  8
_0-0_0
  6
CONTINUOUS
 62
    7
 10
15.992604999999998
 20
198.36269350000001
 11
15.992604999999998
 21
199.32547750000001
  0
LINE
  8
_0-0_0
  6
CONTINUOUS
 62
    7
 10
15.992604999999998
 20
202.42499549999999
 11
16.092604999999992
 21
202.42499549999999
  0
LINE
  8
_0-0_0
  6
CONTINUOUS
 62
    7
 10
15.992604999999998
 20
201.56014250000001
 11
15.992604999999998
 21
202.42499549999999
  0
LINE
  8
_0-0_0
  6
CONTINUOUS
 62
    7
 10
15.992604999999998
 20
199.32547750000001
 11
15.992604999999998
 21
201.56014250000001
  0
LINE
  8
_0-0_0
  6
CONTINUOUS
 62
    7
 10
15.992604999999998
 20
187.9146805
 11
15.992604999999998
 21
198.36269350000001
  0
LINE
  8
_0-0_0
  6
CONTINUOUS
 62
    7
 10
16.292603999999983
 20
201.3137285
 11
16.292603999999983
 21
203.20000450000001
  0
LINE
  8
_0-0_0
  6
CONTINUOUS
 62
    7
 10
16.292603999999983
 20
200.6500015
 11
16.292603999999983
 21
201.3137285
  0
LINE
  8
_0-0_0
  6
CONTINUOUS
 62
    7
 10
33.292603999999983
 20
202.53626249999999
 11
33.292603999999983
 21
200.6503065
  0
LINE
  8
_0-0_0
  6
CONTINUOUS
 62
    7
 10
33.292603999999983
 20
203.19162750000001
 11
33.292603999999983
 21
202.53626249999999
  0
LINE
  8
_0-0_0
  6
CONTINUOUS
 62
    7
 10
33.592603999999994
 20
182.82500450000001
 11
33.592603999999994
 21
187.9146805
  0
LINE
  8
_0-0_0
  6
CONTINUOUS
 62
    7
 10
33.592603999999994
 20
201.56014250000001
 11
33.592603999999994
 21
202.42499549999999
  0
LINE
  8
_0-0_0
  6
CONTINUOUS
 62
    7
 10
33.592603999999994
 20
198.36269350000001
 11
33.592603999999994
 21
199.32547750000001
  0
LINE
  8
_0-0_0
  6
CONTINUOUS
 62
    7
 10
33.592603999999994
 20
202.42499549999999
 11
33.292600999999991
 21
202.42499549999999
  0
LINE
  8
_0-0_0
  6
CONTINUOUS
 62
    7
 10
33.592603999999994
 20
182.82500450000001
 11
32.89260299999998
 21
182.82500450000001
  0
LINE
  8
_0-0_0
  6
CONTINUOUS
 62
    7
 10
32.89260299999998
 20
203.42499549999999
 11
32.592603999999994
 21
203.42499549999999
  0
LINE
  8
_0-0_0
  6
CONTINUOUS
 62
    7
 10
32.592603999999994
 20
201.92499549999999
 11
32.592603999999994
 21
200.18007650000001
  0
LINE
  8
_0-0_0
  6
CONTINUOUS
 62
    7
 10
28.892605000000003
 20
205.42499549999999
 11
28.892605000000003
 21
205.52507750000001
  0
LINE
  8
_0-0_0
  6
CONTINUOUS
 62
    7
 10
20.692603999999989
 20
205.52507750000001
 11
20.692603999999989
 21
205.42499549999999
  0
LINE
  8
_0-0_0
  6
CONTINUOUS
 62
    7
 10
31.592603999999994
 20
200.18000050000001
 11
32.89260299999998
 21
200.18000050000001
  0
ARC
  8
_0-0_0
  6
CONTINUOUS
 62
    7
 10
16.792603999999983
 20
203.20000450000001
 40
0.2
 50
359.91222800000003
 51
89.999948000000003
  0
ARC
  8
_0-0_0
  6
CONTINUOUS
 62
    7
 10
16.79249999999999
 20
200.65015450000001
 40
0.200169
 50
270.02985900000004
 51
2.3526610000000452
  0
LINE
  8
_0-0_0
  6
CONTINUOUS
 62
    7
 10
16.492604999999998
 20
203.4000015
 11
16.792603999999983
 21
203.4000015
  0
LINE
  8
_0-0_0
  6
CONTINUOUS
 62
    7
 10
16.492604999999998
 20
200.45000450000001
 11
16.792603999999983
 21
200.45000450000001
  0
ARC
  8
_0-0_0
  6
CONTINUOUS
 62
    7
 10
16.492707999999993
 20
203.19985149999999
 40
0.200169
 50
90.029849999999996
 51
182.352667
  0
ARC
  8
_0-0_0
  6
CONTINUOUS
 62
    7
 10
16.492604999999998
 20
200.6500015
 40
0.2
 50
179.912237
 51
269.99994299999997
  0
ARC
  8
_0-0_0
  6
CONTINUOUS
 62
    7
 10
32.792706999999979
 20
200.65015450000001
 40
0.200169
 50
177.647333
 51
269.97013600000002
  0
ARC
  8
_0-0_0
  6
CONTINUOUS
 62
    7
 10
32.792603999999983
 20
203.20000450000001
 40
0.2
 50
90.000049999999987
 51
180.08776299999997
  0
LINE
  8
_0-0_0
  6
CONTINUOUS
 62
    7
 10
33.092603999999994
 20
200.45000450000001
 11
32.792603999999983
 21
200.45000450000001
  0
LINE
  8
_0-0_0
  6
CONTINUOUS
 62
    7
 10
33.092603999999994
 20
203.4000015
 11
32.792603999999983
 21
203.4000015
  0
ARC
  8
_0-0_0
  6
CONTINUOUS
 62
    7
 10
33.092603999999994
 20
200.6500015
 40
0.2
 50
270.00005199999998
 51
0.0877600000000175
  0
ARC
  8
_0-0_0
  6
CONTINUOUS
 62
    7
 10
33.092500999999999
 20
203.19985149999999
 40
0.200169
 50
357.64733799999999
 51
89.970147999999995
  0
LINE
  8
_0-0_0
  6
CONTINUOUS
 62
    7
 10
16.092604999999992
 20
200.18000050000001
 11
17.992604999999998
 21
200.18000050000001
  0
LINE
  8
_0-0_0
  6
CONTINUOUS
 62
    7
 10
33.592603999999994
 20
205.92499549999999
 11
33.592603999999994
 21
219.12500750000001
  0
ARC
  8
_0-0_0
  6
CONTINUOUS
 62
    7
 10
33.092603999999994
 20
205.92499549999999
 40
0.5
 50
269.99999700000001
 51
0
  0
ARC
  8
_0-0_0
  6
CONTINUOUS
 62
    7
 10
33.534024999999986
 20
219.32500450000001
 40
0.1
 50
135
 51
225
  0
LINE
  8
_0-0_0
  6
CONTINUOUS
 62
    7
 10
33.463315999999992
 20
219.25429550000001
 11
33.592603999999994
 21
219.12500750000001
  0
LINE
  8
_0-0_0
  6
CONTINUOUS
 62
    7
 10
33.092603999999994
 20
205.42499549999999
 11
31.192605999999984
 21
205.42499549999999
  0
ARC
  8
_0-0_0
  6
CONTINUOUS
 62
    7
 10
31.192605999999984
 20
205.92499549999999
 40
0.5
 50
233.12990600000001
 51
269.99999700000001
  0
ARC
  8
_0-0_0
  6
CONTINUOUS
 62
    7
 10
18.492604999999998
 20
205.92499549999999
 40
0.5
 50
269.99999700000001
 51
306.87009999999998
  0
LINE
  8
_0-0_0
  6
CONTINUOUS
 62
    7
 10
18.492604999999998
 20
205.42499549999999
 11
16.592604999999992
 21
205.42499549999999
  0
ARC
  8
_0-0_0
  6
CONTINUOUS
 62
    7
 10
16.592604999999992
 20
205.92499549999999
 40
0.5
 50
180.00000900000003
 51
269.99999700000001
  0
LINE
  8
_0-0_0
  6
CONTINUOUS
 62
    7
 10
16.092604999999992
 20
215.3599925
 11
16.092604999999992
 21
205.92499549999999
  0
LINE
  8
_0-0_0
  6
CONTINUOUS
 62
    7
 10
16.092604999999992
 20
215.3599925
 11
16.792602999999986
 21
215.3599925
  0
LINE
  8
_0-0_0
  6
CONTINUOUS
 62
    7
 10
32.792603999999983
 20
233.92499549999999
 11
32.998635999999976
 21
233.92499549999999
  0
LINE
  8
_0-0_0
  6
CONTINUOUS
 62
    7
 10
32.998635999999976
 20
233.92499549999999
 11
33.592603999999994
 21
233.33103149999999
  0
LINE
  8
_0-0_0
  6
CONTINUOUS
 62
    7
 10
33.592603999999994
 20
228.32500450000001
 11
33.592603999999994
 21
233.33103149999999
  0
LINE
  8
_0-0_0
  6
CONTINUOUS
 62
    7
 10
33.463315999999992
 20
228.1957165
 11
33.592603999999994
 21
228.32500450000001
  0
ARC
  8
_0-0_0
  6
CONTINUOUS
 62
    7
 10
33.534024999999986
 20
228.12500750000001
 40
0.1
 50
135
 51
225
  0
LINE
  8
_0-0_0
  6
CONTINUOUS
 62
    7
 10
33.463315999999992
 20
228.05429850000002
 11
33.592603999999994
 21
227.92499549999999
  0
LINE
  8
_0-0_0
  6
CONTINUOUS
 62
    7
 10
33.592603999999994
 20
227.2249985
 11
33.592603999999994
 21
227.92499549999999
  0
LINE
  8
_0-0_0
  6
CONTINUOUS
 62
    7
 10
33.463315999999992
 20
227.0957105
 11
33.592603999999994
 21
227.2249985
  0
ARC
  8
_0-0_0
  6
CONTINUOUS
 62
    7
 10
33.534024999999986
 20
227.0250015
 40
0.1
 50
135
 51
225
  0
LINE
  8
_0-0_0
  6
CONTINUOUS
 62
    7
 10
33.463315999999992
 20
226.95429250000001
 11
33.592603999999994
 21
226.82500450000001
  0
LINE
  8
_0-0_0
  6
CONTINUOUS
 62
    7
 10
33.592603999999994
 20
226.12500750000001
 11
33.592603999999994
 21
226.82500450000001
  0
LINE
  8
_0-0_0
  6
CONTINUOUS
 62
    7
 10
33.463315999999992
 20
225.99570449999999
 11
33.592603999999994
 21
226.12500750000001
  0
ARC
  8
_0-0_0
  6
CONTINUOUS
 62
    7
 10
33.534024999999986
 20
225.92499549999999
 40
0.1
 50
135
 51
225
  0
LINE
  8
_0-0_0
  6
CONTINUOUS
 62
    7
 10
33.463315999999992
 20
225.8542865
 11
33.592603999999994
 21
225.7249985
  0
LINE
  8
_0-0_0
  6
CONTINUOUS
 62
    7
 10
33.592603999999994
 20
225.0250015
 11
33.592603999999994
 21
225.7249985
  0
LINE
  8
_0-0_0
  6
CONTINUOUS
 62
    7
 10
33.463315999999992
 20
224.8957135
 11
33.592603999999994
 21
225.0250015
  0
ARC
  8
_0-0_0
  6
CONTINUOUS
 62
    7
 10
33.534024999999986
 20
224.82500450000001
 40
0.1
 50
135
 51
225
  0
LINE
  8
_0-0_0
  6
CONTINUOUS
 62
    7
 10
33.463315999999992
 20
224.75429550000001
 11
33.592603999999994
 21
224.62500750000001
  0
LINE
  8
_0-0_0
  6
CONTINUOUS
 62
    7
 10
33.592603999999994
 20
223.92499549999999
 11
33.592603999999994
 21
224.62500750000001
  0
LINE
  8
_0-0_0
  6
CONTINUOUS
 62
    7
 10
33.463315999999992
 20
223.79570749999999
 11
33.592603999999994
 21
223.92499549999999
  0
ARC
  8
_0-0_0
  6
CONTINUOUS
 62
    7
 10
33.534024999999986
 20
223.7249985
 40
0.1
 50
135
 51
225
  0
LINE
  8
_0-0_0
  6
CONTINUOUS
 62
    7
 10
33.463315999999992
 20
223.6542895
 11
33.592603999999994
 21
223.5250015
  0
LINE
  8
_0-0_0
  6
CONTINUOUS
 62
    7
 10
33.592603999999994
 20
222.82500450000001
 11
33.592603999999994
 21
223.5250015
  0
LINE
  8
_0-0_0
  6
CONTINUOUS
 62
    7
 10
33.463315999999992
 20
222.6957165
 11
33.592603999999994
 21
222.82500450000001
  0
ARC
  8
_0-0_0
  6
CONTINUOUS
 62
    7
 10
33.534024999999986
 20
222.62500750000001
 40
0.1
 50
135
 51
225
  0
LINE
  8
_0-0_0
  6
CONTINUOUS
 62
    7
 10
33.463315999999992
 20
222.55429850000002
 11
33.592603999999994
 21
222.42499549999999
  0
LINE
  8
_0-0_0
  6
CONTINUOUS
 62
    7
 10
33.592603999999994
 20
221.7249985
 11
33.592603999999994
 21
222.42499549999999
  0
LINE
  8
_0-0_0
  6
CONTINUOUS
 62
    7
 10
33.463315999999992
 20
221.5957105
 11
33.592603999999994
 21
221.7249985
  0
ARC
  8
_0-0_0
  6
CONTINUOUS
 62
    7
 10
33.534024999999986
 20
221.5250015
 40
0.1
 50
135
 51
225
  0
LINE
  8
_0-0_0
  6
CONTINUOUS
 62
    7
 10
33.463315999999992
 20
221.45429250000001
 11
33.592603999999994
 21
221.32500450000001
  0
LINE
  8
_0-0_0
  6
CONTINUOUS
 62
    7
 10
33.592603999999994
 20
220.62500750000001
 11
33.592603999999994
 21
221.32500450000001
  0
LINE
  8
_0-0_0
  6
CONTINUOUS
 62
    7
 10
33.463315999999992
 20
220.49570449999999
 11
33.592603999999994
 21
220.62500750000001
  0
ARC
  8
_0-0_0
  6
CONTINUOUS
 62
    7
 10
33.534024999999986
 20
220.42499549999999
 40
0.1
 50
135
 51
225
  0
LINE
  8
_0-0_0
  6
CONTINUOUS
 62
    7
 10
33.463315999999992
 20
220.3542865
 11
33.592603999999994
 21
220.2249985
  0
LINE
  8
_0-0_0
  6
CONTINUOUS
 62
    7
 10
33.592603999999994
 20
219.5250015
 11
33.592603999999994
 21
220.2249985
  0
LINE
  8
_0-0_0
  6
CONTINUOUS
 62
    7
 10
33.463315999999992
 20
219.3957135
 11
33.592603999999994
 21
219.5250015
  0
LINE
  8
_0-0_0
  6
CONTINUOUS
 62
    7
 10
33.592603999999994
 20
211.42499549999999
 11
33.692605999999984
 21
211.42499549999999
  0
LINE
  8
_0-0_0
  6
CONTINUOUS
 62
    7
 10
33.692605999999984
 20
210.92499549999999
 11
33.692605999999984
 21
211.42499549999999
  0
LINE
  8
_0-0_0
  6
CONTINUOUS
 62
    7
 10
33.692605999999984
 20
210.92499549999999
 11
33.692605999999984
 21
206.92499549999999
  0
LINE
  8
_0-0_0
  6
CONTINUOUS
 62
    7
 10
33.592603999999994
 20
206.42499549999999
 11
33.692605999999984
 21
206.42499549999999
  0
LINE
  8
_0-0_0
  6
CONTINUOUS
 62
    7
 10
33.692605999999984
 20
206.42499549999999
 11
33.692605999999984
 21
206.92499549999999
  0
LINE
  8
_0-0_0
  6
CONTINUOUS
 62
    7
 10
16.092604999999992
 20
215.42501050000001
 11
16.092604999999992
 21
215.3599925
  0
LINE
  8
_0-0_0
  6
CONTINUOUS
 62
    7
 10
32.592603999999994
 20
234.2249985
 11
32.592603999999994
 21
234.12500750000001
  0
LINE
  8
_0-0_0
  6
CONTINUOUS
 62
    7
 10
15.992604999999998
 20
215.42499549999999
 11
16.792603999999983
 21
215.42499549999999
  0
LINE
  8
_0-0_0
  6
CONTINUOUS
 62
    7
 10
16.492604999999998
 20
237.2249985
 11
16.492604999999998
 21
233.0034565
  0
LINE
  8
_0-0_0
  6
CONTINUOUS
 62
    7
 10
17.592604999999992
 20
237.2249985
 11
17.592604999999992
 21
234.2249985
  0
LINE
  8
_0-0_0
  6
CONTINUOUS
 62
    7
 10
16.492604999999998
 20
233.0034565
 11
16.792603999999983
 21
233.0034565
  0
ARC
  8
_0-0_0
  6
CONTINUOUS
 62
    7
 10
20.092604999999992
 20
234.2249985
 40
2.5
 50
90.000003000000007
 51
180.00000900000001
  0
ARC
  8
_0-0_0
  6
CONTINUOUS
 62
    7
 10
30.092603999999994
 20
234.2249985
 40
2.5
 50
0
 51
90.000003000000007
  0
LINE
  8
_0-0_0
  6
CONTINUOUS
 62
    7
 10
17.592604999999992
 20
234.12500750000001
 11
17.592604999999992
 21
234.2249985
  0
LINE
  8
_0-0_0
  6
CONTINUOUS
 62
    7
 10
30.092603999999994
 20
236.7249985
 11
20.092604999999992
 21
236.7249985
  0
LINE
  8
_0-0_0
  6
CONTINUOUS
 62
    7
 10
33.792603999999983
 20
206.92499549999999
 11
33.792603999999983
 21
207.05536649999999
  0
LINE
  8
_0-0_0
  6
CONTINUOUS
 62
    7
 10
33.792603999999983
 20
210.55536649999999
 11
33.792603999999983
 21
207.05536649999999
  0
LINE
  8
_0-0_0
  6
CONTINUOUS
 62
    7
 10
33.692605999999984
 20
210.82500450000001
 11
33.792603999999983
 21
210.82500450000001
  0
LINE
  8
_0-0_0
  6
CONTINUOUS
 62
    7
 10
33.792603999999983
 20
210.55536649999999
 11
33.792603999999983
 21
210.82500450000001
  0
LINE
  8
_0-0_0
  6
CONTINUOUS
 62
    7
 10
33.392606999999998
 20
233.32500450000001
 11
32.392606999999998
 21
234.32500450000001
  0
LINE
  8
_0-0_0
  6
CONTINUOUS
 62
    7
 10
33.39260299999998
 20
205.5250015
 11
33.392606999999998
 21
233.32500450000001
  0
LINE
  8
_0-0_0
  6
CONTINUOUS
 62
    7
 10
16.792603999999983
 20
205.5250015
 11
33.39260299999998
 21
205.5250015
  0
LINE
  8
_0-0_0
  6
CONTINUOUS
 62
    7
 10
16.792603999999983
 20
233.32500450000001
 11
16.792603999999983
 21
205.5250015
  0
LINE
  8
_0-0_0
  6
CONTINUOUS
 62
    7
 10
15.992604999999998
 20
215.42499549999999
 11
15.992604999999998
 21
232.23781550000001
  0
LINE
  8
_0-0_0
  6
CONTINUOUS
 62
    7
 10
15.992604999999998
 20
236.7249985
 11
15.992604999999998
 21
232.23781550000001
  0
ARC
  8
_0-0_0
  6
CONTINUOUS
 62
    7
 10
47.444343000000003
 20
212.24282049999999
 40
37.269466000000001
 50
146.14857699999999
 51
147.55443399999999
  0
ARC
  8
_0-0_0
  6
CONTINUOUS
 62
    7
 10
29.823556999999994
 20
233.92499549999999
 40
2.6000000000000001
 50
8.8498839999999994
 51
90.000002999999992
  0
LINE
  8
_0-0_0
  6
CONTINUOUS
 62
    7
 10
29.823556999999994
 20
236.5250015
 11
20.361649999999997
 21
236.5250015
  0
ARC
  8
_0-0_0
  6
CONTINUOUS
 62
    7
 10
20.361649999999997
 20
233.92499549999999
 40
2.6000000000000001
 50
90.000003000000007
 51
171.150115
  0
LINE
  8
_0-0_0
  6
CONTINUOUS
 62
    7
 10
16.792603999999983
 20
233.32500450000001
 11
17.792603999999983
 21
234.32500450000001
  0
LINE
  8
_0-0_0
  6
CONTINUOUS
 62
    7
 10
32.392606999999998
 20
232.91078949999999
 11
33.392606999999998
 21
233.32500450000001
  0
ARC
  8
_0-0_0
  6
CONTINUOUS
 62
    7
 10
26.850065000000001
 20
245.11112249999999
 40
12.126564999999999
 50
292.155034
 51
297.19674500000002
  0
LINE
  8
_0-0_0
  6
CONTINUOUS
 62
    7
 10
32.39260299999998
 20
206.5250015
 11
33.39260299999998
 21
205.5250015
  0
LINE
  8
_0-0_0
  6
CONTINUOUS
 62
    7
 10
17.792603999999983
 20
206.5250015
 11
16.792603999999983
 21
205.5250015
  0
LINE
  8
_0-0_0
  6
CONTINUOUS
 62
    7
 10
17.792603999999983
 20
232.91078949999999
 11
16.792603999999983
 21
233.32500450000001
  0
ARC
  8
_0-0_0
  6
CONTINUOUS
 62
    7
 10
23.33514599999998
 20
245.11112249999999
 40
12.126567
 50
242.80325699999997
 51
247.84494000000001
  0
CIRCLE
  8
_0-0_0
  6
CONTINUOUS
 62
    7
 10
25.092603999999994
 20
213.7249985
 40
2.0670000000000002
  0
LINE
  8
_0-0_0
  6
CONTINUOUS
 62
    7
 10
17.592604999999992
 20
237.2249985
 11
16.492604999999998
 21
237.2249985
  0
LINE
  8
_0-0_0
  6
CONTINUOUS
 62
    7
 10
33.692605999999984
 20
206.92499549999999
 11
33.792603999999983
 21
206.92499549999999
  0
LINE
  8
_0-0_0
  6
CONTINUOUS
 62
    7
 10
33.692605999999984
 20
206.92499549999999
 11
33.792603999999983
 21
206.92499549999999
  0
LINE
  8
_0-0_0
  6
CONTINUOUS
 62
    7
 10
15.992604999999998
 20
236.7249985
 11
16.492604999999998
 21
237.2249985
  0
ENDSEC
  0
EOF
