  0
SECTION
  2
HEADER
  9
$ACADVER
  1
AC1009
  9
$INSBASE
 10
0
 20
0
 30
0
  9
$EXTMIN
 10
0
 20
0
  9
$EXTMAX
 10
420.5
 20
297
  9
$LIMMIN
 10
0
 20
0
  9
$LIMMAX
 10
420.5
 20
297
  9
$LTSCALE
 40
0.5
  0
ENDSEC
  0
SECTION
  2
TABLES
  0
TABLE
  2
LTYPE
 70
     9
  0
LTYPE
  2
CONTINUOUS
 70
    64
  3
実線
 72
    65
 73
     0
 40
0.0
  0
LTYPE
  2
DASHED1
 70
    64
  3
--  --  --  --  --  --  --  --  
 72
    65
 73
     2
 40
2.5
 49
1.25
 49
-1.25
  0
LTYPE
  2
DASHED2
 70
    64
  3
----    ----    ----    ----    
 72
    65
 73
     2
 40
5.0
 49
2.5
 49
-2.5
  0
LTYPE
  2
DASHED3
 70
    64
  3
------  ------  ------  ------  
 72
    65
 73
     2
 40
5.0
 49
3.75
 49
-1.25
  0
LTYPE
  2
CENTER1
 70
    64
  3
----- - ----- - ----- - ----- - 
 72
    65
 73
     4
 40
10.0
 49
6.25
 49
-1.25
 49
1.25
 49
-1.25
  0
LTYPE
  2
CENTER2
 70
    64
  3
----------  --  ----------  --  
 72
    65
 73
     4
 40
20.0
 49
12.5
 49
-2.5
 49
2.5
 49
-2.5
  0
LTYPE
  2
PHANTOM1
 70
    64
  3
--- - - --- - - --- - - --- - - 
 72
    65
 73
     6
 40
10.0
 49
3.25
 49
-1.25
 49
1.25
 49
-1.25
 49
1.25
 49
-1.25
  0
LTYPE
  2
PHANTOM2
 70
    64
  3
--------  -  -  --------  -  -  
 72
    65
 73
     6
 40
20.0
 49
10.0
 49
-2.5
 49
1.25
 49
-2.5
 49
1.25
 49
-2.5
  0
LTYPE
  2
DOT
 70
    64
  3
-   -   -   -   -   -   -   -   
 72
    65
 73
     2
 40
2.5
 49
0.625
 49
-1.875
  0
LTYPE
  2
DUMMY
 70
    64
  3
ダミー
 72
    65
 73
     0
 40
0.0
  0
LTYPE
  2
RAND1
 70
    64
  3
ランダム線1
 72
    65
 73
     4
 40
10.0
 49
1.0
 49
-2.0
 49
3.0
 49
-4.0
  0
LTYPE
  2
RAND2
 70
    64
  3
ランダム線2
 72
    65
 73
     4
 40
14.0
 49
2.0
 49
-3.0
 49
4.0
 49
-5.0
  0
LTYPE
  2
RAND3
 70
    64
  3
ランダム線3
 72
    65
 73
     4
 40
18.0
 49
3.0
 49
-4.0
 49
5.0
 49
-6.0
  0
LTYPE
  2
RAND4
 70
    64
  3
ランダム線4
 72
    65
 73
     4
 40
22.0
 49
4.0
 49
-5.0
 49
6.0
 49
-7.0
  0
LTYPE
  2
RAND5
 70
    64
  3
ランダム線5
 72
    65
 73
     4
 40
26.0
 49
5.0
 49
-6.0
 49
7.0
 49
-8.0
  0
LTYPE
  2
LONG1
 70
    64
  3
----------  --  ----------  --  
 72
    65
 73
     4
 40
40.0
 49
32.5
 49
-2.5
 49
2.5
 49
-2.5
  0
LTYPE
  2
LONG2
 70
    64
  3
--------  -  -  --------  -  -  
 72
    65
 73
     6
 40
40.0
 49
30.0
 49
-2.5
 49
1.25
 49
-2.5
 49
1.25
 49
-2.5
  0
LTYPE
  2
LONG3
 70
    64
  3
+++++++++++++++..+++++++++++++++
 72
    65
 73
     2
 40
40.0
 49
37.5
 49
-2.5
  0
LTYPE
  2
LONG4
 70
    64
  3
+++++++++++++++..+++++++++++++++
 72
    65
 73
     2
 40
80.0
 49
75.0
 49
-5.0
  0
LTYPE
  2
LONG5
 70
    64
  3
----------  --  ----------  --  
 72
    65
 73
     4
 40
60.0
 49
37.5
 49
-7.5
 49
7.5
 49
-7.5
  0
LTYPE
  2
dashed
 70
   64
  3
-------   -------------   ------
 72
   65
 73
    2
 40
7.5
 49
6
 49
-1.5
  0
LTYPE
  2
dashed_spaced
 70
   64
  3
----        --------        ----
 72
   65
 73
    2
 40
12
 49
6
 49
-6
  0
LTYPE
  2
long_dashed_dotted
 70
   64
  3
------------- --- --------------
 72
   65
 73
    4
 40
15.25
 49
12
 49
-1.5
 49
0.25
 49
-1.5
  0
LTYPE
  2
long_dashed_double-dotted
 70
   64
  3
----------- --- --- ------------
 72
   65
 73
    6
 40
17
 49
12
 49
-1.5
 49
0.25
 49
-1.5
 49
0.25
 49
-1.5
  0
LTYPE
  2
long_dashed_triplicate-dotted
 70
   64
  3
--------- --- --- --- ----------
 72
   65
 73
    8
 40
18.75
 49
12
 49
-1.5
 49
0.25
 49
-1.5
 49
0.25
 49
-1.5
 49
0.25
 49
-1.5
  0
LTYPE
  2
dotted
 70
   64
  3
   -       -       -       -    
 72
   65
 73
    2
 40
1.75
 49
0.25
 49
-1.5
  0
LTYPE
  2
chain
 70
   64
  3
-------------- -- --------------
 72
   65
 73
    4
 40
18.5
 49
12
 49
-1.5
 49
3.5
 49
-1.5
  0
LTYPE
  2
chain_double_dash
 70
   64
  3
------------ -- -- -------------
 72
   65
 73
    6
 40
23.5
 49
12
 49
-1.5
 49
3.5
 49
-1.5
 49
3.5
 49
-1.5
  0
LTYPE
  2
dashed_dotted
 70
   64
  3
-----------     -     ----------
 72
   65
 73
    4
 40
9.25
 49
6
 49
-1.5
 49
0.25
 49
-1.5
  0
LTYPE
  2
double-dashed_dotted
 70
   64
  3
------   -----------   -   -----
 72
   65
 73
    6
 40
16.75
 49
6
 49
-1.5
 49
6
 49
-1.5
 49
0.25
 49
-1.5
  0
LTYPE
  2
dashed_double-dotted
 70
   64
  3
---------    -    -    ---------
 72
   65
 73
    6
 40
11
 49
6
 49
-1.5
 49
0.25
 49
-1.5
 49
0.25
 49
-1.5
  0
LTYPE
  2
double-dashed_double-dotted
 70
   64
  3
-----   ---------   -   -   ----
 72
   65
 73
    8
 40
18.5
 49
6
 49
-1.5
 49
6
 49
-1.5
 49
0.25
 49
-1.5
 49
0.25
 49
-1.5
  0
LTYPE
  2
dashed_triplicate-dotted
 70
   64
  3
-------    -    -    -    ------
 72
   65
 73
    8
 40
12.75
 49
6
 49
-1.5
 49
0.25
 49
-1.5
 49
0.25
 49
-1.5
 49
0.25
 49
-1.5
  0
LTYPE
  2
double-dashed_triplicate-dotted
 70
   64
  3
-----  ---------  -  -  -  -----
 72
   65
 73
   10
 40
20.25
 49
6
 49
-1.5
 49
6
 49
-1.5
 49
0.25
 49
-1.5
 49
0.25
 49
-1.5
 49
0.25
 49
-1.5
  0
LTYPE
  2
undefined
 70
   64
  3
--------------------------------
 72
   65
 73
    0
 40
0
  0
ENDTAB
  0
TABLE
  2
STYLE
  5
3
100
AcDbSymbolTable
 70
     1
  0
STYLE
  5
10
100
AcDbSymbolTableRecord
100
AcDbTextStyleTableRecord
  2
STANDARD
 70
     0
 40
0.0
 41
1.0
 50
0.0
 71
     0
 42
0.2
  3
txt
  4
bigfont.shx
  0
STYLE
  5
26
100
AcDbSymbolTableRecord
100
AcDbTextStyleTableRecord
  2
TATEGAKI
 70
    68
 40
0.0
 41
1.0
 50
0.0
 71
     0
 42
1.0
  3
txt
  4
bigfont.shx
  0
ENDTAB
  0
TABLE
  2
LAYER
 70
    2
  0
LAYER
  2
_0-0_0
 70
   64
 62
    7
  6
CONTINUOUS
  0
LAYER
  2
ADD_LINE
 70
   64
 62
    7
  6
CONTINUOUS
  0
ENDTAB
  0
ENDSEC
  0
SECTION
  2
BLOCKS
  0
ENDSEC
  0
SECTION
  2
ENTITIES
  0
POINT
  8
_0-0_0
 62
    7
 10
175.002487
 20
181.2750015
  0
LINE
  8
_0-0_0
  6
CONTINUOUS
 62
    7
 10
68.002476000000001
 20
222.27550550000001
 11
68.002476000000001
 21
222.2744975
  0
LINE
  8
_0-0_0
  6
CONTINUOUS
 62
    7
 10
94.502475999999987
 20
187.9300155
 11
94.502475999999987
 21
190.17501049999998
  0
LINE
  8
_0-0_0
  6
CONTINUOUS
 62
    7
 10
94.502475999999987
 20
190.17501049999998
 11
94.502475999999987
 21
192.17501049999998
  0
LINE
  8
_0-0_0
  6
CONTINUOUS
 62
    7
 10
94.502475999999987
 20
192.17501049999998
 11
94.502475999999987
 21
192.67501049999998
  0
LINE
  8
_0-0_0
  6
CONTINUOUS
 62
    7
 10
94.502475999999987
 20
192.67501049999998
 11
94.502475999999987
 21
193.67499550000002
  0
LINE
  8
_0-0_0
  6
CONTINUOUS
 62
    7
 10
94.502475999999987
 20
169.57500450000001
 11
94.502475999999987
 21
187.9300155
  0
LINE
  8
_0-0_0
  6
CONTINUOUS
 62
    7
 10
191.002487
 20
191.67501049999998
 11
191.002487
 21
192.17501049999998
  0
LINE
  8
_0-0_0
  6
CONTINUOUS
 62
    7
 10
191.002487
 20
192.67501049999998
 11
191.002487
 21
193.67499550000002
  0
LINE
  8
_0-0_0
  6
CONTINUOUS
 62
    7
 10
191.002487
 20
192.17501049999998
 11
191.002487
 21
192.67501049999998
  0
ARC
  8
_0-0_0
  6
CONTINUOUS
 62
    7
 10
177.002487
 20
187.9300155
 40
0.5
 50
0
 51
123.74898500000002
  0
ARC
  8
_0-0_0
  6
CONTINUOUS
 62
    7
 10
175.502487
 20
190.17501049999998
 40
2.2000000000000002
 50
180.00000900000003
 51
303.74900400000001
  0
LINE
  8
_0-0_0
  6
CONTINUOUS
 62
    7
 10
173.30248999999998
 20
190.17501049999998
 11
173.30248999999998
 21
191.67501049999998
  0
LINE
  8
_0-0_0
  6
CONTINUOUS
 62
    7
 10
98.70247599999999
 20
191.67501049999998
 11
173.30248999999998
 21
191.67501049999998
  0
LINE
  8
_0-0_0
  6
CONTINUOUS
 62
    7
 10
98.70247599999999
 20
191.67501049999998
 11
98.70247599999999
 21
190.17501049999998
  0
ARC
  8
_0-0_0
  6
CONTINUOUS
 62
    7
 10
96.502475999999987
 20
190.17501049999998
 40
2.2000000000000002
 50
236.25102899999999
 51
0
  0
ARC
  8
_0-0_0
  6
CONTINUOUS
 62
    7
 10
95.002475999999987
 20
187.9300155
 40
0.5
 50
56.251010000000008
 51
180.00000900000001
  0
ARC
  8
_0-0_0
  6
CONTINUOUS
 62
    7
 10
96.502475999999987
 20
169.57500450000001
 40
2
 50
180.00000900000003
 51
269.99999700000001
  0
LINE
  8
_0-0_0
  6
CONTINUOUS
 62
    7
 10
96.502475999999987
 20
167.57500450000001
 11
97.502475999999987
 21
167.57500450000001
  0
LINE
  8
_0-0_0
  6
CONTINUOUS
 62
    7
 10
97.502475999999987
 20
167.57500450000001
 11
97.502475999999987
 21
169.17501049999998
  0
ARC
  8
_0-0_0
  6
CONTINUOUS
 62
    7
 10
98.002475999999987
 20
169.17501049999998
 40
0.5
 50
90.000003000000007
 51
180.00000900000001
  0
LINE
  8
_0-0_0
  6
CONTINUOUS
 62
    7
 10
98.20247599999999
 20
169.67501049999998
 11
98.002475999999987
 21
169.67501049999998
  0
ARC
  8
_0-0_0
  6
CONTINUOUS
 62
    7
 10
98.20247599999999
 20
169.17501049999998
 40
0.5
 50
90.000003000000007
 51
180.00000900000001
  0
LINE
  8
_0-0_0
  6
CONTINUOUS
 62
    7
 10
97.70247599999999
 20
167.67501049999998
 11
97.70247599999999
 21
169.17501049999998
  0
LINE
  8
_0-0_0
  6
CONTINUOUS
 62
    7
 10
167.30248999999998
 20
167.67501049999998
 11
97.70247599999999
 21
167.67501049999998
  0
LINE
  8
_0-0_0
  6
CONTINUOUS
 62
    7
 10
167.30248999999998
 20
167.67501049999998
 11
167.30248999999998
 21
169.17501049999998
  0
ARC
  8
_0-0_0
  6
CONTINUOUS
 62
    7
 10
166.80248999999998
 20
169.17501049999998
 40
0.5
 50
0
 51
90.000003000000007
  0
LINE
  8
_0-0_0
  6
CONTINUOUS
 62
    7
 10
167.002487
 20
169.67501049999998
 11
166.80248999999998
 21
169.67501049999998
  0
ARC
  8
_0-0_0
  6
CONTINUOUS
 62
    7
 10
167.002487
 20
169.17501049999998
 40
0.5
 50
0
 51
90.000003000000007
  0
LINE
  8
_0-0_0
  6
CONTINUOUS
 62
    7
 10
167.502487
 20
169.17501049999998
 11
167.502487
 21
167.57500450000001
  0
LINE
  8
_0-0_0
  6
CONTINUOUS
 62
    7
 10
167.502487
 20
167.57500450000001
 11
177.502487
 21
167.57500450000001
  0
LINE
  8
_0-0_0
  6
CONTINUOUS
 62
    7
 10
177.502487
 20
167.57500450000001
 11
177.502487
 21
168.4749985
  0
LINE
  8
_0-0_0
  6
CONTINUOUS
 62
    7
 10
113.50247199999998
 20
171.0790935
 11
154.90247299999999
 21
171.0790935
  0
LINE
  8
_0-0_0
  6
CONTINUOUS
 62
    7
 10
113.50247199999998
 20
190.67501049999998
 11
154.90247299999999
 21
190.67501049999998
  0
ARC
  8
_0-0_0
  6
CONTINUOUS
 62
    7
 10
166.202484
 20
169.87500749999998
 40
0.2
 50
180.00000900000003
 51
269.99999700000001
  0
LINE
  8
_0-0_0
  6
CONTINUOUS
 62
    7
 10
166.202484
 20
169.67501049999998
 11
98.802474999999987
 21
169.67501049999998
  0
ARC
  8
_0-0_0
  6
CONTINUOUS
 62
    7
 10
98.802474999999987
 20
169.87500749999998
 40
0.2
 50
269.99999700000001
 51
0
  0
ARC
  8
_0-0_0
  6
CONTINUOUS
 62
    7
 10
99.20247599999999
 20
169.87500749999998
 40
0.2
 50
90.000003000000007
 51
180.00000900000001
  0
LINE
  8
_0-0_0
  6
CONTINUOUS
 62
    7
 10
99.20247599999999
 20
170.07500450000001
 11
165.80248999999998
 21
170.07500450000001
  0
ARC
  8
_0-0_0
  6
CONTINUOUS
 62
    7
 10
165.80248999999998
 20
169.87500749999998
 40
0.2
 50
0
 51
90.000003000000007
  0
LINE
  8
_0-0_0
  6
CONTINUOUS
 62
    7
 10
94.502475999999987
 20
192.67501049999998
 11
191.002487
 21
192.67501049999998
  0
LINE
  8
_0-0_0
  6
CONTINUOUS
 62
    7
 10
190.502487
 20
191.67501049999998
 11
191.002487
 21
191.67501049999998
  0
LINE
  8
_0-0_0
  6
CONTINUOUS
 62
    7
 10
177.502487
 20
169.67501049999998
 11
177.502487
 21
168.4749985
  0
LINE
  8
_0-0_0
  6
CONTINUOUS
 62
    7
 10
177.502487
 20
169.67501049999998
 11
177.502487
 21
187.2750015
  0
LINE
  8
_0-0_0
  6
CONTINUOUS
 62
    7
 10
177.502487
 20
189.25237250000001
 11
177.502487
 21
187.2750015
  0
LINE
  8
_0-0_0
  6
CONTINUOUS
 62
    7
 10
96.502475999999987
 20
176.1646805
 11
96.502475999999987
 21
186.61269350000001
  0
ARC
  8
_0-0_0
  6
CONTINUOUS
 62
    7
 10
96.502475999999987
 20
190.17501049999998
 40
2.7000000000000002
 50
285.68033600000007
 51
352.23356600000005
  0
LINE
  8
_0-0_0
  6
CONTINUOUS
 62
    7
 10
173.502487
 20
187.67501049999998
 11
173.502487
 21
174.07500450000001
  0
LINE
  8
_0-0_0
  6
CONTINUOUS
 62
    7
 10
98.502478999999994
 20
191.67501049999998
 11
98.70247599999999
 21
191.67501049999998
  0
LINE
  8
_0-0_0
  6
CONTINUOUS
 62
    7
 10
98.502478999999994
 20
191.67501049999998
 11
98.502478999999994
 21
190.17501049999998
  0
ARC
  8
_0-0_0
  6
CONTINUOUS
 62
    7
 10
96.502475999999987
 20
190.17501049999998
 40
2
 50
180.00000900000003
 51
0.0000000000000254
  0
LINE
  8
_0-0_0
  6
CONTINUOUS
 62
    7
 10
190.502487
 20
191.67501049999998
 11
190.502487
 21
189.9749985
  0
LINE
  8
_0-0_0
  6
CONTINUOUS
 62
    7
 10
177.502487
 20
167.67501049999998
 11
189.502487
 21
167.67501049999998
  0
LINE
  8
_0-0_0
  6
CONTINUOUS
 62
    7
 10
189.502487
 20
167.67501049999998
 11
194.177933
 21
167.67501049999998
  0
LINE
  8
_0-0_0
  6
CONTINUOUS
 62
    7
 10
189.502487
 20
173.17501049999998
 11
189.502487
 21
170.17501049999998
  0
LINE
  8
_0-0_0
  6
CONTINUOUS
 62
    7
 10
189.502487
 20
170.17501049999998
 11
189.502487
 21
169.67501049999998
  0
LINE
  8
_0-0_0
  6
CONTINUOUS
 62
    7
 10
189.502487
 20
173.17501049999998
 11
189.502487
 21
173.67501049999998
  0
ARC
  8
_0-0_0
  6
CONTINUOUS
 62
    7
 10
183.50247199999998
 20
172.97501349999999
 40
0.500016
 50
180.00117
 51
359.995611
  0
LINE
  8
_0-0_0
  6
CONTINUOUS
 62
    7
 10
184.002487
 20
172.9749985
 11
184.002487
 21
184.9749985
  0
ARC
  8
_0-0_0
  6
CONTINUOUS
 62
    7
 10
183.50247199999998
 20
184.9749985
 40
0.500016
 50
0.001164
 51
179.99560600000004
  0
LINE
  8
_0-0_0
  6
CONTINUOUS
 62
    7
 10
183.002487
 20
172.9749985
 11
183.002487
 21
184.9749985
  0
ARC
  8
_0-0_0
  6
CONTINUOUS
 62
    7
 10
185.00247199999998
 20
172.97501349999999
 40
0.500016
 50
180.00117
 51
359.995611
  0
LINE
  8
_0-0_0
  6
CONTINUOUS
 62
    7
 10
185.502487
 20
172.9749985
 11
185.502487
 21
184.9749985
  0
ARC
  8
_0-0_0
  6
CONTINUOUS
 62
    7
 10
185.00247199999998
 20
184.9749985
 40
0.500016
 50
0.001164
 51
179.99560600000004
  0
LINE
  8
_0-0_0
  6
CONTINUOUS
 62
    7
 10
184.502487
 20
172.9749985
 11
184.502487
 21
184.9749985
  0
ARC
  8
_0-0_0
  6
CONTINUOUS
 62
    7
 10
186.50247199999998
 20
172.97501349999999
 40
0.500016
 50
180.00117
 51
359.995611
  0
LINE
  8
_0-0_0
  6
CONTINUOUS
 62
    7
 10
187.002487
 20
172.9749985
 11
187.002487
 21
184.9749985
  0
ARC
  8
_0-0_0
  6
CONTINUOUS
 62
    7
 10
186.50247199999998
 20
184.9749985
 40
0.500016
 50
0.001164
 51
179.99560600000004
  0
LINE
  8
_0-0_0
  6
CONTINUOUS
 62
    7
 10
186.002487
 20
172.9749985
 11
186.002487
 21
184.9749985
  0
ARC
  8
_0-0_0
  6
CONTINUOUS
 62
    7
 10
188.00247199999998
 20
172.97501349999999
 40
0.500016
 50
180.00117
 51
359.995611
  0
LINE
  8
_0-0_0
  6
CONTINUOUS
 62
    7
 10
188.502487
 20
172.9749985
 11
188.502487
 21
184.9749985
  0
ARC
  8
_0-0_0
  6
CONTINUOUS
 62
    7
 10
188.00247199999998
 20
184.9749985
 40
0.500016
 50
0.001164
 51
179.99560600000004
  0
LINE
  8
_0-0_0
  6
CONTINUOUS
 62
    7
 10
187.502487
 20
172.9749985
 11
187.502487
 21
184.9749985
  0
LINE
  8
_0-0_0
  6
CONTINUOUS
 62
    7
 10
177.502487
 20
189.9749985
 11
177.502487
 21
189.25237250000001
  0
LINE
  8
_0-0_0
  6
CONTINUOUS
 62
    7
 10
190.502487
 20
189.9749985
 11
177.502487
 21
189.9749985
  0
LINE
  8
_0-0_0
  6
CONTINUOUS
 62
    7
 10
177.502487
 20
191.67501049999998
 11
190.502487
 21
191.67501049999998
  0
LINE
  8
_0-0_0
  6
CONTINUOUS
 62
    7
 10
177.502487
 20
191.67501049999998
 11
177.502487
 21
189.9749985
  0
LINE
  8
_0-0_0
  6
CONTINUOUS
 62
    7
 10
166.952484
 20
169.65196950000001
 11
166.952484
 21
169.67499550000002
  0
ARC
  8
_0-0_0
  6
CONTINUOUS
 62
    7
 10
194.177933
 20
169.67501049999998
 40
2
 50
269.99999700000001
 51
288.43501300000003
  0
LINE
  8
_0-0_0
  6
CONTINUOUS
 62
    7
 10
173.30248999999998
 20
191.67501049999998
 11
173.502487
 21
191.67501049999998
  0
ARC
  8
_0-0_0
  6
CONTINUOUS
 62
    7
 10
175.502487
 20
190.17501049999998
 40
2
 50
180.00000900000003
 51
0.0000000000000254
  0
LINE
  8
_0-0_0
  6
CONTINUOUS
 62
    7
 10
173.502487
 20
190.17501049999998
 11
173.502487
 21
191.67501049999998
  0
LINE
  8
_0-0_0
  6
CONTINUOUS
 62
    7
 10
195.25247199999998
 20
167.92499550000002
 11
194.81037899999998
 21
167.77764150000002
  0
ARC
  8
_0-0_0
  6
CONTINUOUS
 62
    7
 10
164.502487
 20
183.2750015
 40
2.25
 50
269.99999700000001
 51
90.000002999999992
  0
LINE
  8
_0-0_0
  6
CONTINUOUS
 62
    7
 10
160.50247199999998
 20
181.0250015
 11
164.502487
 21
181.0250015
  0
ARC
  8
_0-0_0
  6
CONTINUOUS
 62
    7
 10
160.50247199999998
 20
183.2750015
 40
2.25
 50
90.000003000000007
 51
269.99999700000006
  0
ARC
  8
_0-0_0
  6
CONTINUOUS
 62
    7
 10
108.50247199999998
 20
183.2750015
 40
2.25
 50
269.99999700000001
 51
90.000002999999992
  0
LINE
  8
_0-0_0
  6
CONTINUOUS
 62
    7
 10
104.50247199999998
 20
181.0250015
 11
108.50247199999998
 21
181.0250015
  0
ARC
  8
_0-0_0
  6
CONTINUOUS
 62
    7
 10
104.50247199999998
 20
183.2750015
 40
2.25
 50
90.000003000000007
 51
269.99999700000006
  0
LINE
  8
_0-0_0
  6
CONTINUOUS
 62
    7
 10
160.50247199999998
 20
185.5250015
 11
164.502487
 21
185.5250015
  0
LINE
  8
_0-0_0
  6
CONTINUOUS
 62
    7
 10
104.50247199999998
 20
185.5250015
 11
108.50247199999998
 21
185.5250015
  0
LINE
  8
_0-0_0
  6
CONTINUOUS
 62
    7
 10
166.743088
 20
179.2750015
 11
158.26187099999999
 21
179.2750015
  0
LINE
  8
_0-0_0
  6
CONTINUOUS
 62
    7
 10
166.743088
 20
179.2750015
 11
169.05248999999998
 21
183.2750015
  0
LINE
  8
_0-0_0
  6
CONTINUOUS
 62
    7
 10
169.05248999999998
 20
183.2750015
 11
166.743088
 21
187.2750015
  0
LINE
  8
_0-0_0
  6
CONTINUOUS
 62
    7
 10
158.26187099999999
 20
187.2750015
 11
166.743088
 21
187.2750015
  0
LINE
  8
_0-0_0
  6
CONTINUOUS
 62
    7
 10
155.95246900000001
 20
183.2750015
 11
158.26187099999999
 21
187.2750015
  0
LINE
  8
_0-0_0
  6
CONTINUOUS
 62
    7
 10
158.26187099999999
 20
179.2750015
 11
155.95246900000001
 21
183.2750015
  0
LINE
  8
_0-0_0
  6
CONTINUOUS
 62
    7
 10
110.74307199999998
 20
179.2750015
 11
102.26187899999999
 21
179.2750015
  0
LINE
  8
_0-0_0
  6
CONTINUOUS
 62
    7
 10
113.05247499999999
 20
183.2750015
 11
110.74307199999998
 21
179.2750015
  0
LINE
  8
_0-0_0
  6
CONTINUOUS
 62
    7
 10
113.05247499999999
 20
183.2750015
 11
110.74307199999998
 21
187.2750015
  0
LINE
  8
_0-0_0
  6
CONTINUOUS
 62
    7
 10
102.26187899999999
 20
187.2750015
 11
110.74307199999998
 21
187.2750015
  0
LINE
  8
_0-0_0
  6
CONTINUOUS
 62
    7
 10
99.95247599999999
 20
183.2750015
 11
102.26187899999999
 21
187.2750015
  0
LINE
  8
_0-0_0
  6
CONTINUOUS
 62
    7
 10
99.95247599999999
 20
183.2750015
 11
102.26187899999999
 21
179.2750015
  0
CIRCLE
  8
_0-0_0
  6
CONTINUOUS
 62
    7
 10
175.502487
 20
190.17501049999998
 40
1.4750000000000001
  0
CIRCLE
  8
_0-0_0
  6
CONTINUOUS
 62
    7
 10
96.502475999999987
 20
190.17501049999998
 40
1.4750000000000001
  0
LINE
  8
_0-0_0
  6
CONTINUOUS
 62
    7
 10
175.952484
 20
189.9749985
 11
176.60247799999999
 21
189.9749985
  0
ARC
  8
_0-0_0
  6
CONTINUOUS
 62
    7
 10
175.952484
 20
189.7249985
 40
0.25
 50
90.000003000000007
 51
180.00000900000001
  0
LINE
  8
_0-0_0
  6
CONTINUOUS
 62
    7
 10
175.702484
 20
189.7249985
 11
175.702484
 21
189.07500450000001
  0
LINE
  8
_0-0_0
  6
CONTINUOUS
 62
    7
 10
175.30248999999998
 20
189.07500450000001
 11
175.702484
 21
189.07500450000001
  0
LINE
  8
_0-0_0
  6
CONTINUOUS
 62
    7
 10
175.30248999999998
 20
189.07500450000001
 11
175.30248999999998
 21
189.7249985
  0
ARC
  8
_0-0_0
  6
CONTINUOUS
 62
    7
 10
175.05248999999998
 20
189.7249985
 40
0.25
 50
0
 51
90.000003000000007
  0
LINE
  8
_0-0_0
  6
CONTINUOUS
 62
    7
 10
174.40248099999999
 20
189.9749985
 11
175.05248999999998
 21
189.9749985
  0
LINE
  8
_0-0_0
  6
CONTINUOUS
 62
    7
 10
174.40248099999999
 20
189.9749985
 11
174.40248099999999
 21
190.37500749999998
  0
LINE
  8
_0-0_0
  6
CONTINUOUS
 62
    7
 10
175.05248999999998
 20
190.37500749999998
 11
174.40248099999999
 21
190.37500749999998
  0
ARC
  8
_0-0_0
  6
CONTINUOUS
 62
    7
 10
175.05248999999998
 20
190.62500749999998
 40
0.25
 50
269.99999700000001
 51
0
  0
LINE
  8
_0-0_0
  6
CONTINUOUS
 62
    7
 10
175.30248999999998
 20
190.62500749999998
 11
175.30248999999998
 21
191.2750015
  0
LINE
  8
_0-0_0
  6
CONTINUOUS
 62
    7
 10
175.702484
 20
191.2750015
 11
175.30248999999998
 21
191.2750015
  0
LINE
  8
_0-0_0
  6
CONTINUOUS
 62
    7
 10
175.702484
 20
191.2750015
 11
175.702484
 21
190.62500749999998
  0
ARC
  8
_0-0_0
  6
CONTINUOUS
 62
    7
 10
175.952484
 20
190.62500749999998
 40
0.25
 50
180.00000900000003
 51
269.99999700000001
  0
LINE
  8
_0-0_0
  6
CONTINUOUS
 62
    7
 10
176.60247799999999
 20
190.37500749999998
 11
175.952484
 21
190.37500749999998
  0
LINE
  8
_0-0_0
  6
CONTINUOUS
 62
    7
 10
176.60247799999999
 20
190.37500749999998
 11
176.60247799999999
 21
189.9749985
  0
LINE
  8
_0-0_0
  6
CONTINUOUS
 62
    7
 10
96.95247599999999
 20
189.9749985
 11
97.602473999999987
 21
189.9749985
  0
ARC
  8
_0-0_0
  6
CONTINUOUS
 62
    7
 10
96.95247599999999
 20
189.7249985
 40
0.25
 50
90.000003000000007
 51
180.00000900000001
  0
LINE
  8
_0-0_0
  6
CONTINUOUS
 62
    7
 10
96.70247599999999
 20
189.7249985
 11
96.70247599999999
 21
189.07500450000001
  0
LINE
  8
_0-0_0
  6
CONTINUOUS
 62
    7
 10
96.302474999999987
 20
189.07500450000001
 11
96.70247599999999
 21
189.07500450000001
  0
LINE
  8
_0-0_0
  6
CONTINUOUS
 62
    7
 10
96.302474999999987
 20
189.07500450000001
 11
96.302474999999987
 21
189.7249985
  0
ARC
  8
_0-0_0
  6
CONTINUOUS
 62
    7
 10
96.052474999999987
 20
189.7249985
 40
0.25
 50
0
 51
90.000003000000007
  0
LINE
  8
_0-0_0
  6
CONTINUOUS
 62
    7
 10
95.402472999999986
 20
189.9749985
 11
96.052474999999987
 21
189.9749985
  0
LINE
  8
_0-0_0
  6
CONTINUOUS
 62
    7
 10
95.402472999999986
 20
189.9749985
 11
95.402472999999986
 21
190.37500749999998
  0
LINE
  8
_0-0_0
  6
CONTINUOUS
 62
    7
 10
96.052474999999987
 20
190.37500749999998
 11
95.402472999999986
 21
190.37500749999998
  0
ARC
  8
_0-0_0
  6
CONTINUOUS
 62
    7
 10
96.052474999999987
 20
190.62500749999998
 40
0.25
 50
269.99999700000001
 51
0
  0
LINE
  8
_0-0_0
  6
CONTINUOUS
 62
    7
 10
96.302474999999987
 20
190.62500749999998
 11
96.302474999999987
 21
191.2750015
  0
LINE
  8
_0-0_0
  6
CONTINUOUS
 62
    7
 10
96.70247599999999
 20
191.2750015
 11
96.302474999999987
 21
191.2750015
  0
LINE
  8
_0-0_0
  6
CONTINUOUS
 62
    7
 10
96.70247599999999
 20
191.2750015
 11
96.70247599999999
 21
190.62500749999998
  0
ARC
  8
_0-0_0
  6
CONTINUOUS
 62
    7
 10
96.95247599999999
 20
190.62500749999998
 40
0.25
 50
180.00000900000003
 51
269.99999700000001
  0
LINE
  8
_0-0_0
  6
CONTINUOUS
 62
    7
 10
97.602473999999987
 20
190.37500749999998
 11
96.95247599999999
 21
190.37500749999998
  0
LINE
  8
_0-0_0
  6
CONTINUOUS
 62
    7
 10
97.602473999999987
 20
190.37500749999998
 11
97.602473999999987
 21
189.9749985
  0
LINE
  8
_0-0_0
  6
CONTINUOUS
 62
    7
 10
98.052474999999987
 20
169.65196950000001
 11
98.052474999999987
 21
169.67499550000002
  0
LINE
  8
_0-0_0
  6
CONTINUOUS
 62
    7
 10
116.50247199999998
 20
187.67501049999998
 11
116.50247199999998
 21
174.7179945
  0
ARC
  8
_0-0_0
  6
CONTINUOUS
 62
    7
 10
113.50247199999998
 20
187.67501049999998
 40
3
 50
0
 51
90.000003000000007
  0
LINE
  8
_0-0_0
  6
CONTINUOUS
 62
    7
 10
152.50247199999998
 20
174.07500450000001
 11
152.50247199999998
 21
187.67501049999998
  0
LINE
  8
_0-0_0
  6
CONTINUOUS
 62
    7
 10
135.98996
 20
183.84464250000002
 11
134.68995699999999
 21
187.34464250000002
  0
ARC
  8
_0-0_0
  6
CONTINUOUS
 62
    7
 10
133.20247599999999
 20
183.7750015
 40
0.2
 50
159.62357
 51
269.99999700000001
  0
LINE
  8
_0-0_0
  6
CONTINUOUS
 62
    7
 10
177.502487
 20
189.2750015
 11
194.177933
 21
189.2750015
  0
ARC
  8
_0-0_0
  6
CONTINUOUS
 62
    7
 10
194.177933
 20
187.2750015
 40
2
 50
71.565000999999995
 51
90.000003000000007
  0
LINE
  8
_0-0_0
  6
CONTINUOUS
 62
    7
 10
194.810394
 20
189.1723705
 11
194.69088699999998
 21
189.20798450000001
  0
LINE
  8
_0-0_0
  6
CONTINUOUS
 62
    7
 10
194.69088699999998
 20
189.20798450000001
 11
194.56933599999999
 21
189.2358625
  0
LINE
  8
_0-0_0
  6
CONTINUOUS
 62
    7
 10
194.56933599999999
 20
189.2358625
 11
194.446213
 21
189.25591250000002
  0
LINE
  8
_0-0_0
  6
CONTINUOUS
 62
    7
 10
194.446213
 20
189.25591250000002
 11
194.321991
 21
189.26802850000001
  0
LINE
  8
_0-0_0
  6
CONTINUOUS
 62
    7
 10
194.321991
 20
189.26802850000001
 11
194.197159
 21
189.2721635
  0
LINE
  8
_0-0_0
  6
CONTINUOUS
 62
    7
 10
194.197159
 20
189.2721635
 11
194.177933
 21
189.2720875
  0
LINE
  8
_0-0_0
  6
CONTINUOUS
 62
    7
 10
199.13493299999999
 20
187.73084249999999
 11
194.81037899999998
 21
189.1723705
  0
LINE
  8
_0-0_0
  6
CONTINUOUS
 62
    7
 10
198.976822
 20
173.17501049999998
 11
199.67018099999999
 21
173.17501049999998
  0
LINE
  8
_0-0_0
  6
CONTINUOUS
 62
    7
 10
198.976822
 20
173.17501049999998
 11
194.65226699999999
 21
173.17501049999998
  0
LINE
  8
_0-0_0
  6
CONTINUOUS
 62
    7
 10
194.177933
 20
173.17501049999998
 11
194.65226699999999
 21
173.17501049999998
  0
LINE
  8
_0-0_0
  6
CONTINUOUS
 62
    7
 10
189.502487
 20
173.17501049999998
 11
194.177933
 21
173.17501049999998
  0
LINE
  8
_0-0_0
  6
CONTINUOUS
 62
    7
 10
200.502487
 20
172.42496449999999
 11
200.502487
 21
173.54598250000001
  0
LINE
  8
_0-0_0
  6
CONTINUOUS
 62
    7
 10
200.502487
 20
174.4673085
 11
200.502487
 21
173.54598250000001
  0
LINE
  8
_0-0_0
  6
CONTINUOUS
 62
    7
 10
211.502487
 20
173.2249985
 11
211.502487
 21
181.20656550000001
  0
ARC
  8
_0-0_0
  6
CONTINUOUS
 62
    7
 10
205.328598
 20
181.72588350000001
 40
4.9238749999999998
 50
352.49423299999995
 51
1.5359699999999901
  0
LINE
  8
_0-0_0
  6
CONTINUOUS
 62
    7
 10
210.21031199999999
 20
175.8673015
 11
210.304642
 21
176.11392949999998
  0
LINE
  8
_0-0_0
  6
CONTINUOUS
 62
    7
 10
210.304642
 20
176.11392949999998
 11
210.38859599999998
 21
176.3539045
  0
LINE
  8
_0-0_0
  6
CONTINUOUS
 62
    7
 10
210.38859599999998
 20
176.3539045
 11
210.46275299999999
 21
176.5880205
  0
LINE
  8
_0-0_0
  6
CONTINUOUS
 62
    7
 10
210.46275299999999
 20
176.5880205
 11
210.52763399999998
 21
176.81705449999998
  0
LINE
  8
_0-0_0
  6
CONTINUOUS
 62
    7
 10
210.52763399999998
 20
176.81705449999998
 11
210.58367899999999
 21
177.04172549999998
  0
LINE
  8
_0-0_0
  6
CONTINUOUS
 62
    7
 10
210.58367899999999
 20
177.04172549999998
 11
210.63124099999999
 21
177.26270249999999
  0
LINE
  8
_0-0_0
  6
CONTINUOUS
 62
    7
 10
210.63124099999999
 20
177.26270249999999
 11
210.67063899999999
 21
177.48062850000002
  0
LINE
  8
_0-0_0
  6
CONTINUOUS
 62
    7
 10
210.67063899999999
 20
177.48062850000002
 11
210.70213299999998
 21
177.6960675
  0
LINE
  8
_0-0_0
  6
CONTINUOUS
 62
    7
 10
210.70213299999998
 20
177.6960675
 11
210.72590599999998
 21
177.90959950000001
  0
LINE
  8
_0-0_0
  6
CONTINUOUS
 62
    7
 10
210.72590599999998
 20
177.90959950000001
 11
210.74183599999998
 21
178.11731750000001
  0
LINE
  8
_0-0_0
  6
CONTINUOUS
 62
    7
 10
210.74183599999998
 20
178.11731750000001
 11
210.75059499999998
 21
178.32416549999999
  0
LINE
  8
_0-0_0
  6
CONTINUOUS
 62
    7
 10
210.75059499999998
 20
178.32416549999999
 11
210.752228
 21
178.53064749999999
  0
LINE
  8
_0-0_0
  6
CONTINUOUS
 62
    7
 10
210.752228
 20
178.53064749999999
 11
210.74676499999998
 21
178.73722050000001
  0
LINE
  8
_0-0_0
  6
CONTINUOUS
 62
    7
 10
210.74676499999998
 20
178.73722050000001
 11
210.73414599999998
 21
178.94440450000002
  0
LINE
  8
_0-0_0
  6
CONTINUOUS
 62
    7
 10
210.73414599999998
 20
178.94440450000002
 11
210.71433999999999
 21
179.1527025
  0
LINE
  8
_0-0_0
  6
CONTINUOUS
 62
    7
 10
210.71433999999999
 20
179.1527025
 11
210.68719499999997
 21
179.3626175
  0
LINE
  8
_0-0_0
  6
CONTINUOUS
 62
    7
 10
210.68719499999997
 20
179.3626175
 11
210.65254199999998
 21
179.57468449999999
  0
LINE
  8
_0-0_0
  6
CONTINUOUS
 62
    7
 10
210.65254199999998
 20
179.57468449999999
 11
210.61019899999999
 21
179.78945149999998
  0
LINE
  8
_0-0_0
  6
CONTINUOUS
 62
    7
 10
210.61019899999999
 20
179.78945149999998
 11
210.55987499999998
 21
180.0074535
  0
LINE
  8
_0-0_0
  6
CONTINUOUS
 62
    7
 10
210.55987499999998
 20
180.0074535
 11
210.50563
 21
180.21373750000001
  0
LINE
  8
_0-0_0
  6
CONTINUOUS
 62
    7
 10
210.50563
 20
180.21373750000001
 11
210.44392399999998
 21
180.4238355
  0
LINE
  8
_0-0_0
  6
CONTINUOUS
 62
    7
 10
210.44392399999998
 20
180.4238355
 11
210.374405
 21
180.63831349999998
  0
LINE
  8
_0-0_0
  6
CONTINUOUS
 62
    7
 10
210.374405
 20
180.63831349999998
 11
210.29669199999998
 21
180.8577195
  0
LINE
  8
_0-0_0
  6
CONTINUOUS
 62
    7
 10
210.29669199999998
 20
180.8577195
 11
210.21031199999999
 21
181.0826945
  0
ARC
  8
_0-0_0
  6
CONTINUOUS
 62
    7
 10
205.33875999999998
 20
175.2249985
 40
4.9136889999999998
 50
352.48898799999995
 51
7.5110139999999577
  0
LINE
  8
_0-0_0
  6
CONTINUOUS
 62
    7
 10
210.21031199999999
 20
174.5826945
 11
210.26480099999998
 21
174.51276350000001
  0
LINE
  8
_0-0_0
  6
CONTINUOUS
 62
    7
 10
210.26480099999998
 20
174.51276350000001
 11
210.31590299999999
 21
174.44393150000002
  0
LINE
  8
_0-0_0
  6
CONTINUOUS
 62
    7
 10
210.31590299999999
 20
174.44393150000002
 11
210.363541
 21
174.37642650000001
  0
LINE
  8
_0-0_0
  6
CONTINUOUS
 62
    7
 10
210.363541
 20
174.37642650000001
 11
210.40803499999998
 21
174.30988350000001
  0
LINE
  8
_0-0_0
  6
CONTINUOUS
 62
    7
 10
210.40803499999998
 20
174.30988350000001
 11
210.46275299999999
 21
174.22234350000002
  0
LINE
  8
_0-0_0
  6
CONTINUOUS
 62
    7
 10
210.46275299999999
 20
174.22234350000002
 11
210.51226799999998
 21
174.13623849999999
  0
LINE
  8
_0-0_0
  6
CONTINUOUS
 62
    7
 10
210.51226799999998
 20
174.13623849999999
 11
210.55673199999998
 21
174.05141450000002
  0
LINE
  8
_0-0_0
  6
CONTINUOUS
 62
    7
 10
210.55673199999998
 20
174.05141450000002
 11
210.60369899999998
 21
173.9510875
  0
LINE
  8
_0-0_0
  6
CONTINUOUS
 62
    7
 10
210.60369899999998
 20
173.9510875
 11
210.64390599999999
 21
173.85216550000001
  0
LINE
  8
_0-0_0
  6
CONTINUOUS
 62
    7
 10
210.64390599999999
 20
173.85216550000001
 11
210.67756599999998
 21
173.7544025
  0
LINE
  8
_0-0_0
  6
CONTINUOUS
 62
    7
 10
210.67756599999998
 20
173.7544025
 11
210.70486399999999
 21
173.6576005
  0
LINE
  8
_0-0_0
  6
CONTINUOUS
 62
    7
 10
210.70486399999999
 20
173.6576005
 11
210.72590599999998
 21
173.56154650000002
  0
LINE
  8
_0-0_0
  6
CONTINUOUS
 62
    7
 10
210.72590599999998
 20
173.56154650000002
 11
210.74183599999998
 21
173.4576945
  0
LINE
  8
_0-0_0
  6
CONTINUOUS
 62
    7
 10
210.74183599999998
 20
173.4576945
 11
210.75059499999998
 21
173.35427049999998
  0
LINE
  8
_0-0_0
  6
CONTINUOUS
 62
    7
 10
210.75059499999998
 20
173.35427049999998
 11
210.752228
 21
173.25102950000002
  0
LINE
  8
_0-0_0
  6
CONTINUOUS
 62
    7
 10
210.752228
 20
173.25102950000002
 11
210.74676499999998
 21
173.14774349999999
  0
LINE
  8
_0-0_0
  6
CONTINUOUS
 62
    7
 10
210.74676499999998
 20
173.14774349999999
 11
210.73414599999998
 21
173.0441515
  0
LINE
  8
_0-0_0
  6
CONTINUOUS
 62
    7
 10
210.73414599999998
 20
173.0441515
 11
210.71433999999999
 21
172.93999450000001
  0
LINE
  8
_0-0_0
  6
CONTINUOUS
 62
    7
 10
210.71433999999999
 20
172.93999450000001
 11
210.68719499999997
 21
172.83504449999998
  0
LINE
  8
_0-0_0
  6
CONTINUOUS
 62
    7
 10
210.68719499999997
 20
172.83504449999998
 11
210.65254199999998
 21
172.72901150000001
  0
LINE
  8
_0-0_0
  6
CONTINUOUS
 62
    7
 10
210.65254199999998
 20
172.72901150000001
 11
210.61019899999999
 21
172.6216355
  0
LINE
  8
_0-0_0
  6
CONTINUOUS
 62
    7
 10
210.61019899999999
 20
172.6216355
 11
210.55987499999998
 21
172.51262650000001
  0
LINE
  8
_0-0_0
  6
CONTINUOUS
 62
    7
 10
210.55987499999998
 20
172.51262650000001
 11
210.51419099999998
 21
172.4249805
  0
LINE
  8
_0-0_0
  6
CONTINUOUS
 62
    7
 10
200.502487
 20
182.3673015
 11
210.21031199999999
 21
182.3673015
  0
LINE
  8
_0-0_0
  6
CONTINUOUS
 62
    7
 10
200.502487
 20
181.0826945
 11
200.502487
 21
182.3673015
  0
LINE
  8
_0-0_0
  6
CONTINUOUS
 62
    7
 10
200.502487
 20
181.0826945
 11
210.21031199999999
 21
181.0826945
  0
ARC
  8
_0-0_0
  6
CONTINUOUS
 62
    7
 10
205.29057299999999
 20
181.72093949999999
 40
4.9620009999999999
 50
1.5813010000000001
 51
7.4847919999999997
  0
LINE
  8
_0-0_0
  6
CONTINUOUS
 62
    7
 10
200.202484
 20
176.26297750000001
 11
200.11901799999998
 21
176.64165450000002
  0
LINE
  8
_0-0_0
  6
CONTINUOUS
 62
    7
 10
200.11901799999998
 20
176.64165450000002
 11
200.07893399999998
 21
176.83319850000001
  0
LINE
  8
_0-0_0
  6
CONTINUOUS
 62
    7
 10
200.07893399999998
 20
176.83319850000001
 11
200.022842
 21
177.12320750000001
  0
LINE
  8
_0-0_0
  6
CONTINUOUS
 62
    7
 10
200.022842
 20
177.12320750000001
 11
199.98524499999999
 21
177.34279650000002
  0
LINE
  8
_0-0_0
  6
CONTINUOUS
 62
    7
 10
199.98524499999999
 20
177.34279650000002
 11
199.95260599999997
 21
177.56404850000001
  0
LINE
  8
_0-0_0
  6
CONTINUOUS
 62
    7
 10
199.95260599999997
 20
177.56404850000001
 11
199.925445
 21
177.7908405
  0
LINE
  8
_0-0_0
  6
CONTINUOUS
 62
    7
 10
199.925445
 20
177.7908405
 11
199.90537999999998
 21
178.01824149999999
  0
LINE
  8
_0-0_0
  6
CONTINUOUS
 62
    7
 10
199.90537999999998
 20
178.01824149999999
 11
199.898224
 21
178.13196550000001
  0
LINE
  8
_0-0_0
  6
CONTINUOUS
 62
    7
 10
199.898224
 20
178.13196550000001
 11
199.89306599999998
 21
178.2456435
  0
LINE
  8
_0-0_0
  6
CONTINUOUS
 62
    7
 10
199.89306599999998
 20
178.2456435
 11
199.889343
 21
178.3970875
  0
LINE
  8
_0-0_0
  6
CONTINUOUS
 62
    7
 10
199.889343
 20
178.3970875
 11
199.88928199999998
 21
178.54834750000001
  0
LINE
  8
_0-0_0
  6
CONTINUOUS
 62
    7
 10
199.88928199999998
 20
178.54834750000001
 11
199.89286799999999
 21
178.69939449999998
  0
LINE
  8
_0-0_0
  6
CONTINUOUS
 62
    7
 10
199.89286799999999
 20
178.69939449999998
 11
199.90237399999998
 21
178.8879475
  0
LINE
  8
_0-0_0
  6
CONTINUOUS
 62
    7
 10
199.90237399999998
 20
178.8879475
 11
199.917236
 21
179.07619449999999
  0
LINE
  8
_0-0_0
  6
CONTINUOUS
 62
    7
 10
199.917236
 20
179.07619449999999
 11
199.937164
 21
179.2641375
  0
LINE
  8
_0-0_0
  6
CONTINUOUS
 62
    7
 10
199.937164
 20
179.2641375
 11
199.953552
 21
179.3930125
  0
LINE
  8
_0-0_0
  6
CONTINUOUS
 62
    7
 10
199.953552
 20
179.3930125
 11
199.97195399999998
 21
179.5216595
  0
LINE
  8
_0-0_0
  6
CONTINUOUS
 62
    7
 10
199.97195399999998
 20
179.5216595
 11
199.99612399999998
 21
179.67359149999999
  0
LINE
  8
_0-0_0
  6
CONTINUOUS
 62
    7
 10
199.99612399999998
 20
179.67359149999999
 11
200.02252199999998
 21
179.8249285
  0
LINE
  8
_0-0_0
  6
CONTINUOUS
 62
    7
 10
200.02252199999998
 20
179.8249285
 11
200.078689
 21
180.11556250000001
  0
LINE
  8
_0-0_0
  6
CONTINUOUS
 62
    7
 10
200.078689
 20
180.11556250000001
 11
200.11885099999998
 21
180.30751750000002
  0
LINE
  8
_0-0_0
  6
CONTINUOUS
 62
    7
 10
200.11885099999998
 20
180.30751750000002
 11
200.202484
 21
180.6870045
  0
LINE
  8
_0-0_0
  6
CONTINUOUS
 62
    7
 10
200.502487
 20
176.91295650000001
 11
200.502487
 21
180.03705550000001
  0
LINE
  8
_0-0_0
  6
CONTINUOUS
 62
    7
 10
225.252487
 20
168.94956250000001
 11
225.002487
 21
168.92501049999998
  0
LINE
  8
_0-0_0
  6
CONTINUOUS
 62
    7
 10
225.002487
 20
168.92501049999998
 11
215.752487
 21
168.92501049999998
  0
LINE
  8
_0-0_0
  6
CONTINUOUS
 62
    7
 10
215.502487
 20
168.94956250000001
 11
215.752487
 21
168.92501049999998
  0
LINE
  8
_0-0_0
  6
CONTINUOUS
 62
    7
 10
225.252487
 20
171.9235765
 11
225.002487
 21
172.19754749999998
  0
LINE
  8
_0-0_0
  6
CONTINUOUS
 62
    7
 10
225.252487
 20
171.9235765
 11
225.002487
 21
172.0328595
  0
LINE
  8
_0-0_0
  6
CONTINUOUS
 62
    7
 10
225.252487
 20
171.76599849999999
 11
225.002487
 21
172.0328595
  0
LINE
  8
_0-0_0
  6
CONTINUOUS
 62
    7
 10
225.252487
 20
171.76599849999999
 11
225.002487
 21
171.84783149999998
  0
LINE
  8
_0-0_0
  6
CONTINUOUS
 62
    7
 10
225.252487
 20
171.5909805
 11
225.002487
 21
171.84783149999998
  0
LINE
  8
_0-0_0
  6
CONTINUOUS
 62
    7
 10
225.252487
 20
171.5909805
 11
225.002487
 21
171.6444625
  0
LINE
  8
_0-0_0
  6
CONTINUOUS
 62
    7
 10
225.252487
 20
171.40044449999999
 11
225.002487
 21
171.6444625
  0
LINE
  8
_0-0_0
  6
CONTINUOUS
 62
    7
 10
225.252487
 20
171.40044449999999
 11
225.002487
 21
171.42501049999998
  0
LINE
  8
_0-0_0
  6
CONTINUOUS
 62
    7
 10
225.252487
 20
171.19647950000001
 11
225.002487
 21
171.42501049999998
  0
LINE
  8
_0-0_0
  6
CONTINUOUS
 62
    7
 10
225.252487
 20
171.19647950000001
 11
225.002487
 21
171.19184150000001
  0
LINE
  8
_0-0_0
  6
CONTINUOUS
 62
    7
 10
225.252487
 20
170.98133050000001
 11
225.002487
 21
171.19184150000001
  0
LINE
  8
_0-0_0
  6
CONTINUOUS
 62
    7
 10
225.252487
 20
170.98133050000001
 11
225.002487
 21
170.94754749999998
  0
LINE
  8
_0-0_0
  6
CONTINUOUS
 62
    7
 10
225.252487
 20
170.75734750000001
 11
225.002487
 21
170.94754749999998
  0
LINE
  8
_0-0_0
  6
CONTINUOUS
 62
    7
 10
225.252487
 20
170.75734750000001
 11
225.002487
 21
170.69478650000002
  0
LINE
  8
_0-0_0
  6
CONTINUOUS
 62
    7
 10
225.252487
 20
170.52698549999999
 11
225.002487
 21
170.69478650000002
  0
LINE
  8
_0-0_0
  6
CONTINUOUS
 62
    7
 10
225.252487
 20
170.52698549999999
 11
225.002487
 21
170.43633249999999
  0
LINE
  8
_0-0_0
  6
CONTINUOUS
 62
    7
 10
225.252487
 20
170.29276249999998
 11
225.002487
 21
170.43633249999999
  0
LINE
  8
_0-0_0
  6
CONTINUOUS
 62
    7
 10
225.252487
 20
170.29276249999998
 11
225.002487
 21
170.17501049999998
  0
LINE
  8
_0-0_0
  6
CONTINUOUS
 62
    7
 10
225.252487
 20
170.0572435
 11
225.002487
 21
170.17501049999998
  0
LINE
  8
_0-0_0
  6
CONTINUOUS
 62
    7
 10
225.252487
 20
170.0572435
 11
225.002487
 21
169.91368850000001
  0
LINE
  8
_0-0_0
  6
CONTINUOUS
 62
    7
 10
225.252487
 20
169.82302049999998
 11
225.002487
 21
169.91368850000001
  0
LINE
  8
_0-0_0
  6
CONTINUOUS
 62
    7
 10
225.252487
 20
169.82302049999998
 11
225.002487
 21
169.6552355
  0
LINE
  8
_0-0_0
  6
CONTINUOUS
 62
    7
 10
225.252487
 20
169.5926585
 11
225.002487
 21
169.6552355
  0
LINE
  8
_0-0_0
  6
CONTINUOUS
 62
    7
 10
225.252487
 20
169.5926585
 11
225.002487
 21
169.40245850000002
  0
LINE
  8
_0-0_0
  6
CONTINUOUS
 62
    7
 10
225.252487
 20
169.36867549999999
 11
225.002487
 21
169.40245850000002
  0
LINE
  8
_0-0_0
  6
CONTINUOUS
 62
    7
 10
225.252487
 20
169.36867549999999
 11
225.002487
 21
169.1581645
  0
LINE
  8
_0-0_0
  6
CONTINUOUS
 62
    7
 10
225.252487
 20
169.1535265
 11
225.002487
 21
169.1581645
  0
LINE
  8
_0-0_0
  6
CONTINUOUS
 62
    7
 10
225.252487
 20
169.1535265
 11
225.002487
 21
168.92501049999998
  0
LINE
  8
_0-0_0
  6
CONTINUOUS
 62
    7
 10
225.252487
 20
168.94956250000001
 11
225.002487
 21
168.7055435
  0
LINE
  8
_0-0_0
  6
CONTINUOUS
 62
    7
 10
225.252487
 20
168.75902550000001
 11
225.002487
 21
168.7055435
  0
LINE
  8
_0-0_0
  6
CONTINUOUS
 62
    7
 10
225.252487
 20
168.75902550000001
 11
225.002487
 21
168.5021745
  0
LINE
  8
_0-0_0
  6
CONTINUOUS
 62
    7
 10
225.252487
 20
168.58400749999998
 11
225.002487
 21
168.5021745
  0
LINE
  8
_0-0_0
  6
CONTINUOUS
 62
    7
 10
225.252487
 20
168.58400749999998
 11
225.002487
 21
168.31714650000001
  0
LINE
  8
_0-0_0
  6
CONTINUOUS
 62
    7
 10
225.252487
 20
168.42642949999998
 11
225.002487
 21
168.31714650000001
  0
LINE
  8
_0-0_0
  6
CONTINUOUS
 62
    7
 10
225.252487
 20
168.42642949999998
 11
225.002487
 21
168.15245850000002
  0
LINE
  8
_0-0_0
  6
CONTINUOUS
 62
    7
 10
225.252487
 20
168.28800150000001
 11
225.002487
 21
168.15245850000002
  0
LINE
  8
_0-0_0
  6
CONTINUOUS
 62
    7
 10
225.252487
 20
168.28800150000001
 11
225.002487
 21
168.0099415
  0
LINE
  8
_0-0_0
  6
CONTINUOUS
 62
    7
 10
225.252487
 20
168.17023449999999
 11
225.002487
 21
168.0099415
  0
LINE
  8
_0-0_0
  6
CONTINUOUS
 62
    7
 10
225.252487
 20
168.17023449999999
 11
225.002487
 21
167.89113650000002
  0
LINE
  8
_0-0_0
  6
CONTINUOUS
 62
    7
 10
225.252487
 20
168.0744555
 11
225.002487
 21
167.89113650000002
  0
LINE
  8
_0-0_0
  6
CONTINUOUS
 62
    7
 10
225.252487
 20
168.0744555
 11
225.002487
 21
167.79735550000001
  0
LINE
  8
_0-0_0
  6
CONTINUOUS
 62
    7
 10
225.252487
 20
168.00167049999999
 11
225.002487
 21
167.79735550000001
  0
LINE
  8
_0-0_0
  6
CONTINUOUS
 62
    7
 10
225.252487
 20
168.00167049999999
 11
225.002487
 21
167.7296375
  0
LINE
  8
_0-0_0
  6
CONTINUOUS
 62
    7
 10
225.252487
 20
167.95270550000001
 11
225.002487
 21
167.7296375
  0
LINE
  8
_0-0_0
  6
CONTINUOUS
 62
    7
 10
225.252487
 20
167.95270550000001
 11
225.002487
 21
167.68869749999999
  0
LINE
  8
_0-0_0
  6
CONTINUOUS
 62
    7
 10
225.252487
 20
167.92809249999999
 11
225.002487
 21
167.68869749999999
  0
LINE
  8
_0-0_0
  6
CONTINUOUS
 62
    7
 10
225.252487
 20
167.92809249999999
 11
225.002487
 21
167.67501049999998
  0
LINE
  8
_0-0_0
  6
CONTINUOUS
 62
    7
 10
225.502487
 20
168.17501049999998
 11
225.502487
 21
171.93016850000001
  0
LINE
  8
_0-0_0
  6
CONTINUOUS
 62
    7
 10
225.12252799999999
 20
172.26361850000001
 11
225.002487
 21
172.34006449999998
  0
LINE
  8
_0-0_0
  6
CONTINUOUS
 62
    7
 10
225.252487
 20
172.06201950000002
 11
225.002487
 21
172.34006449999998
  0
LINE
  8
_0-0_0
  6
CONTINUOUS
 62
    7
 10
225.252487
 20
172.06201950000002
 11
225.002487
 21
172.19754749999998
  0
LINE
  8
_0-0_0
  6
CONTINUOUS
 62
    7
 10
225.002487
 20
172.0328595
 11
215.752487
 21
172.0328595
  0
LINE
  8
_0-0_0
  6
CONTINUOUS
 62
    7
 10
215.502487
 20
171.9235765
 11
215.752487
 21
172.0328595
  0
LINE
  8
_0-0_0
  6
CONTINUOUS
 62
    7
 10
225.002487
 20
171.84783149999998
 11
215.752487
 21
171.84783149999998
  0
LINE
  8
_0-0_0
  6
CONTINUOUS
 62
    7
 10
215.502487
 20
171.76599849999999
 11
215.752487
 21
171.84783149999998
  0
LINE
  8
_0-0_0
  6
CONTINUOUS
 62
    7
 10
225.002487
 20
171.6444625
 11
215.752487
 21
171.6444625
  0
LINE
  8
_0-0_0
  6
CONTINUOUS
 62
    7
 10
215.502487
 20
171.5909805
 11
215.752487
 21
171.6444625
  0
LINE
  8
_0-0_0
  6
CONTINUOUS
 62
    7
 10
225.002487
 20
171.42501049999998
 11
215.752487
 21
171.42501049999998
  0
LINE
  8
_0-0_0
  6
CONTINUOUS
 62
    7
 10
215.502487
 20
171.40044449999999
 11
215.752487
 21
171.42501049999998
  0
LINE
  8
_0-0_0
  6
CONTINUOUS
 62
    7
 10
225.002487
 20
171.19184150000001
 11
215.752487
 21
171.19184150000001
  0
LINE
  8
_0-0_0
  6
CONTINUOUS
 62
    7
 10
225.252487
 20
171.19647950000001
 11
215.502487
 21
171.19647950000001
  0
LINE
  8
_0-0_0
  6
CONTINUOUS
 62
    7
 10
215.502487
 20
171.19647950000001
 11
215.752487
 21
171.19184150000001
  0
LINE
  8
_0-0_0
  6
CONTINUOUS
 62
    7
 10
225.002487
 20
170.94754749999998
 11
215.752487
 21
170.94754749999998
  0
LINE
  8
_0-0_0
  6
CONTINUOUS
 62
    7
 10
225.252487
 20
170.98133050000001
 11
215.502487
 21
170.98133050000001
  0
LINE
  8
_0-0_0
  6
CONTINUOUS
 62
    7
 10
215.502487
 20
170.98133050000001
 11
215.752487
 21
170.94754749999998
  0
LINE
  8
_0-0_0
  6
CONTINUOUS
 62
    7
 10
225.002487
 20
170.69478650000002
 11
215.752487
 21
170.69478650000002
  0
LINE
  8
_0-0_0
  6
CONTINUOUS
 62
    7
 10
225.252487
 20
170.75734750000001
 11
215.502487
 21
170.75734750000001
  0
LINE
  8
_0-0_0
  6
CONTINUOUS
 62
    7
 10
215.502487
 20
170.75734750000001
 11
215.752487
 21
170.69478650000002
  0
LINE
  8
_0-0_0
  6
CONTINUOUS
 62
    7
 10
225.002487
 20
170.43633249999999
 11
215.752487
 21
170.43633249999999
  0
LINE
  8
_0-0_0
  6
CONTINUOUS
 62
    7
 10
225.252487
 20
170.52698549999999
 11
215.502487
 21
170.52698549999999
  0
LINE
  8
_0-0_0
  6
CONTINUOUS
 62
    7
 10
215.502487
 20
170.52698549999999
 11
215.752487
 21
170.43633249999999
  0
LINE
  8
_0-0_0
  6
CONTINUOUS
 62
    7
 10
225.002487
 20
170.17501049999998
 11
215.752487
 21
170.17501049999998
  0
LINE
  8
_0-0_0
  6
CONTINUOUS
 62
    7
 10
225.252487
 20
170.29276249999998
 11
215.502487
 21
170.29276249999998
  0
LINE
  8
_0-0_0
  6
CONTINUOUS
 62
    7
 10
215.502487
 20
170.29276249999998
 11
215.752487
 21
170.17501049999998
  0
LINE
  8
_0-0_0
  6
CONTINUOUS
 62
    7
 10
225.002487
 20
169.91368850000001
 11
215.752487
 21
169.91368850000001
  0
LINE
  8
_0-0_0
  6
CONTINUOUS
 62
    7
 10
225.252487
 20
170.0572435
 11
215.502487
 21
170.0572435
  0
LINE
  8
_0-0_0
  6
CONTINUOUS
 62
    7
 10
215.502487
 20
170.0572435
 11
215.752487
 21
169.91368850000001
  0
LINE
  8
_0-0_0
  6
CONTINUOUS
 62
    7
 10
225.002487
 20
169.6552355
 11
215.752487
 21
169.6552355
  0
LINE
  8
_0-0_0
  6
CONTINUOUS
 62
    7
 10
225.252487
 20
169.82302049999998
 11
215.502487
 21
169.82302049999998
  0
LINE
  8
_0-0_0
  6
CONTINUOUS
 62
    7
 10
215.502487
 20
169.82302049999998
 11
215.752487
 21
169.6552355
  0
LINE
  8
_0-0_0
  6
CONTINUOUS
 62
    7
 10
225.002487
 20
169.40245850000002
 11
215.752487
 21
169.40245850000002
  0
LINE
  8
_0-0_0
  6
CONTINUOUS
 62
    7
 10
225.252487
 20
169.5926585
 11
215.502487
 21
169.5926585
  0
LINE
  8
_0-0_0
  6
CONTINUOUS
 62
    7
 10
215.502487
 20
169.5926585
 11
215.752487
 21
169.40245850000002
  0
LINE
  8
_0-0_0
  6
CONTINUOUS
 62
    7
 10
225.002487
 20
169.1581645
 11
215.752487
 21
169.1581645
  0
LINE
  8
_0-0_0
  6
CONTINUOUS
 62
    7
 10
225.252487
 20
169.36867549999999
 11
215.502487
 21
169.36867549999999
  0
LINE
  8
_0-0_0
  6
CONTINUOUS
 62
    7
 10
215.502487
 20
169.36867549999999
 11
215.752487
 21
169.1581645
  0
LINE
  8
_0-0_0
  6
CONTINUOUS
 62
    7
 10
225.002487
 20
168.5021745
 11
215.752487
 21
168.5021745
  0
LINE
  8
_0-0_0
  6
CONTINUOUS
 62
    7
 10
215.502487
 20
168.75902550000001
 11
215.752487
 21
168.5021745
  0
LINE
  8
_0-0_0
  6
CONTINUOUS
 62
    7
 10
225.002487
 20
168.31714650000001
 11
215.752487
 21
168.31714650000001
  0
LINE
  8
_0-0_0
  6
CONTINUOUS
 62
    7
 10
215.502487
 20
168.58400749999998
 11
215.752487
 21
168.31714650000001
  0
LINE
  8
_0-0_0
  6
CONTINUOUS
 62
    7
 10
225.002487
 20
168.15245850000002
 11
215.752487
 21
168.15245850000002
  0
LINE
  8
_0-0_0
  6
CONTINUOUS
 62
    7
 10
215.502487
 20
168.42642949999998
 11
215.752487
 21
168.15245850000002
  0
LINE
  8
_0-0_0
  6
CONTINUOUS
 62
    7
 10
225.002487
 20
168.0099415
 11
215.752487
 21
168.0099415
  0
LINE
  8
_0-0_0
  6
CONTINUOUS
 62
    7
 10
215.502487
 20
168.28800150000001
 11
215.752487
 21
168.0099415
  0
LINE
  8
_0-0_0
  6
CONTINUOUS
 62
    7
 10
225.002487
 20
167.89113650000002
 11
215.752487
 21
167.89113650000002
  0
LINE
  8
_0-0_0
  6
CONTINUOUS
 62
    7
 10
215.502487
 20
168.17023449999999
 11
215.752487
 21
167.89113650000002
  0
LINE
  8
_0-0_0
  6
CONTINUOUS
 62
    7
 10
225.002487
 20
167.79735550000001
 11
215.752487
 21
167.79735550000001
  0
LINE
  8
_0-0_0
  6
CONTINUOUS
 62
    7
 10
215.502487
 20
168.0744555
 11
215.752487
 21
167.79735550000001
  0
LINE
  8
_0-0_0
  6
CONTINUOUS
 62
    7
 10
225.002487
 20
167.7296375
 11
215.752487
 21
167.7296375
  0
LINE
  8
_0-0_0
  6
CONTINUOUS
 62
    7
 10
215.502487
 20
168.00167049999999
 11
215.752487
 21
167.7296375
  0
LINE
  8
_0-0_0
  6
CONTINUOUS
 62
    7
 10
225.002487
 20
167.68869749999999
 11
215.752487
 21
167.68869749999999
  0
LINE
  8
_0-0_0
  6
CONTINUOUS
 62
    7
 10
215.502487
 20
167.95270550000001
 11
215.752487
 21
167.68869749999999
  0
LINE
  8
_0-0_0
  6
CONTINUOUS
 62
    7
 10
225.002487
 20
167.67501049999998
 11
215.752487
 21
167.67501049999998
  0
LINE
  8
_0-0_0
  6
CONTINUOUS
 62
    7
 10
215.502487
 20
167.92809249999999
 11
215.752487
 21
167.67501049999998
  0
LINE
  8
_0-0_0
  6
CONTINUOUS
 62
    7
 10
225.002487
 20
172.34006449999998
 11
215.752487
 21
172.34006449999998
  0
LINE
  8
_0-0_0
  6
CONTINUOUS
 62
    7
 10
225.252487
 20
172.17977150000002
 11
225.12252799999999
 21
172.26361850000001
  0
LINE
  8
_0-0_0
  6
CONTINUOUS
 62
    7
 10
215.502487
 20
172.17977150000002
 11
215.63246099999998
 21
172.26361850000001
  0
LINE
  8
_0-0_0
  6
CONTINUOUS
 62
    7
 10
215.63246099999998
 20
172.26361850000001
 11
215.752487
 21
172.34006449999998
  0
LINE
  8
_0-0_0
  6
CONTINUOUS
 62
    7
 10
225.002487
 20
172.19754749999998
 11
215.752487
 21
172.19754749999998
  0
LINE
  8
_0-0_0
  6
CONTINUOUS
 62
    7
 10
215.502487
 20
172.06201950000002
 11
215.752487
 21
172.19754749999998
  0
LINE
  8
_0-0_0
  6
CONTINUOUS
 62
    7
 10
225.252487
 20
172.17977150000002
 11
225.002487
 21
172.45886949999999
  0
LINE
  8
_0-0_0
  6
CONTINUOUS
 62
    7
 10
225.002487
 20
172.45886949999999
 11
215.752487
 21
172.45886949999999
  0
LINE
  8
_0-0_0
  6
CONTINUOUS
 62
    7
 10
215.502487
 20
172.17977150000002
 11
215.752487
 21
172.45886949999999
  0
LINE
  8
_0-0_0
  6
CONTINUOUS
 62
    7
 10
225.252487
 20
172.2755665
 11
225.002487
 21
172.45886949999999
  0
LINE
  8
_0-0_0
  6
CONTINUOUS
 62
    7
 10
215.502487
 20
172.2755665
 11
215.752487
 21
172.45886949999999
  0
LINE
  8
_0-0_0
  6
CONTINUOUS
 62
    7
 10
225.252487
 20
172.2755665
 11
225.002487
 21
172.5526505
  0
LINE
  8
_0-0_0
  6
CONTINUOUS
 62
    7
 10
225.002487
 20
172.5526505
 11
215.752487
 21
172.5526505
  0
LINE
  8
_0-0_0
  6
CONTINUOUS
 62
    7
 10
215.502487
 20
172.2755665
 11
215.752487
 21
172.5526505
  0
LINE
  8
_0-0_0
  6
CONTINUOUS
 62
    7
 10
225.252487
 20
172.34833550000002
 11
225.002487
 21
172.5526505
  0
LINE
  8
_0-0_0
  6
CONTINUOUS
 62
    7
 10
215.502487
 20
172.34833550000002
 11
215.752487
 21
172.5526505
  0
LINE
  8
_0-0_0
  6
CONTINUOUS
 62
    7
 10
225.252487
 20
172.34833550000002
 11
225.002487
 21
172.62036849999998
  0
LINE
  8
_0-0_0
  6
CONTINUOUS
 62
    7
 10
225.002487
 20
172.62036849999998
 11
215.752487
 21
172.62036849999998
  0
LINE
  8
_0-0_0
  6
CONTINUOUS
 62
    7
 10
215.502487
 20
172.34833550000002
 11
215.752487
 21
172.62036849999998
  0
LINE
  8
_0-0_0
  6
CONTINUOUS
 62
    7
 10
225.252487
 20
172.3973005
 11
225.002487
 21
172.62036849999998
  0
LINE
  8
_0-0_0
  6
CONTINUOUS
 62
    7
 10
215.502487
 20
172.3973005
 11
215.752487
 21
172.62036849999998
  0
LINE
  8
_0-0_0
  6
CONTINUOUS
 62
    7
 10
225.252487
 20
172.3973005
 11
225.002487
 21
172.66130850000002
  0
LINE
  8
_0-0_0
  6
CONTINUOUS
 62
    7
 10
225.002487
 20
172.66130850000002
 11
215.752487
 21
172.66130850000002
  0
LINE
  8
_0-0_0
  6
CONTINUOUS
 62
    7
 10
215.502487
 20
172.3973005
 11
215.752487
 21
172.66130850000002
  0
LINE
  8
_0-0_0
  6
CONTINUOUS
 62
    7
 10
225.252487
 20
172.42192850000001
 11
225.002487
 21
172.66130850000002
  0
LINE
  8
_0-0_0
  6
CONTINUOUS
 62
    7
 10
215.502487
 20
172.42192850000001
 11
215.752487
 21
172.66130850000002
  0
LINE
  8
_0-0_0
  6
CONTINUOUS
 62
    7
 10
225.252487
 20
172.42192850000001
 11
225.002487
 21
172.67501049999998
  0
LINE
  8
_0-0_0
  6
CONTINUOUS
 62
    7
 10
225.002487
 20
172.67501049999998
 11
215.752487
 21
172.67501049999998
  0
LINE
  8
_0-0_0
  6
CONTINUOUS
 62
    7
 10
215.502487
 20
172.42192850000001
 11
215.752487
 21
172.67501049999998
  0
LINE
  8
_0-0_0
  6
CONTINUOUS
 62
    7
 10
225.252487
 20
185.54956850000002
 11
225.002487
 21
185.5250015
  0
LINE
  8
_0-0_0
  6
CONTINUOUS
 62
    7
 10
225.002487
 20
185.5250015
 11
215.752487
 21
185.5250015
  0
LINE
  8
_0-0_0
  6
CONTINUOUS
 62
    7
 10
215.502487
 20
185.54956850000002
 11
215.752487
 21
185.5250015
  0
LINE
  8
_0-0_0
  6
CONTINUOUS
 62
    7
 10
225.252487
 20
188.5235825
 11
225.002487
 21
188.79755349999999
  0
LINE
  8
_0-0_0
  6
CONTINUOUS
 62
    7
 10
225.252487
 20
188.5235825
 11
225.002487
 21
188.63286550000001
  0
LINE
  8
_0-0_0
  6
CONTINUOUS
 62
    7
 10
225.252487
 20
188.36598950000001
 11
225.002487
 21
188.63286550000001
  0
LINE
  8
_0-0_0
  6
CONTINUOUS
 62
    7
 10
225.252487
 20
188.36598950000001
 11
225.002487
 21
188.44783749999999
  0
LINE
  8
_0-0_0
  6
CONTINUOUS
 62
    7
 10
225.252487
 20
188.19097149999999
 11
225.002487
 21
188.44783749999999
  0
LINE
  8
_0-0_0
  6
CONTINUOUS
 62
    7
 10
225.252487
 20
188.19097149999999
 11
225.002487
 21
188.24446849999998
  0
LINE
  8
_0-0_0
  6
CONTINUOUS
 62
    7
 10
225.252487
 20
188.00043449999998
 11
225.002487
 21
188.24446849999998
  0
LINE
  8
_0-0_0
  6
CONTINUOUS
 62
    7
 10
225.252487
 20
188.00043449999998
 11
225.002487
 21
188.0250015
  0
LINE
  8
_0-0_0
  6
CONTINUOUS
 62
    7
 10
225.252487
 20
187.79648550000002
 11
225.002487
 21
188.0250015
  0
LINE
  8
_0-0_0
  6
CONTINUOUS
 62
    7
 10
225.252487
 20
187.79648550000002
 11
225.002487
 21
187.79184750000002
  0
LINE
  8
_0-0_0
  6
CONTINUOUS
 62
    7
 10
225.252487
 20
187.58133650000002
 11
225.002487
 21
187.79184750000002
  0
LINE
  8
_0-0_0
  6
CONTINUOUS
 62
    7
 10
225.252487
 20
187.58133650000002
 11
225.002487
 21
187.54755349999999
  0
LINE
  8
_0-0_0
  6
CONTINUOUS
 62
    7
 10
225.252487
 20
187.35735349999999
 11
225.002487
 21
187.54755349999999
  0
LINE
  8
_0-0_0
  6
CONTINUOUS
 62
    7
 10
225.252487
 20
187.35735349999999
 11
225.002487
 21
187.29477650000001
  0
LINE
  8
_0-0_0
  6
CONTINUOUS
 62
    7
 10
225.252487
 20
187.12697550000001
 11
225.002487
 21
187.29477650000001
  0
LINE
  8
_0-0_0
  6
CONTINUOUS
 62
    7
 10
225.252487
 20
187.12697550000001
 11
225.002487
 21
187.03632350000001
  0
LINE
  8
_0-0_0
  6
CONTINUOUS
 62
    7
 10
225.252487
 20
186.8927535
 11
225.002487
 21
187.03632350000001
  0
LINE
  8
_0-0_0
  6
CONTINUOUS
 62
    7
 10
225.252487
 20
186.8927535
 11
225.002487
 21
186.7750015
  0
LINE
  8
_0-0_0
  6
CONTINUOUS
 62
    7
 10
225.252487
 20
186.65724950000001
 11
225.002487
 21
186.7750015
  0
LINE
  8
_0-0_0
  6
CONTINUOUS
 62
    7
 10
225.252487
 20
186.65724950000001
 11
225.002487
 21
186.51367949999999
  0
LINE
  8
_0-0_0
  6
CONTINUOUS
 62
    7
 10
225.252487
 20
186.42302749999999
 11
225.002487
 21
186.51367949999999
  0
LINE
  8
_0-0_0
  6
CONTINUOUS
 62
    7
 10
225.252487
 20
186.42302749999999
 11
225.002487
 21
186.25522649999999
  0
LINE
  8
_0-0_0
  6
CONTINUOUS
 62
    7
 10
225.252487
 20
186.1926655
 11
225.002487
 21
186.25522649999999
  0
LINE
  8
_0-0_0
  6
CONTINUOUS
 62
    7
 10
225.252487
 20
186.1926655
 11
225.002487
 21
186.0024645
  0
LINE
  8
_0-0_0
  6
CONTINUOUS
 62
    7
 10
225.252487
 20
185.9686815
 11
225.002487
 21
186.0024645
  0
LINE
  8
_0-0_0
  6
CONTINUOUS
 62
    7
 10
225.252487
 20
185.9686815
 11
225.002487
 21
185.75815549999999
  0
LINE
  8
_0-0_0
  6
CONTINUOUS
 62
    7
 10
225.252487
 20
185.75353250000001
 11
225.002487
 21
185.75815549999999
  0
LINE
  8
_0-0_0
  6
CONTINUOUS
 62
    7
 10
225.252487
 20
185.75353250000001
 11
225.002487
 21
185.5250015
  0
LINE
  8
_0-0_0
  6
CONTINUOUS
 62
    7
 10
225.252487
 20
185.54956850000002
 11
225.002487
 21
185.30553450000002
  0
LINE
  8
_0-0_0
  6
CONTINUOUS
 62
    7
 10
225.252487
 20
185.35903150000001
 11
225.002487
 21
185.30553450000002
  0
LINE
  8
_0-0_0
  6
CONTINUOUS
 62
    7
 10
225.252487
 20
185.35903150000001
 11
225.002487
 21
185.1021805
  0
LINE
  8
_0-0_0
  6
CONTINUOUS
 62
    7
 10
225.252487
 20
185.18401349999999
 11
225.002487
 21
185.1021805
  0
LINE
  8
_0-0_0
  6
CONTINUOUS
 62
    7
 10
225.252487
 20
185.18401349999999
 11
225.002487
 21
184.9171375
  0
LINE
  8
_0-0_0
  6
CONTINUOUS
 62
    7
 10
225.252487
 20
185.0264205
 11
225.002487
 21
184.9171375
  0
LINE
  8
_0-0_0
  6
CONTINUOUS
 62
    7
 10
225.252487
 20
185.0264205
 11
225.002487
 21
184.7524645
  0
LINE
  8
_0-0_0
  6
CONTINUOUS
 62
    7
 10
225.252487
 20
184.8879925
 11
225.002487
 21
184.7524645
  0
LINE
  8
_0-0_0
  6
CONTINUOUS
 62
    7
 10
225.252487
 20
184.8879925
 11
225.002487
 21
184.6099475
  0
LINE
  8
_0-0_0
  6
CONTINUOUS
 62
    7
 10
225.252487
 20
184.7702405
 11
225.002487
 21
184.6099475
  0
LINE
  8
_0-0_0
  6
CONTINUOUS
 62
    7
 10
225.252487
 20
184.7702405
 11
225.002487
 21
184.4911425
  0
LINE
  8
_0-0_0
  6
CONTINUOUS
 62
    7
 10
225.252487
 20
184.67444649999999
 11
225.002487
 21
184.4911425
  0
LINE
  8
_0-0_0
  6
CONTINUOUS
 62
    7
 10
225.252487
 20
184.67444649999999
 11
225.002487
 21
184.39736149999999
  0
LINE
  8
_0-0_0
  6
CONTINUOUS
 62
    7
 10
225.252487
 20
184.6016765
 11
225.002487
 21
184.39736149999999
  0
LINE
  8
_0-0_0
  6
CONTINUOUS
 62
    7
 10
225.252487
 20
184.6016765
 11
225.002487
 21
184.32962750000002
  0
LINE
  8
_0-0_0
  6
CONTINUOUS
 62
    7
 10
225.252487
 20
184.55271149999999
 11
225.002487
 21
184.32962750000002
  0
LINE
  8
_0-0_0
  6
CONTINUOUS
 62
    7
 10
225.252487
 20
184.55271149999999
 11
225.002487
 21
184.2887035
  0
LINE
  8
_0-0_0
  6
CONTINUOUS
 62
    7
 10
225.252487
 20
184.52808350000001
 11
225.002487
 21
184.2887035
  0
LINE
  8
_0-0_0
  6
CONTINUOUS
 62
    7
 10
225.252487
 20
184.52808350000001
 11
225.002487
 21
184.2750015
  0
LINE
  8
_0-0_0
  6
CONTINUOUS
 62
    7
 10
225.502487
 20
184.7750015
 11
225.502487
 21
188.53017449999999
  0
LINE
  8
_0-0_0
  6
CONTINUOUS
 62
    7
 10
225.12252799999999
 20
188.86362450000001
 11
225.002487
 21
188.94007149999999
  0
LINE
  8
_0-0_0
  6
CONTINUOUS
 62
    7
 10
225.252487
 20
188.66201050000001
 11
225.002487
 21
188.94007149999999
  0
LINE
  8
_0-0_0
  6
CONTINUOUS
 62
    7
 10
225.252487
 20
188.66201050000001
 11
225.002487
 21
188.79755349999999
  0
LINE
  8
_0-0_0
  6
CONTINUOUS
 62
    7
 10
225.002487
 20
188.63286550000001
 11
215.752487
 21
188.63286550000001
  0
LINE
  8
_0-0_0
  6
CONTINUOUS
 62
    7
 10
215.502487
 20
188.5235825
 11
215.752487
 21
188.63286550000001
  0
LINE
  8
_0-0_0
  6
CONTINUOUS
 62
    7
 10
225.002487
 20
188.44783749999999
 11
215.752487
 21
188.44783749999999
  0
LINE
  8
_0-0_0
  6
CONTINUOUS
 62
    7
 10
215.502487
 20
188.36598950000001
 11
215.752487
 21
188.44783749999999
  0
LINE
  8
_0-0_0
  6
CONTINUOUS
 62
    7
 10
225.002487
 20
188.24446849999998
 11
215.752487
 21
188.24446849999998
  0
LINE
  8
_0-0_0
  6
CONTINUOUS
 62
    7
 10
215.502487
 20
188.19097149999999
 11
215.752487
 21
188.24446849999998
  0
LINE
  8
_0-0_0
  6
CONTINUOUS
 62
    7
 10
225.002487
 20
188.0250015
 11
215.752487
 21
188.0250015
  0
LINE
  8
_0-0_0
  6
CONTINUOUS
 62
    7
 10
215.502487
 20
188.00043449999998
 11
215.752487
 21
188.0250015
  0
LINE
  8
_0-0_0
  6
CONTINUOUS
 62
    7
 10
225.002487
 20
187.79184750000002
 11
215.752487
 21
187.79184750000002
  0
LINE
  8
_0-0_0
  6
CONTINUOUS
 62
    7
 10
225.252487
 20
187.79648550000002
 11
215.502487
 21
187.79648550000002
  0
LINE
  8
_0-0_0
  6
CONTINUOUS
 62
    7
 10
215.502487
 20
187.79648550000002
 11
215.752487
 21
187.79184750000002
  0
LINE
  8
_0-0_0
  6
CONTINUOUS
 62
    7
 10
225.002487
 20
187.54755349999999
 11
215.752487
 21
187.54755349999999
  0
LINE
  8
_0-0_0
  6
CONTINUOUS
 62
    7
 10
225.252487
 20
187.58133650000002
 11
215.502487
 21
187.58133650000002
  0
LINE
  8
_0-0_0
  6
CONTINUOUS
 62
    7
 10
215.502487
 20
187.58133650000002
 11
215.752487
 21
187.54755349999999
  0
LINE
  8
_0-0_0
  6
CONTINUOUS
 62
    7
 10
225.002487
 20
187.29477650000001
 11
215.752487
 21
187.29477650000001
  0
LINE
  8
_0-0_0
  6
CONTINUOUS
 62
    7
 10
225.252487
 20
187.35735349999999
 11
215.502487
 21
187.35735349999999
  0
LINE
  8
_0-0_0
  6
CONTINUOUS
 62
    7
 10
215.502487
 20
187.35735349999999
 11
215.752487
 21
187.29477650000001
  0
LINE
  8
_0-0_0
  6
CONTINUOUS
 62
    7
 10
225.002487
 20
187.03632350000001
 11
215.752487
 21
187.03632350000001
  0
LINE
  8
_0-0_0
  6
CONTINUOUS
 62
    7
 10
225.252487
 20
187.12697550000001
 11
215.502487
 21
187.12697550000001
  0
LINE
  8
_0-0_0
  6
CONTINUOUS
 62
    7
 10
215.502487
 20
187.12697550000001
 11
215.752487
 21
187.03632350000001
  0
LINE
  8
_0-0_0
  6
CONTINUOUS
 62
    7
 10
225.002487
 20
186.7750015
 11
215.752487
 21
186.7750015
  0
LINE
  8
_0-0_0
  6
CONTINUOUS
 62
    7
 10
225.252487
 20
186.8927535
 11
215.502487
 21
186.8927535
  0
LINE
  8
_0-0_0
  6
CONTINUOUS
 62
    7
 10
215.502487
 20
186.8927535
 11
215.752487
 21
186.7750015
  0
LINE
  8
_0-0_0
  6
CONTINUOUS
 62
    7
 10
225.002487
 20
186.51367949999999
 11
215.752487
 21
186.51367949999999
  0
LINE
  8
_0-0_0
  6
CONTINUOUS
 62
    7
 10
225.252487
 20
186.65724950000001
 11
215.502487
 21
186.65724950000001
  0
LINE
  8
_0-0_0
  6
CONTINUOUS
 62
    7
 10
215.502487
 20
186.65724950000001
 11
215.752487
 21
186.51367949999999
  0
LINE
  8
_0-0_0
  6
CONTINUOUS
 62
    7
 10
225.002487
 20
186.25522649999999
 11
215.752487
 21
186.25522649999999
  0
LINE
  8
_0-0_0
  6
CONTINUOUS
 62
    7
 10
225.252487
 20
186.42302749999999
 11
215.502487
 21
186.42302749999999
  0
LINE
  8
_0-0_0
  6
CONTINUOUS
 62
    7
 10
215.502487
 20
186.42302749999999
 11
215.752487
 21
186.25522649999999
  0
LINE
  8
_0-0_0
  6
CONTINUOUS
 62
    7
 10
225.002487
 20
186.0024645
 11
215.752487
 21
186.0024645
  0
LINE
  8
_0-0_0
  6
CONTINUOUS
 62
    7
 10
225.252487
 20
186.1926655
 11
215.502487
 21
186.1926655
  0
LINE
  8
_0-0_0
  6
CONTINUOUS
 62
    7
 10
215.502487
 20
186.1926655
 11
215.752487
 21
186.0024645
  0
LINE
  8
_0-0_0
  6
CONTINUOUS
 62
    7
 10
225.002487
 20
185.75815549999999
 11
215.752487
 21
185.75815549999999
  0
LINE
  8
_0-0_0
  6
CONTINUOUS
 62
    7
 10
225.252487
 20
185.9686815
 11
215.502487
 21
185.9686815
  0
LINE
  8
_0-0_0
  6
CONTINUOUS
 62
    7
 10
215.502487
 20
185.9686815
 11
215.752487
 21
185.75815549999999
  0
LINE
  8
_0-0_0
  6
CONTINUOUS
 62
    7
 10
225.002487
 20
185.1021805
 11
215.752487
 21
185.1021805
  0
LINE
  8
_0-0_0
  6
CONTINUOUS
 62
    7
 10
215.502487
 20
185.35903150000001
 11
215.752487
 21
185.1021805
  0
LINE
  8
_0-0_0
  6
CONTINUOUS
 62
    7
 10
225.002487
 20
184.9171375
 11
215.752487
 21
184.9171375
  0
LINE
  8
_0-0_0
  6
CONTINUOUS
 62
    7
 10
215.502487
 20
185.18401349999999
 11
215.752487
 21
184.9171375
  0
LINE
  8
_0-0_0
  6
CONTINUOUS
 62
    7
 10
225.002487
 20
184.7524645
 11
215.752487
 21
184.7524645
  0
LINE
  8
_0-0_0
  6
CONTINUOUS
 62
    7
 10
215.502487
 20
185.0264205
 11
215.752487
 21
184.7524645
  0
LINE
  8
_0-0_0
  6
CONTINUOUS
 62
    7
 10
225.002487
 20
184.6099475
 11
215.752487
 21
184.6099475
  0
LINE
  8
_0-0_0
  6
CONTINUOUS
 62
    7
 10
215.502487
 20
184.8879925
 11
215.752487
 21
184.6099475
  0
LINE
  8
_0-0_0
  6
CONTINUOUS
 62
    7
 10
225.002487
 20
184.4911425
 11
215.752487
 21
184.4911425
  0
LINE
  8
_0-0_0
  6
CONTINUOUS
 62
    7
 10
215.502487
 20
184.7702405
 11
215.752487
 21
184.4911425
  0
LINE
  8
_0-0_0
  6
CONTINUOUS
 62
    7
 10
225.002487
 20
184.39736149999999
 11
215.752487
 21
184.39736149999999
  0
LINE
  8
_0-0_0
  6
CONTINUOUS
 62
    7
 10
215.502487
 20
184.67444649999999
 11
215.752487
 21
184.39736149999999
  0
LINE
  8
_0-0_0
  6
CONTINUOUS
 62
    7
 10
225.002487
 20
184.32962750000002
 11
215.752487
 21
184.32962750000002
  0
LINE
  8
_0-0_0
  6
CONTINUOUS
 62
    7
 10
215.502487
 20
184.6016765
 11
215.752487
 21
184.32962750000002
  0
LINE
  8
_0-0_0
  6
CONTINUOUS
 62
    7
 10
225.002487
 20
184.2887035
 11
215.752487
 21
184.2887035
  0
LINE
  8
_0-0_0
  6
CONTINUOUS
 62
    7
 10
215.502487
 20
184.55271149999999
 11
215.752487
 21
184.2887035
  0
LINE
  8
_0-0_0
  6
CONTINUOUS
 62
    7
 10
225.002487
 20
184.2750015
 11
215.752487
 21
184.2750015
  0
LINE
  8
_0-0_0
  6
CONTINUOUS
 62
    7
 10
215.502487
 20
184.52808350000001
 11
215.752487
 21
184.2750015
  0
LINE
  8
_0-0_0
  6
CONTINUOUS
 62
    7
 10
225.002487
 20
188.94007149999999
 11
215.752487
 21
188.94007149999999
  0
LINE
  8
_0-0_0
  6
CONTINUOUS
 62
    7
 10
225.252487
 20
188.7797625
 11
225.12252799999999
 21
188.86362450000001
  0
LINE
  8
_0-0_0
  6
CONTINUOUS
 62
    7
 10
215.502487
 20
188.7797625
 11
215.63246099999998
 21
188.86362450000001
  0
LINE
  8
_0-0_0
  6
CONTINUOUS
 62
    7
 10
215.63246099999998
 20
188.86362450000001
 11
215.752487
 21
188.94007149999999
  0
LINE
  8
_0-0_0
  6
CONTINUOUS
 62
    7
 10
225.002487
 20
188.79755349999999
 11
215.752487
 21
188.79755349999999
  0
LINE
  8
_0-0_0
  6
CONTINUOUS
 62
    7
 10
215.502487
 20
188.66201050000001
 11
215.752487
 21
188.79755349999999
  0
LINE
  8
_0-0_0
  6
CONTINUOUS
 62
    7
 10
225.252487
 20
188.7797625
 11
225.002487
 21
189.05886050000001
  0
LINE
  8
_0-0_0
  6
CONTINUOUS
 62
    7
 10
225.002487
 20
189.05886050000001
 11
215.752487
 21
189.05886050000001
  0
LINE
  8
_0-0_0
  6
CONTINUOUS
 62
    7
 10
215.502487
 20
188.7797625
 11
215.752487
 21
189.05886050000001
  0
LINE
  8
_0-0_0
  6
CONTINUOUS
 62
    7
 10
225.252487
 20
188.87555650000002
 11
225.002487
 21
189.05886050000001
  0
LINE
  8
_0-0_0
  6
CONTINUOUS
 62
    7
 10
215.502487
 20
188.87555650000002
 11
215.752487
 21
189.05886050000001
  0
LINE
  8
_0-0_0
  6
CONTINUOUS
 62
    7
 10
225.252487
 20
188.87555650000002
 11
225.002487
 21
189.15264150000002
  0
LINE
  8
_0-0_0
  6
CONTINUOUS
 62
    7
 10
225.002487
 20
189.15264150000002
 11
215.752487
 21
189.15264150000002
  0
LINE
  8
_0-0_0
  6
CONTINUOUS
 62
    7
 10
215.502487
 20
188.87555650000002
 11
215.752487
 21
189.15264150000002
  0
LINE
  8
_0-0_0
  6
CONTINUOUS
 62
    7
 10
225.252487
 20
188.9483415
 11
225.002487
 21
189.15264150000002
  0
LINE
  8
_0-0_0
  6
CONTINUOUS
 62
    7
 10
215.502487
 20
188.9483415
 11
215.752487
 21
189.15264150000002
  0
LINE
  8
_0-0_0
  6
CONTINUOUS
 62
    7
 10
225.252487
 20
188.9483415
 11
225.002487
 21
189.22037549999999
  0
LINE
  8
_0-0_0
  6
CONTINUOUS
 62
    7
 10
225.002487
 20
189.22037549999999
 11
215.752487
 21
189.22037549999999
  0
LINE
  8
_0-0_0
  6
CONTINUOUS
 62
    7
 10
215.502487
 20
188.9483415
 11
215.752487
 21
189.22037549999999
  0
LINE
  8
_0-0_0
  6
CONTINUOUS
 62
    7
 10
225.252487
 20
188.99730650000001
 11
225.002487
 21
189.22037549999999
  0
LINE
  8
_0-0_0
  6
CONTINUOUS
 62
    7
 10
215.502487
 20
188.99730650000001
 11
215.752487
 21
189.22037549999999
  0
LINE
  8
_0-0_0
  6
CONTINUOUS
 62
    7
 10
225.252487
 20
188.99730650000001
 11
225.002487
 21
189.2613145
  0
LINE
  8
_0-0_0
  6
CONTINUOUS
 62
    7
 10
225.002487
 20
189.2613145
 11
215.752487
 21
189.2613145
  0
LINE
  8
_0-0_0
  6
CONTINUOUS
 62
    7
 10
215.502487
 20
188.99730650000001
 11
215.752487
 21
189.2613145
  0
LINE
  8
_0-0_0
  6
CONTINUOUS
 62
    7
 10
225.252487
 20
189.0219195
 11
225.002487
 21
189.2613145
  0
LINE
  8
_0-0_0
  6
CONTINUOUS
 62
    7
 10
215.502487
 20
189.0219195
 11
215.752487
 21
189.2613145
  0
LINE
  8
_0-0_0
  6
CONTINUOUS
 62
    7
 10
225.252487
 20
189.0219195
 11
225.002487
 21
189.2750015
  0
LINE
  8
_0-0_0
  6
CONTINUOUS
 62
    7
 10
225.002487
 20
189.2750015
 11
215.752487
 21
189.2750015
  0
LINE
  8
_0-0_0
  6
CONTINUOUS
 62
    7
 10
215.502487
 20
189.0219195
 11
215.752487
 21
189.2750015
  0
LINE
  8
_0-0_0
  6
CONTINUOUS
 62
    7
 10
270.70248400000003
 20
174.4749985
 11
270.70248400000003
 21
174.47635650000001
  0
LINE
  8
_0-0_0
  6
CONTINUOUS
 62
    7
 10
270.70248400000003
 20
174.47635650000001
 11
270.70248400000003
 21
182.4749985
  0
LINE
  8
_0-0_0
  6
CONTINUOUS
 62
    7
 10
215.502487
 20
188.66201050000001
 11
215.752487
 21
188.94007149999999
  0
LINE
  8
_0-0_0
  6
CONTINUOUS
 62
    7
 10
225.502487
 20
188.53017449999999
 11
225.502487
 21
188.7750015
  0
LINE
  8
_0-0_0
  6
CONTINUOUS
 62
    7
 10
215.502487
 20
184.52808350000001
 11
215.752487
 21
184.2887035
  0
LINE
  8
_0-0_0
  6
CONTINUOUS
 62
    7
 10
215.502487
 20
184.55271149999999
 11
215.752487
 21
184.32962750000002
  0
LINE
  8
_0-0_0
  6
CONTINUOUS
 62
    7
 10
215.502487
 20
184.6016765
 11
215.752487
 21
184.39736149999999
  0
LINE
  8
_0-0_0
  6
CONTINUOUS
 62
    7
 10
215.502487
 20
184.67444649999999
 11
215.752487
 21
184.4911425
  0
LINE
  8
_0-0_0
  6
CONTINUOUS
 62
    7
 10
215.502487
 20
184.7702405
 11
215.752487
 21
184.6099475
  0
LINE
  8
_0-0_0
  6
CONTINUOUS
 62
    7
 10
215.502487
 20
184.8879925
 11
215.752487
 21
184.7524645
  0
LINE
  8
_0-0_0
  6
CONTINUOUS
 62
    7
 10
215.502487
 20
185.0264205
 11
215.752487
 21
184.9171375
  0
LINE
  8
_0-0_0
  6
CONTINUOUS
 62
    7
 10
215.502487
 20
185.18401349999999
 11
215.752487
 21
185.1021805
  0
LINE
  8
_0-0_0
  6
CONTINUOUS
 62
    7
 10
225.002487
 20
185.30553450000002
 11
215.752487
 21
185.30553450000002
  0
LINE
  8
_0-0_0
  6
CONTINUOUS
 62
    7
 10
215.502487
 20
185.35903150000001
 11
215.752487
 21
185.30553450000002
  0
LINE
  8
_0-0_0
  6
CONTINUOUS
 62
    7
 10
215.502487
 20
185.75353250000001
 11
215.752487
 21
185.75815549999999
  0
LINE
  8
_0-0_0
  6
CONTINUOUS
 62
    7
 10
225.252487
 20
185.75353250000001
 11
215.502487
 21
185.75353250000001
  0
LINE
  8
_0-0_0
  6
CONTINUOUS
 62
    7
 10
215.502487
 20
185.9686815
 11
215.752487
 21
186.0024645
  0
LINE
  8
_0-0_0
  6
CONTINUOUS
 62
    7
 10
215.502487
 20
186.1926655
 11
215.752487
 21
186.25522649999999
  0
LINE
  8
_0-0_0
  6
CONTINUOUS
 62
    7
 10
215.502487
 20
186.42302749999999
 11
215.752487
 21
186.51367949999999
  0
LINE
  8
_0-0_0
  6
CONTINUOUS
 62
    7
 10
215.502487
 20
186.65724950000001
 11
215.752487
 21
186.7750015
  0
LINE
  8
_0-0_0
  6
CONTINUOUS
 62
    7
 10
215.502487
 20
186.8927535
 11
215.752487
 21
187.03632350000001
  0
LINE
  8
_0-0_0
  6
CONTINUOUS
 62
    7
 10
215.502487
 20
187.12697550000001
 11
215.752487
 21
187.29477650000001
  0
LINE
  8
_0-0_0
  6
CONTINUOUS
 62
    7
 10
215.502487
 20
187.35735349999999
 11
215.752487
 21
187.54755349999999
  0
LINE
  8
_0-0_0
  6
CONTINUOUS
 62
    7
 10
215.502487
 20
187.58133650000002
 11
215.752487
 21
187.79184750000002
  0
LINE
  8
_0-0_0
  6
CONTINUOUS
 62
    7
 10
215.502487
 20
187.79648550000002
 11
215.752487
 21
188.0250015
  0
LINE
  8
_0-0_0
  6
CONTINUOUS
 62
    7
 10
215.502487
 20
188.00043449999998
 11
215.752487
 21
188.24446849999998
  0
LINE
  8
_0-0_0
  6
CONTINUOUS
 62
    7
 10
215.502487
 20
188.19097149999999
 11
215.752487
 21
188.44783749999999
  0
LINE
  8
_0-0_0
  6
CONTINUOUS
 62
    7
 10
215.502487
 20
188.36598950000001
 11
215.752487
 21
188.63286550000001
  0
LINE
  8
_0-0_0
  6
CONTINUOUS
 62
    7
 10
215.502487
 20
188.5235825
 11
215.752487
 21
188.79755349999999
  0
LINE
  8
_0-0_0
  6
CONTINUOUS
 62
    7
 10
215.502487
 20
185.54956850000002
 11
215.752487
 21
185.30553450000002
  0
LINE
  8
_0-0_0
  6
CONTINUOUS
 62
    7
 10
215.502487
 20
185.75353250000001
 11
215.752487
 21
185.5250015
  0
LINE
  8
_0-0_0
  6
CONTINUOUS
 62
    7
 10
215.502487
 20
172.06201950000002
 11
215.752487
 21
172.34006449999998
  0
LINE
  8
_0-0_0
  6
CONTINUOUS
 62
    7
 10
225.502487
 20
171.93016850000001
 11
225.502487
 21
172.17501049999998
  0
LINE
  8
_0-0_0
  6
CONTINUOUS
 62
    7
 10
215.502487
 20
167.92809249999999
 11
215.752487
 21
167.68869749999999
  0
LINE
  8
_0-0_0
  6
CONTINUOUS
 62
    7
 10
215.502487
 20
167.95270550000001
 11
215.752487
 21
167.7296375
  0
LINE
  8
_0-0_0
  6
CONTINUOUS
 62
    7
 10
215.502487
 20
168.00167049999999
 11
215.752487
 21
167.79735550000001
  0
LINE
  8
_0-0_0
  6
CONTINUOUS
 62
    7
 10
215.502487
 20
168.0744555
 11
215.752487
 21
167.89113650000002
  0
LINE
  8
_0-0_0
  6
CONTINUOUS
 62
    7
 10
215.502487
 20
168.17023449999999
 11
215.752487
 21
168.0099415
  0
LINE
  8
_0-0_0
  6
CONTINUOUS
 62
    7
 10
215.502487
 20
168.28800150000001
 11
215.752487
 21
168.15245850000002
  0
LINE
  8
_0-0_0
  6
CONTINUOUS
 62
    7
 10
215.502487
 20
168.42642949999998
 11
215.752487
 21
168.31714650000001
  0
LINE
  8
_0-0_0
  6
CONTINUOUS
 62
    7
 10
215.502487
 20
168.58400749999998
 11
215.752487
 21
168.5021745
  0
LINE
  8
_0-0_0
  6
CONTINUOUS
 62
    7
 10
225.002487
 20
168.7055435
 11
215.752487
 21
168.7055435
  0
LINE
  8
_0-0_0
  6
CONTINUOUS
 62
    7
 10
215.502487
 20
168.75902550000001
 11
215.752487
 21
168.7055435
  0
LINE
  8
_0-0_0
  6
CONTINUOUS
 62
    7
 10
215.502487
 20
169.1535265
 11
215.752487
 21
169.1581645
  0
LINE
  8
_0-0_0
  6
CONTINUOUS
 62
    7
 10
225.252487
 20
169.1535265
 11
215.502487
 21
169.1535265
  0
LINE
  8
_0-0_0
  6
CONTINUOUS
 62
    7
 10
215.502487
 20
169.36867549999999
 11
215.752487
 21
169.40245850000002
  0
LINE
  8
_0-0_0
  6
CONTINUOUS
 62
    7
 10
215.502487
 20
169.5926585
 11
215.752487
 21
169.6552355
  0
LINE
  8
_0-0_0
  6
CONTINUOUS
 62
    7
 10
215.502487
 20
169.82302049999998
 11
215.752487
 21
169.91368850000001
  0
LINE
  8
_0-0_0
  6
CONTINUOUS
 62
    7
 10
215.502487
 20
170.0572435
 11
215.752487
 21
170.17501049999998
  0
LINE
  8
_0-0_0
  6
CONTINUOUS
 62
    7
 10
215.502487
 20
170.29276249999998
 11
215.752487
 21
170.43633249999999
  0
LINE
  8
_0-0_0
  6
CONTINUOUS
 62
    7
 10
215.502487
 20
170.52698549999999
 11
215.752487
 21
170.69478650000002
  0
LINE
  8
_0-0_0
  6
CONTINUOUS
 62
    7
 10
215.502487
 20
170.75734750000001
 11
215.752487
 21
170.94754749999998
  0
LINE
  8
_0-0_0
  6
CONTINUOUS
 62
    7
 10
215.502487
 20
170.98133050000001
 11
215.752487
 21
171.19184150000001
  0
LINE
  8
_0-0_0
  6
CONTINUOUS
 62
    7
 10
215.502487
 20
171.19647950000001
 11
215.752487
 21
171.42501049999998
  0
LINE
  8
_0-0_0
  6
CONTINUOUS
 62
    7
 10
215.502487
 20
171.40044449999999
 11
215.752487
 21
171.6444625
  0
LINE
  8
_0-0_0
  6
CONTINUOUS
 62
    7
 10
215.502487
 20
171.5909805
 11
215.752487
 21
171.84783149999998
  0
LINE
  8
_0-0_0
  6
CONTINUOUS
 62
    7
 10
215.502487
 20
171.76599849999999
 11
215.752487
 21
172.0328595
  0
LINE
  8
_0-0_0
  6
CONTINUOUS
 62
    7
 10
215.502487
 20
171.9235765
 11
215.752487
 21
172.19754749999998
  0
LINE
  8
_0-0_0
  6
CONTINUOUS
 62
    7
 10
215.502487
 20
168.94956250000001
 11
215.752487
 21
168.7055435
  0
LINE
  8
_0-0_0
  6
CONTINUOUS
 62
    7
 10
215.502487
 20
169.1535265
 11
215.752487
 21
168.92501049999998
  0
LINE
  8
_0-0_0
  6
CONTINUOUS
 62
    7
 10
212.702484
 20
173.9368815
 11
212.702484
 21
176.2059405
  0
LINE
  8
_0-0_0
  6
CONTINUOUS
 62
    7
 10
212.702484
 20
176.2059405
 11
212.702484
 21
183.01313049999999
  0
LINE
  8
_0-0_0
  6
CONTINUOUS
 62
    7
 10
215.502487
 20
185.75353250000001
 11
215.502487
 21
185.9686815
  0
LINE
  8
_0-0_0
  6
CONTINUOUS
 62
    7
 10
215.502487
 20
185.9686815
 11
215.502487
 21
186.1926655
  0
LINE
  8
_0-0_0
  6
CONTINUOUS
 62
    7
 10
215.502487
 20
186.1926655
 11
215.502487
 21
186.42302749999999
  0
LINE
  8
_0-0_0
  6
CONTINUOUS
 62
    7
 10
215.502487
 20
186.42302749999999
 11
215.502487
 21
186.65724950000001
  0
LINE
  8
_0-0_0
  6
CONTINUOUS
 62
    7
 10
215.502487
 20
186.65724950000001
 11
215.502487
 21
186.8927535
  0
LINE
  8
_0-0_0
  6
CONTINUOUS
 62
    7
 10
215.502487
 20
186.8927535
 11
215.502487
 21
187.12697550000001
  0
LINE
  8
_0-0_0
  6
CONTINUOUS
 62
    7
 10
215.502487
 20
187.12697550000001
 11
215.502487
 21
187.35735349999999
  0
LINE
  8
_0-0_0
  6
CONTINUOUS
 62
    7
 10
215.502487
 20
187.35735349999999
 11
215.502487
 21
187.58133650000002
  0
LINE
  8
_0-0_0
  6
CONTINUOUS
 62
    7
 10
215.502487
 20
187.58133650000002
 11
215.502487
 21
187.79648550000002
  0
LINE
  8
_0-0_0
  6
CONTINUOUS
 62
    7
 10
215.502487
 20
187.79648550000002
 11
215.502487
 21
188.00043449999998
  0
LINE
  8
_0-0_0
  6
CONTINUOUS
 62
    7
 10
215.502487
 20
188.00043449999998
 11
215.502487
 21
188.19097149999999
  0
LINE
  8
_0-0_0
  6
CONTINUOUS
 62
    7
 10
215.502487
 20
188.19097149999999
 11
215.502487
 21
188.36598950000001
  0
LINE
  8
_0-0_0
  6
CONTINUOUS
 62
    7
 10
215.502487
 20
188.36598950000001
 11
215.502487
 21
188.5235825
  0
LINE
  8
_0-0_0
  6
CONTINUOUS
 62
    7
 10
215.502487
 20
188.5235825
 11
215.502487
 21
188.66201050000001
  0
LINE
  8
_0-0_0
  6
CONTINUOUS
 62
    7
 10
215.502487
 20
188.66201050000001
 11
215.502487
 21
188.74956550000002
  0
LINE
  8
_0-0_0
  6
CONTINUOUS
 62
    7
 10
215.502487
 20
188.74956550000002
 11
215.502487
 21
188.7797625
  0
LINE
  8
_0-0_0
  6
CONTINUOUS
 62
    7
 10
215.502487
 20
188.7797625
 11
215.502487
 21
188.87555650000002
  0
LINE
  8
_0-0_0
  6
CONTINUOUS
 62
    7
 10
215.502487
 20
188.87555650000002
 11
215.502487
 21
188.9483415
  0
LINE
  8
_0-0_0
  6
CONTINUOUS
 62
    7
 10
215.502487
 20
188.9483415
 11
215.502487
 21
188.99730650000001
  0
LINE
  8
_0-0_0
  6
CONTINUOUS
 62
    7
 10
215.502487
 20
188.99730650000001
 11
215.502487
 21
189.0219195
  0
LINE
  8
_0-0_0
  6
CONTINUOUS
 62
    7
 10
215.502487
 20
189.0219195
 11
215.502487
 21
189.0250015
  0
LINE
  8
_0-0_0
  6
CONTINUOUS
 62
    7
 10
215.502487
 20
184.5250015
 11
215.502487
 21
184.52808350000001
  0
LINE
  8
_0-0_0
  6
CONTINUOUS
 62
    7
 10
215.502487
 20
184.52808350000001
 11
215.502487
 21
184.55271149999999
  0
LINE
  8
_0-0_0
  6
CONTINUOUS
 62
    7
 10
215.502487
 20
184.5250015
 11
215.502487
 21
184.6016765
  0
LINE
  8
_0-0_0
  6
CONTINUOUS
 62
    7
 10
215.502487
 20
184.6016765
 11
215.502487
 21
184.67444649999999
  0
LINE
  8
_0-0_0
  6
CONTINUOUS
 62
    7
 10
215.502487
 20
184.67444649999999
 11
215.502487
 21
184.7702405
  0
LINE
  8
_0-0_0
  6
CONTINUOUS
 62
    7
 10
215.502487
 20
184.7702405
 11
215.502487
 21
184.8879925
  0
LINE
  8
_0-0_0
  6
CONTINUOUS
 62
    7
 10
215.502487
 20
184.8879925
 11
215.502487
 21
185.0264205
  0
LINE
  8
_0-0_0
  6
CONTINUOUS
 62
    7
 10
215.502487
 20
185.0264205
 11
215.502487
 21
185.18401349999999
  0
LINE
  8
_0-0_0
  6
CONTINUOUS
 62
    7
 10
215.502487
 20
185.18401349999999
 11
215.502487
 21
185.35903150000001
  0
LINE
  8
_0-0_0
  6
CONTINUOUS
 62
    7
 10
215.502487
 20
185.35903150000001
 11
215.502487
 21
185.54956850000002
  0
LINE
  8
_0-0_0
  6
CONTINUOUS
 62
    7
 10
215.502487
 20
185.69629650000002
 11
215.502487
 21
185.75353250000001
  0
LINE
  8
_0-0_0
  6
CONTINUOUS
 62
    7
 10
215.502487
 20
185.54956850000002
 11
215.502487
 21
185.69629650000002
  0
LINE
  8
_0-0_0
  6
CONTINUOUS
 62
    7
 10
215.502487
 20
169.1535265
 11
215.502487
 21
169.36867549999999
  0
LINE
  8
_0-0_0
  6
CONTINUOUS
 62
    7
 10
215.502487
 20
169.36867549999999
 11
215.502487
 21
169.5926585
  0
LINE
  8
_0-0_0
  6
CONTINUOUS
 62
    7
 10
215.502487
 20
169.5926585
 11
215.502487
 21
169.82302049999998
  0
LINE
  8
_0-0_0
  6
CONTINUOUS
 62
    7
 10
215.502487
 20
169.82302049999998
 11
215.502487
 21
170.0572435
  0
LINE
  8
_0-0_0
  6
CONTINUOUS
 62
    7
 10
215.502487
 20
170.0572435
 11
215.502487
 21
170.29276249999998
  0
LINE
  8
_0-0_0
  6
CONTINUOUS
 62
    7
 10
215.502487
 20
170.29276249999998
 11
215.502487
 21
170.52698549999999
  0
LINE
  8
_0-0_0
  6
CONTINUOUS
 62
    7
 10
215.502487
 20
170.52698549999999
 11
215.502487
 21
170.75734750000001
  0
LINE
  8
_0-0_0
  6
CONTINUOUS
 62
    7
 10
215.502487
 20
170.75734750000001
 11
215.502487
 21
170.98133050000001
  0
LINE
  8
_0-0_0
  6
CONTINUOUS
 62
    7
 10
215.502487
 20
170.98133050000001
 11
215.502487
 21
171.19647950000001
  0
LINE
  8
_0-0_0
  6
CONTINUOUS
 62
    7
 10
215.502487
 20
171.19647950000001
 11
215.502487
 21
171.40044449999999
  0
LINE
  8
_0-0_0
  6
CONTINUOUS
 62
    7
 10
215.502487
 20
171.40044449999999
 11
215.502487
 21
171.5909805
  0
LINE
  8
_0-0_0
  6
CONTINUOUS
 62
    7
 10
215.502487
 20
171.5909805
 11
215.502487
 21
171.76599849999999
  0
LINE
  8
_0-0_0
  6
CONTINUOUS
 62
    7
 10
215.502487
 20
171.76599849999999
 11
215.502487
 21
171.9235765
  0
LINE
  8
_0-0_0
  6
CONTINUOUS
 62
    7
 10
215.502487
 20
171.9235765
 11
215.502487
 21
172.06201950000002
  0
LINE
  8
_0-0_0
  6
CONTINUOUS
 62
    7
 10
215.502487
 20
172.06201950000002
 11
215.502487
 21
172.14955850000001
  0
LINE
  8
_0-0_0
  6
CONTINUOUS
 62
    7
 10
215.502487
 20
172.14955850000001
 11
215.502487
 21
172.17977150000002
  0
LINE
  8
_0-0_0
  6
CONTINUOUS
 62
    7
 10
215.502487
 20
172.17977150000002
 11
215.502487
 21
172.2755665
  0
LINE
  8
_0-0_0
  6
CONTINUOUS
 62
    7
 10
215.502487
 20
172.2755665
 11
215.502487
 21
172.34833550000002
  0
LINE
  8
_0-0_0
  6
CONTINUOUS
 62
    7
 10
215.502487
 20
172.34833550000002
 11
215.502487
 21
172.3973005
  0
LINE
  8
_0-0_0
  6
CONTINUOUS
 62
    7
 10
215.502487
 20
172.3973005
 11
215.502487
 21
172.42501049999998
  0
LINE
  8
_0-0_0
  6
CONTINUOUS
 62
    7
 10
215.502487
 20
172.42192850000001
 11
215.502487
 21
172.42501049999998
  0
LINE
  8
_0-0_0
  6
CONTINUOUS
 62
    7
 10
215.502487
 20
167.92501049999998
 11
215.502487
 21
167.92809249999999
  0
LINE
  8
_0-0_0
  6
CONTINUOUS
 62
    7
 10
215.502487
 20
167.92809249999999
 11
215.502487
 21
167.95270550000001
  0
LINE
  8
_0-0_0
  6
CONTINUOUS
 62
    7
 10
215.502487
 20
167.92501049999998
 11
215.502487
 21
168.00167049999999
  0
LINE
  8
_0-0_0
  6
CONTINUOUS
 62
    7
 10
215.502487
 20
168.00167049999999
 11
215.502487
 21
168.0744555
  0
LINE
  8
_0-0_0
  6
CONTINUOUS
 62
    7
 10
215.502487
 20
168.0744555
 11
215.502487
 21
168.17023449999999
  0
LINE
  8
_0-0_0
  6
CONTINUOUS
 62
    7
 10
215.502487
 20
168.17023449999999
 11
215.502487
 21
168.28800150000001
  0
LINE
  8
_0-0_0
  6
CONTINUOUS
 62
    7
 10
215.502487
 20
168.28800150000001
 11
215.502487
 21
168.42642949999998
  0
LINE
  8
_0-0_0
  6
CONTINUOUS
 62
    7
 10
215.502487
 20
168.42642949999998
 11
215.502487
 21
168.58400749999998
  0
LINE
  8
_0-0_0
  6
CONTINUOUS
 62
    7
 10
215.502487
 20
168.58400749999998
 11
215.502487
 21
168.75902550000001
  0
LINE
  8
_0-0_0
  6
CONTINUOUS
 62
    7
 10
215.502487
 20
168.75902550000001
 11
215.502487
 21
168.94956250000001
  0
LINE
  8
_0-0_0
  6
CONTINUOUS
 62
    7
 10
215.502487
 20
169.09629050000001
 11
215.502487
 21
169.1535265
  0
LINE
  8
_0-0_0
  6
CONTINUOUS
 62
    7
 10
215.502487
 20
168.94956250000001
 11
215.502487
 21
169.09629050000001
  0
LINE
  8
_0-0_0
  6
CONTINUOUS
 62
    7
 10
211.90248099999999
 20
175.9749985
 11
211.90248099999999
 21
183.4749985
  0
LINE
  8
_0-0_0
  6
CONTINUOUS
 62
    7
 10
211.90248099999999
 20
173.4749985
 11
211.90248099999999
 21
175.9749985
  0
LINE
  8
_0-0_0
  6
CONTINUOUS
 62
    7
 10
200.502487
 20
184.9749985
 11
210.21031199999999
 21
184.9749985
  0
LINE
  8
_0-0_0
  6
CONTINUOUS
 62
    7
 10
210.252487
 20
184.9749985
 11
210.21031199999999
 21
184.9749985
  0
LINE
  8
_0-0_0
  6
CONTINUOUS
 62
    7
 10
200.202484
 20
176.26297750000001
 11
200.261291
 21
176.01613650000002
  0
LINE
  8
_0-0_0
  6
CONTINUOUS
 62
    7
 10
200.261291
 20
176.01613650000002
 11
200.31104999999999
 21
175.8238145
  0
LINE
  8
_0-0_0
  6
CONTINUOUS
 62
    7
 10
200.31104999999999
 20
175.8238145
 11
200.382172
 21
175.55806749999999
  0
LINE
  8
_0-0_0
  6
CONTINUOUS
 62
    7
 10
200.382172
 20
175.55806749999999
 11
200.415131
 21
175.43137350000001
  0
LINE
  8
_0-0_0
  6
CONTINUOUS
 62
    7
 10
200.415131
 20
175.43137350000001
 11
200.44038399999999
 21
175.32791850000001
  0
LINE
  8
_0-0_0
  6
CONTINUOUS
 62
    7
 10
200.44038399999999
 20
175.32791850000001
 11
200.46241799999999
 21
175.2279585
  0
LINE
  8
_0-0_0
  6
CONTINUOUS
 62
    7
 10
200.46241799999999
 20
175.2279585
 11
200.48380999999998
 21
175.1102525
  0
LINE
  8
_0-0_0
  6
CONTINUOUS
 62
    7
 10
200.48380999999998
 20
175.1102525
 11
200.49237099999999
 21
175.04811849999999
  0
LINE
  8
_0-0_0
  6
CONTINUOUS
 62
    7
 10
200.49237099999999
 20
175.04811849999999
 11
200.498459
 21
174.9875255
  0
LINE
  8
_0-0_0
  6
CONTINUOUS
 62
    7
 10
200.498459
 20
174.9875255
 11
200.501465
 21
174.93828550000001
  0
LINE
  8
_0-0_0
  6
CONTINUOUS
 62
    7
 10
200.501465
 20
174.93828550000001
 11
200.502487
 21
174.89006849999998
  0
LINE
  8
_0-0_0
  6
CONTINUOUS
 62
    7
 10
200.202484
 20
180.6870045
 11
200.26127599999998
 21
180.9338305
  0
LINE
  8
_0-0_0
  6
CONTINUOUS
 62
    7
 10
200.26127599999998
 20
180.9338305
 11
200.31104999999999
 21
181.12616750000001
  0
LINE
  8
_0-0_0
  6
CONTINUOUS
 62
    7
 10
200.31104999999999
 20
181.12616750000001
 11
200.382172
 21
181.3919755
  0
LINE
  8
_0-0_0
  6
CONTINUOUS
 62
    7
 10
200.382172
 20
181.3919755
 11
200.415131
 21
181.51868450000001
  0
LINE
  8
_0-0_0
  6
CONTINUOUS
 62
    7
 10
200.415131
 20
181.51868450000001
 11
200.44039899999999
 21
181.6221085
  0
LINE
  8
_0-0_0
  6
CONTINUOUS
 62
    7
 10
200.44039899999999
 20
181.6221085
 11
200.46241799999999
 21
181.7220385
  0
LINE
  8
_0-0_0
  6
CONTINUOUS
 62
    7
 10
200.46241799999999
 20
181.7220385
 11
200.48379499999999
 21
181.83974449999999
  0
LINE
  8
_0-0_0
  6
CONTINUOUS
 62
    7
 10
200.48379499999999
 20
181.83974449999999
 11
200.49237099999999
 21
181.90187850000001
  0
LINE
  8
_0-0_0
  6
CONTINUOUS
 62
    7
 10
200.49237099999999
 20
181.90187850000001
 11
200.498459
 21
181.96248650000001
  0
LINE
  8
_0-0_0
  6
CONTINUOUS
 62
    7
 10
200.498459
 20
181.96248650000001
 11
200.501465
 21
182.01172650000001
  0
LINE
  8
_0-0_0
  6
CONTINUOUS
 62
    7
 10
200.501465
 20
182.01172650000001
 11
200.502487
 21
182.0599445
  0
LINE
  8
_0-0_0
  6
CONTINUOUS
 62
    7
 10
200.502487
 20
176.91295650000001
 11
200.502487
 21
175.8673015
  0
LINE
  8
_0-0_0
  6
CONTINUOUS
 62
    7
 10
200.502487
 20
174.5826945
 11
200.502487
 21
175.8673015
  0
LINE
  8
_0-0_0
  6
CONTINUOUS
 62
    7
 10
200.502487
 20
174.4673085
 11
200.502487
 21
174.5826945
  0
ARC
  8
_0-0_0
  6
CONTINUOUS
 62
    7
 10
198.502487
 20
185.83348849999999
 40
2
 50
0
 51
71.565000999999995
  0
LINE
  8
_0-0_0
  6
CONTINUOUS
 62
    7
 10
210.21031199999999
 20
184.9749985
 11
210.26480099999998
 21
184.9050675
  0
LINE
  8
_0-0_0
  6
CONTINUOUS
 62
    7
 10
210.26480099999998
 20
184.9050675
 11
210.31590299999999
 21
184.83625050000001
  0
LINE
  8
_0-0_0
  6
CONTINUOUS
 62
    7
 10
210.31590299999999
 20
184.83625050000001
 11
210.363541
 21
184.7687305
  0
LINE
  8
_0-0_0
  6
CONTINUOUS
 62
    7
 10
210.363541
 20
184.7687305
 11
210.40803499999998
 21
184.70218649999998
  0
LINE
  8
_0-0_0
  6
CONTINUOUS
 62
    7
 10
210.40803499999998
 20
184.70218649999998
 11
210.46275299999999
 21
184.61464649999999
  0
LINE
  8
_0-0_0
  6
CONTINUOUS
 62
    7
 10
210.46275299999999
 20
184.61464649999999
 11
210.51226799999998
 21
184.52854150000002
  0
LINE
  8
_0-0_0
  6
CONTINUOUS
 62
    7
 10
210.51226799999998
 20
184.52854150000002
 11
210.55673199999998
 21
184.44371749999999
  0
LINE
  8
_0-0_0
  6
CONTINUOUS
 62
    7
 10
210.55673199999998
 20
184.44371749999999
 11
210.60369899999998
 21
184.3433915
  0
LINE
  8
_0-0_0
  6
CONTINUOUS
 62
    7
 10
210.60369899999998
 20
184.3433915
 11
210.64390599999999
 21
184.24446849999998
  0
LINE
  8
_0-0_0
  6
CONTINUOUS
 62
    7
 10
210.64390599999999
 20
184.24446849999998
 11
210.67756599999998
 21
184.1467055
  0
LINE
  8
_0-0_0
  6
CONTINUOUS
 62
    7
 10
210.67756599999998
 20
184.1467055
 11
210.70486399999999
 21
184.0499035
  0
LINE
  8
_0-0_0
  6
CONTINUOUS
 62
    7
 10
210.70486399999999
 20
184.0499035
 11
210.72590599999998
 21
183.95384949999999
  0
LINE
  8
_0-0_0
  6
CONTINUOUS
 62
    7
 10
210.72590599999998
 20
183.95384949999999
 11
210.74183599999998
 21
183.8499985
  0
LINE
  8
_0-0_0
  6
CONTINUOUS
 62
    7
 10
210.74183599999998
 20
183.8499985
 11
210.75059499999998
 21
183.74657450000001
  0
LINE
  8
_0-0_0
  6
CONTINUOUS
 62
    7
 10
210.75059499999998
 20
183.74657450000001
 11
210.752228
 21
183.64333349999998
  0
LINE
  8
_0-0_0
  6
CONTINUOUS
 62
    7
 10
210.752228
 20
183.64333349999998
 11
210.74676499999998
 21
183.54004650000002
  0
LINE
  8
_0-0_0
  6
CONTINUOUS
 62
    7
 10
210.74676499999998
 20
183.54004650000002
 11
210.73414599999998
 21
183.4364545
  0
LINE
  8
_0-0_0
  6
CONTINUOUS
 62
    7
 10
210.73414599999998
 20
183.4364545
 11
210.71433999999999
 21
183.3323135
  0
LINE
  8
_0-0_0
  6
CONTINUOUS
 62
    7
 10
210.71433999999999
 20
183.3323135
 11
210.68719499999997
 21
183.22734850000001
  0
LINE
  8
_0-0_0
  6
CONTINUOUS
 62
    7
 10
210.68719499999997
 20
183.22734850000001
 11
210.65254199999998
 21
183.12131449999998
  0
LINE
  8
_0-0_0
  6
CONTINUOUS
 62
    7
 10
210.65254199999998
 20
183.12131449999998
 11
210.61019899999999
 21
183.01393849999999
  0
LINE
  8
_0-0_0
  6
CONTINUOUS
 62
    7
 10
210.61019899999999
 20
183.01393849999999
 11
210.55987499999998
 21
182.90493050000001
  0
LINE
  8
_0-0_0
  6
CONTINUOUS
 62
    7
 10
210.55987499999998
 20
182.90493050000001
 11
210.50563
 21
182.8017955
  0
LINE
  8
_0-0_0
  6
CONTINUOUS
 62
    7
 10
210.50563
 20
182.8017955
 11
210.44392399999998
 21
182.69673950000001
  0
LINE
  8
_0-0_0
  6
CONTINUOUS
 62
    7
 10
210.44392399999998
 20
182.69673950000001
 11
210.374405
 21
182.58950049999999
  0
LINE
  8
_0-0_0
  6
CONTINUOUS
 62
    7
 10
210.374405
 20
182.58950049999999
 11
210.29669199999998
 21
182.4798045
  0
LINE
  8
_0-0_0
  6
CONTINUOUS
 62
    7
 10
210.29669199999998
 20
182.4798045
 11
210.21031199999999
 21
182.3673015
  0
LINE
  8
_0-0_0
  6
CONTINUOUS
 62
    7
 10
200.502487
 20
182.48268849999999
 11
200.502487
 21
182.3673015
  0
LINE
  8
_0-0_0
  6
CONTINUOUS
 62
    7
 10
200.502487
 20
181.0826945
 11
200.502487
 21
180.03705550000001
  0
LINE
  8
_0-0_0
  6
CONTINUOUS
 62
    7
 10
200.502487
 20
175.8673015
 11
210.21031199999999
 21
175.8673015
  0
LINE
  8
_0-0_0
  6
CONTINUOUS
 62
    7
 10
200.502487
 20
174.5826945
 11
210.21031199999999
 21
174.5826945
  0
LINE
  8
_0-0_0
  6
CONTINUOUS
 62
    7
 10
211.502487
 20
181.20656550000001
 11
211.502487
 21
183.7249985
  0
LINE
  8
_0-0_0
  6
CONTINUOUS
 62
    7
 10
200.502487
 20
185.83348849999999
 11
200.502487
 21
182.48268849999999
  0
LINE
  8
_0-0_0
  6
CONTINUOUS
 62
    7
 10
189.502487
 20
167.67501049999998
 11
189.502487
 21
167.9250715
  0
LINE
  8
_0-0_0
  6
CONTINUOUS
 62
    7
 10
165.002487
 20
187.7750015
 11
160.00247199999998
 21
187.7750015
  0
ARC
  8
_0-0_0
  6
CONTINUOUS
 62
    7
 10
160.00247199999998
 20
183.2750015
 40
4.5
 50
90.000003000000007
 51
269.99999700000006
  0
LINE
  8
_0-0_0
  6
CONTINUOUS
 62
    7
 10
165.002487
 20
178.7750015
 11
160.00247199999998
 21
178.7750015
  0
ARC
  8
_0-0_0
  6
CONTINUOUS
 62
    7
 10
165.002487
 20
183.2750015
 40
4.5
 50
269.99999700000001
 51
90.000002999999992
  0
LINE
  8
_0-0_0
  6
CONTINUOUS
 62
    7
 10
109.00247199999998
 20
187.7750015
 11
104.00247199999998
 21
187.7750015
  0
ARC
  8
_0-0_0
  6
CONTINUOUS
 62
    7
 10
104.00247199999998
 20
183.2750015
 40
4.5
 50
90.000003000000007
 51
269.99999700000006
  0
LINE
  8
_0-0_0
  6
CONTINUOUS
 62
    7
 10
109.00247199999998
 20
178.7750015
 11
104.00247199999998
 21
178.7750015
  0
ARC
  8
_0-0_0
  6
CONTINUOUS
 62
    7
 10
109.00247199999998
 20
183.2750015
 40
4.5
 50
269.99999700000001
 51
90.000002999999992
  0
LINE
  8
_0-0_0
  6
CONTINUOUS
 62
    7
 10
134.31498699999997
 20
187.34464250000002
 11
133.01499200000001
 21
183.84464250000002
  0
LINE
  8
_0-0_0
  6
CONTINUOUS
 62
    7
 10
133.20247599999999
 20
183.57500450000001
 11
135.80247499999999
 21
183.57500450000001
  0
ARC
  8
_0-0_0
  6
CONTINUOUS
 62
    7
 10
135.80247499999999
 20
183.7750015
 40
0.2
 50
269.99999700000001
 51
20.376435000000019
  0
ARC
  8
_0-0_0
  6
CONTINUOUS
 62
    7
 10
134.50247199999998
 20
187.2750015
 40
0.2
 50
20.376434999999997
 51
159.62357000000003
  0
LINE
  8
_0-0_0
  6
CONTINUOUS
 62
    7
 10
189.502487
 20
167.67501049999998
 11
189.502487
 21
169.67501049999998
  0
ARC
  8
_0-0_0
  6
CONTINUOUS
 62
    7
 10
155.50247199999998
 20
174.07500450000001
 40
3
 50
180.00000900000003
 51
269.99999700000001
  0
LINE
  8
_0-0_0
  6
CONTINUOUS
 62
    7
 10
155.50247199999998
 20
171.07500450000001
 11
170.502487
 21
171.07500450000001
  0
ARC
  8
_0-0_0
  6
CONTINUOUS
 62
    7
 10
170.502487
 20
174.07500450000001
 40
3
 50
269.99999700000001
 51
0
  0
ARC
  8
_0-0_0
  6
CONTINUOUS
 62
    7
 10
170.502487
 20
187.67501049999998
 40
3
 50
0
 51
90.000003000000007
  0
LINE
  8
_0-0_0
  6
CONTINUOUS
 62
    7
 10
170.502487
 20
190.67501049999998
 11
155.50247199999998
 21
190.67501049999998
  0
ARC
  8
_0-0_0
  6
CONTINUOUS
 62
    7
 10
155.50247199999998
 20
187.67501049999998
 40
3
 50
90.000003000000007
 51
180.00000900000001
  0
ARC
  8
_0-0_0
  6
CONTINUOUS
 62
    7
 10
101.59215499999999
 20
176.1646805
 40
5.089683
 50
180.00000900000003
 51
269.99999700000001
  0
LINE
  8
_0-0_0
  6
CONTINUOUS
 62
    7
 10
101.59215499999999
 20
171.07500450000001
 11
112.85948199999999
 21
171.07500450000001
  0
ARC
  8
_0-0_0
  6
CONTINUOUS
 62
    7
 10
112.85948199999999
 20
174.7179945
 40
3.6429879999999999
 50
269.99999700000001
 51
0.0000099999999886
  0
LINE
  8
_0-0_0
  6
CONTINUOUS
 62
    7
 10
113.50247199999998
 20
190.67501049999998
 11
100.16853299999998
 21
190.67501049999998
  0
ARC
  8
_0-0_0
  6
CONTINUOUS
 62
    7
 10
100.16853299999998
 20
189.67501049999998
 40
1
 50
90.000003000000007
 51
172.23356100000001
  0
ARC
  8
_0-0_0
  6
CONTINUOUS
 62
    7
 10
97.502475999999987
 20
186.61269350000001
 40
1
 50
105.68034800000001
 51
180.00000900000001
  0
LINE
  8
_0-0_0
  6
CONTINUOUS
 62
    7
 10
154.90247299999999
 20
190.67501049999998
 11
154.90247299999999
 21
190.61438750000002
  0
LINE
  8
_0-0_0
  6
CONTINUOUS
 62
    7
 10
113.50247199999998
 20
171.1321945
 11
113.50247199999998
 21
171.0790935
  0
LINE
  8
_0-0_0
  6
CONTINUOUS
 62
    7
 10
154.90247299999999
 20
171.13561250000001
 11
154.90247299999999
 21
171.0790935
  0
LINE
  8
_0-0_0
  6
CONTINUOUS
 62
    7
 10
211.502487
 20
173.2249985
 11
210.702484
 21
172.42499550000002
  0
LINE
  8
_0-0_0
  6
CONTINUOUS
 62
    7
 10
225.502487
 20
168.17501049999998
 11
225.00265499999998
 21
167.6751635
  0
LINE
  8
_0-0_0
  6
CONTINUOUS
 62
    7
 10
225.502487
 20
184.7750015
 11
225.00265499999998
 21
184.27515449999999
  0
LINE
  8
_0-0_0
  6
CONTINUOUS
 62
    7
 10
212.702484
 20
182.4749985
 11
270.70248400000003
 21
182.4749985
  0
LINE
  8
_0-0_0
  6
CONTINUOUS
 62
    7
 10
212.702484
 20
174.4749985
 11
270.70248400000003
 21
174.4749985
  0
LINE
  8
_0-0_0
  6
CONTINUOUS
 62
    7
 10
225.502487
 20
188.7750015
 11
225.00265499999998
 21
189.27484850000002
  0
LINE
  8
_0-0_0
  6
CONTINUOUS
 62
    7
 10
225.502487
 20
172.17501049999998
 11
225.00265499999998
 21
172.67484250000001
  0
LINE
  8
_0-0_0
  6
CONTINUOUS
 62
    7
 10
215.502487
 20
189.0250015
 11
215.752487
 21
189.2750015
  0
LINE
  8
_0-0_0
  6
CONTINUOUS
 62
    7
 10
215.502487
 20
184.5250015
 11
215.752487
 21
184.2750015
  0
LINE
  8
_0-0_0
  6
CONTINUOUS
 62
    7
 10
215.502487
 20
172.42501049999998
 11
215.752487
 21
172.67501049999998
  0
LINE
  8
_0-0_0
  6
CONTINUOUS
 62
    7
 10
215.502487
 20
167.92501049999998
 11
215.752487
 21
167.67501049999998
  0
LINE
  8
_0-0_0
  6
CONTINUOUS
 62
    7
 10
212.702484
 20
183.01313049999999
 11
211.90248099999999
 21
183.4749985
  0
LINE
  8
_0-0_0
  6
CONTINUOUS
 62
    7
 10
212.702484
 20
173.9368815
 11
211.90248099999999
 21
173.4749985
  0
LINE
  8
_0-0_0
  6
CONTINUOUS
 62
    7
 10
195.25244099999998
 20
189.0250015
 11
215.502487
 21
189.0250015
  0
LINE
  8
_0-0_0
  6
CONTINUOUS
 62
    7
 10
210.702484
 20
184.5250015
 11
215.502487
 21
184.5250015
  0
LINE
  8
_0-0_0
  6
CONTINUOUS
 62
    7
 10
189.502487
 20
172.42501049999998
 11
215.502487
 21
172.42501049999998
  0
LINE
  8
_0-0_0
  6
CONTINUOUS
 62
    7
 10
189.502487
 20
167.92501049999998
 11
215.502487
 21
167.92501049999998
  0
LINE
  8
_0-0_0
  6
CONTINUOUS
 62
    7
 10
211.502487
 20
183.4749985
 11
211.90248099999999
 21
183.4749985
  0
LINE
  8
_0-0_0
  6
CONTINUOUS
 62
    7
 10
211.502487
 20
173.4749985
 11
211.90248099999999
 21
173.4749985
  0
LINE
  8
_0-0_0
  6
CONTINUOUS
 62
    7
 10
211.502487
 20
183.7249985
 11
210.252487
 21
184.97501349999999
  0
LINE
  8
_0-0_0
  6
CONTINUOUS
 62
    7
 10
80.502476000000001
 20
207.37500750000001
 11
82.95724899999999
 21
207.37500750000001
  0
LINE
  8
_0-0_0
  6
CONTINUOUS
 62
    7
 10
80.502476000000001
 20
194.17499550000002
 11
80.502476000000001
 21
207.37500750000001
  0
LINE
  8
_0-0_0
  6
CONTINUOUS
 62
    7
 10
383.50247200000001
 20
194.17499550000002
 11
383.50247200000001
 21
207.37500750000001
  0
LINE
  8
_0-0_0
  6
CONTINUOUS
 62
    7
 10
381.04769899999997
 20
207.37500750000001
 11
383.50247200000001
 21
207.37500750000001
  0
ARC
  8
_0-0_0
  6
CONTINUOUS
 62
    7
 10
374.50247200000001
 20
211.9749985
 40
8
 50
215.099627
 51
324.90037799999999
  0
LINE
  8
_0-0_0
  6
CONTINUOUS
 62
    7
 10
96.047702999999984
 20
207.37500750000001
 11
367.957245
 21
207.37500750000001
  0
ARC
  8
_0-0_0
  6
CONTINUOUS
 62
    7
 10
89.502475999999987
 20
211.9749985
 40
8
 50
215.099627
 51
324.90037799999999
  0
LINE
  8
_0-0_0
  6
CONTINUOUS
 62
    7
 10
82.95724899999999
 20
207.37500750000001
 11
82.868266999999989
 21
207.50429550000001
  0
LINE
  8
_0-0_0
  6
CONTINUOUS
 62
    7
 10
96.047702999999984
 20
207.37500750000001
 11
96.136687999999992
 21
207.50429550000001
  0
LINE
  8
_0-0_0
  6
CONTINUOUS
 62
    7
 10
96.229827999999998
 20
207.6457135
 11
96.136687999999992
 21
207.50429550000001
  0
LINE
  8
_0-0_0
  6
CONTINUOUS
 62
    7
 10
96.229827999999998
 20
207.6457135
 11
96.31129399999999
 21
207.7750015
  0
ARC
  8
_0-0_0
  6
CONTINUOUS
 62
    7
 10
89.502475999999987
 20
211.9749985
 40
8
 50
328.33175599999993
 51
334.05550899999992
  0
LINE
  8
_0-0_0
  6
CONTINUOUS
 62
    7
 10
96.696223999999987
 20
208.4749985
 11
96.757701999999995
 21
208.6042865
  0
LINE
  8
_0-0_0
  6
CONTINUOUS
 62
    7
 10
96.821746999999988
 20
208.74570449999999
 11
96.757701999999995
 21
208.6042865
  0
LINE
  8
_0-0_0
  6
CONTINUOUS
 62
    7
 10
96.821746999999988
 20
208.74570449999999
 11
96.877433999999994
 21
208.87500750000001
  0
ARC
  8
_0-0_0
  6
CONTINUOUS
 62
    7
 10
89.502475999999987
 20
211.9749985
 40
8
 50
337.20097500000003
 51
342.54240199999998
  0
LINE
  8
_0-0_0
  6
CONTINUOUS
 62
    7
 10
97.13399099999998
 20
209.57500450000001
 11
97.173453999999992
 21
209.70429250000001
  0
LINE
  8
_0-0_0
  6
CONTINUOUS
 62
    7
 10
97.213904999999983
 20
209.8457105
 11
97.173453999999992
 21
209.70429250000001
  0
LINE
  8
_0-0_0
  6
CONTINUOUS
 62
    7
 10
97.213904999999983
 20
209.8457105
 11
97.248443999999978
 21
209.9749985
  0
ARC
  8
_0-0_0
  6
CONTINUOUS
 62
    7
 10
89.502475999999987
 20
211.9749985
 40
8
 50
345.52249499999999
 51
350.64797900000002
  0
LINE
  8
_0-0_0
  6
CONTINUOUS
 62
    7
 10
97.39614499999999
 20
210.67499549999999
 11
97.416350999999992
 21
210.80429850000002
  0
LINE
  8
_0-0_0
  6
CONTINUOUS
 62
    7
 10
97.435984999999988
 20
210.9457165
 11
97.416350999999992
 21
210.80429850000002
  0
LINE
  8
_0-0_0
  6
CONTINUOUS
 62
    7
 10
97.435984999999988
 20
210.9457165
 11
97.451690999999983
 21
211.07500450000001
  0
ARC
  8
_0-0_0
  6
CONTINUOUS
 62
    7
 10
89.502475999999987
 20
211.9749985
 40
8
 50
353.54056400000002
 51
358.56744600000002
  0
LINE
  8
_0-0_0
  6
CONTINUOUS
 62
    7
 10
97.499976999999987
 20
211.7750015
 11
97.502162999999996
 21
211.9042895
  0
LINE
  8
_0-0_0
  6
CONTINUOUS
 62
    7
 10
97.502162999999996
 20
211.9042895
 11
97.502475999999987
 21
211.9749985
  0
LINE
  8
_0-0_0
  6
CONTINUOUS
 62
    7
 10
81.502787999999981
 20
211.9042895
 11
81.502476000000001
 21
211.9749985
  0
LINE
  8
_0-0_0
  6
CONTINUOUS
 62
    7
 10
81.504974000000004
 20
211.7750015
 11
81.502787999999981
 21
211.9042895
  0
ARC
  8
_0-0_0
  6
CONTINUOUS
 62
    7
 10
89.502475999999987
 20
211.9749985
 40
8
 50
181.432545
 51
186.45945499999999
  0
LINE
  8
_0-0_0
  6
CONTINUOUS
 62
    7
 10
81.568965999999989
 20
210.9457165
 11
81.553260999999992
 21
211.07500450000001
  0
LINE
  8
_0-0_0
  6
CONTINUOUS
 62
    7
 10
81.568965999999989
 20
210.9457165
 11
81.588599999999985
 21
210.80429850000002
  0
LINE
  8
_0-0_0
  6
CONTINUOUS
 62
    7
 10
81.608806999999985
 20
210.67499549999999
 11
81.588599999999985
 21
210.80429850000002
  0
ARC
  8
_0-0_0
  6
CONTINUOUS
 62
    7
 10
89.502475999999987
 20
211.9749985
 40
8
 50
189.35203999999999
 51
194.47751
  0
LINE
  8
_0-0_0
  6
CONTINUOUS
 62
    7
 10
81.791045999999994
 20
209.8457105
 11
81.756507999999997
 21
209.9749985
  0
LINE
  8
_0-0_0
  6
CONTINUOUS
 62
    7
 10
81.791045999999994
 20
209.8457105
 11
81.831501000000003
 21
209.70429250000001
  0
LINE
  8
_0-0_0
  6
CONTINUOUS
 62
    7
 10
81.870963999999987
 20
209.57500450000001
 11
81.831501000000003
 21
209.70429250000001
  0
ARC
  8
_0-0_0
  6
CONTINUOUS
 62
    7
 10
89.502475999999987
 20
211.9749985
 40
8
 50
197.45760300000001
 51
202.79902999999999
  0
LINE
  8
_0-0_0
  6
CONTINUOUS
 62
    7
 10
82.183207999999979
 20
208.74570449999999
 11
82.127517999999981
 21
208.87500750000001
  0
LINE
  8
_0-0_0
  6
CONTINUOUS
 62
    7
 10
82.183207999999979
 20
208.74570449999999
 11
82.24724999999998
 21
208.6042865
  0
LINE
  8
_0-0_0
  6
CONTINUOUS
 62
    7
 10
82.30872699999999
 20
208.4749985
 11
82.24724999999998
 21
208.6042865
  0
ARC
  8
_0-0_0
  6
CONTINUOUS
 62
    7
 10
89.502475999999987
 20
211.9749985
 40
8
 50
205.94448199999999
 51
211.66823500000001
  0
LINE
  8
_0-0_0
  6
CONTINUOUS
 62
    7
 10
82.775123999999991
 20
207.6457135
 11
82.693656999999988
 21
207.7750015
  0
LINE
  8
_0-0_0
  6
CONTINUOUS
 62
    7
 10
82.775123999999991
 20
207.6457135
 11
82.868266999999989
 21
207.50429550000001
  0
LINE
  8
_0-0_0
  6
CONTINUOUS
 62
    7
 10
367.957245
 20
207.37500750000001
 11
367.86825599999997
 21
207.50429550000001
  0
LINE
  8
_0-0_0
  6
CONTINUOUS
 62
    7
 10
366.50277699999998
 20
211.9042895
 11
366.50247200000001
 21
211.9749985
  0
LINE
  8
_0-0_0
  6
CONTINUOUS
 62
    7
 10
366.504974
 20
211.7750015
 11
366.50277699999998
 21
211.9042895
  0
ARC
  8
_0-0_0
  6
CONTINUOUS
 62
    7
 10
374.50247200000001
 20
211.9749985
 40
8
 50
181.432545
 51
186.45945499999999
  0
LINE
  8
_0-0_0
  6
CONTINUOUS
 62
    7
 10
366.56896999999998
 20
210.9457165
 11
366.55325299999998
 21
211.07500450000001
  0
LINE
  8
_0-0_0
  6
CONTINUOUS
 62
    7
 10
366.56896999999998
 20
210.9457165
 11
366.58859200000001
 21
210.80429850000002
  0
LINE
  8
_0-0_0
  6
CONTINUOUS
 62
    7
 10
366.60879499999999
 20
210.67499549999999
 11
366.58859200000001
 21
210.80429850000002
  0
ARC
  8
_0-0_0
  6
CONTINUOUS
 62
    7
 10
374.50247200000001
 20
211.9749985
 40
8
 50
189.35203999999999
 51
194.47751
  0
LINE
  8
_0-0_0
  6
CONTINUOUS
 62
    7
 10
366.79104599999999
 20
209.8457105
 11
366.75650000000002
 21
209.9749985
  0
LINE
  8
_0-0_0
  6
CONTINUOUS
 62
    7
 10
366.79104599999999
 20
209.8457105
 11
366.83148199999999
 21
209.70429250000001
  0
LINE
  8
_0-0_0
  6
CONTINUOUS
 62
    7
 10
366.87097199999999
 20
209.57500450000001
 11
366.83148199999999
 21
209.70429250000001
  0
ARC
  8
_0-0_0
  6
CONTINUOUS
 62
    7
 10
374.50247200000001
 20
211.9749985
 40
8
 50
197.45760300000001
 51
202.79902999999999
  0
LINE
  8
_0-0_0
  6
CONTINUOUS
 62
    7
 10
367.18319700000001
 20
208.74570449999999
 11
367.12750199999999
 21
208.87500750000001
  0
LINE
  8
_0-0_0
  6
CONTINUOUS
 62
    7
 10
367.18319700000001
 20
208.74570449999999
 11
367.247253
 21
208.6042865
  0
LINE
  8
_0-0_0
  6
CONTINUOUS
 62
    7
 10
367.308716
 20
208.4749985
 11
367.247253
 21
208.6042865
  0
ARC
  8
_0-0_0
  6
CONTINUOUS
 62
    7
 10
374.50247200000001
 20
211.9749985
 40
8
 50
205.94448199999999
 51
211.66823500000001
  0
LINE
  8
_0-0_0
  6
CONTINUOUS
 62
    7
 10
367.77511599999997
 20
207.6457135
 11
367.69366400000001
 21
207.7750015
  0
LINE
  8
_0-0_0
  6
CONTINUOUS
 62
    7
 10
367.77511599999997
 20
207.6457135
 11
367.86825599999997
 21
207.50429550000001
  0
LINE
  8
_0-0_0
  6
CONTINUOUS
 62
    7
 10
381.04769899999997
 20
207.37500750000001
 11
381.13668799999999
 21
207.50429550000001
  0
LINE
  8
_0-0_0
  6
CONTINUOUS
 62
    7
 10
381.229828
 20
207.6457135
 11
381.13668799999999
 21
207.50429550000001
  0
LINE
  8
_0-0_0
  6
CONTINUOUS
 62
    7
 10
381.229828
 20
207.6457135
 11
381.31127900000001
 21
207.7750015
  0
ARC
  8
_0-0_0
  6
CONTINUOUS
 62
    7
 10
374.50247200000001
 20
211.9749985
 40
8
 50
328.33175599999993
 51
334.05550899999992
  0
LINE
  8
_0-0_0
  6
CONTINUOUS
 62
    7
 10
381.69622799999996
 20
208.4749985
 11
381.75768999999997
 21
208.6042865
  0
LINE
  8
_0-0_0
  6
CONTINUOUS
 62
    7
 10
381.82174700000002
 20
208.74570449999999
 11
381.75768999999997
 21
208.6042865
  0
LINE
  8
_0-0_0
  6
CONTINUOUS
 62
    7
 10
381.82174700000002
 20
208.74570449999999
 11
381.87744099999998
 21
208.87500750000001
  0
ARC
  8
_0-0_0
  6
CONTINUOUS
 62
    7
 10
374.50247200000001
 20
211.9749985
 40
8
 50
337.20097500000003
 51
342.54240199999998
  0
LINE
  8
_0-0_0
  6
CONTINUOUS
 62
    7
 10
382.13397199999997
 20
209.57500450000001
 11
382.17346199999997
 21
209.70429250000001
  0
LINE
  8
_0-0_0
  6
CONTINUOUS
 62
    7
 10
382.21389799999997
 20
209.8457105
 11
382.17346199999997
 21
209.70429250000001
  0
LINE
  8
_0-0_0
  6
CONTINUOUS
 62
    7
 10
382.21389799999997
 20
209.8457105
 11
382.24844400000001
 21
209.9749985
  0
ARC
  8
_0-0_0
  6
CONTINUOUS
 62
    7
 10
374.50247200000001
 20
211.9749985
 40
8
 50
345.52249499999999
 51
350.64797900000002
  0
LINE
  8
_0-0_0
  6
CONTINUOUS
 62
    7
 10
382.39614899999998
 20
210.67499549999999
 11
382.41635099999996
 21
210.80429850000002
  0
LINE
  8
_0-0_0
  6
CONTINUOUS
 62
    7
 10
382.43597399999999
 20
210.9457165
 11
382.41635099999996
 21
210.80429850000002
  0
LINE
  8
_0-0_0
  6
CONTINUOUS
 62
    7
 10
382.43597399999999
 20
210.9457165
 11
382.45169099999998
 21
211.07500450000001
  0
ARC
  8
_0-0_0
  6
CONTINUOUS
 62
    7
 10
374.50247200000001
 20
211.9749985
 40
8
 50
353.54056400000002
 51
358.56744600000002
  0
LINE
  8
_0-0_0
  6
CONTINUOUS
 62
    7
 10
382.49996899999996
 20
211.7750015
 11
382.50216699999999
 21
211.9042895
  0
LINE
  8
_0-0_0
  6
CONTINUOUS
 62
    7
 10
382.50216699999999
 20
211.9042895
 11
382.50247200000001
 21
211.9749985
  0
LINE
  8
_0-0_0
  6
CONTINUOUS
 62
    7
 10
383.50247200000001
 20
207.50429550000001
 11
383.50247200000001
 21
207.37500750000001
  0
LINE
  8
_0-0_0
  6
CONTINUOUS
 62
    7
 10
383.50247200000001
 20
216.30429850000002
 11
383.50247200000001
 21
216.4457165
  0
LINE
  8
_0-0_0
  6
CONTINUOUS
 62
    7
 10
383.50247200000001
 20
216.30429850000002
 11
383.50247200000001
 21
216.17499549999999
  0
LINE
  8
_0-0_0
  6
CONTINUOUS
 62
    7
 10
383.50247200000001
 20
215.4749985
 11
383.50247200000001
 21
216.17499549999999
  0
LINE
  8
_0-0_0
  6
CONTINUOUS
 62
    7
 10
383.50247200000001
 20
215.3457105
 11
383.50247200000001
 21
215.4749985
  0
LINE
  8
_0-0_0
  6
CONTINUOUS
 62
    7
 10
383.50247200000001
 20
215.20429250000001
 11
383.50247200000001
 21
215.3457105
  0
LINE
  8
_0-0_0
  6
CONTINUOUS
 62
    7
 10
383.50247200000001
 20
215.20429250000001
 11
383.50247200000001
 21
215.07500450000001
  0
LINE
  8
_0-0_0
  6
CONTINUOUS
 62
    7
 10
383.50247200000001
 20
214.37500750000001
 11
383.50247200000001
 21
215.07500450000001
  0
LINE
  8
_0-0_0
  6
CONTINUOUS
 62
    7
 10
383.50247200000001
 20
214.24570449999999
 11
383.50247200000001
 21
214.37500750000001
  0
LINE
  8
_0-0_0
  6
CONTINUOUS
 62
    7
 10
383.50247200000001
 20
214.1042865
 11
383.50247200000001
 21
214.24570449999999
  0
LINE
  8
_0-0_0
  6
CONTINUOUS
 62
    7
 10
383.50247200000001
 20
214.1042865
 11
383.50247200000001
 21
213.9749985
  0
LINE
  8
_0-0_0
  6
CONTINUOUS
 62
    7
 10
383.50247200000001
 20
213.2750015
 11
383.50247200000001
 21
213.9749985
  0
LINE
  8
_0-0_0
  6
CONTINUOUS
 62
    7
 10
383.50247200000001
 20
213.1457135
 11
383.50247200000001
 21
213.2750015
  0
LINE
  8
_0-0_0
  6
CONTINUOUS
 62
    7
 10
383.50247200000001
 20
213.00429550000001
 11
383.50247200000001
 21
213.1457135
  0
LINE
  8
_0-0_0
  6
CONTINUOUS
 62
    7
 10
383.50247200000001
 20
213.00429550000001
 11
383.50247200000001
 21
212.87500750000001
  0
LINE
  8
_0-0_0
  6
CONTINUOUS
 62
    7
 10
383.50247200000001
 20
212.17499549999999
 11
383.50247200000001
 21
212.87500750000001
  0
LINE
  8
_0-0_0
  6
CONTINUOUS
 62
    7
 10
383.50247200000001
 20
212.04570749999999
 11
383.50247200000001
 21
212.17499549999999
  0
LINE
  8
_0-0_0
  6
CONTINUOUS
 62
    7
 10
383.50247200000001
 20
211.9042895
 11
383.50247200000001
 21
212.04570749999999
  0
LINE
  8
_0-0_0
  6
CONTINUOUS
 62
    7
 10
383.50247200000001
 20
211.9042895
 11
383.50247200000001
 21
211.7750015
  0
LINE
  8
_0-0_0
  6
CONTINUOUS
 62
    7
 10
383.50247200000001
 20
211.07500450000001
 11
383.50247200000001
 21
211.7750015
  0
LINE
  8
_0-0_0
  6
CONTINUOUS
 62
    7
 10
383.50247200000001
 20
210.9457165
 11
383.50247200000001
 21
211.07500450000001
  0
LINE
  8
_0-0_0
  6
CONTINUOUS
 62
    7
 10
383.50247200000001
 20
210.80429850000002
 11
383.50247200000001
 21
210.9457165
  0
LINE
  8
_0-0_0
  6
CONTINUOUS
 62
    7
 10
383.50247200000001
 20
210.80429850000002
 11
383.50247200000001
 21
210.67499549999999
  0
LINE
  8
_0-0_0
  6
CONTINUOUS
 62
    7
 10
383.50247200000001
 20
209.9749985
 11
383.50247200000001
 21
210.67499549999999
  0
LINE
  8
_0-0_0
  6
CONTINUOUS
 62
    7
 10
383.50247200000001
 20
209.8457105
 11
383.50247200000001
 21
209.9749985
  0
LINE
  8
_0-0_0
  6
CONTINUOUS
 62
    7
 10
383.50247200000001
 20
209.70429250000001
 11
383.50247200000001
 21
209.8457105
  0
LINE
  8
_0-0_0
  6
CONTINUOUS
 62
    7
 10
383.50247200000001
 20
209.70429250000001
 11
383.50247200000001
 21
209.57500450000001
  0
LINE
  8
_0-0_0
  6
CONTINUOUS
 62
    7
 10
383.50247200000001
 20
208.87500750000001
 11
383.50247200000001
 21
209.57500450000001
  0
LINE
  8
_0-0_0
  6
CONTINUOUS
 62
    7
 10
383.50247200000001
 20
208.74570449999999
 11
383.50247200000001
 21
208.87500750000001
  0
LINE
  8
_0-0_0
  6
CONTINUOUS
 62
    7
 10
383.50247200000001
 20
208.6042865
 11
383.50247200000001
 21
208.74570449999999
  0
LINE
  8
_0-0_0
  6
CONTINUOUS
 62
    7
 10
383.50247200000001
 20
208.6042865
 11
383.50247200000001
 21
208.4749985
  0
LINE
  8
_0-0_0
  6
CONTINUOUS
 62
    7
 10
383.50247200000001
 20
207.7750015
 11
383.50247200000001
 21
208.4749985
  0
LINE
  8
_0-0_0
  6
CONTINUOUS
 62
    7
 10
383.50247200000001
 20
207.6457135
 11
383.50247200000001
 21
207.7750015
  0
LINE
  8
_0-0_0
  6
CONTINUOUS
 62
    7
 10
383.50247200000001
 20
207.50429550000001
 11
383.50247200000001
 21
207.6457135
  0
LINE
  8
_0-0_0
  6
CONTINUOUS
 62
    7
 10
383.50247200000001
 20
193.67499550000002
 11
383.50247200000001
 21
194.17499550000002
  0
LINE
  8
_0-0_0
  6
CONTINUOUS
 62
    7
 10
383.50247200000001
 20
222.17499549999999
 11
383.50247200000001
 21
221.58103149999999
  0
LINE
  8
_0-0_0
  6
CONTINUOUS
 62
    7
 10
383.50247200000001
 20
216.57500450000001
 11
383.50247200000001
 21
221.58103149999999
  0
LINE
  8
_0-0_0
  6
CONTINUOUS
 62
    7
 10
383.50247200000001
 20
216.4457165
 11
383.50247200000001
 21
216.57500450000001
  0
LINE
  8
_0-0_0
  6
CONTINUOUS
 62
    7
 10
80.502476000000001
 20
193.67499550000002
 11
80.502476000000001
 21
194.17499550000002
  0
LINE
  8
_0-0_0
  6
CONTINUOUS
 62
    7
 10
80.502476000000001
 20
193.67499550000002
 11
383.50247200000001
 21
193.67499550000002
  0
LINE
  8
_0-0_0
  6
CONTINUOUS
 62
    7
 10
80.502476000000001
 20
207.50429550000001
 11
80.502476000000001
 21
207.6457135
  0
LINE
  8
_0-0_0
  6
CONTINUOUS
 62
    7
 10
80.502476000000001
 20
207.50429550000001
 11
80.502476000000001
 21
207.37500750000001
  0
LINE
  8
_0-0_0
  6
CONTINUOUS
 62
    7
 10
80.502476000000001
 20
222.17499549999999
 11
80.502476000000001
 21
221.58103149999999
  0
LINE
  8
_0-0_0
  6
CONTINUOUS
 62
    7
 10
80.502476000000001
 20
216.57500450000001
 11
80.502476000000001
 21
221.58103149999999
  0
LINE
  8
_0-0_0
  6
CONTINUOUS
 62
    7
 10
80.502476000000001
 20
216.4457165
 11
80.502476000000001
 21
216.57500450000001
  0
LINE
  8
_0-0_0
  6
CONTINUOUS
 62
    7
 10
80.502476000000001
 20
216.30429850000002
 11
80.502476000000001
 21
216.4457165
  0
LINE
  8
_0-0_0
  6
CONTINUOUS
 62
    7
 10
80.502476000000001
 20
216.30429850000002
 11
80.502476000000001
 21
216.17499549999999
  0
LINE
  8
_0-0_0
  6
CONTINUOUS
 62
    7
 10
80.502476000000001
 20
215.4749985
 11
80.502476000000001
 21
216.17499549999999
  0
LINE
  8
_0-0_0
  6
CONTINUOUS
 62
    7
 10
80.502476000000001
 20
215.3457105
 11
80.502476000000001
 21
215.4749985
  0
LINE
  8
_0-0_0
  6
CONTINUOUS
 62
    7
 10
80.502476000000001
 20
215.20429250000001
 11
80.502476000000001
 21
215.3457105
  0
LINE
  8
_0-0_0
  6
CONTINUOUS
 62
    7
 10
80.502476000000001
 20
215.20429250000001
 11
80.502476000000001
 21
215.07500450000001
  0
LINE
  8
_0-0_0
  6
CONTINUOUS
 62
    7
 10
80.502476000000001
 20
214.37500750000001
 11
80.502476000000001
 21
215.07500450000001
  0
LINE
  8
_0-0_0
  6
CONTINUOUS
 62
    7
 10
80.502476000000001
 20
214.24570449999999
 11
80.502476000000001
 21
214.37500750000001
  0
LINE
  8
_0-0_0
  6
CONTINUOUS
 62
    7
 10
80.502476000000001
 20
214.1042865
 11
80.502476000000001
 21
214.24570449999999
  0
LINE
  8
_0-0_0
  6
CONTINUOUS
 62
    7
 10
80.502476000000001
 20
214.1042865
 11
80.502476000000001
 21
213.9749985
  0
LINE
  8
_0-0_0
  6
CONTINUOUS
 62
    7
 10
80.502476000000001
 20
213.2750015
 11
80.502476000000001
 21
213.9749985
  0
LINE
  8
_0-0_0
  6
CONTINUOUS
 62
    7
 10
80.502476000000001
 20
213.1457135
 11
80.502476000000001
 21
213.2750015
  0
LINE
  8
_0-0_0
  6
CONTINUOUS
 62
    7
 10
80.502476000000001
 20
213.00429550000001
 11
80.502476000000001
 21
213.1457135
  0
LINE
  8
_0-0_0
  6
CONTINUOUS
 62
    7
 10
80.502476000000001
 20
213.00429550000001
 11
80.502476000000001
 21
212.87500750000001
  0
LINE
  8
_0-0_0
  6
CONTINUOUS
 62
    7
 10
80.502476000000001
 20
212.17499549999999
 11
80.502476000000001
 21
212.87500750000001
  0
LINE
  8
_0-0_0
  6
CONTINUOUS
 62
    7
 10
80.502476000000001
 20
212.04570749999999
 11
80.502476000000001
 21
212.17499549999999
  0
LINE
  8
_0-0_0
  6
CONTINUOUS
 62
    7
 10
80.502476000000001
 20
211.9042895
 11
80.502476000000001
 21
212.04570749999999
  0
LINE
  8
_0-0_0
  6
CONTINUOUS
 62
    7
 10
80.502476000000001
 20
211.9042895
 11
80.502476000000001
 21
211.7750015
  0
LINE
  8
_0-0_0
  6
CONTINUOUS
 62
    7
 10
80.502476000000001
 20
211.07500450000001
 11
80.502476000000001
 21
211.7750015
  0
LINE
  8
_0-0_0
  6
CONTINUOUS
 62
    7
 10
80.502476000000001
 20
210.9457165
 11
80.502476000000001
 21
211.07500450000001
  0
LINE
  8
_0-0_0
  6
CONTINUOUS
 62
    7
 10
80.502476000000001
 20
210.80429850000002
 11
80.502476000000001
 21
210.9457165
  0
LINE
  8
_0-0_0
  6
CONTINUOUS
 62
    7
 10
80.502476000000001
 20
210.80429850000002
 11
80.502476000000001
 21
210.67499549999999
  0
LINE
  8
_0-0_0
  6
CONTINUOUS
 62
    7
 10
80.502476000000001
 20
209.9749985
 11
80.502476000000001
 21
210.67499549999999
  0
LINE
  8
_0-0_0
  6
CONTINUOUS
 62
    7
 10
80.502476000000001
 20
209.8457105
 11
80.502476000000001
 21
209.9749985
  0
LINE
  8
_0-0_0
  6
CONTINUOUS
 62
    7
 10
80.502476000000001
 20
209.70429250000001
 11
80.502476000000001
 21
209.8457105
  0
LINE
  8
_0-0_0
  6
CONTINUOUS
 62
    7
 10
80.502476000000001
 20
209.70429250000001
 11
80.502476000000001
 21
209.57500450000001
  0
LINE
  8
_0-0_0
  6
CONTINUOUS
 62
    7
 10
80.502476000000001
 20
208.87500750000001
 11
80.502476000000001
 21
209.57500450000001
  0
LINE
  8
_0-0_0
  6
CONTINUOUS
 62
    7
 10
80.502476000000001
 20
208.74570449999999
 11
80.502476000000001
 21
208.87500750000001
  0
LINE
  8
_0-0_0
  6
CONTINUOUS
 62
    7
 10
80.502476000000001
 20
208.6042865
 11
80.502476000000001
 21
208.74570449999999
  0
LINE
  8
_0-0_0
  6
CONTINUOUS
 62
    7
 10
80.502476000000001
 20
208.6042865
 11
80.502476000000001
 21
208.4749985
  0
LINE
  8
_0-0_0
  6
CONTINUOUS
 62
    7
 10
80.502476000000001
 20
207.7750015
 11
80.502476000000001
 21
208.4749985
  0
LINE
  8
_0-0_0
  6
CONTINUOUS
 62
    7
 10
80.502476000000001
 20
207.6457135
 11
80.502476000000001
 21
207.7750015
  0
LINE
  8
_0-0_0
  6
CONTINUOUS
 62
    7
 10
301.00247200000001
 20
199.67499549999999
 11
308.00247200000001
 21
199.67499549999999
  0
ARC
  8
_0-0_0
  6
CONTINUOUS
 62
    7
 10
301.00247200000001
 20
199.17501049999998
 40
0.5
 50
90.000003000000007
 51
180.00000900000001
  0
LINE
  8
_0-0_0
  6
CONTINUOUS
 62
    7
 10
300.50247200000001
 20
199.17501049999998
 11
300.50247200000001
 21
195.17501049999998
  0
ARC
  8
_0-0_0
  6
CONTINUOUS
 62
    7
 10
301.00247200000001
 20
195.17501049999998
 40
0.5
 50
180.00000900000003
 51
269.99999700000001
  0
LINE
  8
_0-0_0
  6
CONTINUOUS
 62
    7
 10
308.00247200000001
 20
194.67501049999998
 11
301.00247200000001
 21
194.67501049999998
  0
ARC
  8
_0-0_0
  6
CONTINUOUS
 62
    7
 10
308.00247200000001
 20
195.17501049999998
 40
0.5
 50
269.99999700000001
 51
0
  0
LINE
  8
_0-0_0
  6
CONTINUOUS
 62
    7
 10
308.50247200000001
 20
195.17501049999998
 11
308.50247200000001
 21
199.17501049999998
  0
ARC
  8
_0-0_0
  6
CONTINUOUS
 62
    7
 10
308.00247200000001
 20
199.17501049999998
 40
0.5
 50
0
 51
90.000003000000007
  0
ARC
  8
_0-0_0
  6
CONTINUOUS
 62
    7
 10
131.00247199999998
 20
199.17501049999998
 40
0.5
 50
90.000003000000007
 51
180.00000900000001
  0
LINE
  8
_0-0_0
  6
CONTINUOUS
 62
    7
 10
130.50247199999998
 20
199.17501049999998
 11
130.50247199999998
 21
195.17501049999998
  0
ARC
  8
_0-0_0
  6
CONTINUOUS
 62
    7
 10
131.00247199999998
 20
195.17501049999998
 40
0.5
 50
180.00000900000003
 51
269.99999700000001
  0
LINE
  8
_0-0_0
  6
CONTINUOUS
 62
    7
 10
138.00247199999998
 20
194.67501049999998
 11
131.00247199999998
 21
194.67501049999998
  0
ARC
  8
_0-0_0
  6
CONTINUOUS
 62
    7
 10
138.00247199999998
 20
195.17501049999998
 40
0.5
 50
269.99999700000001
 51
0
  0
LINE
  8
_0-0_0
  6
CONTINUOUS
 62
    7
 10
138.50247199999998
 20
195.17501049999998
 11
138.50247199999998
 21
199.17501049999998
  0
ARC
  8
_0-0_0
  6
CONTINUOUS
 62
    7
 10
138.00247199999998
 20
199.17501049999998
 40
0.5
 50
0
 51
90.000003000000007
  0
LINE
  8
_0-0_0
  6
CONTINUOUS
 62
    7
 10
131.00247199999998
 20
199.67499549999999
 11
138.00247199999998
 21
199.67499549999999
  0
LINE
  8
_0-0_0
  6
CONTINUOUS
 62
    7
 10
80.502476000000001
 20
207.7750015
 11
82.693656999999988
 21
207.7750015
  0
LINE
  8
_0-0_0
  6
CONTINUOUS
 62
    7
 10
80.502476000000001
 20
208.4749985
 11
82.30872699999999
 21
208.4749985
  0
LINE
  8
_0-0_0
  6
CONTINUOUS
 62
    7
 10
80.502476000000001
 20
208.87500750000001
 11
82.127517999999981
 21
208.87500750000001
  0
LINE
  8
_0-0_0
  6
CONTINUOUS
 62
    7
 10
80.502476000000001
 20
209.57500450000001
 11
81.870963999999987
 21
209.57500450000001
  0
LINE
  8
_0-0_0
  6
CONTINUOUS
 62
    7
 10
80.502476000000001
 20
209.9749985
 11
81.756507999999997
 21
209.9749985
  0
LINE
  8
_0-0_0
  6
CONTINUOUS
 62
    7
 10
80.502476000000001
 20
210.67499549999999
 11
81.608806999999985
 21
210.67499549999999
  0
LINE
  8
_0-0_0
  6
CONTINUOUS
 62
    7
 10
80.502476000000001
 20
211.07500450000001
 11
81.553260999999992
 21
211.07500450000001
  0
LINE
  8
_0-0_0
  6
CONTINUOUS
 62
    7
 10
80.502476000000001
 20
211.7750015
 11
81.504974000000004
 21
211.7750015
  0
LINE
  8
_0-0_0
  6
CONTINUOUS
 62
    7
 10
81.502476000000001
 20
211.9749985
 11
81.502787999999981
 21
212.04570749999999
  0
LINE
  8
_0-0_0
  6
CONTINUOUS
 62
    7
 10
97.502475999999987
 20
211.9749985
 11
97.502162999999996
 21
212.04570749999999
  0
LINE
  8
_0-0_0
  6
CONTINUOUS
 62
    7
 10
97.499976999999987
 20
212.17499549999999
 11
97.502162999999996
 21
212.04570749999999
  0
ARC
  8
_0-0_0
  6
CONTINUOUS
 62
    7
 10
89.502475999999987
 20
211.9749985
 40
8
 50
1.432544
 51
6.4594489999999993
  0
LINE
  8
_0-0_0
  6
CONTINUOUS
 62
    7
 10
97.435984999999988
 20
213.00429550000001
 11
97.451690999999983
 21
212.87500750000001
  0
LINE
  8
_0-0_0
  6
CONTINUOUS
 62
    7
 10
97.435984999999988
 20
213.00429550000001
 11
97.416350999999992
 21
213.1457135
  0
LINE
  8
_0-0_0
  6
CONTINUOUS
 62
    7
 10
97.39614499999999
 20
213.2750015
 11
97.416350999999992
 21
213.1457135
  0
ARC
  8
_0-0_0
  6
CONTINUOUS
 62
    7
 10
89.502475999999987
 20
211.9749985
 40
8
 50
9.3520350000000008
 51
14.477510999999998
  0
LINE
  8
_0-0_0
  6
CONTINUOUS
 62
    7
 10
97.213904999999983
 20
214.1042865
 11
97.248443999999978
 21
213.9749985
  0
LINE
  8
_0-0_0
  6
CONTINUOUS
 62
    7
 10
97.213904999999983
 20
214.1042865
 11
97.173453999999992
 21
214.24570449999999
  0
LINE
  8
_0-0_0
  6
CONTINUOUS
 62
    7
 10
97.13399099999998
 20
214.37500750000001
 11
97.173453999999992
 21
214.24570449999999
  0
ARC
  8
_0-0_0
  6
CONTINUOUS
 62
    7
 10
89.502475999999987
 20
211.9749985
 40
8
 50
17.457602999999999
 51
22.799030999999999
  0
LINE
  8
_0-0_0
  6
CONTINUOUS
 62
    7
 10
96.821746999999988
 20
215.20429250000001
 11
96.877433999999994
 21
215.07500450000001
  0
LINE
  8
_0-0_0
  6
CONTINUOUS
 62
    7
 10
96.821746999999988
 20
215.20429250000001
 11
96.757701999999995
 21
215.3457105
  0
LINE
  8
_0-0_0
  6
CONTINUOUS
 62
    7
 10
96.696223999999987
 20
215.4749985
 11
96.757701999999995
 21
215.3457105
  0
ARC
  8
_0-0_0
  6
CONTINUOUS
 62
    7
 10
89.502475999999987
 20
211.9749985
 40
8
 50
25.944476999999999
 51
31.668240000000001
  0
LINE
  8
_0-0_0
  6
CONTINUOUS
 62
    7
 10
96.229827999999998
 20
216.30429850000002
 11
96.31129399999999
 21
216.17499549999999
  0
LINE
  8
_0-0_0
  6
CONTINUOUS
 62
    7
 10
96.229827999999998
 20
216.30429850000002
 11
96.136687999999992
 21
216.4457165
  0
LINE
  8
_0-0_0
  6
CONTINUOUS
 62
    7
 10
96.047702999999984
 20
216.57500450000001
 11
96.136687999999992
 21
216.4457165
  0
ARC
  8
_0-0_0
  6
CONTINUOUS
 62
    7
 10
89.502475999999987
 20
211.9749985
 40
8
 50
35.099632
 51
144.900373
  0
LINE
  8
_0-0_0
  6
CONTINUOUS
 62
    7
 10
82.95724899999999
 20
216.57500450000001
 11
82.868266999999989
 21
216.4457165
  0
LINE
  8
_0-0_0
  6
CONTINUOUS
 62
    7
 10
82.775123999999991
 20
216.30429850000002
 11
82.868266999999989
 21
216.4457165
  0
LINE
  8
_0-0_0
  6
CONTINUOUS
 62
    7
 10
82.775123999999991
 20
216.30429850000002
 11
82.693656999999988
 21
216.17499549999999
  0
ARC
  8
_0-0_0
  6
CONTINUOUS
 62
    7
 10
89.502475999999987
 20
211.9749985
 40
8
 50
148.33176499999999
 51
154.05551800000001
  0
LINE
  8
_0-0_0
  6
CONTINUOUS
 62
    7
 10
82.30872699999999
 20
215.4749985
 11
82.24724999999998
 21
215.3457105
  0
LINE
  8
_0-0_0
  6
CONTINUOUS
 62
    7
 10
82.183207999999979
 20
215.20429250000001
 11
82.24724999999998
 21
215.3457105
  0
LINE
  8
_0-0_0
  6
CONTINUOUS
 62
    7
 10
82.183207999999979
 20
215.20429250000001
 11
82.127517999999981
 21
215.07500450000001
  0
ARC
  8
_0-0_0
  6
CONTINUOUS
 62
    7
 10
89.502475999999987
 20
211.9749985
 40
8
 50
157.20097000000001
 51
162.54239699999999
  0
LINE
  8
_0-0_0
  6
CONTINUOUS
 62
    7
 10
81.870963999999987
 20
214.37500750000001
 11
81.831501000000003
 21
214.24570449999999
  0
LINE
  8
_0-0_0
  6
CONTINUOUS
 62
    7
 10
81.791045999999994
 20
214.1042865
 11
81.831501000000003
 21
214.24570449999999
  0
LINE
  8
_0-0_0
  6
CONTINUOUS
 62
    7
 10
81.791045999999994
 20
214.1042865
 11
81.756507999999997
 21
213.9749985
  0
ARC
  8
_0-0_0
  6
CONTINUOUS
 62
    7
 10
89.502475999999987
 20
211.9749985
 40
8
 50
165.52249
 51
170.64796000000001
  0
LINE
  8
_0-0_0
  6
CONTINUOUS
 62
    7
 10
81.608806999999985
 20
213.2750015
 11
81.588599999999985
 21
213.1457135
  0
LINE
  8
_0-0_0
  6
CONTINUOUS
 62
    7
 10
81.568965999999989
 20
213.00429550000001
 11
81.588599999999985
 21
213.1457135
  0
LINE
  8
_0-0_0
  6
CONTINUOUS
 62
    7
 10
81.568965999999989
 20
213.00429550000001
 11
81.553260999999992
 21
212.87500750000001
  0
ARC
  8
_0-0_0
  6
CONTINUOUS
 62
    7
 10
89.502475999999987
 20
211.9749985
 40
8
 50
173.54054500000001
 51
178.567455
  0
LINE
  8
_0-0_0
  6
CONTINUOUS
 62
    7
 10
81.504974000000004
 20
212.17499549999999
 11
81.502787999999981
 21
212.04570749999999
  0
CIRCLE
  8
_0-0_0
  6
CONTINUOUS
 62
    7
 10
89.502475999999987
 20
211.9749985
 40
7.5
  0
LINE
  8
_0-0_0
  6
CONTINUOUS
 62
    7
 10
366.50247200000001
 20
211.9749985
 11
366.50277699999998
 21
212.04570749999999
  0
LINE
  8
_0-0_0
  6
CONTINUOUS
 62
    7
 10
97.499976999999987
 20
211.7750015
 11
366.504974
 21
211.7750015
  0
LINE
  8
_0-0_0
  6
CONTINUOUS
 62
    7
 10
97.451690999999983
 20
211.07500450000001
 11
366.55325299999998
 21
211.07500450000001
  0
LINE
  8
_0-0_0
  6
CONTINUOUS
 62
    7
 10
97.39614499999999
 20
210.67499549999999
 11
366.60879499999999
 21
210.67499549999999
  0
LINE
  8
_0-0_0
  6
CONTINUOUS
 62
    7
 10
97.248443999999978
 20
209.9749985
 11
366.75650000000002
 21
209.9749985
  0
LINE
  8
_0-0_0
  6
CONTINUOUS
 62
    7
 10
97.13399099999998
 20
209.57500450000001
 11
366.87097199999999
 21
209.57500450000001
  0
LINE
  8
_0-0_0
  6
CONTINUOUS
 62
    7
 10
96.877433999999994
 20
208.87500750000001
 11
367.12750199999999
 21
208.87500750000001
  0
LINE
  8
_0-0_0
  6
CONTINUOUS
 62
    7
 10
96.696223999999987
 20
208.4749985
 11
367.308716
 21
208.4749985
  0
LINE
  8
_0-0_0
  6
CONTINUOUS
 62
    7
 10
96.31129399999999
 20
207.7750015
 11
367.69366400000001
 21
207.7750015
  0
LINE
  8
_0-0_0
  6
CONTINUOUS
 62
    7
 10
382.50247200000001
 20
211.9749985
 11
382.50216699999999
 21
212.04570749999999
  0
LINE
  8
_0-0_0
  6
CONTINUOUS
 62
    7
 10
382.49996899999996
 20
211.7750015
 11
383.50247200000001
 21
211.7750015
  0
LINE
  8
_0-0_0
  6
CONTINUOUS
 62
    7
 10
382.45169099999998
 20
211.07500450000001
 11
383.50247200000001
 21
211.07500450000001
  0
LINE
  8
_0-0_0
  6
CONTINUOUS
 62
    7
 10
382.39614899999998
 20
210.67499549999999
 11
383.50247200000001
 21
210.67499549999999
  0
LINE
  8
_0-0_0
  6
CONTINUOUS
 62
    7
 10
382.24844400000001
 20
209.9749985
 11
383.50247200000001
 21
209.9749985
  0
LINE
  8
_0-0_0
  6
CONTINUOUS
 62
    7
 10
382.13397199999997
 20
209.57500450000001
 11
383.50247200000001
 21
209.57500450000001
  0
LINE
  8
_0-0_0
  6
CONTINUOUS
 62
    7
 10
381.87744099999998
 20
208.87500750000001
 11
383.50247200000001
 21
208.87500750000001
  0
LINE
  8
_0-0_0
  6
CONTINUOUS
 62
    7
 10
381.69622799999996
 20
208.4749985
 11
383.50247200000001
 21
208.4749985
  0
LINE
  8
_0-0_0
  6
CONTINUOUS
 62
    7
 10
381.31127900000001
 20
207.7750015
 11
383.50247200000001
 21
207.7750015
  0
LINE
  8
_0-0_0
  6
CONTINUOUS
 62
    7
 10
381.04769899999997
 20
216.57500450000001
 11
381.13668799999999
 21
216.4457165
  0
ARC
  8
_0-0_0
  6
CONTINUOUS
 62
    7
 10
374.50247200000001
 20
211.9749985
 40
8
 50
35.099632
 51
144.900373
  0
LINE
  8
_0-0_0
  6
CONTINUOUS
 62
    7
 10
367.957245
 20
216.57500450000001
 11
367.86825599999997
 21
216.4457165
  0
LINE
  8
_0-0_0
  6
CONTINUOUS
 62
    7
 10
367.77511599999997
 20
216.30429850000002
 11
367.86825599999997
 21
216.4457165
  0
LINE
  8
_0-0_0
  6
CONTINUOUS
 62
    7
 10
367.77511599999997
 20
216.30429850000002
 11
367.69366400000001
 21
216.17499549999999
  0
ARC
  8
_0-0_0
  6
CONTINUOUS
 62
    7
 10
374.50247200000001
 20
211.9749985
 40
8
 50
148.33176499999999
 51
154.05551800000001
  0
LINE
  8
_0-0_0
  6
CONTINUOUS
 62
    7
 10
367.308716
 20
215.4749985
 11
367.247253
 21
215.3457105
  0
LINE
  8
_0-0_0
  6
CONTINUOUS
 62
    7
 10
367.18319700000001
 20
215.20429250000001
 11
367.247253
 21
215.3457105
  0
LINE
  8
_0-0_0
  6
CONTINUOUS
 62
    7
 10
367.18319700000001
 20
215.20429250000001
 11
367.12750199999999
 21
215.07500450000001
  0
ARC
  8
_0-0_0
  6
CONTINUOUS
 62
    7
 10
374.50247200000001
 20
211.9749985
 40
8
 50
157.20097000000001
 51
162.54239699999999
  0
LINE
  8
_0-0_0
  6
CONTINUOUS
 62
    7
 10
366.87097199999999
 20
214.37500750000001
 11
366.83148199999999
 21
214.24570449999999
  0
LINE
  8
_0-0_0
  6
CONTINUOUS
 62
    7
 10
366.79104599999999
 20
214.1042865
 11
366.83148199999999
 21
214.24570449999999
  0
LINE
  8
_0-0_0
  6
CONTINUOUS
 62
    7
 10
366.79104599999999
 20
214.1042865
 11
366.75650000000002
 21
213.9749985
  0
ARC
  8
_0-0_0
  6
CONTINUOUS
 62
    7
 10
374.50247200000001
 20
211.9749985
 40
8
 50
165.52249
 51
170.64796000000001
  0
LINE
  8
_0-0_0
  6
CONTINUOUS
 62
    7
 10
366.60879499999999
 20
213.2750015
 11
366.58859200000001
 21
213.1457135
  0
LINE
  8
_0-0_0
  6
CONTINUOUS
 62
    7
 10
366.56896999999998
 20
213.00429550000001
 11
366.58859200000001
 21
213.1457135
  0
LINE
  8
_0-0_0
  6
CONTINUOUS
 62
    7
 10
366.56896999999998
 20
213.00429550000001
 11
366.55325299999998
 21
212.87500750000001
  0
ARC
  8
_0-0_0
  6
CONTINUOUS
 62
    7
 10
374.50247200000001
 20
211.9749985
 40
8
 50
173.54054500000001
 51
178.567455
  0
LINE
  8
_0-0_0
  6
CONTINUOUS
 62
    7
 10
366.504974
 20
212.17499549999999
 11
366.50277699999998
 21
212.04570749999999
  0
LINE
  8
_0-0_0
  6
CONTINUOUS
 62
    7
 10
382.49996899999996
 20
212.17499549999999
 11
382.50216699999999
 21
212.04570749999999
  0
ARC
  8
_0-0_0
  6
CONTINUOUS
 62
    7
 10
374.50247200000001
 20
211.9749985
 40
8
 50
1.432544
 51
6.4594489999999993
  0
LINE
  8
_0-0_0
  6
CONTINUOUS
 62
    7
 10
382.43597399999999
 20
213.00429550000001
 11
382.45169099999998
 21
212.87500750000001
  0
LINE
  8
_0-0_0
  6
CONTINUOUS
 62
    7
 10
382.43597399999999
 20
213.00429550000001
 11
382.41635099999996
 21
213.1457135
  0
LINE
  8
_0-0_0
  6
CONTINUOUS
 62
    7
 10
382.39614899999998
 20
213.2750015
 11
382.41635099999996
 21
213.1457135
  0
ARC
  8
_0-0_0
  6
CONTINUOUS
 62
    7
 10
374.50247200000001
 20
211.9749985
 40
8
 50
9.3520350000000008
 51
14.477510999999998
  0
LINE
  8
_0-0_0
  6
CONTINUOUS
 62
    7
 10
382.21389799999997
 20
214.1042865
 11
382.24844400000001
 21
213.9749985
  0
LINE
  8
_0-0_0
  6
CONTINUOUS
 62
    7
 10
382.21389799999997
 20
214.1042865
 11
382.17346199999997
 21
214.24570449999999
  0
LINE
  8
_0-0_0
  6
CONTINUOUS
 62
    7
 10
382.13397199999997
 20
214.37500750000001
 11
382.17346199999997
 21
214.24570449999999
  0
ARC
  8
_0-0_0
  6
CONTINUOUS
 62
    7
 10
374.50247200000001
 20
211.9749985
 40
8
 50
17.457602999999999
 51
22.799030999999999
  0
LINE
  8
_0-0_0
  6
CONTINUOUS
 62
    7
 10
381.82174700000002
 20
215.20429250000001
 11
381.87744099999998
 21
215.07500450000001
  0
LINE
  8
_0-0_0
  6
CONTINUOUS
 62
    7
 10
381.82174700000002
 20
215.20429250000001
 11
381.75768999999997
 21
215.3457105
  0
LINE
  8
_0-0_0
  6
CONTINUOUS
 62
    7
 10
381.69622799999996
 20
215.4749985
 11
381.75768999999997
 21
215.3457105
  0
ARC
  8
_0-0_0
  6
CONTINUOUS
 62
    7
 10
374.50247200000001
 20
211.9749985
 40
8
 50
25.944476999999999
 51
31.668240000000001
  0
LINE
  8
_0-0_0
  6
CONTINUOUS
 62
    7
 10
381.229828
 20
216.30429850000002
 11
381.31127900000001
 21
216.17499549999999
  0
LINE
  8
_0-0_0
  6
CONTINUOUS
 62
    7
 10
381.229828
 20
216.30429850000002
 11
381.13668799999999
 21
216.4457165
  0
CIRCLE
  8
_0-0_0
  6
CONTINUOUS
 62
    7
 10
374.50247200000001
 20
211.9749985
 40
7.5
  0
LINE
  8
_0-0_0
  6
CONTINUOUS
 62
    7
 10
381.31127900000001
 20
216.17499549999999
 11
383.50247200000001
 21
216.17499549999999
  0
LINE
  8
_0-0_0
  6
CONTINUOUS
 62
    7
 10
381.69622799999996
 20
215.4749985
 11
383.50247200000001
 21
215.4749985
  0
LINE
  8
_0-0_0
  6
CONTINUOUS
 62
    7
 10
381.87744099999998
 20
215.07500450000001
 11
383.50247200000001
 21
215.07500450000001
  0
LINE
  8
_0-0_0
  6
CONTINUOUS
 62
    7
 10
382.13397199999997
 20
214.37500750000001
 11
383.50247200000001
 21
214.37500750000001
  0
LINE
  8
_0-0_0
  6
CONTINUOUS
 62
    7
 10
382.24844400000001
 20
213.9749985
 11
383.50247200000001
 21
213.9749985
  0
LINE
  8
_0-0_0
  6
CONTINUOUS
 62
    7
 10
382.39614899999998
 20
213.2750015
 11
383.50247200000001
 21
213.2750015
  0
LINE
  8
_0-0_0
  6
CONTINUOUS
 62
    7
 10
382.45169099999998
 20
212.87500750000001
 11
383.50247200000001
 21
212.87500750000001
  0
LINE
  8
_0-0_0
  6
CONTINUOUS
 62
    7
 10
382.49996899999996
 20
212.17499549999999
 11
383.50247200000001
 21
212.17499549999999
  0
LINE
  8
_0-0_0
  6
CONTINUOUS
 62
    7
 10
384.00247200000001
 20
195.4749985
 11
383.50247200000001
 21
195.4749985
  0
LINE
  8
_0-0_0
  6
CONTINUOUS
 62
    7
 10
384.00247200000001
 20
197.67501049999998
 11
383.50247200000001
 21
197.67501049999998
  0
LINE
  8
_0-0_0
  6
CONTINUOUS
 62
    7
 10
384.00247200000001
 20
199.9749985
 11
383.50247200000001
 21
199.9749985
  0
LINE
  8
_0-0_0
  6
CONTINUOUS
 62
    7
 10
383.50247200000001
 20
202.2750015
 11
384.00247200000001
 21
202.2750015
  0
LINE
  8
_0-0_0
  6
CONTINUOUS
 62
    7
 10
384.00247200000001
 20
222.4749985
 11
384.00247200000001
 21
222.37500750000001
  0
LINE
  8
_0-0_0
  6
CONTINUOUS
 62
    7
 10
80.002476000000001
 20
222.4749985
 11
80.002476000000001
 21
222.37500750000001
  0
LINE
  8
_0-0_0
  6
CONTINUOUS
 62
    7
 10
80.002476000000001
 20
202.2750015
 11
80.502476000000001
 21
202.2750015
  0
LINE
  8
_0-0_0
  6
CONTINUOUS
 62
    7
 10
80.502476000000001
 20
222.17499549999999
 11
383.50247200000001
 21
222.17499549999999
  0
LINE
  8
_0-0_0
  6
CONTINUOUS
 62
    7
 10
80.502476000000001
 20
221.58103149999999
 11
383.50247200000001
 21
221.58103149999999
  0
LINE
  8
_0-0_0
  6
CONTINUOUS
 62
    7
 10
96.047702999999984
 20
216.57500450000001
 11
367.957245
 21
216.57500450000001
  0
LINE
  8
_0-0_0
  6
CONTINUOUS
 62
    7
 10
381.04769899999997
 20
216.57500450000001
 11
383.50247200000001
 21
216.57500450000001
  0
LINE
  8
_0-0_0
  6
CONTINUOUS
 62
    7
 10
80.502476000000001
 20
216.57500450000001
 11
82.95724899999999
 21
216.57500450000001
  0
LINE
  8
_0-0_0
  6
CONTINUOUS
 62
    7
 10
80.002476000000001
 20
195.4749985
 11
80.502471999999983
 21
195.4749985
  0
LINE
  8
_0-0_0
  6
CONTINUOUS
 62
    7
 10
80.002476000000001
 20
197.67501049999998
 11
80.502476000000001
 21
197.67501049999998
  0
LINE
  8
_0-0_0
  6
CONTINUOUS
 62
    7
 10
80.002476000000001
 20
199.9749985
 11
80.502476000000001
 21
199.9749985
  0
LINE
  8
_0-0_0
  6
CONTINUOUS
 62
    7
 10
80.502476000000001
 20
216.17499549999999
 11
82.693656999999988
 21
216.17499549999999
  0
LINE
  8
_0-0_0
  6
CONTINUOUS
 62
    7
 10
80.502476000000001
 20
215.4749985
 11
82.30872699999999
 21
215.4749985
  0
LINE
  8
_0-0_0
  6
CONTINUOUS
 62
    7
 10
80.502476000000001
 20
215.07500450000001
 11
82.127517999999981
 21
215.07500450000001
  0
LINE
  8
_0-0_0
  6
CONTINUOUS
 62
    7
 10
80.502476000000001
 20
214.37500750000001
 11
81.870963999999987
 21
214.37500750000001
  0
LINE
  8
_0-0_0
  6
CONTINUOUS
 62
    7
 10
80.502476000000001
 20
213.9749985
 11
81.756507999999997
 21
213.9749985
  0
LINE
  8
_0-0_0
  6
CONTINUOUS
 62
    7
 10
80.502476000000001
 20
213.2750015
 11
81.608806999999985
 21
213.2750015
  0
LINE
  8
_0-0_0
  6
CONTINUOUS
 62
    7
 10
80.502476000000001
 20
212.87500750000001
 11
81.553260999999992
 21
212.87500750000001
  0
LINE
  8
_0-0_0
  6
CONTINUOUS
 62
    7
 10
80.502476000000001
 20
212.17499549999999
 11
81.504974000000004
 21
212.17499549999999
  0
LINE
  8
_0-0_0
  6
CONTINUOUS
 62
    7
 10
96.31129399999999
 20
216.17499549999999
 11
367.69366400000001
 21
216.17499549999999
  0
LINE
  8
_0-0_0
  6
CONTINUOUS
 62
    7
 10
96.696223999999987
 20
215.4749985
 11
367.308716
 21
215.4749985
  0
LINE
  8
_0-0_0
  6
CONTINUOUS
 62
    7
 10
96.877433999999994
 20
215.07500450000001
 11
367.12750199999999
 21
215.07500450000001
  0
LINE
  8
_0-0_0
  6
CONTINUOUS
 62
    7
 10
97.13399099999998
 20
214.37500750000001
 11
366.87097199999999
 21
214.37500750000001
  0
LINE
  8
_0-0_0
  6
CONTINUOUS
 62
    7
 10
97.248443999999978
 20
213.9749985
 11
366.75650000000002
 21
213.9749985
  0
LINE
  8
_0-0_0
  6
CONTINUOUS
 62
    7
 10
97.39614499999999
 20
213.2750015
 11
366.60879499999999
 21
213.2750015
  0
LINE
  8
_0-0_0
  6
CONTINUOUS
 62
    7
 10
97.451690999999983
 20
212.87500750000001
 11
366.55325299999998
 21
212.87500750000001
  0
LINE
  8
_0-0_0
  6
CONTINUOUS
 62
    7
 10
97.499976999999987
 20
212.17499549999999
 11
366.504974
 21
212.17499549999999
  0
LINE
  8
_0-0_0
  6
CONTINUOUS
 62
    7
 10
384.00247200000001
 20
193.9749985
 11
383.50247200000001
 21
193.9749985
  0
LINE
  8
_0-0_0
  6
CONTINUOUS
 62
    7
 10
384.00247200000001
 20
221.57500450000001
 11
384.00247200000001
 21
222.37500750000001
  0
LINE
  8
_0-0_0
  6
CONTINUOUS
 62
    7
 10
384.00247200000001
 20
193.7750015
 11
384.00247200000001
 21
221.57500450000001
  0
LINE
  8
_0-0_0
  6
CONTINUOUS
 62
    7
 10
80.002476000000001
 20
221.57500450000001
 11
80.002476000000001
 21
222.37500750000001
  0
LINE
  8
_0-0_0
  6
CONTINUOUS
 62
    7
 10
80.002476000000001
 20
193.7750015
 11
80.002476000000001
 21
221.57500450000001
  0
ARC
  8
_0-0_0
  6
CONTINUOUS
 62
    7
 10
89.502475999999987
 20
212.67499549999999
 40
12.800000000000001
 50
73.932597000000001
 51
106.06740099999999
  0
ARC
  8
_0-0_0
  6
CONTINUOUS
 62
    7
 10
374.50247200000001
 20
212.67499549999999
 40
12.800000000000001
 50
73.932597000000001
 51
106.06740099999999
  0
LINE
  8
_0-0_0
  6
CONTINUOUS
 62
    7
 10
384.00247200000001
 20
222.4749985
 11
384.00247200000001
 21
224.9749985
  0
LINE
  8
_0-0_0
  6
CONTINUOUS
 62
    7
 10
80.002476000000001
 20
224.9749985
 11
384.00247200000001
 21
224.9749985
  0
LINE
  8
_0-0_0
  6
CONTINUOUS
 62
    7
 10
80.002476000000001
 20
222.4749985
 11
80.002476000000001
 21
224.9749985
  0
LINE
  8
_0-0_0
  6
CONTINUOUS
 62
    7
 10
80.002476000000001
 20
193.9749985
 11
80.502471999999983
 21
193.9749985
  0
ARC
  8
_0-0_0
  6
CONTINUOUS
 62
    7
 10
305.80248999999998
 20
198.87500749999998
 40
0.2
 50
339.62356199999999
 51
90.000002999999978
  0
LINE
  8
_0-0_0
  6
CONTINUOUS
 62
    7
 10
305.98996
 20
198.80536649999999
 11
304.68997200000001
 21
195.30536649999999
  0
ARC
  8
_0-0_0
  6
CONTINUOUS
 62
    7
 10
304.50247200000001
 20
195.37500749999998
 40
0.2
 50
200.37643
 51
339.62356199999999
  0
LINE
  8
_0-0_0
  6
CONTINUOUS
 62
    7
 10
303.01498399999997
 20
198.80536649999999
 11
304.31500199999999
 21
195.30536649999999
  0
ARC
  8
_0-0_0
  6
CONTINUOUS
 62
    7
 10
303.20248399999997
 20
198.87500749999998
 40
0.2
 50
90.000003000000007
 51
200.37643
  0
LINE
  8
_0-0_0
  6
CONTINUOUS
 62
    7
 10
303.20248399999997
 20
199.07500450000001
 11
305.80248999999998
 21
199.07500450000001
  0
ARC
  8
_0-0_0
  6
CONTINUOUS
 62
    7
 10
135.80247499999999
 20
198.87500749999998
 40
0.2
 50
339.62356199999999
 51
90.000002999999978
  0
LINE
  8
_0-0_0
  6
CONTINUOUS
 62
    7
 10
135.98996
 20
198.80536649999999
 11
134.68995699999999
 21
195.30536649999999
  0
ARC
  8
_0-0_0
  6
CONTINUOUS
 62
    7
 10
134.50247199999998
 20
195.37500749999998
 40
0.2
 50
200.37643
 51
339.62356199999999
  0
LINE
  8
_0-0_0
  6
CONTINUOUS
 62
    7
 10
133.01499200000001
 20
198.80536649999999
 11
134.31498699999997
 21
195.30536649999999
  0
ARC
  8
_0-0_0
  6
CONTINUOUS
 62
    7
 10
133.20247599999999
 20
198.87500749999998
 40
0.2
 50
90.000003000000007
 51
200.37643
  0
LINE
  8
_0-0_0
  6
CONTINUOUS
 62
    7
 10
133.20247599999999
 20
199.07500450000001
 11
135.80247499999999
 21
199.07500450000001
  0
CIRCLE
  8
_0-0_0
  6
CONTINUOUS
 62
    7
 10
89.502475999999987
 20
211.9749985
 40
5
  0
CIRCLE
  8
_0-0_0
  6
CONTINUOUS
 62
    7
 10
374.50247200000001
 20
211.9749985
 40
5
  0
LINE
  8
_0-0_0
  6
CONTINUOUS
 62
    7
 10
385.00247200000001
 20
221.57500450000001
 11
384.00247200000001
 21
221.57500450000001
  0
LINE
  8
_0-0_0
  6
CONTINUOUS
 62
    7
 10
385.00247200000001
 20
222.6119765
 11
384.00247200000001
 21
222.6119765
  0
LINE
  8
_0-0_0
  6
CONTINUOUS
 62
    7
 10
385.00247200000001
 20
193.7750015
 11
384.00247200000001
 21
193.7750015
  0
LINE
  8
_0-0_0
  6
CONTINUOUS
 62
    7
 10
79.002476000000001
 20
221.57500450000001
 11
80.002476000000001
 21
221.57500450000001
  0
LINE
  8
_0-0_0
  6
CONTINUOUS
 62
    7
 10
79.002476000000001
 20
222.57500450000001
 11
80.002476000000001
 21
222.57500450000001
  0
LINE
  8
_0-0_0
  6
CONTINUOUS
 62
    7
 10
79.002476000000001
 20
193.7750015
 11
80.002476000000001
 21
193.7750015
  0
LINE
  8
_0-0_0
  6
CONTINUOUS
 62
    7
 10
385.00247200000001
 20
224.7750015
 11
384.00247200000001
 21
224.7750015
  0
LINE
  8
_0-0_0
  6
CONTINUOUS
 62
    7
 10
79.002476000000001
 20
224.7750015
 11
80.002476000000001
 21
224.7750015
  0
LINE
  8
_0-0_0
  6
CONTINUOUS
 62
    7
 10
386.00247200000001
 20
221.16078949999999
 11
386.001465
 21
221.17929850000002
  0
LINE
  8
_0-0_0
  6
CONTINUOUS
 62
    7
 10
386.001465
 20
221.17929850000002
 11
385.99847399999999
 21
221.19773050000001
  0
LINE
  8
_0-0_0
  6
CONTINUOUS
 62
    7
 10
385.99847399999999
 20
221.19773050000001
 11
385.993225
 21
221.21686550000001
  0
LINE
  8
_0-0_0
  6
CONTINUOUS
 62
    7
 10
385.993225
 20
221.21686550000001
 11
385.98586999999998
 21
221.23587750000002
  0
LINE
  8
_0-0_0
  6
CONTINUOUS
 62
    7
 10
385.98586999999998
 20
221.23587750000002
 11
385.96530100000001
 21
221.2726055
  0
LINE
  8
_0-0_0
  6
CONTINUOUS
 62
    7
 10
385.96530100000001
 20
221.2726055
 11
385.93691999999999
 21
221.30829650000001
  0
LINE
  8
_0-0_0
  6
CONTINUOUS
 62
    7
 10
385.93691999999999
 20
221.30829650000001
 11
385.90103099999999
 21
221.3425675
  0
LINE
  8
_0-0_0
  6
CONTINUOUS
 62
    7
 10
385.90103099999999
 20
221.3425675
 11
385.852417
 21
221.37903550000001
  0
LINE
  8
_0-0_0
  6
CONTINUOUS
 62
    7
 10
385.852417
 20
221.37903550000001
 11
385.79562399999998
 21
221.4130475
  0
LINE
  8
_0-0_0
  6
CONTINUOUS
 62
    7
 10
385.79562399999998
 20
221.4130475
 11
385.73147599999999
 21
221.4442975
  0
LINE
  8
_0-0_0
  6
CONTINUOUS
 62
    7
 10
385.73147599999999
 20
221.4442975
 11
385.66082799999998
 21
221.47254150000001
  0
LINE
  8
_0-0_0
  6
CONTINUOUS
 62
    7
 10
385.66082799999998
 20
221.47254150000001
 11
385.61276199999998
 21
221.4888995
  0
LINE
  8
_0-0_0
  6
CONTINUOUS
 62
    7
 10
385.61276199999998
 20
221.4888995
 11
385.56262199999998
 21
221.50389849999999
  0
LINE
  8
_0-0_0
  6
CONTINUOUS
 62
    7
 10
385.56262199999998
 20
221.50389849999999
 11
385.50592
 21
221.51866950000002
  0
LINE
  8
_0-0_0
  6
CONTINUOUS
 62
    7
 10
385.50592
 20
221.51866950000002
 11
385.44732699999997
 21
221.53176150000002
  0
LINE
  8
_0-0_0
  6
CONTINUOUS
 62
    7
 10
385.44732699999997
 20
221.53176150000002
 11
385.330536
 21
221.55207050000001
  0
LINE
  8
_0-0_0
  6
CONTINUOUS
 62
    7
 10
385.330536
 20
221.55207050000001
 11
385.22311400000001
 21
221.5647965
  0
LINE
  8
_0-0_0
  6
CONTINUOUS
 62
    7
 10
385.22311400000001
 20
221.5647965
 11
385.11334199999999
 21
221.5724415
  0
LINE
  8
_0-0_0
  6
CONTINUOUS
 62
    7
 10
385.11334199999999
 20
221.5724415
 11
385.00247200000001
 21
221.57500450000001
  0
LINE
  8
_0-0_0
  6
CONTINUOUS
 62
    7
 10
386.00247200000001
 20
221.16078949999999
 11
386.00247200000001
 21
222.16085050000001
  0
LINE
  8
_0-0_0
  6
CONTINUOUS
 62
    7
 10
386.00247200000001
 20
222.16085050000001
 11
385.999573
 21
222.1924205
  0
LINE
  8
_0-0_0
  6
CONTINUOUS
 62
    7
 10
385.999573
 20
222.1924205
 11
385.99084499999998
 21
222.22449449999999
  0
LINE
  8
_0-0_0
  6
CONTINUOUS
 62
    7
 10
385.99084499999998
 20
222.22449449999999
 11
385.97628800000001
 21
222.2567675
  0
LINE
  8
_0-0_0
  6
CONTINUOUS
 62
    7
 10
385.97628800000001
 20
222.2567675
 11
385.95605499999999
 21
222.28893250000002
  0
LINE
  8
_0-0_0
  6
CONTINUOUS
 62
    7
 10
385.95605499999999
 20
222.28893250000002
 11
385.93948399999999
 21
222.3101575
  0
LINE
  8
_0-0_0
  6
CONTINUOUS
 62
    7
 10
385.93948399999999
 20
222.3101575
 11
385.92053199999998
 21
222.3311085
  0
LINE
  8
_0-0_0
  6
CONTINUOUS
 62
    7
 10
385.92053199999998
 20
222.3311085
 11
385.87579299999999
 21
222.3718945
  0
LINE
  8
_0-0_0
  6
CONTINUOUS
 62
    7
 10
385.87579299999999
 20
222.3718945
 11
385.82254
 21
222.4106525
  0
LINE
  8
_0-0_0
  6
CONTINUOUS
 62
    7
 10
385.82254
 20
222.4106525
 11
385.77261299999998
 21
222.44084950000001
  0
LINE
  8
_0-0_0
  6
CONTINUOUS
 62
    7
 10
385.77261299999998
 20
222.44084950000001
 11
385.71792599999998
 21
222.46906250000001
  0
LINE
  8
_0-0_0
  6
CONTINUOUS
 62
    7
 10
385.71792599999998
 20
222.46906250000001
 11
385.65893499999999
 21
222.49509449999999
  0
LINE
  8
_0-0_0
  6
CONTINUOUS
 62
    7
 10
385.65893499999999
 20
222.49509449999999
 11
385.61218300000002
 21
222.51309950000001
  0
LINE
  8
_0-0_0
  6
CONTINUOUS
 62
    7
 10
385.61218300000002
 20
222.51309950000001
 11
385.56350700000002
 21
222.52970150000002
  0
LINE
  8
_0-0_0
  6
CONTINUOUS
 62
    7
 10
385.56350700000002
 20
222.52970150000002
 11
385.46112099999999
 21
222.5585705
  0
LINE
  8
_0-0_0
  6
CONTINUOUS
 62
    7
 10
385.46112099999999
 20
222.5585705
 11
385.353363
 21
222.5814135
  0
LINE
  8
_0-0_0
  6
CONTINUOUS
 62
    7
 10
385.353363
 20
222.5814135
 11
385.24176
 21
222.59799950000001
  0
LINE
  8
_0-0_0
  6
CONTINUOUS
 62
    7
 10
385.24176
 20
222.59799950000001
 11
385.12768499999999
 21
222.6081925
  0
LINE
  8
_0-0_0
  6
CONTINUOUS
 62
    7
 10
385.12768499999999
 20
222.6081925
 11
385.00247200000001
 21
222.6119765
  0
ARC
  8
_0-0_0
  6
CONTINUOUS
 62
    7
 10
385.00247200000001
 20
194.7750015
 40
1
 50
269.99999700000001
 51
0
  0
LINE
  8
_0-0_0
  6
CONTINUOUS
 62
    7
 10
386.00247200000001
 20
194.7750015
 11
386.00247200000001
 21
221.16078949999999
  0
LINE
  8
_0-0_0
  6
CONTINUOUS
 62
    7
 10
78.002476000000001
 20
221.16078949999999
 11
78.00347499999998
 21
221.17929850000002
  0
LINE
  8
_0-0_0
  6
CONTINUOUS
 62
    7
 10
78.00347499999998
 20
221.17929850000002
 11
78.006472999999971
 21
221.19773050000001
  0
LINE
  8
_0-0_0
  6
CONTINUOUS
 62
    7
 10
78.006472999999971
 20
221.19773050000001
 11
78.011710999999991
 21
221.21686550000001
  0
LINE
  8
_0-0_0
  6
CONTINUOUS
 62
    7
 10
78.011710999999991
 20
221.21686550000001
 11
78.01908899999998
 21
221.23587750000002
  0
LINE
  8
_0-0_0
  6
CONTINUOUS
 62
    7
 10
78.01908899999998
 20
221.23587750000002
 11
78.039637999999997
 21
221.2726055
  0
LINE
  8
_0-0_0
  6
CONTINUOUS
 62
    7
 10
78.039637999999997
 20
221.2726055
 11
78.068034999999981
 21
221.30829650000001
  0
LINE
  8
_0-0_0
  6
CONTINUOUS
 62
    7
 10
78.068034999999981
 20
221.30829650000001
 11
78.103915999999998
 21
221.3425675
  0
LINE
  8
_0-0_0
  6
CONTINUOUS
 62
    7
 10
78.103915999999998
 20
221.3425675
 11
78.152537999999993
 21
221.37903550000001
  0
LINE
  8
_0-0_0
  6
CONTINUOUS
 62
    7
 10
78.152537999999993
 20
221.37903550000001
 11
78.209319999999991
 21
221.4130475
  0
LINE
  8
_0-0_0
  6
CONTINUOUS
 62
    7
 10
78.209319999999991
 20
221.4130475
 11
78.27346399999999
 21
221.4442975
  0
LINE
  8
_0-0_0
  6
CONTINUOUS
 62
    7
 10
78.27346399999999
 20
221.4442975
 11
78.344111999999996
 21
221.47254150000001
  0
LINE
  8
_0-0_0
  6
CONTINUOUS
 62
    7
 10
78.344111999999996
 20
221.47254150000001
 11
78.392192999999992
 21
221.4888995
  0
LINE
  8
_0-0_0
  6
CONTINUOUS
 62
    7
 10
78.392192999999992
 20
221.4888995
 11
78.442328999999972
 21
221.50389849999999
  0
LINE
  8
_0-0_0
  6
CONTINUOUS
 62
    7
 10
78.442328999999972
 20
221.50389849999999
 11
78.499031000000002
 21
221.51866950000002
  0
LINE
  8
_0-0_0
  6
CONTINUOUS
 62
    7
 10
78.499031000000002
 20
221.51866950000002
 11
78.557636000000002
 21
221.53176150000002
  0
LINE
  8
_0-0_0
  6
CONTINUOUS
 62
    7
 10
78.557636000000002
 20
221.53176150000002
 11
78.674419
 21
221.55207050000001
  0
LINE
  8
_0-0_0
  6
CONTINUOUS
 62
    7
 10
78.674419
 20
221.55207050000001
 11
78.781825999999995
 21
221.5647965
  0
LINE
  8
_0-0_0
  6
CONTINUOUS
 62
    7
 10
78.781825999999995
 20
221.5647965
 11
78.891593999999998
 21
221.5724415
  0
LINE
  8
_0-0_0
  6
CONTINUOUS
 62
    7
 10
78.891593999999998
 20
221.5724415
 11
79.002476000000001
 21
221.57500450000001
  0
LINE
  8
_0-0_0
  6
CONTINUOUS
 62
    7
 10
78.002476000000001
 20
222.13045450000001
 11
78.005366999999978
 21
222.16135450000002
  0
LINE
  8
_0-0_0
  6
CONTINUOUS
 62
    7
 10
78.005366999999978
 20
222.16135450000002
 11
78.014064999999988
 21
222.19278750000001
  0
LINE
  8
_0-0_0
  6
CONTINUOUS
 62
    7
 10
78.014064999999988
 20
222.19278750000001
 11
78.028548999999998
 21
222.22446450000001
  0
LINE
  8
_0-0_0
  6
CONTINUOUS
 62
    7
 10
78.028548999999998
 20
222.22446450000001
 11
78.04871399999999
 21
222.25605050000001
  0
LINE
  8
_0-0_0
  6
CONTINUOUS
 62
    7
 10
78.04871399999999
 20
222.25605050000001
 11
78.065234999999973
 21
222.27692450000001
  0
LINE
  8
_0-0_0
  6
CONTINUOUS
 62
    7
 10
78.065234999999973
 20
222.27692450000001
 11
78.084140999999988
 21
222.29755349999999
  0
LINE
  8
_0-0_0
  6
CONTINUOUS
 62
    7
 10
78.084140999999988
 20
222.29755349999999
 11
78.128780000000006
 21
222.33769950000001
  0
LINE
  8
_0-0_0
  6
CONTINUOUS
 62
    7
 10
78.128780000000006
 20
222.33769950000001
 11
78.181907999999993
 21
222.37589249999999
  0
LINE
  8
_0-0_0
  6
CONTINUOUS
 62
    7
 10
78.181907999999993
 20
222.37589249999999
 11
78.231803999999983
 21
222.4057085
  0
LINE
  8
_0-0_0
  6
CONTINUOUS
 62
    7
 10
78.231803999999983
 20
222.4057085
 11
78.286475999999993
 21
222.43358649999999
  0
LINE
  8
_0-0_0
  6
CONTINUOUS
 62
    7
 10
78.286475999999993
 20
222.43358649999999
 11
78.345450999999997
 21
222.4593275
  0
LINE
  8
_0-0_0
  6
CONTINUOUS
 62
    7
 10
78.345450999999997
 20
222.4593275
 11
78.392211999999972
 21
222.47711950000001
  0
LINE
  8
_0-0_0
  6
CONTINUOUS
 62
    7
 10
78.392211999999972
 20
222.47711950000001
 11
78.440913999999992
 21
222.4935375
  0
LINE
  8
_0-0_0
  6
CONTINUOUS
 62
    7
 10
78.440913999999992
 20
222.4935375
 11
78.543345999999985
 21
222.52211750000001
  0
LINE
  8
_0-0_0
  6
CONTINUOUS
 62
    7
 10
78.543345999999985
 20
222.52211750000001
 11
78.651164999999992
 21
222.5447155
  0
LINE
  8
_0-0_0
  6
CONTINUOUS
 62
    7
 10
78.651164999999992
 20
222.5447155
 11
78.762851999999981
 21
222.56113450000001
  0
LINE
  8
_0-0_0
  6
CONTINUOUS
 62
    7
 10
78.762851999999981
 20
222.56113450000001
 11
78.877009999999984
 21
222.5712355
  0
LINE
  8
_0-0_0
  6
CONTINUOUS
 62
    7
 10
78.877009999999984
 20
222.5712355
 11
79.002476000000001
 21
222.57500450000001
  0
LINE
  8
_0-0_0
  6
CONTINUOUS
 62
    7
 10
78.002476000000001
 20
221.16078949999999
 11
78.002476000000001
 21
222.13045450000001
  0
ARC
  8
_0-0_0
  6
CONTINUOUS
 62
    7
 10
79.002476000000001
 20
194.7750015
 40
1
 50
180.00000900000003
 51
269.99999700000001
  0
LINE
  8
_0-0_0
  6
CONTINUOUS
 62
    7
 10
78.002476000000001
 20
194.7750015
 11
78.002476000000001
 21
221.16078949999999
  0
LINE
  8
_0-0_0
  6
CONTINUOUS
 62
    7
 10
386.00247200000001
 20
222.16085050000001
 11
386.00247200000001
 21
223.7750015
  0
ARC
  8
_0-0_0
  6
CONTINUOUS
 62
    7
 10
385.00247200000001
 20
223.7750015
 40
1
 50
0
 51
90.000003000000007
  0
ARC
  8
_0-0_0
  6
CONTINUOUS
 62
    7
 10
79.002476000000001
 20
223.7750015
 40
1
 50
90.000003000000007
 51
180.00000900000001
  0
LINE
  8
_0-0_0
  6
CONTINUOUS
 62
    7
 10
78.002476000000001
 20
222.13045450000001
 11
78.002476000000001
 21
223.7750015
  0
LINE
  8
_0-0_0
  6
CONTINUOUS
 62
    7
 10
50.092604999999992
 20
193.77501649999999
 11
50.092604999999992
 21
193.17501049999998
  0
LINE
  8
_0-0_0
  6
CONTINUOUS
 62
    7
 10
52.592605999999989
 20
187.9300155
 11
52.592605999999989
 21
190.17501049999998
  0
LINE
  8
_0-0_0
  6
CONTINUOUS
 62
    7
 10
53.592605999999989
 20
190.17501049999998
 11
53.592605999999989
 21
192.17501049999998
  0
ARC
  8
_0-0_0
  6
CONTINUOUS
 62
    7
 10
53.092605999999989
 20
192.17501049999998
 40
0.5
 50
0
 51
90.000003000000007
  0
LINE
  8
_0-0_0
  6
CONTINUOUS
 62
    7
 10
53.092605999999989
 20
192.67501049999998
 11
51.592605999999989
 21
192.67501049999998
  0
ARC
  8
_0-0_0
  6
CONTINUOUS
 62
    7
 10
51.592605999999989
 20
193.67499550000002
 40
1
 50
180.00000900000003
 51
269.99999700000001
  0
LINE
  8
_0-0_0
  6
CONTINUOUS
 62
    7
 10
50.592605999999989
 20
193.77501649999999
 11
50.592605999999989
 21
193.67499550000002
  0
ARC
  8
_0-0_0
  6
CONTINUOUS
 62
    7
 10
51.592605999999989
 20
193.17501049999998
 40
1.5
 50
180.00000900000003
 51
269.99999700000001
  0
LINE
  8
_0-0_0
  6
CONTINUOUS
 62
    7
 10
51.592605999999989
 20
191.67501049999998
 11
50.892605000000003
 21
191.67501049999998
  0
ARC
  8
_0-0_0
  6
CONTINUOUS
 62
    7
 10
50.892605000000003
 20
192.67501049999998
 40
1
 50
180.00000900000003
 51
269.99999700000001
  0
LINE
  8
_0-0_0
  6
CONTINUOUS
 62
    7
 10
49.892605000000003
 20
193.67499550000002
 11
49.892605000000003
 21
192.67501049999998
  0
LINE
  8
_0-0_0
  6
CONTINUOUS
 62
    7
 10
41.692604999999986
 20
192.67501049999998
 11
41.692604999999986
 21
193.67501049999998
  0
ARC
  8
_0-0_0
  6
CONTINUOUS
 62
    7
 10
40.692604999999986
 20
192.67501049999998
 40
1
 50
269.99999700000001
 51
0
  0
LINE
  8
_0-0_0
  6
CONTINUOUS
 62
    7
 10
40.692604999999986
 20
191.67501049999998
 11
40.492604999999998
 21
191.67501049999998
  0
ARC
  8
_0-0_0
  6
CONTINUOUS
 62
    7
 10
40.492604999999998
 20
192.67501049999998
 40
1
 50
269.99999700000001
 51
0
  0
LINE
  8
_0-0_0
  6
CONTINUOUS
 62
    7
 10
41.492604999999998
 20
192.67501049999998
 11
41.492604999999998
 21
193.77501649999999
  0
LINE
  8
_0-0_0
  6
CONTINUOUS
 62
    7
 10
40.992604999999998
 20
193.67501049999998
 11
40.992604999999998
 21
193.77501649999999
  0
ARC
  8
_0-0_0
  6
CONTINUOUS
 62
    7
 10
39.992604999999998
 20
193.67501049999998
 40
1
 50
269.99999700000001
 51
0
  0
LINE
  8
_0-0_0
  6
CONTINUOUS
 62
    7
 10
39.992604999999998
 20
192.67501049999998
 11
38.492604999999998
 21
192.67501049999998
  0
ARC
  8
_0-0_0
  6
CONTINUOUS
 62
    7
 10
38.492604999999998
 20
192.17501049999998
 40
0.5
 50
90.000003000000007
 51
180.00000900000001
  0
LINE
  8
_0-0_0
  6
CONTINUOUS
 62
    7
 10
37.992604999999998
 20
192.17501049999998
 11
37.992604999999998
 21
190.17501049999998
  0
LINE
  8
_0-0_0
  6
CONTINUOUS
 62
    7
 10
38.992604999999998
 20
187.9300155
 11
38.992604999999998
 21
190.17501049999998
  0
LINE
  8
_0-0_0
  6
CONTINUOUS
 62
    7
 10
37.092604999999992
 20
169.57500450000001
 11
37.092604999999992
 21
187.9300155
  0
LINE
  8
_0-0_0
  6
CONTINUOUS
 62
    7
 10
53.892605000000003
 20
169.57500450000001
 11
53.892605000000003
 21
187.9300155
  0
CIRCLE
  8
_0-0_0
  6
CONTINUOUS
 62
    7
 10
45.792603999999983
 20
190.17501049999998
 40
2.0499999999999998
  0
LINE
  8
_0-0_0
  6
CONTINUOUS
 62
    7
 10
53.892605000000003
 20
191.67501049999998
 11
53.892605000000003
 21
191.6500015
  0
LINE
  8
_0-0_0
  6
CONTINUOUS
 62
    7
 10
53.892605000000003
 20
188.42995450000001
 11
53.892605000000003
 21
188.70000450000001
  0
LINE
  8
_0-0_0
  6
CONTINUOUS
 62
    7
 10
53.892605000000003
 20
187.9300155
 11
53.892605000000003
 21
188.4300155
  0
LINE
  8
_0-0_0
  6
CONTINUOUS
 62
    7
 10
53.892605000000003
 20
167.57500450000001
 11
53.892605000000003
 21
169.57500450000001
  0
LINE
  8
_0-0_0
  6
CONTINUOUS
 62
    7
 10
37.092604999999992
 20
167.57500450000001
 11
37.092604999999992
 21
169.57500450000001
  0
LINE
  8
_0-0_0
  6
CONTINUOUS
 62
    7
 10
37.092604999999992
 20
167.57500450000001
 11
53.892605000000003
 21
167.57500450000001
  0
LINE
  8
_0-0_0
  6
CONTINUOUS
 62
    7
 10
37.092604999999992
 20
191.67501049999998
 11
37.092604999999992
 21
190.17501049999998
  0
LINE
  8
_0-0_0
  6
CONTINUOUS
 62
    7
 10
37.092604999999992
 20
188.43000050000001
 11
37.092604999999992
 21
190.17501049999998
  0
LINE
  8
_0-0_0
  6
CONTINUOUS
 62
    7
 10
37.092604999999992
 20
187.9300155
 11
37.092604999999992
 21
188.4300155
  0
LINE
  8
_0-0_0
  6
CONTINUOUS
 62
    7
 10
37.992604999999998
 20
188.43007649999998
 11
37.992604999999998
 21
190.17501049999998
  0
ARC
  8
_0-0_0
  6
CONTINUOUS
 62
    7
 10
52.292603999999983
 20
169.67501049999998
 40
2
 50
323.13010300000002
 51
0.0000000000000127
  0
LINE
  8
_0-0_0
  6
CONTINUOUS
 62
    7
 10
54.292603999999983
 20
169.67501049999998
 11
54.292603999999983
 21
171.07506549999999
  0
LINE
  8
_0-0_0
  6
CONTINUOUS
 62
    7
 10
54.592605999999989
 20
176.1646805
 11
54.592605999999989
 21
186.61269350000001
  0
LINE
  8
_0-0_0
  6
CONTINUOUS
 62
    7
 10
54.592605999999989
 20
187.5754925
 11
54.592605999999989
 21
189.81014249999998
  0
LINE
  8
_0-0_0
  6
CONTINUOUS
 62
    7
 10
37.092604999999992
 20
191.67501049999998
 11
37.992604999999998
 21
191.67501049999998
  0
LINE
  8
_0-0_0
  6
CONTINUOUS
 62
    7
 10
36.992604999999998
 20
171.07500450000001
 11
37.092604999999992
 21
171.07500450000001
  0
LINE
  8
_0-0_0
  6
CONTINUOUS
 62
    7
 10
36.992604999999998
 20
171.07500450000001
 11
36.992604999999998
 21
176.1646805
  0
LINE
  8
_0-0_0
  6
CONTINUOUS
 62
    7
 10
36.992604999999998
 20
186.61270949999999
 11
36.992604999999998
 21
187.5754925
  0
LINE
  8
_0-0_0
  6
CONTINUOUS
 62
    7
 10
36.992604999999998
 20
190.67501049999998
 11
37.092604999999992
 21
190.67501049999998
  0
LINE
  8
_0-0_0
  6
CONTINUOUS
 62
    7
 10
36.992604999999998
 20
189.81014249999998
 11
36.992604999999998
 21
190.67501049999998
  0
LINE
  8
_0-0_0
  6
CONTINUOUS
 62
    7
 10
36.992604999999998
 20
187.5754925
 11
36.992604999999998
 21
189.81014249999998
  0
LINE
  8
_0-0_0
  6
CONTINUOUS
 62
    7
 10
36.992604999999998
 20
176.1646805
 11
36.992604999999998
 21
186.61270949999999
  0
LINE
  8
_0-0_0
  6
CONTINUOUS
 62
    7
 10
37.29260499999998
 20
189.56374349999999
 11
37.29260499999998
 21
191.45000450000001
  0
LINE
  8
_0-0_0
  6
CONTINUOUS
 62
    7
 10
37.29260499999998
 20
188.9000015
 11
37.29260499999998
 21
189.56374349999999
  0
LINE
  8
_0-0_0
  6
CONTINUOUS
 62
    7
 10
54.292603999999983
 20
190.78627749999998
 11
54.292603999999983
 21
188.9003065
  0
LINE
  8
_0-0_0
  6
CONTINUOUS
 62
    7
 10
54.292603999999983
 20
191.44162749999998
 11
54.292603999999983
 21
190.78627749999998
  0
LINE
  8
_0-0_0
  6
CONTINUOUS
 62
    7
 10
54.592605999999989
 20
171.07500450000001
 11
54.592605999999989
 21
176.1646805
  0
LINE
  8
_0-0_0
  6
CONTINUOUS
 62
    7
 10
54.592605999999989
 20
189.81014249999998
 11
54.592605999999989
 21
190.67501049999998
  0
LINE
  8
_0-0_0
  6
CONTINUOUS
 62
    7
 10
54.592605999999989
 20
186.61269350000001
 11
54.592605999999989
 21
187.5754925
  0
LINE
  8
_0-0_0
  6
CONTINUOUS
 62
    7
 10
54.592605999999989
 20
190.67501049999998
 11
54.292601999999988
 21
190.67501049999998
  0
LINE
  8
_0-0_0
  6
CONTINUOUS
 62
    7
 10
54.592605999999989
 20
171.07500450000001
 11
53.892605000000003
 21
171.07500450000001
  0
LINE
  8
_0-0_0
  6
CONTINUOUS
 62
    7
 10
53.892605000000003
 20
191.67501049999998
 11
53.592605999999989
 21
191.67501049999998
  0
LINE
  8
_0-0_0
  6
CONTINUOUS
 62
    7
 10
53.592605999999989
 20
190.17501049999998
 11
53.592605999999989
 21
188.43007649999998
  0
LINE
  8
_0-0_0
  6
CONTINUOUS
 62
    7
 10
49.892605000000003
 20
193.67499550000002
 11
49.892605000000003
 21
193.77507750000001
  0
LINE
  8
_0-0_0
  6
CONTINUOUS
 62
    7
 10
41.692604999999986
 20
193.77507750000001
 11
41.692604999999986
 21
193.67501049999998
  0
LINE
  8
_0-0_0
  6
CONTINUOUS
 62
    7
 10
52.592605999999989
 20
188.4300155
 11
53.892605000000003
 21
188.4300155
  0
ARC
  8
_0-0_0
  6
CONTINUOUS
 62
    7
 10
37.79260499999998
 20
191.45000450000001
 40
0.2
 50
359.91222800000003
 51
89.999948000000003
  0
ARC
  8
_0-0_0
  6
CONTINUOUS
 62
    7
 10
37.792500999999987
 20
188.90015449999999
 40
0.200169
 50
270.02985900000004
 51
2.3526610000000452
  0
LINE
  8
_0-0_0
  6
CONTINUOUS
 62
    7
 10
37.492604999999998
 20
191.6500015
 11
37.79260499999998
 21
191.6500015
  0
LINE
  8
_0-0_0
  6
CONTINUOUS
 62
    7
 10
37.492604999999998
 20
188.70000450000001
 11
37.79260499999998
 21
188.70000450000001
  0
ARC
  8
_0-0_0
  6
CONTINUOUS
 62
    7
 10
37.492708999999991
 20
191.44985150000002
 40
0.200169
 50
90.029849999999996
 51
182.352667
  0
ARC
  8
_0-0_0
  6
CONTINUOUS
 62
    7
 10
37.492605999999995
 20
188.9000015
 40
0.2
 50
179.912237
 51
269.99994299999997
  0
ARC
  8
_0-0_0
  6
CONTINUOUS
 62
    7
 10
53.792709000000002
 20
188.90015449999999
 40
0.200169
 50
177.647333
 51
269.97013600000002
  0
ARC
  8
_0-0_0
  6
CONTINUOUS
 62
    7
 10
53.792605999999978
 20
191.45000450000001
 40
0.2
 50
90.000049999999987
 51
180.08776299999997
  0
LINE
  8
_0-0_0
  6
CONTINUOUS
 62
    7
 10
54.092605999999989
 20
188.70000450000001
 11
53.792603999999983
 21
188.70000450000001
  0
LINE
  8
_0-0_0
  6
CONTINUOUS
 62
    7
 10
54.092605999999989
 20
191.6500015
 11
53.792603999999983
 21
191.6500015
  0
ARC
  8
_0-0_0
  6
CONTINUOUS
 62
    7
 10
54.092605999999989
 20
188.9000015
 40
0.2
 50
270.00005199999998
 51
0.0877600000000175
  0
ARC
  8
_0-0_0
  6
CONTINUOUS
 62
    7
 10
54.092500999999999
 20
191.44985150000002
 40
0.200169
 50
357.64733799999999
 51
89.970147999999995
  0
LINE
  8
_0-0_0
  6
CONTINUOUS
 62
    7
 10
37.092604999999992
 20
188.4300155
 11
38.992604999999998
 21
188.4300155
  0
LINE
  8
_0-0_0
  6
CONTINUOUS
 62
    7
 10
54.592605999999989
 20
194.17499550000002
 11
54.592605999999989
 21
207.37500750000001
  0
ARC
  8
_0-0_0
  6
CONTINUOUS
 62
    7
 10
54.092605999999989
 20
194.17499550000002
 40
0.5
 50
269.99999700000001
 51
0
  0
ARC
  8
_0-0_0
  6
CONTINUOUS
 62
    7
 10
54.53402699999998
 20
207.57500450000001
 40
0.1
 50
135
 51
225
  0
LINE
  8
_0-0_0
  6
CONTINUOUS
 62
    7
 10
54.463315999999992
 20
207.50429550000001
 11
54.592605999999989
 21
207.37500750000001
  0
LINE
  8
_0-0_0
  6
CONTINUOUS
 62
    7
 10
54.092605999999989
 20
193.67499550000002
 11
52.192605999999984
 21
193.67499550000002
  0
ARC
  8
_0-0_0
  6
CONTINUOUS
 62
    7
 10
52.192605999999984
 20
194.17499550000002
 40
0.5
 50
233.12990600000001
 51
269.99999700000001
  0
ARC
  8
_0-0_0
  6
CONTINUOUS
 62
    7
 10
39.492604999999998
 20
194.17501049999998
 40
0.5
 50
269.99999700000001
 51
306.87009999999998
  0
LINE
  8
_0-0_0
  6
CONTINUOUS
 62
    7
 10
39.492604999999998
 20
193.67501049999998
 11
37.592604999999992
 21
193.67501049999998
  0
ARC
  8
_0-0_0
  6
CONTINUOUS
 62
    7
 10
37.592604999999992
 20
194.17501049999998
 40
0.5
 50
180.00000900000003
 51
269.99999700000001
  0
LINE
  8
_0-0_0
  6
CONTINUOUS
 62
    7
 10
37.092604999999992
 20
203.6099925
 11
37.092604999999992
 21
194.17501049999998
  0
LINE
  8
_0-0_0
  6
CONTINUOUS
 62
    7
 10
37.092604999999992
 20
203.6099925
 11
37.792603999999983
 21
203.6099925
  0
LINE
  8
_0-0_0
  6
CONTINUOUS
 62
    7
 10
53.792605999999978
 20
222.17499549999999
 11
53.998635999999976
 21
222.17499549999999
  0
LINE
  8
_0-0_0
  6
CONTINUOUS
 62
    7
 10
53.998635999999976
 20
222.17499549999999
 11
54.592605999999989
 21
221.58103149999999
  0
LINE
  8
_0-0_0
  6
CONTINUOUS
 62
    7
 10
54.592605999999989
 20
216.57500450000001
 11
54.592605999999989
 21
221.58103149999999
  0
LINE
  8
_0-0_0
  6
CONTINUOUS
 62
    7
 10
54.463315999999992
 20
216.4457165
 11
54.592605999999989
 21
216.57500450000001
  0
ARC
  8
_0-0_0
  6
CONTINUOUS
 62
    7
 10
54.53402699999998
 20
216.37500750000001
 40
0.1
 50
135
 51
225
  0
LINE
  8
_0-0_0
  6
CONTINUOUS
 62
    7
 10
54.463315999999992
 20
216.30429850000002
 11
54.592605999999989
 21
216.17499549999999
  0
LINE
  8
_0-0_0
  6
CONTINUOUS
 62
    7
 10
54.592605999999989
 20
215.4749985
 11
54.592605999999989
 21
216.17499549999999
  0
LINE
  8
_0-0_0
  6
CONTINUOUS
 62
    7
 10
54.463315999999992
 20
215.3457105
 11
54.592605999999989
 21
215.4749985
  0
ARC
  8
_0-0_0
  6
CONTINUOUS
 62
    7
 10
54.53402699999998
 20
215.2750015
 40
0.1
 50
135
 51
225
  0
LINE
  8
_0-0_0
  6
CONTINUOUS
 62
    7
 10
54.463315999999992
 20
215.20429250000001
 11
54.592605999999989
 21
215.07500450000001
  0
LINE
  8
_0-0_0
  6
CONTINUOUS
 62
    7
 10
54.592605999999989
 20
214.37500750000001
 11
54.592605999999989
 21
215.07500450000001
  0
LINE
  8
_0-0_0
  6
CONTINUOUS
 62
    7
 10
54.463315999999992
 20
214.24570449999999
 11
54.592605999999989
 21
214.37500750000001
  0
ARC
  8
_0-0_0
  6
CONTINUOUS
 62
    7
 10
54.53402699999998
 20
214.17499549999999
 40
0.1
 50
135
 51
225
  0
LINE
  8
_0-0_0
  6
CONTINUOUS
 62
    7
 10
54.463315999999992
 20
214.1042865
 11
54.592605999999989
 21
213.9749985
  0
LINE
  8
_0-0_0
  6
CONTINUOUS
 62
    7
 10
54.592605999999989
 20
213.2750015
 11
54.592605999999989
 21
213.9749985
  0
LINE
  8
_0-0_0
  6
CONTINUOUS
 62
    7
 10
54.463315999999992
 20
213.1457135
 11
54.592605999999989
 21
213.2750015
  0
ARC
  8
_0-0_0
  6
CONTINUOUS
 62
    7
 10
54.53402699999998
 20
213.07500450000001
 40
0.1
 50
135
 51
225
  0
LINE
  8
_0-0_0
  6
CONTINUOUS
 62
    7
 10
54.463315999999992
 20
213.00429550000001
 11
54.592605999999989
 21
212.87500750000001
  0
LINE
  8
_0-0_0
  6
CONTINUOUS
 62
    7
 10
54.592605999999989
 20
212.17499549999999
 11
54.592605999999989
 21
212.87500750000001
  0
LINE
  8
_0-0_0
  6
CONTINUOUS
 62
    7
 10
54.463315999999992
 20
212.04570749999999
 11
54.592605999999989
 21
212.17499549999999
  0
ARC
  8
_0-0_0
  6
CONTINUOUS
 62
    7
 10
54.53402699999998
 20
211.9749985
 40
0.1
 50
135
 51
225
  0
LINE
  8
_0-0_0
  6
CONTINUOUS
 62
    7
 10
54.463315999999992
 20
211.9042895
 11
54.592605999999989
 21
211.7750015
  0
LINE
  8
_0-0_0
  6
CONTINUOUS
 62
    7
 10
54.592605999999989
 20
211.07500450000001
 11
54.592605999999989
 21
211.7750015
  0
LINE
  8
_0-0_0
  6
CONTINUOUS
 62
    7
 10
54.463315999999992
 20
210.9457165
 11
54.592605999999989
 21
211.07500450000001
  0
ARC
  8
_0-0_0
  6
CONTINUOUS
 62
    7
 10
54.53402699999998
 20
210.87500750000001
 40
0.1
 50
135
 51
225
  0
LINE
  8
_0-0_0
  6
CONTINUOUS
 62
    7
 10
54.463315999999992
 20
210.80429850000002
 11
54.592605999999989
 21
210.67499549999999
  0
LINE
  8
_0-0_0
  6
CONTINUOUS
 62
    7
 10
54.592605999999989
 20
209.9749985
 11
54.592605999999989
 21
210.67499549999999
  0
LINE
  8
_0-0_0
  6
CONTINUOUS
 62
    7
 10
54.463315999999992
 20
209.8457105
 11
54.592605999999989
 21
209.9749985
  0
ARC
  8
_0-0_0
  6
CONTINUOUS
 62
    7
 10
54.53402699999998
 20
209.7750015
 40
0.1
 50
135
 51
225
  0
LINE
  8
_0-0_0
  6
CONTINUOUS
 62
    7
 10
54.463315999999992
 20
209.70429250000001
 11
54.592605999999989
 21
209.57500450000001
  0
LINE
  8
_0-0_0
  6
CONTINUOUS
 62
    7
 10
54.592605999999989
 20
208.87500750000001
 11
54.592605999999989
 21
209.57500450000001
  0
LINE
  8
_0-0_0
  6
CONTINUOUS
 62
    7
 10
54.463315999999992
 20
208.74570449999999
 11
54.592605999999989
 21
208.87500750000001
  0
ARC
  8
_0-0_0
  6
CONTINUOUS
 62
    7
 10
54.53402699999998
 20
208.67499549999999
 40
0.1
 50
135
 51
225
  0
LINE
  8
_0-0_0
  6
CONTINUOUS
 62
    7
 10
54.463315999999992
 20
208.6042865
 11
54.592605999999989
 21
208.4749985
  0
LINE
  8
_0-0_0
  6
CONTINUOUS
 62
    7
 10
54.592605999999989
 20
207.7750015
 11
54.592605999999989
 21
208.4749985
  0
LINE
  8
_0-0_0
  6
CONTINUOUS
 62
    7
 10
54.463315999999992
 20
207.6457135
 11
54.592605999999989
 21
207.7750015
  0
LINE
  8
_0-0_0
  6
CONTINUOUS
 62
    7
 10
54.592605999999989
 20
199.67499549999999
 11
54.692605999999984
 21
199.67499549999999
  0
LINE
  8
_0-0_0
  6
CONTINUOUS
 62
    7
 10
54.692605999999984
 20
199.17501049999998
 11
54.692605999999984
 21
199.67499549999999
  0
LINE
  8
_0-0_0
  6
CONTINUOUS
 62
    7
 10
54.692605999999984
 20
199.17501049999998
 11
54.692605999999984
 21
195.17501049999998
  0
LINE
  8
_0-0_0
  6
CONTINUOUS
 62
    7
 10
54.592605999999989
 20
194.67501049999998
 11
54.692605999999984
 21
194.67501049999998
  0
LINE
  8
_0-0_0
  6
CONTINUOUS
 62
    7
 10
54.692605999999984
 20
194.67501049999998
 11
54.692605999999984
 21
195.17501049999998
  0
LINE
  8
_0-0_0
  6
CONTINUOUS
 62
    7
 10
37.092604999999992
 20
203.67501050000001
 11
37.092604999999992
 21
203.6099925
  0
LINE
  8
_0-0_0
  6
CONTINUOUS
 62
    7
 10
53.592605999999989
 20
222.4749985
 11
53.592605999999989
 21
222.37500750000001
  0
LINE
  8
_0-0_0
  6
CONTINUOUS
 62
    7
 10
36.992604999999998
 20
203.67499549999999
 11
37.79260499999998
 21
203.67499549999999
  0
LINE
  8
_0-0_0
  6
CONTINUOUS
 62
    7
 10
37.492604999999998
 20
225.4749985
 11
37.492604999999998
 21
221.2534565
  0
LINE
  8
_0-0_0
  6
CONTINUOUS
 62
    7
 10
38.592604999999992
 20
225.4749985
 11
38.592604999999992
 21
222.4749985
  0
LINE
  8
_0-0_0
  6
CONTINUOUS
 62
    7
 10
37.492604999999998
 20
221.2534565
 11
37.79260499999998
 21
221.2534565
  0
ARC
  8
_0-0_0
  6
CONTINUOUS
 62
    7
 10
41.092604999999992
 20
222.4749985
 40
2.5
 50
90.000003000000007
 51
180.00000900000001
  0
ARC
  8
_0-0_0
  6
CONTINUOUS
 62
    7
 10
51.092605999999989
 20
222.4749985
 40
2.5
 50
0
 51
90.000003000000007
  0
LINE
  8
_0-0_0
  6
CONTINUOUS
 62
    7
 10
38.592604999999992
 20
222.37500750000001
 11
38.592604999999992
 21
222.4749985
  0
LINE
  8
_0-0_0
  6
CONTINUOUS
 62
    7
 10
51.092605999999989
 20
224.9749985
 11
41.092604999999992
 21
224.9749985
  0
LINE
  8
_0-0_0
  6
CONTINUOUS
 62
    7
 10
54.792603999999983
 20
195.17501049999998
 11
54.792603999999983
 21
195.30536649999999
  0
LINE
  8
_0-0_0
  6
CONTINUOUS
 62
    7
 10
54.792603999999983
 20
198.80536649999999
 11
54.792603999999983
 21
195.30536649999999
  0
LINE
  8
_0-0_0
  6
CONTINUOUS
 62
    7
 10
54.692605999999984
 20
199.07500450000001
 11
54.792603999999983
 21
199.07500450000001
  0
LINE
  8
_0-0_0
  6
CONTINUOUS
 62
    7
 10
54.792603999999983
 20
198.80536649999999
 11
54.792603999999983
 21
199.07500450000001
  0
LINE
  8
_0-0_0
  6
CONTINUOUS
 62
    7
 10
54.392606999999998
 20
221.57500450000001
 11
53.392606999999998
 21
222.57500450000001
  0
LINE
  8
_0-0_0
  6
CONTINUOUS
 62
    7
 10
54.392605000000003
 20
193.7750015
 11
54.392606999999998
 21
221.57500450000001
  0
LINE
  8
_0-0_0
  6
CONTINUOUS
 62
    7
 10
37.79260499999998
 20
193.7750015
 11
54.392605000000003
 21
193.7750015
  0
LINE
  8
_0-0_0
  6
CONTINUOUS
 62
    7
 10
37.79260499999998
 20
221.57500450000001
 11
37.79260499999998
 21
193.7750015
  0
LINE
  8
_0-0_0
  6
CONTINUOUS
 62
    7
 10
36.992604999999998
 20
203.67499549999999
 11
36.992604999999998
 21
220.48781550000001
  0
LINE
  8
_0-0_0
  6
CONTINUOUS
 62
    7
 10
36.992604999999998
 20
224.9749985
 11
36.992604999999998
 21
220.48781550000001
  0
ARC
  8
_0-0_0
  6
CONTINUOUS
 62
    7
 10
68.444346999999993
 20
200.49282049999999
 40
37.269466000000001
 50
146.14857699999999
 51
147.55443399999999
  0
ARC
  8
_0-0_0
  6
CONTINUOUS
 62
    7
 10
50.823558999999989
 20
222.17499549999999
 40
2.6000000000000001
 50
8.8498839999999994
 51
90.000002999999992
  0
LINE
  8
_0-0_0
  6
CONTINUOUS
 62
    7
 10
50.823558999999989
 20
224.7750015
 11
41.361650999999995
 21
224.7750015
  0
ARC
  8
_0-0_0
  6
CONTINUOUS
 62
    7
 10
41.361650999999995
 20
222.17499549999999
 40
2.6000000000000001
 50
90.000003000000007
 51
171.150115
  0
LINE
  8
_0-0_0
  6
CONTINUOUS
 62
    7
 10
37.79260499999998
 20
221.57500450000001
 11
38.79260499999998
 21
222.57500450000001
  0
LINE
  8
_0-0_0
  6
CONTINUOUS
 62
    7
 10
53.392606999999998
 20
221.16078949999999
 11
54.392606999999998
 21
221.57500450000001
  0
ARC
  8
_0-0_0
  6
CONTINUOUS
 62
    7
 10
47.850063999999975
 20
233.36112249999999
 40
12.126564999999999
 50
292.155034
 51
297.19674500000002
  0
LINE
  8
_0-0_0
  6
CONTINUOUS
 62
    7
 10
53.392605000000003
 20
194.7750015
 11
54.392605000000003
 21
193.7750015
  0
LINE
  8
_0-0_0
  6
CONTINUOUS
 62
    7
 10
38.79260499999998
 20
194.7750015
 11
37.79260499999998
 21
193.7750015
  0
LINE
  8
_0-0_0
  6
CONTINUOUS
 62
    7
 10
38.79260499999998
 20
221.16078949999999
 11
37.79260499999998
 21
221.57500450000001
  0
ARC
  8
_0-0_0
  6
CONTINUOUS
 62
    7
 10
44.335144999999983
 20
233.36112249999999
 40
12.126567
 50
242.80325699999997
 51
247.84494000000001
  0
CIRCLE
  8
_0-0_0
  6
CONTINUOUS
 62
    7
 10
46.092604999999992
 20
201.9749985
 40
2.0670000000000002
  0
LINE
  8
_0-0_0
  6
CONTINUOUS
 62
    7
 10
38.592604999999992
 20
225.4749985
 11
37.492604999999998
 21
225.4749985
  0
LINE
  8
_0-0_0
  6
CONTINUOUS
 62
    7
 10
54.692605999999984
 20
195.17501049999998
 11
54.792603999999983
 21
195.17501049999998
  0
LINE
  8
_0-0_0
  6
CONTINUOUS
 62
    7
 10
54.692605999999984
 20
195.17501049999998
 11
54.792603999999983
 21
195.17501049999998
  0
LINE
  8
_0-0_0
  6
CONTINUOUS
 62
    7
 10
36.992604999999998
 20
224.9749985
 11
37.492604999999998
 21
225.4749985
  0
ENDSEC
  0
EOF
