  0
SECTION
  2
HEADER
  9
$ACADVER
  1
AC1009
  9
$INSBASE
 10
0
 20
0
 30
0
  9
$EXTMIN
 10
0
 20
0
  9
$EXTMAX
 10
210.25
 20
148.5
  9
$LIMMIN
 10
0
 20
0
  9
$LIMMAX
 10
210.25
 20
148.5
  9
$LTSCALE
 40
0.25
  0
ENDSEC
  0
SECTION
  2
TABLES
  0
TABLE
  2
LTYPE
 70
     9
  0
LTYPE
  2
CONTINUOUS
 70
    64
  3
実線
 72
    65
 73
     0
 40
0.0
  0
LTYPE
  2
DASHED1
 70
    64
  3
--  --  --  --  --  --  --  --  
 72
    65
 73
     2
 40
2.5
 49
1.25
 49
-1.25
  0
LTYPE
  2
DASHED2
 70
    64
  3
----    ----    ----    ----    
 72
    65
 73
     2
 40
5.0
 49
2.5
 49
-2.5
  0
LTYPE
  2
DASHED3
 70
    64
  3
------  ------  ------  ------  
 72
    65
 73
     2
 40
5.0
 49
3.75
 49
-1.25
  0
LTYPE
  2
CENTER1
 70
    64
  3
----- - ----- - ----- - ----- - 
 72
    65
 73
     4
 40
10.0
 49
6.25
 49
-1.25
 49
1.25
 49
-1.25
  0
LTYPE
  2
CENTER2
 70
    64
  3
----------  --  ----------  --  
 72
    65
 73
     4
 40
20.0
 49
12.5
 49
-2.5
 49
2.5
 49
-2.5
  0
LTYPE
  2
PHANTOM1
 70
    64
  3
--- - - --- - - --- - - --- - - 
 72
    65
 73
     6
 40
10.0
 49
3.25
 49
-1.25
 49
1.25
 49
-1.25
 49
1.25
 49
-1.25
  0
LTYPE
  2
PHANTOM2
 70
    64
  3
--------  -  -  --------  -  -  
 72
    65
 73
     6
 40
20.0
 49
10.0
 49
-2.5
 49
1.25
 49
-2.5
 49
1.25
 49
-2.5
  0
LTYPE
  2
DOT
 70
    64
  3
-   -   -   -   -   -   -   -   
 72
    65
 73
     2
 40
2.5
 49
0.625
 49
-1.875
  0
LTYPE
  2
DUMMY
 70
    64
  3
ダミー
 72
    65
 73
     0
 40
0.0
  0
LTYPE
  2
RAND1
 70
    64
  3
ランダム線1
 72
    65
 73
     4
 40
10.0
 49
1.0
 49
-2.0
 49
3.0
 49
-4.0
  0
LTYPE
  2
RAND2
 70
    64
  3
ランダム線2
 72
    65
 73
     4
 40
14.0
 49
2.0
 49
-3.0
 49
4.0
 49
-5.0
  0
LTYPE
  2
RAND3
 70
    64
  3
ランダム線3
 72
    65
 73
     4
 40
18.0
 49
3.0
 49
-4.0
 49
5.0
 49
-6.0
  0
LTYPE
  2
RAND4
 70
    64
  3
ランダム線4
 72
    65
 73
     4
 40
22.0
 49
4.0
 49
-5.0
 49
6.0
 49
-7.0
  0
LTYPE
  2
RAND5
 70
    64
  3
ランダム線5
 72
    65
 73
     4
 40
26.0
 49
5.0
 49
-6.0
 49
7.0
 49
-8.0
  0
LTYPE
  2
LONG1
 70
    64
  3
----------  --  ----------  --  
 72
    65
 73
     4
 40
40.0
 49
32.5
 49
-2.5
 49
2.5
 49
-2.5
  0
LTYPE
  2
LONG2
 70
    64
  3
--------  -  -  --------  -  -  
 72
    65
 73
     6
 40
40.0
 49
30.0
 49
-2.5
 49
1.25
 49
-2.5
 49
1.25
 49
-2.5
  0
LTYPE
  2
LONG3
 70
    64
  3
+++++++++++++++..+++++++++++++++
 72
    65
 73
     2
 40
40.0
 49
37.5
 49
-2.5
  0
LTYPE
  2
LONG4
 70
    64
  3
+++++++++++++++..+++++++++++++++
 72
    65
 73
     2
 40
80.0
 49
75.0
 49
-5.0
  0
LTYPE
  2
LONG5
 70
    64
  3
----------  --  ----------  --  
 72
    65
 73
     4
 40
60.0
 49
37.5
 49
-7.5
 49
7.5
 49
-7.5
  0
LTYPE
  2
dashed
 70
   64
  3
-------   -------------   ------
 72
   65
 73
    2
 40
7.5
 49
6
 49
-1.5
  0
LTYPE
  2
dashed_spaced
 70
   64
  3
----        --------        ----
 72
   65
 73
    2
 40
12
 49
6
 49
-6
  0
LTYPE
  2
long_dashed_dotted
 70
   64
  3
------------- --- --------------
 72
   65
 73
    4
 40
15.25
 49
12
 49
-1.5
 49
0.25
 49
-1.5
  0
LTYPE
  2
long_dashed_double-dotted
 70
   64
  3
----------- --- --- ------------
 72
   65
 73
    6
 40
17
 49
12
 49
-1.5
 49
0.25
 49
-1.5
 49
0.25
 49
-1.5
  0
LTYPE
  2
long_dashed_triplicate-dotted
 70
   64
  3
--------- --- --- --- ----------
 72
   65
 73
    8
 40
18.75
 49
12
 49
-1.5
 49
0.25
 49
-1.5
 49
0.25
 49
-1.5
 49
0.25
 49
-1.5
  0
LTYPE
  2
dotted
 70
   64
  3
   -       -       -       -    
 72
   65
 73
    2
 40
1.75
 49
0.25
 49
-1.5
  0
LTYPE
  2
chain
 70
   64
  3
-------------- -- --------------
 72
   65
 73
    4
 40
18.5
 49
12
 49
-1.5
 49
3.5
 49
-1.5
  0
LTYPE
  2
chain_double_dash
 70
   64
  3
------------ -- -- -------------
 72
   65
 73
    6
 40
23.5
 49
12
 49
-1.5
 49
3.5
 49
-1.5
 49
3.5
 49
-1.5
  0
LTYPE
  2
dashed_dotted
 70
   64
  3
-----------     -     ----------
 72
   65
 73
    4
 40
9.25
 49
6
 49
-1.5
 49
0.25
 49
-1.5
  0
LTYPE
  2
double-dashed_dotted
 70
   64
  3
------   -----------   -   -----
 72
   65
 73
    6
 40
16.75
 49
6
 49
-1.5
 49
6
 49
-1.5
 49
0.25
 49
-1.5
  0
LTYPE
  2
dashed_double-dotted
 70
   64
  3
---------    -    -    ---------
 72
   65
 73
    6
 40
11
 49
6
 49
-1.5
 49
0.25
 49
-1.5
 49
0.25
 49
-1.5
  0
LTYPE
  2
double-dashed_double-dotted
 70
   64
  3
-----   ---------   -   -   ----
 72
   65
 73
    8
 40
18.5
 49
6
 49
-1.5
 49
6
 49
-1.5
 49
0.25
 49
-1.5
 49
0.25
 49
-1.5
  0
LTYPE
  2
dashed_triplicate-dotted
 70
   64
  3
-------    -    -    -    ------
 72
   65
 73
    8
 40
12.75
 49
6
 49
-1.5
 49
0.25
 49
-1.5
 49
0.25
 49
-1.5
 49
0.25
 49
-1.5
  0
LTYPE
  2
double-dashed_triplicate-dotted
 70
   64
  3
-----  ---------  -  -  -  -----
 72
   65
 73
   10
 40
20.25
 49
6
 49
-1.5
 49
6
 49
-1.5
 49
0.25
 49
-1.5
 49
0.25
 49
-1.5
 49
0.25
 49
-1.5
  0
LTYPE
  2
undefined
 70
   64
  3
--------------------------------
 72
   65
 73
    0
 40
0
  0
ENDTAB
  0
TABLE
  2
STYLE
  5
3
100
AcDbSymbolTable
 70
     1
  0
STYLE
  5
10
100
AcDbSymbolTableRecord
100
AcDbTextStyleTableRecord
  2
STANDARD
 70
     0
 40
0.0
 41
1.0
 50
0.0
 71
     0
 42
0.2
  3
txt
  4
bigfont.shx
  0
STYLE
  5
26
100
AcDbSymbolTableRecord
100
AcDbTextStyleTableRecord
  2
TATEGAKI
 70
    68
 40
0.0
 41
1.0
 50
0.0
 71
     0
 42
1.0
  3
txt
  4
bigfont.shx
  0
ENDTAB
  0
TABLE
  2
LAYER
 70
    2
  0
LAYER
  2
_0-0_0
 70
   64
 62
    7
  6
CONTINUOUS
  0
LAYER
  2
ADD_LINE
 70
   64
 62
    7
  6
CONTINUOUS
  0
ENDTAB
  0
ENDSEC
  0
SECTION
  2
BLOCKS
  0
ENDSEC
  0
SECTION
  2
ENTITIES
  0
POINT
  8
_0-0_0
 62
    7
 10
120.627472
 20
90.025001500000002
  0
LINE
  8
_0-0_0
  6
CONTINUOUS
 62
    7
 10
13.627467999999993
 20
131.02550550000001
 11
13.627467999999993
 21
131.0244975
  0
LINE
  8
_0-0_0
  6
CONTINUOUS
 62
    7
 10
40.127467999999993
 20
96.680015499999996
 11
40.127467999999993
 21
98.925010499999999
  0
LINE
  8
_0-0_0
  6
CONTINUOUS
 62
    7
 10
40.127467999999993
 20
98.925010499999999
 11
40.127467999999993
 21
100.9250105
  0
LINE
  8
_0-0_0
  6
CONTINUOUS
 62
    7
 10
40.127467999999993
 20
100.9250105
 11
40.127467999999993
 21
101.4250105
  0
LINE
  8
_0-0_0
  6
CONTINUOUS
 62
    7
 10
40.127467999999993
 20
101.4250105
 11
40.127467999999993
 21
102.42499550000001
  0
LINE
  8
_0-0_0
  6
CONTINUOUS
 62
    7
 10
40.127467999999993
 20
78.325004500000006
 11
40.127467999999993
 21
96.680015499999996
  0
LINE
  8
_0-0_0
  6
CONTINUOUS
 62
    7
 10
136.62747200000001
 20
100.4250105
 11
136.62747200000001
 21
100.9250105
  0
LINE
  8
_0-0_0
  6
CONTINUOUS
 62
    7
 10
136.62747200000001
 20
101.4250105
 11
136.62747200000001
 21
102.42499550000001
  0
LINE
  8
_0-0_0
  6
CONTINUOUS
 62
    7
 10
136.62747200000001
 20
100.9250105
 11
136.62747200000001
 21
101.4250105
  0
ARC
  8
_0-0_0
  6
CONTINUOUS
 62
    7
 10
122.627472
 20
96.680015499999996
 40
0.5
 50
0
 51
123.74898500000002
  0
ARC
  8
_0-0_0
  6
CONTINUOUS
 62
    7
 10
121.127472
 20
98.925010499999999
 40
2.2000000000000002
 50
180.00000900000003
 51
303.74900400000001
  0
LINE
  8
_0-0_0
  6
CONTINUOUS
 62
    7
 10
118.927475
 20
98.925010499999999
 11
118.927475
 21
100.4250105
  0
LINE
  8
_0-0_0
  6
CONTINUOUS
 62
    7
 10
44.327469000000008
 20
100.4250105
 11
118.927475
 21
100.4250105
  0
LINE
  8
_0-0_0
  6
CONTINUOUS
 62
    7
 10
44.327469000000008
 20
100.4250105
 11
44.327469000000008
 21
98.925010499999999
  0
ARC
  8
_0-0_0
  6
CONTINUOUS
 62
    7
 10
42.127468
 20
98.925010499999999
 40
2.2000000000000002
 50
236.25102899999999
 51
0
  0
ARC
  8
_0-0_0
  6
CONTINUOUS
 62
    7
 10
40.627467999999993
 20
96.680015499999996
 40
0.5
 50
56.251010000000008
 51
180.00000900000001
  0
ARC
  8
_0-0_0
  6
CONTINUOUS
 62
    7
 10
42.127468
 20
78.325004500000006
 40
2
 50
180.00000900000003
 51
269.99999700000001
  0
LINE
  8
_0-0_0
  6
CONTINUOUS
 62
    7
 10
42.127468
 20
76.325004500000006
 11
43.127471999999997
 21
76.325004500000006
  0
LINE
  8
_0-0_0
  6
CONTINUOUS
 62
    7
 10
43.127471999999997
 20
76.325004500000006
 11
43.127471999999997
 21
77.925006499999995
  0
ARC
  8
_0-0_0
  6
CONTINUOUS
 62
    7
 10
43.627471999999997
 20
77.925006499999995
 40
0.5
 50
90.000003000000007
 51
180.00000900000001
  0
LINE
  8
_0-0_0
  6
CONTINUOUS
 62
    7
 10
43.827469000000008
 20
78.425010499999999
 11
43.627471999999997
 21
78.425010499999999
  0
ARC
  8
_0-0_0
  6
CONTINUOUS
 62
    7
 10
43.827469000000008
 20
77.925006499999995
 40
0.5
 50
90.000003000000007
 51
180.00000900000001
  0
LINE
  8
_0-0_0
  6
CONTINUOUS
 62
    7
 10
43.327469000000008
 20
76.425006499999995
 11
43.327469000000008
 21
77.925006499999995
  0
LINE
  8
_0-0_0
  6
CONTINUOUS
 62
    7
 10
112.927475
 20
76.425006499999995
 11
43.327469000000008
 21
76.425006499999995
  0
LINE
  8
_0-0_0
  6
CONTINUOUS
 62
    7
 10
112.927475
 20
76.425006499999995
 11
112.927475
 21
77.925006499999995
  0
ARC
  8
_0-0_0
  6
CONTINUOUS
 62
    7
 10
112.427475
 20
77.925006499999995
 40
0.5
 50
0
 51
90.000003000000007
  0
LINE
  8
_0-0_0
  6
CONTINUOUS
 62
    7
 10
112.627472
 20
78.425010499999999
 11
112.427475
 21
78.425010499999999
  0
ARC
  8
_0-0_0
  6
CONTINUOUS
 62
    7
 10
112.627472
 20
77.925006499999995
 40
0.5
 50
0
 51
90.000003000000007
  0
LINE
  8
_0-0_0
  6
CONTINUOUS
 62
    7
 10
113.127472
 20
77.925006499999995
 11
113.127472
 21
76.325004500000006
  0
LINE
  8
_0-0_0
  6
CONTINUOUS
 62
    7
 10
113.127472
 20
76.325004500000006
 11
123.127472
 21
76.325004500000006
  0
LINE
  8
_0-0_0
  6
CONTINUOUS
 62
    7
 10
123.127472
 20
76.325004500000006
 11
123.127472
 21
77.225006500000006
  0
LINE
  8
_0-0_0
  6
CONTINUOUS
 62
    7
 10
59.127464000000003
 20
79.829093499999999
 11
100.527466
 21
79.829093499999999
  0
LINE
  8
_0-0_0
  6
CONTINUOUS
 62
    7
 10
59.127464000000003
 20
99.425010499999999
 11
100.527466
 21
99.425010499999999
  0
ARC
  8
_0-0_0
  6
CONTINUOUS
 62
    7
 10
111.82746899999999
 20
78.625007499999995
 40
0.2
 50
180.00000900000003
 51
269.99999700000001
  0
LINE
  8
_0-0_0
  6
CONTINUOUS
 62
    7
 10
111.82746899999999
 20
78.425010499999999
 11
44.427467000000007
 21
78.425010499999999
  0
ARC
  8
_0-0_0
  6
CONTINUOUS
 62
    7
 10
44.427467000000007
 20
78.625007499999995
 40
0.2
 50
269.99999700000001
 51
0
  0
ARC
  8
_0-0_0
  6
CONTINUOUS
 62
    7
 10
44.827469000000008
 20
78.625007499999995
 40
0.2
 50
90.000003000000007
 51
180.00000900000001
  0
LINE
  8
_0-0_0
  6
CONTINUOUS
 62
    7
 10
44.827469000000008
 20
78.825004500000006
 11
111.427475
 21
78.825004500000006
  0
ARC
  8
_0-0_0
  6
CONTINUOUS
 62
    7
 10
111.427475
 20
78.625007499999995
 40
0.2
 50
0
 51
90.000003000000007
  0
LINE
  8
_0-0_0
  6
CONTINUOUS
 62
    7
 10
40.127467999999993
 20
101.4250105
 11
136.62747200000001
 21
101.4250105
  0
LINE
  8
_0-0_0
  6
CONTINUOUS
 62
    7
 10
136.12747200000001
 20
100.4250105
 11
136.62747200000001
 21
100.4250105
  0
LINE
  8
_0-0_0
  6
CONTINUOUS
 62
    7
 10
123.127472
 20
78.425010499999999
 11
123.127472
 21
77.225006500000006
  0
LINE
  8
_0-0_0
  6
CONTINUOUS
 62
    7
 10
123.127472
 20
78.425010499999999
 11
123.127472
 21
96.025001500000002
  0
LINE
  8
_0-0_0
  6
CONTINUOUS
 62
    7
 10
123.127472
 20
98.002372500000007
 11
123.127472
 21
96.025001500000002
  0
LINE
  8
_0-0_0
  6
CONTINUOUS
 62
    7
 10
42.127468
 20
84.914680500000003
 11
42.127468
 21
95.362693500000006
  0
ARC
  8
_0-0_0
  6
CONTINUOUS
 62
    7
 10
42.127468
 20
98.925010499999999
 40
2.7000000000000002
 50
285.68033600000007
 51
352.23356600000005
  0
LINE
  8
_0-0_0
  6
CONTINUOUS
 62
    7
 10
119.127472
 20
96.425010499999999
 11
119.127472
 21
82.825004500000006
  0
LINE
  8
_0-0_0
  6
CONTINUOUS
 62
    7
 10
44.127471999999997
 20
100.4250105
 11
44.327469000000008
 21
100.4250105
  0
LINE
  8
_0-0_0
  6
CONTINUOUS
 62
    7
 10
44.127471999999997
 20
100.4250105
 11
44.127471999999997
 21
98.925010499999999
  0
ARC
  8
_0-0_0
  6
CONTINUOUS
 62
    7
 10
42.127468
 20
98.925010499999999
 40
2
 50
180.00000900000003
 51
0.0000000000000254
  0
LINE
  8
_0-0_0
  6
CONTINUOUS
 62
    7
 10
136.12747200000001
 20
100.4250105
 11
136.12747200000001
 21
98.724998499999998
  0
LINE
  8
_0-0_0
  6
CONTINUOUS
 62
    7
 10
123.127472
 20
76.425006499999995
 11
135.12747200000001
 21
76.425006499999995
  0
LINE
  8
_0-0_0
  6
CONTINUOUS
 62
    7
 10
135.12747200000001
 20
76.425006499999995
 11
139.80291699999998
 21
76.425006499999995
  0
LINE
  8
_0-0_0
  6
CONTINUOUS
 62
    7
 10
135.12747200000001
 20
81.925010499999999
 11
135.12747200000001
 21
78.925010499999999
  0
LINE
  8
_0-0_0
  6
CONTINUOUS
 62
    7
 10
135.12747200000001
 20
78.925010499999999
 11
135.12747200000001
 21
78.425010499999999
  0
LINE
  8
_0-0_0
  6
CONTINUOUS
 62
    7
 10
135.12747200000001
 20
81.925010499999999
 11
135.12747200000001
 21
82.425010499999999
  0
ARC
  8
_0-0_0
  6
CONTINUOUS
 62
    7
 10
129.12745699999999
 20
81.725013500000003
 40
0.500016
 50
180.00117
 51
359.995611
  0
LINE
  8
_0-0_0
  6
CONTINUOUS
 62
    7
 10
129.62747200000001
 20
81.724998499999998
 11
129.62747200000001
 21
93.724998499999998
  0
ARC
  8
_0-0_0
  6
CONTINUOUS
 62
    7
 10
129.12745699999999
 20
93.724998499999998
 40
0.500016
 50
0.001164
 51
179.99560600000004
  0
LINE
  8
_0-0_0
  6
CONTINUOUS
 62
    7
 10
128.62747200000001
 20
81.724998499999998
 11
128.62747200000001
 21
93.724998499999998
  0
ARC
  8
_0-0_0
  6
CONTINUOUS
 62
    7
 10
130.62745699999999
 20
81.725013500000003
 40
0.500016
 50
180.00117
 51
359.995611
  0
LINE
  8
_0-0_0
  6
CONTINUOUS
 62
    7
 10
131.12747200000001
 20
81.724998499999998
 11
131.12747200000001
 21
93.724998499999998
  0
ARC
  8
_0-0_0
  6
CONTINUOUS
 62
    7
 10
130.62745699999999
 20
93.724998499999998
 40
0.500016
 50
0.001164
 51
179.99560600000004
  0
LINE
  8
_0-0_0
  6
CONTINUOUS
 62
    7
 10
130.12747200000001
 20
81.724998499999998
 11
130.12747200000001
 21
93.724998499999998
  0
ARC
  8
_0-0_0
  6
CONTINUOUS
 62
    7
 10
132.12745699999999
 20
81.725013500000003
 40
0.500016
 50
180.00117
 51
359.995611
  0
LINE
  8
_0-0_0
  6
CONTINUOUS
 62
    7
 10
132.62747200000001
 20
81.724998499999998
 11
132.62747200000001
 21
93.724998499999998
  0
ARC
  8
_0-0_0
  6
CONTINUOUS
 62
    7
 10
132.12745699999999
 20
93.724998499999998
 40
0.500016
 50
0.001164
 51
179.99560600000004
  0
LINE
  8
_0-0_0
  6
CONTINUOUS
 62
    7
 10
131.62747200000001
 20
81.724998499999998
 11
131.62747200000001
 21
93.724998499999998
  0
ARC
  8
_0-0_0
  6
CONTINUOUS
 62
    7
 10
133.62745699999999
 20
81.725013500000003
 40
0.500016
 50
180.00117
 51
359.995611
  0
LINE
  8
_0-0_0
  6
CONTINUOUS
 62
    7
 10
134.12747200000001
 20
81.724998499999998
 11
134.12747200000001
 21
93.724998499999998
  0
ARC
  8
_0-0_0
  6
CONTINUOUS
 62
    7
 10
133.62745699999999
 20
93.724998499999998
 40
0.500016
 50
0.001164
 51
179.99560600000004
  0
LINE
  8
_0-0_0
  6
CONTINUOUS
 62
    7
 10
133.12747200000001
 20
81.724998499999998
 11
133.12747200000001
 21
93.724998499999998
  0
LINE
  8
_0-0_0
  6
CONTINUOUS
 62
    7
 10
123.127472
 20
98.724998499999998
 11
123.127472
 21
98.002372500000007
  0
LINE
  8
_0-0_0
  6
CONTINUOUS
 62
    7
 10
136.12747200000001
 20
98.724998499999998
 11
123.127472
 21
98.724998499999998
  0
LINE
  8
_0-0_0
  6
CONTINUOUS
 62
    7
 10
123.127472
 20
100.4250105
 11
136.12747200000001
 21
100.4250105
  0
LINE
  8
_0-0_0
  6
CONTINUOUS
 62
    7
 10
123.127472
 20
100.4250105
 11
123.127472
 21
98.724998499999998
  0
LINE
  8
_0-0_0
  6
CONTINUOUS
 62
    7
 10
112.57746899999999
 20
78.401969500000007
 11
112.57746899999999
 21
78.424995500000009
  0
ARC
  8
_0-0_0
  6
CONTINUOUS
 62
    7
 10
139.80291699999998
 20
78.425010499999999
 40
2
 50
269.99999700000001
 51
288.43501300000003
  0
LINE
  8
_0-0_0
  6
CONTINUOUS
 62
    7
 10
118.927475
 20
100.4250105
 11
119.127472
 21
100.4250105
  0
ARC
  8
_0-0_0
  6
CONTINUOUS
 62
    7
 10
121.127472
 20
98.925010499999999
 40
2
 50
180.00000900000003
 51
0.0000000000000254
  0
LINE
  8
_0-0_0
  6
CONTINUOUS
 62
    7
 10
119.127472
 20
98.925010499999999
 11
119.127472
 21
100.4250105
  0
LINE
  8
_0-0_0
  6
CONTINUOUS
 62
    7
 10
140.87745699999999
 20
76.675003500000003
 11
140.43536399999999
 21
76.527637499999997
  0
ARC
  8
_0-0_0
  6
CONTINUOUS
 62
    7
 10
110.127472
 20
92.025001500000002
 40
2.25
 50
269.99999700000001
 51
90.000002999999992
  0
LINE
  8
_0-0_0
  6
CONTINUOUS
 62
    7
 10
106.127464
 20
89.775001500000002
 11
110.127472
 21
89.775001500000002
  0
ARC
  8
_0-0_0
  6
CONTINUOUS
 62
    7
 10
106.127464
 20
92.025001500000002
 40
2.25
 50
90.000003000000007
 51
269.99999700000006
  0
ARC
  8
_0-0_0
  6
CONTINUOUS
 62
    7
 10
54.127464000000003
 20
92.025001500000002
 40
2.25
 50
269.99999700000001
 51
90.000002999999992
  0
LINE
  8
_0-0_0
  6
CONTINUOUS
 62
    7
 10
50.127464000000003
 20
89.775001500000002
 11
54.127464000000003
 21
89.775001500000002
  0
ARC
  8
_0-0_0
  6
CONTINUOUS
 62
    7
 10
50.127464000000003
 20
92.025001500000002
 40
2.25
 50
90.000003000000007
 51
269.99999700000006
  0
LINE
  8
_0-0_0
  6
CONTINUOUS
 62
    7
 10
106.127464
 20
94.275001500000002
 11
110.127472
 21
94.275001500000002
  0
LINE
  8
_0-0_0
  6
CONTINUOUS
 62
    7
 10
50.127464000000003
 20
94.275001500000002
 11
54.127464000000003
 21
94.275001500000002
  0
LINE
  8
_0-0_0
  6
CONTINUOUS
 62
    7
 10
112.368072
 20
88.025001500000002
 11
103.886864
 21
88.025001500000002
  0
LINE
  8
_0-0_0
  6
CONTINUOUS
 62
    7
 10
112.368072
 20
88.025001500000002
 11
114.677475
 21
92.025001500000002
  0
LINE
  8
_0-0_0
  6
CONTINUOUS
 62
    7
 10
114.677475
 20
92.025001500000002
 11
112.368072
 21
96.025001500000002
  0
LINE
  8
_0-0_0
  6
CONTINUOUS
 62
    7
 10
103.886864
 20
96.025001500000002
 11
112.368072
 21
96.025001500000002
  0
LINE
  8
_0-0_0
  6
CONTINUOUS
 62
    7
 10
101.577461
 20
92.025001500000002
 11
103.886864
 21
96.025001500000002
  0
LINE
  8
_0-0_0
  6
CONTINUOUS
 62
    7
 10
103.886864
 20
88.025001500000002
 11
101.577461
 21
92.025001500000002
  0
LINE
  8
_0-0_0
  6
CONTINUOUS
 62
    7
 10
56.368065000000001
 20
88.025001500000002
 11
47.886870999999999
 21
88.025001500000002
  0
LINE
  8
_0-0_0
  6
CONTINUOUS
 62
    7
 10
58.677467000000007
 20
92.025001500000002
 11
56.368065000000001
 21
88.025001500000002
  0
LINE
  8
_0-0_0
  6
CONTINUOUS
 62
    7
 10
58.677467000000007
 20
92.025001500000002
 11
56.368065000000001
 21
96.025001500000002
  0
LINE
  8
_0-0_0
  6
CONTINUOUS
 62
    7
 10
47.886870999999999
 20
96.025001500000002
 11
56.368065000000001
 21
96.025001500000002
  0
LINE
  8
_0-0_0
  6
CONTINUOUS
 62
    7
 10
45.577469000000008
 20
92.025001500000002
 11
47.886870999999999
 21
96.025001500000002
  0
LINE
  8
_0-0_0
  6
CONTINUOUS
 62
    7
 10
45.577469000000008
 20
92.025001500000002
 11
47.886870999999999
 21
88.025001500000002
  0
CIRCLE
  8
_0-0_0
  6
CONTINUOUS
 62
    7
 10
121.127472
 20
98.925010499999999
 40
1.4750000000000001
  0
CIRCLE
  8
_0-0_0
  6
CONTINUOUS
 62
    7
 10
42.127468
 20
98.925010499999999
 40
1.4750000000000001
  0
LINE
  8
_0-0_0
  6
CONTINUOUS
 62
    7
 10
121.57746899999999
 20
98.724998499999998
 11
122.22746300000001
 21
98.724998499999998
  0
ARC
  8
_0-0_0
  6
CONTINUOUS
 62
    7
 10
121.57746899999999
 20
98.474998499999998
 40
0.25
 50
90.000003000000007
 51
180.00000900000001
  0
LINE
  8
_0-0_0
  6
CONTINUOUS
 62
    7
 10
121.32746899999999
 20
98.474998499999998
 11
121.32746899999999
 21
97.825004500000006
  0
LINE
  8
_0-0_0
  6
CONTINUOUS
 62
    7
 10
120.927475
 20
97.825004500000006
 11
121.32746899999999
 21
97.825004500000006
  0
LINE
  8
_0-0_0
  6
CONTINUOUS
 62
    7
 10
120.927475
 20
97.825004500000006
 11
120.927475
 21
98.474998499999998
  0
ARC
  8
_0-0_0
  6
CONTINUOUS
 62
    7
 10
120.677475
 20
98.474998499999998
 40
0.25
 50
0
 51
90.000003000000007
  0
LINE
  8
_0-0_0
  6
CONTINUOUS
 62
    7
 10
120.02746599999999
 20
98.724998499999998
 11
120.677475
 21
98.724998499999998
  0
LINE
  8
_0-0_0
  6
CONTINUOUS
 62
    7
 10
120.02746599999999
 20
98.724998499999998
 11
120.02746599999999
 21
99.125007499999995
  0
LINE
  8
_0-0_0
  6
CONTINUOUS
 62
    7
 10
120.677475
 20
99.125007499999995
 11
120.02746599999999
 21
99.125007499999995
  0
ARC
  8
_0-0_0
  6
CONTINUOUS
 62
    7
 10
120.677475
 20
99.375007499999995
 40
0.25
 50
269.99999700000001
 51
0
  0
LINE
  8
_0-0_0
  6
CONTINUOUS
 62
    7
 10
120.927475
 20
99.375007499999995
 11
120.927475
 21
100.0250015
  0
LINE
  8
_0-0_0
  6
CONTINUOUS
 62
    7
 10
121.32746899999999
 20
100.0250015
 11
120.927475
 21
100.0250015
  0
LINE
  8
_0-0_0
  6
CONTINUOUS
 62
    7
 10
121.32746899999999
 20
100.0250015
 11
121.32746899999999
 21
99.375007499999995
  0
ARC
  8
_0-0_0
  6
CONTINUOUS
 62
    7
 10
121.57746899999999
 20
99.375007499999995
 40
0.25
 50
180.00000900000003
 51
269.99999700000001
  0
LINE
  8
_0-0_0
  6
CONTINUOUS
 62
    7
 10
122.22746300000001
 20
99.125007499999995
 11
121.57746899999999
 21
99.125007499999995
  0
LINE
  8
_0-0_0
  6
CONTINUOUS
 62
    7
 10
122.22746300000001
 20
99.125007499999995
 11
122.22746300000001
 21
98.724998499999998
  0
LINE
  8
_0-0_0
  6
CONTINUOUS
 62
    7
 10
42.577469000000001
 20
98.724998499999998
 11
43.227469999999997
 21
98.724998499999998
  0
ARC
  8
_0-0_0
  6
CONTINUOUS
 62
    7
 10
42.577469000000001
 20
98.474998499999998
 40
0.25
 50
90.000003000000007
 51
180.00000900000001
  0
LINE
  8
_0-0_0
  6
CONTINUOUS
 62
    7
 10
42.327469000000001
 20
98.474998499999998
 11
42.327469000000001
 21
97.825004500000006
  0
LINE
  8
_0-0_0
  6
CONTINUOUS
 62
    7
 10
41.927467
 20
97.825004500000006
 11
42.327469000000001
 21
97.825004500000006
  0
LINE
  8
_0-0_0
  6
CONTINUOUS
 62
    7
 10
41.927467
 20
97.825004500000006
 11
41.927467
 21
98.474998499999998
  0
ARC
  8
_0-0_0
  6
CONTINUOUS
 62
    7
 10
41.677467
 20
98.474998499999998
 40
0.25
 50
0
 51
90.000003000000007
  0
LINE
  8
_0-0_0
  6
CONTINUOUS
 62
    7
 10
41.027466000000004
 20
98.724998499999998
 11
41.677467
 21
98.724998499999998
  0
LINE
  8
_0-0_0
  6
CONTINUOUS
 62
    7
 10
41.027466000000004
 20
98.724998499999998
 11
41.027466000000004
 21
99.125007499999995
  0
LINE
  8
_0-0_0
  6
CONTINUOUS
 62
    7
 10
41.677467
 20
99.125007499999995
 11
41.027466000000004
 21
99.125007499999995
  0
ARC
  8
_0-0_0
  6
CONTINUOUS
 62
    7
 10
41.677467
 20
99.375007499999995
 40
0.25
 50
269.99999700000001
 51
0
  0
LINE
  8
_0-0_0
  6
CONTINUOUS
 62
    7
 10
41.927467
 20
99.375007499999995
 11
41.927467
 21
100.0250015
  0
LINE
  8
_0-0_0
  6
CONTINUOUS
 62
    7
 10
42.327469000000001
 20
100.0250015
 11
41.927467
 21
100.0250015
  0
LINE
  8
_0-0_0
  6
CONTINUOUS
 62
    7
 10
42.327469000000001
 20
100.0250015
 11
42.327469000000001
 21
99.375007499999995
  0
ARC
  8
_0-0_0
  6
CONTINUOUS
 62
    7
 10
42.577469000000001
 20
99.375007499999995
 40
0.25
 50
180.00000900000003
 51
269.99999700000001
  0
LINE
  8
_0-0_0
  6
CONTINUOUS
 62
    7
 10
43.227469999999997
 20
99.125007499999995
 11
42.577469000000001
 21
99.125007499999995
  0
LINE
  8
_0-0_0
  6
CONTINUOUS
 62
    7
 10
43.227469999999997
 20
99.125007499999995
 11
43.227469999999997
 21
98.724998499999998
  0
LINE
  8
_0-0_0
  6
CONTINUOUS
 62
    7
 10
43.677467000000007
 20
78.401969500000007
 11
43.677467000000007
 21
78.424995500000009
  0
LINE
  8
_0-0_0
  6
CONTINUOUS
 62
    7
 10
62.127464000000003
 20
96.425010499999999
 11
62.127464000000003
 21
83.467994500000003
  0
ARC
  8
_0-0_0
  6
CONTINUOUS
 62
    7
 10
59.127464000000003
 20
96.425010499999999
 40
3
 50
0
 51
90.000003000000007
  0
LINE
  8
_0-0_0
  6
CONTINUOUS
 62
    7
 10
98.127464000000003
 20
82.825004500000006
 11
98.127464000000003
 21
96.425010499999999
  0
LINE
  8
_0-0_0
  6
CONTINUOUS
 62
    7
 10
81.614952000000002
 20
92.594642500000006
 11
80.314948999999999
 21
96.094642500000006
  0
ARC
  8
_0-0_0
  6
CONTINUOUS
 62
    7
 10
78.827469000000008
 20
92.525001500000002
 40
0.2
 50
159.62357
 51
269.99999700000001
  0
LINE
  8
_0-0_0
  6
CONTINUOUS
 62
    7
 10
123.127472
 20
98.025001500000002
 11
139.80291699999998
 21
98.025001500000002
  0
ARC
  8
_0-0_0
  6
CONTINUOUS
 62
    7
 10
139.80291699999998
 20
96.025001500000002
 40
2
 50
71.565000999999995
 51
90.000003000000007
  0
LINE
  8
_0-0_0
  6
CONTINUOUS
 62
    7
 10
140.43537900000001
 20
97.9223705
 11
140.31587200000001
 21
97.957984499999995
  0
LINE
  8
_0-0_0
  6
CONTINUOUS
 62
    7
 10
140.31587200000001
 20
97.957984499999995
 11
140.194321
 21
97.985862499999996
  0
LINE
  8
_0-0_0
  6
CONTINUOUS
 62
    7
 10
140.194321
 20
97.985862499999996
 11
140.07119699999998
 21
98.005912500000008
  0
LINE
  8
_0-0_0
  6
CONTINUOUS
 62
    7
 10
140.07119699999998
 20
98.005912500000008
 11
139.94697600000001
 21
98.0180285
  0
LINE
  8
_0-0_0
  6
CONTINUOUS
 62
    7
 10
139.94697600000001
 20
98.0180285
 11
139.82214299999998
 21
98.022163500000005
  0
LINE
  8
_0-0_0
  6
CONTINUOUS
 62
    7
 10
139.82214299999998
 20
98.022163500000005
 11
139.80291699999998
 21
98.022087499999998
  0
LINE
  8
_0-0_0
  6
CONTINUOUS
 62
    7
 10
144.75991800000003
 20
96.480842500000008
 11
140.43536399999999
 21
97.9223705
  0
LINE
  8
_0-0_0
  6
CONTINUOUS
 62
    7
 10
144.60180700000001
 20
81.925010499999999
 11
145.29516599999999
 21
81.925010499999999
  0
LINE
  8
_0-0_0
  6
CONTINUOUS
 62
    7
 10
144.60180700000001
 20
81.925010499999999
 11
140.27725199999998
 21
81.925010499999999
  0
LINE
  8
_0-0_0
  6
CONTINUOUS
 62
    7
 10
139.80291699999998
 20
81.925010499999999
 11
140.27725199999998
 21
81.925010499999999
  0
LINE
  8
_0-0_0
  6
CONTINUOUS
 62
    7
 10
135.12747200000001
 20
81.925010499999999
 11
139.80291699999998
 21
81.925010499999999
  0
LINE
  8
_0-0_0
  6
CONTINUOUS
 62
    7
 10
146.12747200000001
 20
81.174964500000002
 11
146.12747200000001
 21
82.295982500000008
  0
LINE
  8
_0-0_0
  6
CONTINUOUS
 62
    7
 10
146.12747200000001
 20
83.217308500000001
 11
146.12747200000001
 21
82.295982500000008
  0
LINE
  8
_0-0_0
  6
CONTINUOUS
 62
    7
 10
157.12747200000001
 20
81.974998499999998
 11
157.12747200000001
 21
89.956565499999996
  0
ARC
  8
_0-0_0
  6
CONTINUOUS
 62
    7
 10
150.95358299999998
 20
90.475883499999995
 40
4.9238749999999998
 50
352.49423299999995
 51
1.5359699999999901
  0
LINE
  8
_0-0_0
  6
CONTINUOUS
 62
    7
 10
155.83529700000003
 20
84.617301499999996
 11
155.92962599999998
 21
84.863929499999998
  0
LINE
  8
_0-0_0
  6
CONTINUOUS
 62
    7
 10
155.92962599999998
 20
84.863929499999998
 11
156.01357999999999
 21
85.103904499999999
  0
LINE
  8
_0-0_0
  6
CONTINUOUS
 62
    7
 10
156.01357999999999
 20
85.103904499999999
 11
156.087738
 21
85.338020499999999
  0
LINE
  8
_0-0_0
  6
CONTINUOUS
 62
    7
 10
156.087738
 20
85.338020499999999
 11
156.15261800000002
 21
85.567054499999998
  0
LINE
  8
_0-0_0
  6
CONTINUOUS
 62
    7
 10
156.15261800000002
 20
85.567054499999998
 11
156.208664
 21
85.791725499999998
  0
LINE
  8
_0-0_0
  6
CONTINUOUS
 62
    7
 10
156.208664
 20
85.791725499999998
 11
156.25622600000003
 21
86.012702500000003
  0
LINE
  8
_0-0_0
  6
CONTINUOUS
 62
    7
 10
156.25622600000003
 20
86.012702500000003
 11
156.29562399999998
 21
86.230628500000009
  0
LINE
  8
_0-0_0
  6
CONTINUOUS
 62
    7
 10
156.29562399999998
 20
86.230628500000009
 11
156.32711799999998
 21
86.446067499999998
  0
LINE
  8
_0-0_0
  6
CONTINUOUS
 62
    7
 10
156.32711799999998
 20
86.446067499999998
 11
156.35089099999999
 21
86.659599499999999
  0
LINE
  8
_0-0_0
  6
CONTINUOUS
 62
    7
 10
156.35089099999999
 20
86.659599499999999
 11
156.36682100000002
 21
86.867317499999999
  0
LINE
  8
_0-0_0
  6
CONTINUOUS
 62
    7
 10
156.36682100000002
 20
86.867317499999999
 11
156.37558000000001
 21
87.074165500000007
  0
LINE
  8
_0-0_0
  6
CONTINUOUS
 62
    7
 10
156.37558000000001
 20
87.074165500000007
 11
156.37721199999999
 21
87.280647500000001
  0
LINE
  8
_0-0_0
  6
CONTINUOUS
 62
    7
 10
156.37721199999999
 20
87.280647500000001
 11
156.37175000000002
 21
87.487220500000006
  0
LINE
  8
_0-0_0
  6
CONTINUOUS
 62
    7
 10
156.37175000000002
 20
87.487220500000006
 11
156.35913099999999
 21
87.694404500000005
  0
LINE
  8
_0-0_0
  6
CONTINUOUS
 62
    7
 10
156.35913099999999
 20
87.694404500000005
 11
156.33932500000003
 21
87.902702500000004
  0
LINE
  8
_0-0_0
  6
CONTINUOUS
 62
    7
 10
156.33932500000003
 20
87.902702500000004
 11
156.31217900000001
 21
88.112617499999999
  0
LINE
  8
_0-0_0
  6
CONTINUOUS
 62
    7
 10
156.31217900000001
 20
88.112617499999999
 11
156.27752700000002
 21
88.324684500000004
  0
LINE
  8
_0-0_0
  6
CONTINUOUS
 62
    7
 10
156.27752700000002
 20
88.324684500000004
 11
156.235184
 21
88.539451499999998
  0
LINE
  8
_0-0_0
  6
CONTINUOUS
 62
    7
 10
156.235184
 20
88.539451499999998
 11
156.18486000000001
 21
88.757453499999997
  0
LINE
  8
_0-0_0
  6
CONTINUOUS
 62
    7
 10
156.18486000000001
 20
88.757453499999997
 11
156.13061499999998
 21
88.963737500000008
  0
LINE
  8
_0-0_0
  6
CONTINUOUS
 62
    7
 10
156.13061499999998
 20
88.963737500000008
 11
156.06890900000002
 21
89.173835499999996
  0
LINE
  8
_0-0_0
  6
CONTINUOUS
 62
    7
 10
156.06890900000002
 20
89.173835499999996
 11
155.99939000000001
 21
89.388313499999995
  0
LINE
  8
_0-0_0
  6
CONTINUOUS
 62
    7
 10
155.99939000000001
 20
89.388313499999995
 11
155.92167699999999
 21
89.607719500000002
  0
LINE
  8
_0-0_0
  6
CONTINUOUS
 62
    7
 10
155.92167699999999
 20
89.607719500000002
 11
155.83529700000003
 21
89.832694500000002
  0
ARC
  8
_0-0_0
  6
CONTINUOUS
 62
    7
 10
150.96374500000002
 20
83.974998499999998
 40
4.9136889999999998
 50
352.48898799999995
 51
7.5110139999999577
  0
LINE
  8
_0-0_0
  6
CONTINUOUS
 62
    7
 10
155.83529700000003
 20
83.332694500000002
 11
155.88978600000002
 21
83.262763500000005
  0
LINE
  8
_0-0_0
  6
CONTINUOUS
 62
    7
 10
155.88978600000002
 20
83.262763500000005
 11
155.94088699999998
 21
83.193931500000005
  0
LINE
  8
_0-0_0
  6
CONTINUOUS
 62
    7
 10
155.94088699999998
 20
83.193931500000005
 11
155.98852499999998
 21
83.126426500000008
  0
LINE
  8
_0-0_0
  6
CONTINUOUS
 62
    7
 10
155.98852499999998
 20
83.126426500000008
 11
156.03302000000002
 21
83.059883499999998
  0
LINE
  8
_0-0_0
  6
CONTINUOUS
 62
    7
 10
156.03302000000002
 20
83.059883499999998
 11
156.087738
 21
82.972343500000008
  0
LINE
  8
_0-0_0
  6
CONTINUOUS
 62
    7
 10
156.087738
 20
82.972343500000008
 11
156.13725299999999
 21
82.886238500000005
  0
LINE
  8
_0-0_0
  6
CONTINUOUS
 62
    7
 10
156.13725299999999
 20
82.886238500000005
 11
156.18171699999999
 21
82.801414500000007
  0
LINE
  8
_0-0_0
  6
CONTINUOUS
 62
    7
 10
156.18171699999999
 20
82.801414500000007
 11
156.22868299999999
 21
82.7010875
  0
LINE
  8
_0-0_0
  6
CONTINUOUS
 62
    7
 10
156.22868299999999
 20
82.7010875
 11
156.26889
 21
82.602165499999998
  0
LINE
  8
_0-0_0
  6
CONTINUOUS
 62
    7
 10
156.26889
 20
82.602165499999998
 11
156.30255099999999
 21
82.504402499999998
  0
LINE
  8
_0-0_0
  6
CONTINUOUS
 62
    7
 10
156.30255099999999
 20
82.504402499999998
 11
156.32984900000002
 21
82.407600500000001
  0
LINE
  8
_0-0_0
  6
CONTINUOUS
 62
    7
 10
156.32984900000002
 20
82.407600500000001
 11
156.35089099999999
 21
82.311546500000006
  0
LINE
  8
_0-0_0
  6
CONTINUOUS
 62
    7
 10
156.35089099999999
 20
82.311546500000006
 11
156.36682100000002
 21
82.207694500000002
  0
LINE
  8
_0-0_0
  6
CONTINUOUS
 62
    7
 10
156.36682100000002
 20
82.207694500000002
 11
156.37558000000001
 21
82.104270499999998
  0
LINE
  8
_0-0_0
  6
CONTINUOUS
 62
    7
 10
156.37558000000001
 20
82.104270499999998
 11
156.37721199999999
 21
82.001029500000001
  0
LINE
  8
_0-0_0
  6
CONTINUOUS
 62
    7
 10
156.37721199999999
 20
82.001029500000001
 11
156.37175000000002
 21
81.897743500000004
  0
LINE
  8
_0-0_0
  6
CONTINUOUS
 62
    7
 10
156.37175000000002
 20
81.897743500000004
 11
156.35913099999999
 21
81.794151499999998
  0
LINE
  8
_0-0_0
  6
CONTINUOUS
 62
    7
 10
156.35913099999999
 20
81.794151499999998
 11
156.33932500000003
 21
81.689994499999997
  0
LINE
  8
_0-0_0
  6
CONTINUOUS
 62
    7
 10
156.33932500000003
 20
81.689994499999997
 11
156.31217900000001
 21
81.585044499999995
  0
LINE
  8
_0-0_0
  6
CONTINUOUS
 62
    7
 10
156.31217900000001
 20
81.585044499999995
 11
156.27752700000002
 21
81.479011499999999
  0
LINE
  8
_0-0_0
  6
CONTINUOUS
 62
    7
 10
156.27752700000002
 20
81.479011499999999
 11
156.235184
 21
81.371635499999996
  0
LINE
  8
_0-0_0
  6
CONTINUOUS
 62
    7
 10
156.235184
 20
81.371635499999996
 11
156.18486000000001
 21
81.262626499999996
  0
LINE
  8
_0-0_0
  6
CONTINUOUS
 62
    7
 10
156.18486000000001
 20
81.262626499999996
 11
156.13917500000002
 21
81.174980500000004
  0
LINE
  8
_0-0_0
  6
CONTINUOUS
 62
    7
 10
146.12747200000001
 20
91.117301499999996
 11
155.83529700000003
 21
91.117301499999996
  0
LINE
  8
_0-0_0
  6
CONTINUOUS
 62
    7
 10
146.12747200000001
 20
89.832694500000002
 11
146.12747200000001
 21
91.117301499999996
  0
LINE
  8
_0-0_0
  6
CONTINUOUS
 62
    7
 10
146.12747200000001
 20
89.832694500000002
 11
155.83529700000003
 21
89.832694500000002
  0
ARC
  8
_0-0_0
  6
CONTINUOUS
 62
    7
 10
150.91555799999998
 20
90.4709395
 40
4.9620009999999999
 50
1.5813010000000001
 51
7.4847919999999997
  0
LINE
  8
_0-0_0
  6
CONTINUOUS
 62
    7
 10
145.82746900000001
 20
85.012977500000005
 11
145.74400300000002
 21
85.391654500000001
  0
LINE
  8
_0-0_0
  6
CONTINUOUS
 62
    7
 10
145.74400300000002
 20
85.391654500000001
 11
145.70391799999999
 21
85.583198500000009
  0
LINE
  8
_0-0_0
  6
CONTINUOUS
 62
    7
 10
145.70391799999999
 20
85.583198500000009
 11
145.64782700000001
 21
85.873207500000007
  0
LINE
  8
_0-0_0
  6
CONTINUOUS
 62
    7
 10
145.64782700000001
 20
85.873207500000007
 11
145.610229
 21
86.092796500000006
  0
LINE
  8
_0-0_0
  6
CONTINUOUS
 62
    7
 10
145.610229
 20
86.092796500000006
 11
145.57759099999998
 21
86.314048499999998
  0
LINE
  8
_0-0_0
  6
CONTINUOUS
 62
    7
 10
145.57759099999998
 20
86.314048499999998
 11
145.55043000000001
 21
86.540840500000002
  0
LINE
  8
_0-0_0
  6
CONTINUOUS
 62
    7
 10
145.55043000000001
 20
86.540840500000002
 11
145.53036500000002
 21
86.768241500000002
  0
LINE
  8
_0-0_0
  6
CONTINUOUS
 62
    7
 10
145.53036500000002
 20
86.768241500000002
 11
145.52320900000001
 21
86.881965500000007
  0
LINE
  8
_0-0_0
  6
CONTINUOUS
 62
    7
 10
145.52320900000001
 20
86.881965500000007
 11
145.51805100000001
 21
86.9956435
  0
LINE
  8
_0-0_0
  6
CONTINUOUS
 62
    7
 10
145.51805100000001
 20
86.9956435
 11
145.51432799999998
 21
87.147087499999998
  0
LINE
  8
_0-0_0
  6
CONTINUOUS
 62
    7
 10
145.51432799999998
 20
87.147087499999998
 11
145.51426700000002
 21
87.298347500000006
  0
LINE
  8
_0-0_0
  6
CONTINUOUS
 62
    7
 10
145.51426700000002
 20
87.298347500000006
 11
145.517853
 21
87.449394499999997
  0
LINE
  8
_0-0_0
  6
CONTINUOUS
 62
    7
 10
145.517853
 20
87.449394499999997
 11
145.52735899999999
 21
87.637947499999996
  0
LINE
  8
_0-0_0
  6
CONTINUOUS
 62
    7
 10
145.52735899999999
 20
87.637947499999996
 11
145.54222099999998
 21
87.8261945
  0
LINE
  8
_0-0_0
  6
CONTINUOUS
 62
    7
 10
145.54222099999998
 20
87.8261945
 11
145.56214899999998
 21
88.014137500000004
  0
LINE
  8
_0-0_0
  6
CONTINUOUS
 62
    7
 10
145.56214899999998
 20
88.014137500000004
 11
145.57853699999998
 21
88.143012499999998
  0
LINE
  8
_0-0_0
  6
CONTINUOUS
 62
    7
 10
145.57853699999998
 20
88.143012499999998
 11
145.59693900000002
 21
88.271659499999998
  0
LINE
  8
_0-0_0
  6
CONTINUOUS
 62
    7
 10
145.59693900000002
 20
88.271659499999998
 11
145.62110899999999
 21
88.423591500000001
  0
LINE
  8
_0-0_0
  6
CONTINUOUS
 62
    7
 10
145.62110899999999
 20
88.423591500000001
 11
145.64750700000002
 21
88.574928499999999
  0
LINE
  8
_0-0_0
  6
CONTINUOUS
 62
    7
 10
145.64750700000002
 20
88.574928499999999
 11
145.70367399999998
 21
88.865562499999996
  0
LINE
  8
_0-0_0
  6
CONTINUOUS
 62
    7
 10
145.70367399999998
 20
88.865562499999996
 11
145.74383499999999
 21
89.057517500000003
  0
LINE
  8
_0-0_0
  6
CONTINUOUS
 62
    7
 10
145.74383499999999
 20
89.057517500000003
 11
145.82746900000001
 21
89.4370045
  0
LINE
  8
_0-0_0
  6
CONTINUOUS
 62
    7
 10
146.12747200000001
 20
85.662956500000007
 11
146.12747200000001
 21
88.787055500000008
  0
LINE
  8
_0-0_0
  6
CONTINUOUS
 62
    7
 10
170.87747200000001
 20
77.699565500000006
 11
170.62747200000001
 21
77.675006499999995
  0
LINE
  8
_0-0_0
  6
CONTINUOUS
 62
    7
 10
170.62747200000001
 20
77.675006499999995
 11
161.37747200000001
 21
77.675006499999995
  0
LINE
  8
_0-0_0
  6
CONTINUOUS
 62
    7
 10
161.12747200000001
 20
77.699565500000006
 11
161.37747200000001
 21
77.675006499999995
  0
LINE
  8
_0-0_0
  6
CONTINUOUS
 62
    7
 10
170.87747200000001
 20
80.673576499999996
 11
170.62747200000001
 21
80.947547499999999
  0
LINE
  8
_0-0_0
  6
CONTINUOUS
 62
    7
 10
170.87747200000001
 20
80.673576499999996
 11
170.62747200000001
 21
80.782859500000001
  0
LINE
  8
_0-0_0
  6
CONTINUOUS
 62
    7
 10
170.87747200000001
 20
80.515998499999995
 11
170.62747200000001
 21
80.782859500000001
  0
LINE
  8
_0-0_0
  6
CONTINUOUS
 62
    7
 10
170.87747200000001
 20
80.515998499999995
 11
170.62747200000001
 21
80.597831499999998
  0
LINE
  8
_0-0_0
  6
CONTINUOUS
 62
    7
 10
170.87747200000001
 20
80.340980500000001
 11
170.62747200000001
 21
80.597831499999998
  0
LINE
  8
_0-0_0
  6
CONTINUOUS
 62
    7
 10
170.87747200000001
 20
80.340980500000001
 11
170.62747200000001
 21
80.394462500000003
  0
LINE
  8
_0-0_0
  6
CONTINUOUS
 62
    7
 10
170.87747200000001
 20
80.150444500000006
 11
170.62747200000001
 21
80.394462500000003
  0
LINE
  8
_0-0_0
  6
CONTINUOUS
 62
    7
 10
170.87747200000001
 20
80.150444500000006
 11
170.62747200000001
 21
80.175010499999999
  0
LINE
  8
_0-0_0
  6
CONTINUOUS
 62
    7
 10
170.87747200000001
 20
79.946479499999995
 11
170.62747200000001
 21
80.175010499999999
  0
LINE
  8
_0-0_0
  6
CONTINUOUS
 62
    7
 10
170.87747200000001
 20
79.946479499999995
 11
170.62747200000001
 21
79.941841499999995
  0
LINE
  8
_0-0_0
  6
CONTINUOUS
 62
    7
 10
170.87747200000001
 20
79.731330499999999
 11
170.62747200000001
 21
79.941841499999995
  0
LINE
  8
_0-0_0
  6
CONTINUOUS
 62
    7
 10
170.87747200000001
 20
79.731330499999999
 11
170.62747200000001
 21
79.697547499999999
  0
LINE
  8
_0-0_0
  6
CONTINUOUS
 62
    7
 10
170.87747200000001
 20
79.507347500000009
 11
170.62747200000001
 21
79.697547499999999
  0
LINE
  8
_0-0_0
  6
CONTINUOUS
 62
    7
 10
170.87747200000001
 20
79.507347500000009
 11
170.62747200000001
 21
79.444786500000006
  0
LINE
  8
_0-0_0
  6
CONTINUOUS
 62
    7
 10
170.87747200000001
 20
79.276985499999995
 11
170.62747200000001
 21
79.444786500000006
  0
LINE
  8
_0-0_0
  6
CONTINUOUS
 62
    7
 10
170.87747200000001
 20
79.276985499999995
 11
170.62747200000001
 21
79.186332500000006
  0
LINE
  8
_0-0_0
  6
CONTINUOUS
 62
    7
 10
170.87747200000001
 20
79.042762499999995
 11
170.62747200000001
 21
79.186332500000006
  0
LINE
  8
_0-0_0
  6
CONTINUOUS
 62
    7
 10
170.87747200000001
 20
79.042762499999995
 11
170.62747200000001
 21
78.925010499999999
  0
LINE
  8
_0-0_0
  6
CONTINUOUS
 62
    7
 10
170.87747200000001
 20
78.807243499999998
 11
170.62747200000001
 21
78.925010499999999
  0
LINE
  8
_0-0_0
  6
CONTINUOUS
 62
    7
 10
170.87747200000001
 20
78.807243499999998
 11
170.62747200000001
 21
78.663688500000006
  0
LINE
  8
_0-0_0
  6
CONTINUOUS
 62
    7
 10
170.87747200000001
 20
78.573020499999998
 11
170.62747200000001
 21
78.663688500000006
  0
LINE
  8
_0-0_0
  6
CONTINUOUS
 62
    7
 10
170.87747200000001
 20
78.573020499999998
 11
170.62747200000001
 21
78.405235500000003
  0
LINE
  8
_0-0_0
  6
CONTINUOUS
 62
    7
 10
170.87747200000001
 20
78.342658499999999
 11
170.62747200000001
 21
78.405235500000003
  0
LINE
  8
_0-0_0
  6
CONTINUOUS
 62
    7
 10
170.87747200000001
 20
78.342658499999999
 11
170.62747200000001
 21
78.152461500000001
  0
LINE
  8
_0-0_0
  6
CONTINUOUS
 62
    7
 10
170.87747200000001
 20
78.118679499999999
 11
170.62747200000001
 21
78.152461500000001
  0
LINE
  8
_0-0_0
  6
CONTINUOUS
 62
    7
 10
170.87747200000001
 20
78.118679499999999
 11
170.62747200000001
 21
77.908164499999998
  0
LINE
  8
_0-0_0
  6
CONTINUOUS
 62
    7
 10
170.87747200000001
 20
77.903526499999998
 11
170.62747200000001
 21
77.908164499999998
  0
LINE
  8
_0-0_0
  6
CONTINUOUS
 62
    7
 10
170.87747200000001
 20
77.903526499999998
 11
170.62747200000001
 21
77.675006499999995
  0
LINE
  8
_0-0_0
  6
CONTINUOUS
 62
    7
 10
170.87747200000001
 20
77.699565500000006
 11
170.62747200000001
 21
77.455543500000005
  0
LINE
  8
_0-0_0
  6
CONTINUOUS
 62
    7
 10
170.87747200000001
 20
77.509033500000001
 11
170.62747200000001
 21
77.455543500000005
  0
LINE
  8
_0-0_0
  6
CONTINUOUS
 62
    7
 10
170.87747200000001
 20
77.509033500000001
 11
170.62747200000001
 21
77.252178499999999
  0
LINE
  8
_0-0_0
  6
CONTINUOUS
 62
    7
 10
170.87747200000001
 20
77.334014499999995
 11
170.62747200000001
 21
77.252178499999999
  0
LINE
  8
_0-0_0
  6
CONTINUOUS
 62
    7
 10
170.87747200000001
 20
77.334014499999995
 11
170.62747200000001
 21
77.067142500000003
  0
LINE
  8
_0-0_0
  6
CONTINUOUS
 62
    7
 10
170.87747200000001
 20
77.176425499999993
 11
170.62747200000001
 21
77.067142500000003
  0
LINE
  8
_0-0_0
  6
CONTINUOUS
 62
    7
 10
170.87747200000001
 20
77.176425499999993
 11
170.62747200000001
 21
76.902461500000001
  0
LINE
  8
_0-0_0
  6
CONTINUOUS
 62
    7
 10
170.87747200000001
 20
77.0379985
 11
170.62747200000001
 21
76.902461500000001
  0
LINE
  8
_0-0_0
  6
CONTINUOUS
 62
    7
 10
170.87747200000001
 20
77.0379985
 11
170.62747200000001
 21
76.759941499999996
  0
LINE
  8
_0-0_0
  6
CONTINUOUS
 62
    7
 10
170.87747200000001
 20
76.920242500000001
 11
170.62747200000001
 21
76.759941499999996
  0
LINE
  8
_0-0_0
  6
CONTINUOUS
 62
    7
 10
170.87747200000001
 20
76.920242500000001
 11
170.62747200000001
 21
76.641139500000008
  0
LINE
  8
_0-0_0
  6
CONTINUOUS
 62
    7
 10
170.87747200000001
 20
76.824447500000005
 11
170.62747200000001
 21
76.641139500000008
  0
LINE
  8
_0-0_0
  6
CONTINUOUS
 62
    7
 10
170.87747200000001
 20
76.824447500000005
 11
170.62747200000001
 21
76.547363500000003
  0
LINE
  8
_0-0_0
  6
CONTINUOUS
 62
    7
 10
170.87747200000001
 20
76.751670500000003
 11
170.62747200000001
 21
76.547363500000003
  0
LINE
  8
_0-0_0
  6
CONTINUOUS
 62
    7
 10
170.87747200000001
 20
76.751670500000003
 11
170.62747200000001
 21
76.479637499999995
  0
LINE
  8
_0-0_0
  6
CONTINUOUS
 62
    7
 10
170.87747200000001
 20
76.702705500000008
 11
170.62747200000001
 21
76.479637499999995
  0
LINE
  8
_0-0_0
  6
CONTINUOUS
 62
    7
 10
170.87747200000001
 20
76.702705500000008
 11
170.62747200000001
 21
76.438701500000008
  0
LINE
  8
_0-0_0
  6
CONTINUOUS
 62
    7
 10
170.87747200000001
 20
76.678089499999999
 11
170.62747200000001
 21
76.438701500000008
  0
LINE
  8
_0-0_0
  6
CONTINUOUS
 62
    7
 10
170.87747200000001
 20
76.678089499999999
 11
170.62747200000001
 21
76.425006499999995
  0
LINE
  8
_0-0_0
  6
CONTINUOUS
 62
    7
 10
171.12747200000001
 20
76.925006499999995
 11
171.12747200000001
 21
80.680168500000008
  0
LINE
  8
_0-0_0
  6
CONTINUOUS
 62
    7
 10
170.74751300000003
 20
81.013618500000007
 11
170.62747200000001
 21
81.090064499999997
  0
LINE
  8
_0-0_0
  6
CONTINUOUS
 62
    7
 10
170.87747200000001
 20
80.812019500000005
 11
170.62747200000001
 21
81.090064499999997
  0
LINE
  8
_0-0_0
  6
CONTINUOUS
 62
    7
 10
170.87747200000001
 20
80.812019500000005
 11
170.62747200000001
 21
80.947547499999999
  0
LINE
  8
_0-0_0
  6
CONTINUOUS
 62
    7
 10
170.62747200000001
 20
80.782859500000001
 11
161.37747200000001
 21
80.782859500000001
  0
LINE
  8
_0-0_0
  6
CONTINUOUS
 62
    7
 10
161.12747200000001
 20
80.673576499999996
 11
161.37747200000001
 21
80.782859500000001
  0
LINE
  8
_0-0_0
  6
CONTINUOUS
 62
    7
 10
170.62747200000001
 20
80.597831499999998
 11
161.37747200000001
 21
80.597831499999998
  0
LINE
  8
_0-0_0
  6
CONTINUOUS
 62
    7
 10
161.12747200000001
 20
80.515998499999995
 11
161.37747200000001
 21
80.597831499999998
  0
LINE
  8
_0-0_0
  6
CONTINUOUS
 62
    7
 10
170.62747200000001
 20
80.394462500000003
 11
161.37747200000001
 21
80.394462500000003
  0
LINE
  8
_0-0_0
  6
CONTINUOUS
 62
    7
 10
161.12747200000001
 20
80.340980500000001
 11
161.37747200000001
 21
80.394462500000003
  0
LINE
  8
_0-0_0
  6
CONTINUOUS
 62
    7
 10
170.62747200000001
 20
80.175010499999999
 11
161.37747200000001
 21
80.175010499999999
  0
LINE
  8
_0-0_0
  6
CONTINUOUS
 62
    7
 10
161.12747200000001
 20
80.150444500000006
 11
161.37747200000001
 21
80.175010499999999
  0
LINE
  8
_0-0_0
  6
CONTINUOUS
 62
    7
 10
170.62747200000001
 20
79.941841499999995
 11
161.37747200000001
 21
79.941841499999995
  0
LINE
  8
_0-0_0
  6
CONTINUOUS
 62
    7
 10
170.87747200000001
 20
79.946479499999995
 11
161.12747200000001
 21
79.946479499999995
  0
LINE
  8
_0-0_0
  6
CONTINUOUS
 62
    7
 10
161.12747200000001
 20
79.946479499999995
 11
161.37747200000001
 21
79.941841499999995
  0
LINE
  8
_0-0_0
  6
CONTINUOUS
 62
    7
 10
170.62747200000001
 20
79.697547499999999
 11
161.37747200000001
 21
79.697547499999999
  0
LINE
  8
_0-0_0
  6
CONTINUOUS
 62
    7
 10
170.87747200000001
 20
79.731330499999999
 11
161.12747200000001
 21
79.731330499999999
  0
LINE
  8
_0-0_0
  6
CONTINUOUS
 62
    7
 10
161.12747200000001
 20
79.731330499999999
 11
161.37747200000001
 21
79.697547499999999
  0
LINE
  8
_0-0_0
  6
CONTINUOUS
 62
    7
 10
170.62747200000001
 20
79.444786500000006
 11
161.37747200000001
 21
79.444786500000006
  0
LINE
  8
_0-0_0
  6
CONTINUOUS
 62
    7
 10
170.87747200000001
 20
79.507347500000009
 11
161.12747200000001
 21
79.507347500000009
  0
LINE
  8
_0-0_0
  6
CONTINUOUS
 62
    7
 10
161.12747200000001
 20
79.507347500000009
 11
161.37747200000001
 21
79.444786500000006
  0
LINE
  8
_0-0_0
  6
CONTINUOUS
 62
    7
 10
170.62747200000001
 20
79.186332500000006
 11
161.37747200000001
 21
79.186332500000006
  0
LINE
  8
_0-0_0
  6
CONTINUOUS
 62
    7
 10
170.87747200000001
 20
79.276985499999995
 11
161.12747200000001
 21
79.276985499999995
  0
LINE
  8
_0-0_0
  6
CONTINUOUS
 62
    7
 10
161.12747200000001
 20
79.276985499999995
 11
161.37747200000001
 21
79.186332500000006
  0
LINE
  8
_0-0_0
  6
CONTINUOUS
 62
    7
 10
170.62747200000001
 20
78.925010499999999
 11
161.37747200000001
 21
78.925010499999999
  0
LINE
  8
_0-0_0
  6
CONTINUOUS
 62
    7
 10
170.87747200000001
 20
79.042762499999995
 11
161.12747200000001
 21
79.042762499999995
  0
LINE
  8
_0-0_0
  6
CONTINUOUS
 62
    7
 10
161.12747200000001
 20
79.042762499999995
 11
161.37747200000001
 21
78.925010499999999
  0
LINE
  8
_0-0_0
  6
CONTINUOUS
 62
    7
 10
170.62747200000001
 20
78.663688500000006
 11
161.37747200000001
 21
78.663688500000006
  0
LINE
  8
_0-0_0
  6
CONTINUOUS
 62
    7
 10
170.87747200000001
 20
78.807243499999998
 11
161.12747200000001
 21
78.807243499999998
  0
LINE
  8
_0-0_0
  6
CONTINUOUS
 62
    7
 10
161.12747200000001
 20
78.807243499999998
 11
161.37747200000001
 21
78.663688500000006
  0
LINE
  8
_0-0_0
  6
CONTINUOUS
 62
    7
 10
170.62747200000001
 20
78.405235500000003
 11
161.37747200000001
 21
78.405235500000003
  0
LINE
  8
_0-0_0
  6
CONTINUOUS
 62
    7
 10
170.87747200000001
 20
78.573020499999998
 11
161.12747200000001
 21
78.573020499999998
  0
LINE
  8
_0-0_0
  6
CONTINUOUS
 62
    7
 10
161.12747200000001
 20
78.573020499999998
 11
161.37747200000001
 21
78.405235500000003
  0
LINE
  8
_0-0_0
  6
CONTINUOUS
 62
    7
 10
170.62747200000001
 20
78.152461500000001
 11
161.37747200000001
 21
78.152461500000001
  0
LINE
  8
_0-0_0
  6
CONTINUOUS
 62
    7
 10
170.87747200000001
 20
78.342658499999999
 11
161.12747200000001
 21
78.342658499999999
  0
LINE
  8
_0-0_0
  6
CONTINUOUS
 62
    7
 10
161.12747200000001
 20
78.342658499999999
 11
161.37747200000001
 21
78.152461500000001
  0
LINE
  8
_0-0_0
  6
CONTINUOUS
 62
    7
 10
170.62747200000001
 20
77.908164499999998
 11
161.37747200000001
 21
77.908164499999998
  0
LINE
  8
_0-0_0
  6
CONTINUOUS
 62
    7
 10
170.87747200000001
 20
78.118679499999999
 11
161.12747200000001
 21
78.118679499999999
  0
LINE
  8
_0-0_0
  6
CONTINUOUS
 62
    7
 10
161.12747200000001
 20
78.118679499999999
 11
161.37747200000001
 21
77.908164499999998
  0
LINE
  8
_0-0_0
  6
CONTINUOUS
 62
    7
 10
170.62747200000001
 20
77.252178499999999
 11
161.37747200000001
 21
77.252178499999999
  0
LINE
  8
_0-0_0
  6
CONTINUOUS
 62
    7
 10
161.12747200000001
 20
77.509033500000001
 11
161.37747200000001
 21
77.252178499999999
  0
LINE
  8
_0-0_0
  6
CONTINUOUS
 62
    7
 10
170.62747200000001
 20
77.067142500000003
 11
161.37747200000001
 21
77.067142500000003
  0
LINE
  8
_0-0_0
  6
CONTINUOUS
 62
    7
 10
161.12747200000001
 20
77.334014499999995
 11
161.37747200000001
 21
77.067142500000003
  0
LINE
  8
_0-0_0
  6
CONTINUOUS
 62
    7
 10
170.62747200000001
 20
76.902461500000001
 11
161.37747200000001
 21
76.902461500000001
  0
LINE
  8
_0-0_0
  6
CONTINUOUS
 62
    7
 10
161.12747200000001
 20
77.176425499999993
 11
161.37747200000001
 21
76.902461500000001
  0
LINE
  8
_0-0_0
  6
CONTINUOUS
 62
    7
 10
170.62747200000001
 20
76.759941499999996
 11
161.37747200000001
 21
76.759941499999996
  0
LINE
  8
_0-0_0
  6
CONTINUOUS
 62
    7
 10
161.12747200000001
 20
77.0379985
 11
161.37747200000001
 21
76.759941499999996
  0
LINE
  8
_0-0_0
  6
CONTINUOUS
 62
    7
 10
170.62747200000001
 20
76.641139500000008
 11
161.37747200000001
 21
76.641139500000008
  0
LINE
  8
_0-0_0
  6
CONTINUOUS
 62
    7
 10
161.12747200000001
 20
76.920242500000001
 11
161.37747200000001
 21
76.641139500000008
  0
LINE
  8
_0-0_0
  6
CONTINUOUS
 62
    7
 10
170.62747200000001
 20
76.547363500000003
 11
161.37747200000001
 21
76.547363500000003
  0
LINE
  8
_0-0_0
  6
CONTINUOUS
 62
    7
 10
161.12747200000001
 20
76.824447500000005
 11
161.37747200000001
 21
76.547363500000003
  0
LINE
  8
_0-0_0
  6
CONTINUOUS
 62
    7
 10
170.62747200000001
 20
76.479637499999995
 11
161.37747200000001
 21
76.479637499999995
  0
LINE
  8
_0-0_0
  6
CONTINUOUS
 62
    7
 10
161.12747200000001
 20
76.751670500000003
 11
161.37747200000001
 21
76.479637499999995
  0
LINE
  8
_0-0_0
  6
CONTINUOUS
 62
    7
 10
170.62747200000001
 20
76.438701500000008
 11
161.37747200000001
 21
76.438701500000008
  0
LINE
  8
_0-0_0
  6
CONTINUOUS
 62
    7
 10
161.12747200000001
 20
76.702705500000008
 11
161.37747200000001
 21
76.438701500000008
  0
LINE
  8
_0-0_0
  6
CONTINUOUS
 62
    7
 10
170.62747200000001
 20
76.425006499999995
 11
161.37747200000001
 21
76.425006499999995
  0
LINE
  8
_0-0_0
  6
CONTINUOUS
 62
    7
 10
161.12747200000001
 20
76.678089499999999
 11
161.37747200000001
 21
76.425006499999995
  0
LINE
  8
_0-0_0
  6
CONTINUOUS
 62
    7
 10
170.62747200000001
 20
81.090064499999997
 11
161.37747200000001
 21
81.090064499999997
  0
LINE
  8
_0-0_0
  6
CONTINUOUS
 62
    7
 10
170.87747200000001
 20
80.929771500000001
 11
170.74751300000003
 21
81.013618500000007
  0
LINE
  8
_0-0_0
  6
CONTINUOUS
 62
    7
 10
161.12747200000001
 20
80.929771500000001
 11
161.25744600000002
 21
81.013618500000007
  0
LINE
  8
_0-0_0
  6
CONTINUOUS
 62
    7
 10
161.25744600000002
 20
81.013618500000007
 11
161.37747200000001
 21
81.090064499999997
  0
LINE
  8
_0-0_0
  6
CONTINUOUS
 62
    7
 10
170.62747200000001
 20
80.947547499999999
 11
161.37747200000001
 21
80.947547499999999
  0
LINE
  8
_0-0_0
  6
CONTINUOUS
 62
    7
 10
161.12747200000001
 20
80.812019500000005
 11
161.37747200000001
 21
80.947547499999999
  0
LINE
  8
_0-0_0
  6
CONTINUOUS
 62
    7
 10
170.87747200000001
 20
80.929771500000001
 11
170.62747200000001
 21
81.208869500000006
  0
LINE
  8
_0-0_0
  6
CONTINUOUS
 62
    7
 10
170.62747200000001
 20
81.208869500000006
 11
161.37747200000001
 21
81.208869500000006
  0
LINE
  8
_0-0_0
  6
CONTINUOUS
 62
    7
 10
161.12747200000001
 20
80.929771500000001
 11
161.37747200000001
 21
81.208869500000006
  0
LINE
  8
_0-0_0
  6
CONTINUOUS
 62
    7
 10
170.87747200000001
 20
81.025566499999996
 11
170.62747200000001
 21
81.208869500000006
  0
LINE
  8
_0-0_0
  6
CONTINUOUS
 62
    7
 10
161.12747200000001
 20
81.025566499999996
 11
161.37747200000001
 21
81.208869500000006
  0
LINE
  8
_0-0_0
  6
CONTINUOUS
 62
    7
 10
170.87747200000001
 20
81.025566499999996
 11
170.62747200000001
 21
81.302650499999999
  0
LINE
  8
_0-0_0
  6
CONTINUOUS
 62
    7
 10
170.62747200000001
 20
81.302650499999999
 11
161.37747200000001
 21
81.302650499999999
  0
LINE
  8
_0-0_0
  6
CONTINUOUS
 62
    7
 10
161.12747200000001
 20
81.025566499999996
 11
161.37747200000001
 21
81.302650499999999
  0
LINE
  8
_0-0_0
  6
CONTINUOUS
 62
    7
 10
170.87747200000001
 20
81.098335500000005
 11
170.62747200000001
 21
81.302650499999999
  0
LINE
  8
_0-0_0
  6
CONTINUOUS
 62
    7
 10
161.12747200000001
 20
81.098335500000005
 11
161.37747200000001
 21
81.302650499999999
  0
LINE
  8
_0-0_0
  6
CONTINUOUS
 62
    7
 10
170.87747200000001
 20
81.098335500000005
 11
170.62747200000001
 21
81.370368499999998
  0
LINE
  8
_0-0_0
  6
CONTINUOUS
 62
    7
 10
170.62747200000001
 20
81.370368499999998
 11
161.37747200000001
 21
81.370368499999998
  0
LINE
  8
_0-0_0
  6
CONTINUOUS
 62
    7
 10
161.12747200000001
 20
81.098335500000005
 11
161.37747200000001
 21
81.370368499999998
  0
LINE
  8
_0-0_0
  6
CONTINUOUS
 62
    7
 10
170.87747200000001
 20
81.1473005
 11
170.62747200000001
 21
81.370368499999998
  0
LINE
  8
_0-0_0
  6
CONTINUOUS
 62
    7
 10
161.12747200000001
 20
81.1473005
 11
161.37747200000001
 21
81.370368499999998
  0
LINE
  8
_0-0_0
  6
CONTINUOUS
 62
    7
 10
170.87747200000001
 20
81.1473005
 11
170.62747200000001
 21
81.411308500000004
  0
LINE
  8
_0-0_0
  6
CONTINUOUS
 62
    7
 10
170.62747200000001
 20
81.411308500000004
 11
161.37747200000001
 21
81.411308500000004
  0
LINE
  8
_0-0_0
  6
CONTINUOUS
 62
    7
 10
161.12747200000001
 20
81.1473005
 11
161.37747200000001
 21
81.411308500000004
  0
LINE
  8
_0-0_0
  6
CONTINUOUS
 62
    7
 10
170.87747200000001
 20
81.171928500000007
 11
170.62747200000001
 21
81.411308500000004
  0
LINE
  8
_0-0_0
  6
CONTINUOUS
 62
    7
 10
161.12747200000001
 20
81.171928500000007
 11
161.37747200000001
 21
81.411308500000004
  0
LINE
  8
_0-0_0
  6
CONTINUOUS
 62
    7
 10
170.87747200000001
 20
81.171928500000007
 11
170.62747200000001
 21
81.425010499999999
  0
LINE
  8
_0-0_0
  6
CONTINUOUS
 62
    7
 10
170.62747200000001
 20
81.425010499999999
 11
161.37747200000001
 21
81.425010499999999
  0
LINE
  8
_0-0_0
  6
CONTINUOUS
 62
    7
 10
161.12747200000001
 20
81.171928500000007
 11
161.37747200000001
 21
81.425010499999999
  0
LINE
  8
_0-0_0
  6
CONTINUOUS
 62
    7
 10
170.87747200000001
 20
94.299568500000007
 11
170.62747200000001
 21
94.275001500000002
  0
LINE
  8
_0-0_0
  6
CONTINUOUS
 62
    7
 10
170.62747200000001
 20
94.275001500000002
 11
161.37747200000001
 21
94.275001500000002
  0
LINE
  8
_0-0_0
  6
CONTINUOUS
 62
    7
 10
161.12747200000001
 20
94.299568500000007
 11
161.37747200000001
 21
94.275001500000002
  0
LINE
  8
_0-0_0
  6
CONTINUOUS
 62
    7
 10
170.87747200000001
 20
97.273582500000003
 11
170.62747200000001
 21
97.547553500000006
  0
LINE
  8
_0-0_0
  6
CONTINUOUS
 62
    7
 10
170.87747200000001
 20
97.273582500000003
 11
170.62747200000001
 21
97.382865500000008
  0
LINE
  8
_0-0_0
  6
CONTINUOUS
 62
    7
 10
170.87747200000001
 20
97.115989499999998
 11
170.62747200000001
 21
97.382865500000008
  0
LINE
  8
_0-0_0
  6
CONTINUOUS
 62
    7
 10
170.87747200000001
 20
97.115989499999998
 11
170.62747200000001
 21
97.197837500000006
  0
LINE
  8
_0-0_0
  6
CONTINUOUS
 62
    7
 10
170.87747200000001
 20
96.940971500000003
 11
170.62747200000001
 21
97.197837500000006
  0
LINE
  8
_0-0_0
  6
CONTINUOUS
 62
    7
 10
170.87747200000001
 20
96.940971500000003
 11
170.62747200000001
 21
96.994468499999996
  0
LINE
  8
_0-0_0
  6
CONTINUOUS
 62
    7
 10
170.87747200000001
 20
96.750434499999997
 11
170.62747200000001
 21
96.994468499999996
  0
LINE
  8
_0-0_0
  6
CONTINUOUS
 62
    7
 10
170.87747200000001
 20
96.750434499999997
 11
170.62747200000001
 21
96.775001500000002
  0
LINE
  8
_0-0_0
  6
CONTINUOUS
 62
    7
 10
170.87747200000001
 20
96.546485500000003
 11
170.62747200000001
 21
96.775001500000002
  0
LINE
  8
_0-0_0
  6
CONTINUOUS
 62
    7
 10
170.87747200000001
 20
96.546485500000003
 11
170.62747200000001
 21
96.541847500000003
  0
LINE
  8
_0-0_0
  6
CONTINUOUS
 62
    7
 10
170.87747200000001
 20
96.331336500000006
 11
170.62747200000001
 21
96.541847500000003
  0
LINE
  8
_0-0_0
  6
CONTINUOUS
 62
    7
 10
170.87747200000001
 20
96.331336500000006
 11
170.62747200000001
 21
96.297553500000006
  0
LINE
  8
_0-0_0
  6
CONTINUOUS
 62
    7
 10
170.87747200000001
 20
96.107353500000002
 11
170.62747200000001
 21
96.297553500000006
  0
LINE
  8
_0-0_0
  6
CONTINUOUS
 62
    7
 10
170.87747200000001
 20
96.107353500000002
 11
170.62747200000001
 21
96.044776499999998
  0
LINE
  8
_0-0_0
  6
CONTINUOUS
 62
    7
 10
170.87747200000001
 20
95.8769755
 11
170.62747200000001
 21
96.044776499999998
  0
LINE
  8
_0-0_0
  6
CONTINUOUS
 62
    7
 10
170.87747200000001
 20
95.8769755
 11
170.62747200000001
 21
95.786323500000009
  0
LINE
  8
_0-0_0
  6
CONTINUOUS
 62
    7
 10
170.87747200000001
 20
95.642753499999998
 11
170.62747200000001
 21
95.786323500000009
  0
LINE
  8
_0-0_0
  6
CONTINUOUS
 62
    7
 10
170.87747200000001
 20
95.642753499999998
 11
170.62747200000001
 21
95.525001500000002
  0
LINE
  8
_0-0_0
  6
CONTINUOUS
 62
    7
 10
170.87747200000001
 20
95.407249500000006
 11
170.62747200000001
 21
95.525001500000002
  0
LINE
  8
_0-0_0
  6
CONTINUOUS
 62
    7
 10
170.87747200000001
 20
95.407249500000006
 11
170.62747200000001
 21
95.263679499999995
  0
LINE
  8
_0-0_0
  6
CONTINUOUS
 62
    7
 10
170.87747200000001
 20
95.173027500000003
 11
170.62747200000001
 21
95.263679499999995
  0
LINE
  8
_0-0_0
  6
CONTINUOUS
 62
    7
 10
170.87747200000001
 20
95.173027500000003
 11
170.62747200000001
 21
95.005226500000006
  0
LINE
  8
_0-0_0
  6
CONTINUOUS
 62
    7
 10
170.87747200000001
 20
94.942665500000004
 11
170.62747200000001
 21
95.005226500000006
  0
LINE
  8
_0-0_0
  6
CONTINUOUS
 62
    7
 10
170.87747200000001
 20
94.942665500000004
 11
170.62747200000001
 21
94.752464500000002
  0
LINE
  8
_0-0_0
  6
CONTINUOUS
 62
    7
 10
170.87747200000001
 20
94.718681500000002
 11
170.62747200000001
 21
94.752464500000002
  0
LINE
  8
_0-0_0
  6
CONTINUOUS
 62
    7
 10
170.87747200000001
 20
94.718681500000002
 11
170.62747200000001
 21
94.508155500000001
  0
LINE
  8
_0-0_0
  6
CONTINUOUS
 62
    7
 10
170.87747200000001
 20
94.503532500000006
 11
170.62747200000001
 21
94.508155500000001
  0
LINE
  8
_0-0_0
  6
CONTINUOUS
 62
    7
 10
170.87747200000001
 20
94.503532500000006
 11
170.62747200000001
 21
94.275001500000002
  0
LINE
  8
_0-0_0
  6
CONTINUOUS
 62
    7
 10
170.87747200000001
 20
94.299568500000007
 11
170.62747200000001
 21
94.055534500000007
  0
LINE
  8
_0-0_0
  6
CONTINUOUS
 62
    7
 10
170.87747200000001
 20
94.1090315
 11
170.62747200000001
 21
94.055534500000007
  0
LINE
  8
_0-0_0
  6
CONTINUOUS
 62
    7
 10
170.87747200000001
 20
94.1090315
 11
170.62747200000001
 21
93.852180500000003
  0
LINE
  8
_0-0_0
  6
CONTINUOUS
 62
    7
 10
170.87747200000001
 20
93.934013500000006
 11
170.62747200000001
 21
93.852180500000003
  0
LINE
  8
_0-0_0
  6
CONTINUOUS
 62
    7
 10
170.87747200000001
 20
93.934013500000006
 11
170.62747200000001
 21
93.667137499999995
  0
LINE
  8
_0-0_0
  6
CONTINUOUS
 62
    7
 10
170.87747200000001
 20
93.7764205
 11
170.62747200000001
 21
93.667137499999995
  0
LINE
  8
_0-0_0
  6
CONTINUOUS
 62
    7
 10
170.87747200000001
 20
93.7764205
 11
170.62747200000001
 21
93.502464500000002
  0
LINE
  8
_0-0_0
  6
CONTINUOUS
 62
    7
 10
170.87747200000001
 20
93.637992499999996
 11
170.62747200000001
 21
93.502464500000002
  0
LINE
  8
_0-0_0
  6
CONTINUOUS
 62
    7
 10
170.87747200000001
 20
93.637992499999996
 11
170.62747200000001
 21
93.359947500000004
  0
LINE
  8
_0-0_0
  6
CONTINUOUS
 62
    7
 10
170.87747200000001
 20
93.5202405
 11
170.62747200000001
 21
93.359947500000004
  0
LINE
  8
_0-0_0
  6
CONTINUOUS
 62
    7
 10
170.87747200000001
 20
93.5202405
 11
170.62747200000001
 21
93.241142499999995
  0
LINE
  8
_0-0_0
  6
CONTINUOUS
 62
    7
 10
170.87747200000001
 20
93.424446500000002
 11
170.62747200000001
 21
93.241142499999995
  0
LINE
  8
_0-0_0
  6
CONTINUOUS
 62
    7
 10
170.87747200000001
 20
93.424446500000002
 11
170.62747200000001
 21
93.147361500000002
  0
LINE
  8
_0-0_0
  6
CONTINUOUS
 62
    7
 10
170.87747200000001
 20
93.351676499999996
 11
170.62747200000001
 21
93.147361500000002
  0
LINE
  8
_0-0_0
  6
CONTINUOUS
 62
    7
 10
170.87747200000001
 20
93.351676499999996
 11
170.62747200000001
 21
93.079627500000001
  0
LINE
  8
_0-0_0
  6
CONTINUOUS
 62
    7
 10
170.87747200000001
 20
93.302711500000001
 11
170.62747200000001
 21
93.079627500000001
  0
LINE
  8
_0-0_0
  6
CONTINUOUS
 62
    7
 10
170.87747200000001
 20
93.302711500000001
 11
170.62747200000001
 21
93.038703499999997
  0
LINE
  8
_0-0_0
  6
CONTINUOUS
 62
    7
 10
170.87747200000001
 20
93.278083500000008
 11
170.62747200000001
 21
93.038703499999997
  0
LINE
  8
_0-0_0
  6
CONTINUOUS
 62
    7
 10
170.87747200000001
 20
93.278083500000008
 11
170.62747200000001
 21
93.025001500000002
  0
LINE
  8
_0-0_0
  6
CONTINUOUS
 62
    7
 10
171.12747200000001
 20
93.525001500000002
 11
171.12747200000001
 21
97.280174500000001
  0
LINE
  8
_0-0_0
  6
CONTINUOUS
 62
    7
 10
170.74751300000003
 20
97.6136245
 11
170.62747200000001
 21
97.690071500000002
  0
LINE
  8
_0-0_0
  6
CONTINUOUS
 62
    7
 10
170.87747200000001
 20
97.412010500000008
 11
170.62747200000001
 21
97.690071500000002
  0
LINE
  8
_0-0_0
  6
CONTINUOUS
 62
    7
 10
170.87747200000001
 20
97.412010500000008
 11
170.62747200000001
 21
97.547553500000006
  0
LINE
  8
_0-0_0
  6
CONTINUOUS
 62
    7
 10
170.62747200000001
 20
97.382865500000008
 11
161.37747200000001
 21
97.382865500000008
  0
LINE
  8
_0-0_0
  6
CONTINUOUS
 62
    7
 10
161.12747200000001
 20
97.273582500000003
 11
161.37747200000001
 21
97.382865500000008
  0
LINE
  8
_0-0_0
  6
CONTINUOUS
 62
    7
 10
170.62747200000001
 20
97.197837500000006
 11
161.37747200000001
 21
97.197837500000006
  0
LINE
  8
_0-0_0
  6
CONTINUOUS
 62
    7
 10
161.12747200000001
 20
97.115989499999998
 11
161.37747200000001
 21
97.197837500000006
  0
LINE
  8
_0-0_0
  6
CONTINUOUS
 62
    7
 10
170.62747200000001
 20
96.994468499999996
 11
161.37747200000001
 21
96.994468499999996
  0
LINE
  8
_0-0_0
  6
CONTINUOUS
 62
    7
 10
161.12747200000001
 20
96.940971500000003
 11
161.37747200000001
 21
96.994468499999996
  0
LINE
  8
_0-0_0
  6
CONTINUOUS
 62
    7
 10
170.62747200000001
 20
96.775001500000002
 11
161.37747200000001
 21
96.775001500000002
  0
LINE
  8
_0-0_0
  6
CONTINUOUS
 62
    7
 10
161.12747200000001
 20
96.750434499999997
 11
161.37747200000001
 21
96.775001500000002
  0
LINE
  8
_0-0_0
  6
CONTINUOUS
 62
    7
 10
170.62747200000001
 20
96.541847500000003
 11
161.37747200000001
 21
96.541847500000003
  0
LINE
  8
_0-0_0
  6
CONTINUOUS
 62
    7
 10
170.87747200000001
 20
96.546485500000003
 11
161.12747200000001
 21
96.546485500000003
  0
LINE
  8
_0-0_0
  6
CONTINUOUS
 62
    7
 10
161.12747200000001
 20
96.546485500000003
 11
161.37747200000001
 21
96.541847500000003
  0
LINE
  8
_0-0_0
  6
CONTINUOUS
 62
    7
 10
170.62747200000001
 20
96.297553500000006
 11
161.37747200000001
 21
96.297553500000006
  0
LINE
  8
_0-0_0
  6
CONTINUOUS
 62
    7
 10
170.87747200000001
 20
96.331336500000006
 11
161.12747200000001
 21
96.331336500000006
  0
LINE
  8
_0-0_0
  6
CONTINUOUS
 62
    7
 10
161.12747200000001
 20
96.331336500000006
 11
161.37747200000001
 21
96.297553500000006
  0
LINE
  8
_0-0_0
  6
CONTINUOUS
 62
    7
 10
170.62747200000001
 20
96.044776499999998
 11
161.37747200000001
 21
96.044776499999998
  0
LINE
  8
_0-0_0
  6
CONTINUOUS
 62
    7
 10
170.87747200000001
 20
96.107353500000002
 11
161.12747200000001
 21
96.107353500000002
  0
LINE
  8
_0-0_0
  6
CONTINUOUS
 62
    7
 10
161.12747200000001
 20
96.107353500000002
 11
161.37747200000001
 21
96.044776499999998
  0
LINE
  8
_0-0_0
  6
CONTINUOUS
 62
    7
 10
170.62747200000001
 20
95.786323500000009
 11
161.37747200000001
 21
95.786323500000009
  0
LINE
  8
_0-0_0
  6
CONTINUOUS
 62
    7
 10
170.87747200000001
 20
95.8769755
 11
161.12747200000001
 21
95.8769755
  0
LINE
  8
_0-0_0
  6
CONTINUOUS
 62
    7
 10
161.12747200000001
 20
95.8769755
 11
161.37747200000001
 21
95.786323500000009
  0
LINE
  8
_0-0_0
  6
CONTINUOUS
 62
    7
 10
170.62747200000001
 20
95.525001500000002
 11
161.37747200000001
 21
95.525001500000002
  0
LINE
  8
_0-0_0
  6
CONTINUOUS
 62
    7
 10
170.87747200000001
 20
95.642753499999998
 11
161.12747200000001
 21
95.642753499999998
  0
LINE
  8
_0-0_0
  6
CONTINUOUS
 62
    7
 10
161.12747200000001
 20
95.642753499999998
 11
161.37747200000001
 21
95.525001500000002
  0
LINE
  8
_0-0_0
  6
CONTINUOUS
 62
    7
 10
170.62747200000001
 20
95.263679499999995
 11
161.37747200000001
 21
95.263679499999995
  0
LINE
  8
_0-0_0
  6
CONTINUOUS
 62
    7
 10
170.87747200000001
 20
95.407249500000006
 11
161.12747200000001
 21
95.407249500000006
  0
LINE
  8
_0-0_0
  6
CONTINUOUS
 62
    7
 10
161.12747200000001
 20
95.407249500000006
 11
161.37747200000001
 21
95.263679499999995
  0
LINE
  8
_0-0_0
  6
CONTINUOUS
 62
    7
 10
170.62747200000001
 20
95.005226500000006
 11
161.37747200000001
 21
95.005226500000006
  0
LINE
  8
_0-0_0
  6
CONTINUOUS
 62
    7
 10
170.87747200000001
 20
95.173027500000003
 11
161.12747200000001
 21
95.173027500000003
  0
LINE
  8
_0-0_0
  6
CONTINUOUS
 62
    7
 10
161.12747200000001
 20
95.173027500000003
 11
161.37747200000001
 21
95.005226500000006
  0
LINE
  8
_0-0_0
  6
CONTINUOUS
 62
    7
 10
170.62747200000001
 20
94.752464500000002
 11
161.37747200000001
 21
94.752464500000002
  0
LINE
  8
_0-0_0
  6
CONTINUOUS
 62
    7
 10
170.87747200000001
 20
94.942665500000004
 11
161.12747200000001
 21
94.942665500000004
  0
LINE
  8
_0-0_0
  6
CONTINUOUS
 62
    7
 10
161.12747200000001
 20
94.942665500000004
 11
161.37747200000001
 21
94.752464500000002
  0
LINE
  8
_0-0_0
  6
CONTINUOUS
 62
    7
 10
170.62747200000001
 20
94.508155500000001
 11
161.37747200000001
 21
94.508155500000001
  0
LINE
  8
_0-0_0
  6
CONTINUOUS
 62
    7
 10
170.87747200000001
 20
94.718681500000002
 11
161.12747200000001
 21
94.718681500000002
  0
LINE
  8
_0-0_0
  6
CONTINUOUS
 62
    7
 10
161.12747200000001
 20
94.718681500000002
 11
161.37747200000001
 21
94.508155500000001
  0
LINE
  8
_0-0_0
  6
CONTINUOUS
 62
    7
 10
170.62747200000001
 20
93.852180500000003
 11
161.37747200000001
 21
93.852180500000003
  0
LINE
  8
_0-0_0
  6
CONTINUOUS
 62
    7
 10
161.12747200000001
 20
94.1090315
 11
161.37747200000001
 21
93.852180500000003
  0
LINE
  8
_0-0_0
  6
CONTINUOUS
 62
    7
 10
170.62747200000001
 20
93.667137499999995
 11
161.37747200000001
 21
93.667137499999995
  0
LINE
  8
_0-0_0
  6
CONTINUOUS
 62
    7
 10
161.12747200000001
 20
93.934013500000006
 11
161.37747200000001
 21
93.667137499999995
  0
LINE
  8
_0-0_0
  6
CONTINUOUS
 62
    7
 10
170.62747200000001
 20
93.502464500000002
 11
161.37747200000001
 21
93.502464500000002
  0
LINE
  8
_0-0_0
  6
CONTINUOUS
 62
    7
 10
161.12747200000001
 20
93.7764205
 11
161.37747200000001
 21
93.502464500000002
  0
LINE
  8
_0-0_0
  6
CONTINUOUS
 62
    7
 10
170.62747200000001
 20
93.359947500000004
 11
161.37747200000001
 21
93.359947500000004
  0
LINE
  8
_0-0_0
  6
CONTINUOUS
 62
    7
 10
161.12747200000001
 20
93.637992499999996
 11
161.37747200000001
 21
93.359947500000004
  0
LINE
  8
_0-0_0
  6
CONTINUOUS
 62
    7
 10
170.62747200000001
 20
93.241142499999995
 11
161.37747200000001
 21
93.241142499999995
  0
LINE
  8
_0-0_0
  6
CONTINUOUS
 62
    7
 10
161.12747200000001
 20
93.5202405
 11
161.37747200000001
 21
93.241142499999995
  0
LINE
  8
_0-0_0
  6
CONTINUOUS
 62
    7
 10
170.62747200000001
 20
93.147361500000002
 11
161.37747200000001
 21
93.147361500000002
  0
LINE
  8
_0-0_0
  6
CONTINUOUS
 62
    7
 10
161.12747200000001
 20
93.424446500000002
 11
161.37747200000001
 21
93.147361500000002
  0
LINE
  8
_0-0_0
  6
CONTINUOUS
 62
    7
 10
170.62747200000001
 20
93.079627500000001
 11
161.37747200000001
 21
93.079627500000001
  0
LINE
  8
_0-0_0
  6
CONTINUOUS
 62
    7
 10
161.12747200000001
 20
93.351676499999996
 11
161.37747200000001
 21
93.079627500000001
  0
LINE
  8
_0-0_0
  6
CONTINUOUS
 62
    7
 10
170.62747200000001
 20
93.038703499999997
 11
161.37747200000001
 21
93.038703499999997
  0
LINE
  8
_0-0_0
  6
CONTINUOUS
 62
    7
 10
161.12747200000001
 20
93.302711500000001
 11
161.37747200000001
 21
93.038703499999997
  0
LINE
  8
_0-0_0
  6
CONTINUOUS
 62
    7
 10
170.62747200000001
 20
93.025001500000002
 11
161.37747200000001
 21
93.025001500000002
  0
LINE
  8
_0-0_0
  6
CONTINUOUS
 62
    7
 10
161.12747200000001
 20
93.278083500000008
 11
161.37747200000001
 21
93.025001500000002
  0
LINE
  8
_0-0_0
  6
CONTINUOUS
 62
    7
 10
170.62747200000001
 20
97.690071500000002
 11
161.37747200000001
 21
97.690071500000002
  0
LINE
  8
_0-0_0
  6
CONTINUOUS
 62
    7
 10
170.87747200000001
 20
97.529762500000004
 11
170.74751300000003
 21
97.6136245
  0
LINE
  8
_0-0_0
  6
CONTINUOUS
 62
    7
 10
161.12747200000001
 20
97.529762500000004
 11
161.25744600000002
 21
97.6136245
  0
LINE
  8
_0-0_0
  6
CONTINUOUS
 62
    7
 10
161.25744600000002
 20
97.6136245
 11
161.37747200000001
 21
97.690071500000002
  0
LINE
  8
_0-0_0
  6
CONTINUOUS
 62
    7
 10
170.62747200000001
 20
97.547553500000006
 11
161.37747200000001
 21
97.547553500000006
  0
LINE
  8
_0-0_0
  6
CONTINUOUS
 62
    7
 10
161.12747200000001
 20
97.412010500000008
 11
161.37747200000001
 21
97.547553500000006
  0
LINE
  8
_0-0_0
  6
CONTINUOUS
 62
    7
 10
170.87747200000001
 20
97.529762500000004
 11
170.62747200000001
 21
97.808860500000009
  0
LINE
  8
_0-0_0
  6
CONTINUOUS
 62
    7
 10
170.62747200000001
 20
97.808860500000009
 11
161.37747200000001
 21
97.808860500000009
  0
LINE
  8
_0-0_0
  6
CONTINUOUS
 62
    7
 10
161.12747200000001
 20
97.529762500000004
 11
161.37747200000001
 21
97.808860500000009
  0
LINE
  8
_0-0_0
  6
CONTINUOUS
 62
    7
 10
170.87747200000001
 20
97.625556500000002
 11
170.62747200000001
 21
97.808860500000009
  0
LINE
  8
_0-0_0
  6
CONTINUOUS
 62
    7
 10
161.12747200000001
 20
97.625556500000002
 11
161.37747200000001
 21
97.808860500000009
  0
LINE
  8
_0-0_0
  6
CONTINUOUS
 62
    7
 10
170.87747200000001
 20
97.625556500000002
 11
170.62747200000001
 21
97.902641500000001
  0
LINE
  8
_0-0_0
  6
CONTINUOUS
 62
    7
 10
170.62747200000001
 20
97.902641500000001
 11
161.37747200000001
 21
97.902641500000001
  0
LINE
  8
_0-0_0
  6
CONTINUOUS
 62
    7
 10
161.12747200000001
 20
97.625556500000002
 11
161.37747200000001
 21
97.902641500000001
  0
LINE
  8
_0-0_0
  6
CONTINUOUS
 62
    7
 10
170.87747200000001
 20
97.698341499999998
 11
170.62747200000001
 21
97.902641500000001
  0
LINE
  8
_0-0_0
  6
CONTINUOUS
 62
    7
 10
161.12747200000001
 20
97.698341499999998
 11
161.37747200000001
 21
97.902641500000001
  0
LINE
  8
_0-0_0
  6
CONTINUOUS
 62
    7
 10
170.87747200000001
 20
97.698341499999998
 11
170.62747200000001
 21
97.970375500000003
  0
LINE
  8
_0-0_0
  6
CONTINUOUS
 62
    7
 10
170.62747200000001
 20
97.970375500000003
 11
161.37747200000001
 21
97.970375500000003
  0
LINE
  8
_0-0_0
  6
CONTINUOUS
 62
    7
 10
161.12747200000001
 20
97.698341499999998
 11
161.37747200000001
 21
97.970375500000003
  0
LINE
  8
_0-0_0
  6
CONTINUOUS
 62
    7
 10
170.87747200000001
 20
97.747306500000008
 11
170.62747200000001
 21
97.970375500000003
  0
LINE
  8
_0-0_0
  6
CONTINUOUS
 62
    7
 10
161.12747200000001
 20
97.747306500000008
 11
161.37747200000001
 21
97.970375500000003
  0
LINE
  8
_0-0_0
  6
CONTINUOUS
 62
    7
 10
170.87747200000001
 20
97.747306500000008
 11
170.62747200000001
 21
98.011314499999997
  0
LINE
  8
_0-0_0
  6
CONTINUOUS
 62
    7
 10
170.62747200000001
 20
98.011314499999997
 11
161.37747200000001
 21
98.011314499999997
  0
LINE
  8
_0-0_0
  6
CONTINUOUS
 62
    7
 10
161.12747200000001
 20
97.747306500000008
 11
161.37747200000001
 21
98.011314499999997
  0
LINE
  8
_0-0_0
  6
CONTINUOUS
 62
    7
 10
170.87747200000001
 20
97.771919499999996
 11
170.62747200000001
 21
98.011314499999997
  0
LINE
  8
_0-0_0
  6
CONTINUOUS
 62
    7
 10
161.12747200000001
 20
97.771919499999996
 11
161.37747200000001
 21
98.011314499999997
  0
LINE
  8
_0-0_0
  6
CONTINUOUS
 62
    7
 10
170.87747200000001
 20
97.771919499999996
 11
170.62747200000001
 21
98.025001500000002
  0
LINE
  8
_0-0_0
  6
CONTINUOUS
 62
    7
 10
170.62747200000001
 20
98.025001500000002
 11
161.37747200000001
 21
98.025001500000002
  0
LINE
  8
_0-0_0
  6
CONTINUOUS
 62
    7
 10
161.12747200000001
 20
97.771919499999996
 11
161.37747200000001
 21
98.025001500000002
  0
LINE
  8
_0-0_0
  6
CONTINUOUS
 62
    7
 10
216.32746900000001
 20
83.224998499999998
 11
216.32746900000001
 21
83.226356500000009
  0
LINE
  8
_0-0_0
  6
CONTINUOUS
 62
    7
 10
216.32746900000001
 20
83.226356500000009
 11
216.32746900000001
 21
91.224998499999998
  0
LINE
  8
_0-0_0
  6
CONTINUOUS
 62
    7
 10
161.12747200000001
 20
97.412010500000008
 11
161.37747200000001
 21
97.690071500000002
  0
LINE
  8
_0-0_0
  6
CONTINUOUS
 62
    7
 10
171.12747200000001
 20
97.280174500000001
 11
171.12747200000001
 21
97.525001500000002
  0
LINE
  8
_0-0_0
  6
CONTINUOUS
 62
    7
 10
161.12747200000001
 20
93.278083500000008
 11
161.37747200000001
 21
93.038703499999997
  0
LINE
  8
_0-0_0
  6
CONTINUOUS
 62
    7
 10
161.12747200000001
 20
93.302711500000001
 11
161.37747200000001
 21
93.079627500000001
  0
LINE
  8
_0-0_0
  6
CONTINUOUS
 62
    7
 10
161.12747200000001
 20
93.351676499999996
 11
161.37747200000001
 21
93.147361500000002
  0
LINE
  8
_0-0_0
  6
CONTINUOUS
 62
    7
 10
161.12747200000001
 20
93.424446500000002
 11
161.37747200000001
 21
93.241142499999995
  0
LINE
  8
_0-0_0
  6
CONTINUOUS
 62
    7
 10
161.12747200000001
 20
93.5202405
 11
161.37747200000001
 21
93.359947500000004
  0
LINE
  8
_0-0_0
  6
CONTINUOUS
 62
    7
 10
161.12747200000001
 20
93.637992499999996
 11
161.37747200000001
 21
93.502464500000002
  0
LINE
  8
_0-0_0
  6
CONTINUOUS
 62
    7
 10
161.12747200000001
 20
93.7764205
 11
161.37747200000001
 21
93.667137499999995
  0
LINE
  8
_0-0_0
  6
CONTINUOUS
 62
    7
 10
161.12747200000001
 20
93.934013500000006
 11
161.37747200000001
 21
93.852180500000003
  0
LINE
  8
_0-0_0
  6
CONTINUOUS
 62
    7
 10
170.62747200000001
 20
94.055534500000007
 11
161.37747200000001
 21
94.055534500000007
  0
LINE
  8
_0-0_0
  6
CONTINUOUS
 62
    7
 10
161.12747200000001
 20
94.1090315
 11
161.37747200000001
 21
94.055534500000007
  0
LINE
  8
_0-0_0
  6
CONTINUOUS
 62
    7
 10
161.12747200000001
 20
94.503532500000006
 11
161.37747200000001
 21
94.508155500000001
  0
LINE
  8
_0-0_0
  6
CONTINUOUS
 62
    7
 10
170.87747200000001
 20
94.503532500000006
 11
161.12747200000001
 21
94.503532500000006
  0
LINE
  8
_0-0_0
  6
CONTINUOUS
 62
    7
 10
161.12747200000001
 20
94.718681500000002
 11
161.37747200000001
 21
94.752464500000002
  0
LINE
  8
_0-0_0
  6
CONTINUOUS
 62
    7
 10
161.12747200000001
 20
94.942665500000004
 11
161.37747200000001
 21
95.005226500000006
  0
LINE
  8
_0-0_0
  6
CONTINUOUS
 62
    7
 10
161.12747200000001
 20
95.173027500000003
 11
161.37747200000001
 21
95.263679499999995
  0
LINE
  8
_0-0_0
  6
CONTINUOUS
 62
    7
 10
161.12747200000001
 20
95.407249500000006
 11
161.37747200000001
 21
95.525001500000002
  0
LINE
  8
_0-0_0
  6
CONTINUOUS
 62
    7
 10
161.12747200000001
 20
95.642753499999998
 11
161.37747200000001
 21
95.786323500000009
  0
LINE
  8
_0-0_0
  6
CONTINUOUS
 62
    7
 10
161.12747200000001
 20
95.8769755
 11
161.37747200000001
 21
96.044776499999998
  0
LINE
  8
_0-0_0
  6
CONTINUOUS
 62
    7
 10
161.12747200000001
 20
96.107353500000002
 11
161.37747200000001
 21
96.297553500000006
  0
LINE
  8
_0-0_0
  6
CONTINUOUS
 62
    7
 10
161.12747200000001
 20
96.331336500000006
 11
161.37747200000001
 21
96.541847500000003
  0
LINE
  8
_0-0_0
  6
CONTINUOUS
 62
    7
 10
161.12747200000001
 20
96.546485500000003
 11
161.37747200000001
 21
96.775001500000002
  0
LINE
  8
_0-0_0
  6
CONTINUOUS
 62
    7
 10
161.12747200000001
 20
96.750434499999997
 11
161.37747200000001
 21
96.994468499999996
  0
LINE
  8
_0-0_0
  6
CONTINUOUS
 62
    7
 10
161.12747200000001
 20
96.940971500000003
 11
161.37747200000001
 21
97.197837500000006
  0
LINE
  8
_0-0_0
  6
CONTINUOUS
 62
    7
 10
161.12747200000001
 20
97.115989499999998
 11
161.37747200000001
 21
97.382865500000008
  0
LINE
  8
_0-0_0
  6
CONTINUOUS
 62
    7
 10
161.12747200000001
 20
97.273582500000003
 11
161.37747200000001
 21
97.547553500000006
  0
LINE
  8
_0-0_0
  6
CONTINUOUS
 62
    7
 10
161.12747200000001
 20
94.299568500000007
 11
161.37747200000001
 21
94.055534500000007
  0
LINE
  8
_0-0_0
  6
CONTINUOUS
 62
    7
 10
161.12747200000001
 20
94.503532500000006
 11
161.37747200000001
 21
94.275001500000002
  0
LINE
  8
_0-0_0
  6
CONTINUOUS
 62
    7
 10
161.12747200000001
 20
80.812019500000005
 11
161.37747200000001
 21
81.090064499999997
  0
LINE
  8
_0-0_0
  6
CONTINUOUS
 62
    7
 10
171.12747200000001
 20
80.680168500000008
 11
171.12747200000001
 21
80.925010499999999
  0
LINE
  8
_0-0_0
  6
CONTINUOUS
 62
    7
 10
161.12747200000001
 20
76.678089499999999
 11
161.37747200000001
 21
76.438701500000008
  0
LINE
  8
_0-0_0
  6
CONTINUOUS
 62
    7
 10
161.12747200000001
 20
76.702705500000008
 11
161.37747200000001
 21
76.479637499999995
  0
LINE
  8
_0-0_0
  6
CONTINUOUS
 62
    7
 10
161.12747200000001
 20
76.751670500000003
 11
161.37747200000001
 21
76.547363500000003
  0
LINE
  8
_0-0_0
  6
CONTINUOUS
 62
    7
 10
161.12747200000001
 20
76.824447500000005
 11
161.37747200000001
 21
76.641139500000008
  0
LINE
  8
_0-0_0
  6
CONTINUOUS
 62
    7
 10
161.12747200000001
 20
76.920242500000001
 11
161.37747200000001
 21
76.759941499999996
  0
LINE
  8
_0-0_0
  6
CONTINUOUS
 62
    7
 10
161.12747200000001
 20
77.0379985
 11
161.37747200000001
 21
76.902461500000001
  0
LINE
  8
_0-0_0
  6
CONTINUOUS
 62
    7
 10
161.12747200000001
 20
77.176425499999993
 11
161.37747200000001
 21
77.067142500000003
  0
LINE
  8
_0-0_0
  6
CONTINUOUS
 62
    7
 10
161.12747200000001
 20
77.334014499999995
 11
161.37747200000001
 21
77.252178499999999
  0
LINE
  8
_0-0_0
  6
CONTINUOUS
 62
    7
 10
170.62747200000001
 20
77.455543500000005
 11
161.37747200000001
 21
77.455543500000005
  0
LINE
  8
_0-0_0
  6
CONTINUOUS
 62
    7
 10
161.12747200000001
 20
77.509033500000001
 11
161.37747200000001
 21
77.455543500000005
  0
LINE
  8
_0-0_0
  6
CONTINUOUS
 62
    7
 10
161.12747200000001
 20
77.903526499999998
 11
161.37747200000001
 21
77.908164499999998
  0
LINE
  8
_0-0_0
  6
CONTINUOUS
 62
    7
 10
170.87747200000001
 20
77.903526499999998
 11
161.12747200000001
 21
77.903526499999998
  0
LINE
  8
_0-0_0
  6
CONTINUOUS
 62
    7
 10
161.12747200000001
 20
78.118679499999999
 11
161.37747200000001
 21
78.152461500000001
  0
LINE
  8
_0-0_0
  6
CONTINUOUS
 62
    7
 10
161.12747200000001
 20
78.342658499999999
 11
161.37747200000001
 21
78.405235500000003
  0
LINE
  8
_0-0_0
  6
CONTINUOUS
 62
    7
 10
161.12747200000001
 20
78.573020499999998
 11
161.37747200000001
 21
78.663688500000006
  0
LINE
  8
_0-0_0
  6
CONTINUOUS
 62
    7
 10
161.12747200000001
 20
78.807243499999998
 11
161.37747200000001
 21
78.925010499999999
  0
LINE
  8
_0-0_0
  6
CONTINUOUS
 62
    7
 10
161.12747200000001
 20
79.042762499999995
 11
161.37747200000001
 21
79.186332500000006
  0
LINE
  8
_0-0_0
  6
CONTINUOUS
 62
    7
 10
161.12747200000001
 20
79.276985499999995
 11
161.37747200000001
 21
79.444786500000006
  0
LINE
  8
_0-0_0
  6
CONTINUOUS
 62
    7
 10
161.12747200000001
 20
79.507347500000009
 11
161.37747200000001
 21
79.697547499999999
  0
LINE
  8
_0-0_0
  6
CONTINUOUS
 62
    7
 10
161.12747200000001
 20
79.731330499999999
 11
161.37747200000001
 21
79.941841499999995
  0
LINE
  8
_0-0_0
  6
CONTINUOUS
 62
    7
 10
161.12747200000001
 20
79.946479499999995
 11
161.37747200000001
 21
80.175010499999999
  0
LINE
  8
_0-0_0
  6
CONTINUOUS
 62
    7
 10
161.12747200000001
 20
80.150444500000006
 11
161.37747200000001
 21
80.394462500000003
  0
LINE
  8
_0-0_0
  6
CONTINUOUS
 62
    7
 10
161.12747200000001
 20
80.340980500000001
 11
161.37747200000001
 21
80.597831499999998
  0
LINE
  8
_0-0_0
  6
CONTINUOUS
 62
    7
 10
161.12747200000001
 20
80.515998499999995
 11
161.37747200000001
 21
80.782859500000001
  0
LINE
  8
_0-0_0
  6
CONTINUOUS
 62
    7
 10
161.12747200000001
 20
80.673576499999996
 11
161.37747200000001
 21
80.947547499999999
  0
LINE
  8
_0-0_0
  6
CONTINUOUS
 62
    7
 10
161.12747200000001
 20
77.699565500000006
 11
161.37747200000001
 21
77.455543500000005
  0
LINE
  8
_0-0_0
  6
CONTINUOUS
 62
    7
 10
161.12747200000001
 20
77.903526499999998
 11
161.37747200000001
 21
77.675006499999995
  0
LINE
  8
_0-0_0
  6
CONTINUOUS
 62
    7
 10
158.32746900000001
 20
82.686881499999998
 11
158.32746900000001
 21
84.955940499999997
  0
LINE
  8
_0-0_0
  6
CONTINUOUS
 62
    7
 10
158.32746900000001
 20
84.955940499999997
 11
158.32746900000001
 21
91.763130500000003
  0
LINE
  8
_0-0_0
  6
CONTINUOUS
 62
    7
 10
161.12747200000001
 20
94.503532500000006
 11
161.12747200000001
 21
94.718681500000002
  0
LINE
  8
_0-0_0
  6
CONTINUOUS
 62
    7
 10
161.12747200000001
 20
94.718681500000002
 11
161.12747200000001
 21
94.942665500000004
  0
LINE
  8
_0-0_0
  6
CONTINUOUS
 62
    7
 10
161.12747200000001
 20
94.942665500000004
 11
161.12747200000001
 21
95.173027500000003
  0
LINE
  8
_0-0_0
  6
CONTINUOUS
 62
    7
 10
161.12747200000001
 20
95.173027500000003
 11
161.12747200000001
 21
95.407249500000006
  0
LINE
  8
_0-0_0
  6
CONTINUOUS
 62
    7
 10
161.12747200000001
 20
95.407249500000006
 11
161.12747200000001
 21
95.642753499999998
  0
LINE
  8
_0-0_0
  6
CONTINUOUS
 62
    7
 10
161.12747200000001
 20
95.642753499999998
 11
161.12747200000001
 21
95.8769755
  0
LINE
  8
_0-0_0
  6
CONTINUOUS
 62
    7
 10
161.12747200000001
 20
95.8769755
 11
161.12747200000001
 21
96.107353500000002
  0
LINE
  8
_0-0_0
  6
CONTINUOUS
 62
    7
 10
161.12747200000001
 20
96.107353500000002
 11
161.12747200000001
 21
96.331336500000006
  0
LINE
  8
_0-0_0
  6
CONTINUOUS
 62
    7
 10
161.12747200000001
 20
96.331336500000006
 11
161.12747200000001
 21
96.546485500000003
  0
LINE
  8
_0-0_0
  6
CONTINUOUS
 62
    7
 10
161.12747200000001
 20
96.546485500000003
 11
161.12747200000001
 21
96.750434499999997
  0
LINE
  8
_0-0_0
  6
CONTINUOUS
 62
    7
 10
161.12747200000001
 20
96.750434499999997
 11
161.12747200000001
 21
96.940971500000003
  0
LINE
  8
_0-0_0
  6
CONTINUOUS
 62
    7
 10
161.12747200000001
 20
96.940971500000003
 11
161.12747200000001
 21
97.115989499999998
  0
LINE
  8
_0-0_0
  6
CONTINUOUS
 62
    7
 10
161.12747200000001
 20
97.115989499999998
 11
161.12747200000001
 21
97.273582500000003
  0
LINE
  8
_0-0_0
  6
CONTINUOUS
 62
    7
 10
161.12747200000001
 20
97.273582500000003
 11
161.12747200000001
 21
97.412010500000008
  0
LINE
  8
_0-0_0
  6
CONTINUOUS
 62
    7
 10
161.12747200000001
 20
97.412010500000008
 11
161.12747200000001
 21
97.499565500000003
  0
LINE
  8
_0-0_0
  6
CONTINUOUS
 62
    7
 10
161.12747200000001
 20
97.499565500000003
 11
161.12747200000001
 21
97.529762500000004
  0
LINE
  8
_0-0_0
  6
CONTINUOUS
 62
    7
 10
161.12747200000001
 20
97.529762500000004
 11
161.12747200000001
 21
97.625556500000002
  0
LINE
  8
_0-0_0
  6
CONTINUOUS
 62
    7
 10
161.12747200000001
 20
97.625556500000002
 11
161.12747200000001
 21
97.698341499999998
  0
LINE
  8
_0-0_0
  6
CONTINUOUS
 62
    7
 10
161.12747200000001
 20
97.698341499999998
 11
161.12747200000001
 21
97.747306500000008
  0
LINE
  8
_0-0_0
  6
CONTINUOUS
 62
    7
 10
161.12747200000001
 20
97.747306500000008
 11
161.12747200000001
 21
97.775001500000002
  0
LINE
  8
_0-0_0
  6
CONTINUOUS
 62
    7
 10
161.12747200000001
 20
97.771919499999996
 11
161.12747200000001
 21
97.775001500000002
  0
LINE
  8
_0-0_0
  6
CONTINUOUS
 62
    7
 10
161.12747200000001
 20
93.275001500000002
 11
161.12747200000001
 21
93.278083500000008
  0
LINE
  8
_0-0_0
  6
CONTINUOUS
 62
    7
 10
161.12747200000001
 20
93.278083500000008
 11
161.12747200000001
 21
93.302711500000001
  0
LINE
  8
_0-0_0
  6
CONTINUOUS
 62
    7
 10
161.12747200000001
 20
93.275001500000002
 11
161.12747200000001
 21
93.351676499999996
  0
LINE
  8
_0-0_0
  6
CONTINUOUS
 62
    7
 10
161.12747200000001
 20
93.351676499999996
 11
161.12747200000001
 21
93.424446500000002
  0
LINE
  8
_0-0_0
  6
CONTINUOUS
 62
    7
 10
161.12747200000001
 20
93.424446500000002
 11
161.12747200000001
 21
93.5202405
  0
LINE
  8
_0-0_0
  6
CONTINUOUS
 62
    7
 10
161.12747200000001
 20
93.5202405
 11
161.12747200000001
 21
93.637992499999996
  0
LINE
  8
_0-0_0
  6
CONTINUOUS
 62
    7
 10
161.12747200000001
 20
93.637992499999996
 11
161.12747200000001
 21
93.7764205
  0
LINE
  8
_0-0_0
  6
CONTINUOUS
 62
    7
 10
161.12747200000001
 20
93.7764205
 11
161.12747200000001
 21
93.934013500000006
  0
LINE
  8
_0-0_0
  6
CONTINUOUS
 62
    7
 10
161.12747200000001
 20
93.934013500000006
 11
161.12747200000001
 21
94.1090315
  0
LINE
  8
_0-0_0
  6
CONTINUOUS
 62
    7
 10
161.12747200000001
 20
94.1090315
 11
161.12747200000001
 21
94.299568500000007
  0
LINE
  8
_0-0_0
  6
CONTINUOUS
 62
    7
 10
161.12747200000001
 20
94.446296500000003
 11
161.12747200000001
 21
94.503532500000006
  0
LINE
  8
_0-0_0
  6
CONTINUOUS
 62
    7
 10
161.12747200000001
 20
94.299568500000007
 11
161.12747200000001
 21
94.446296500000003
  0
LINE
  8
_0-0_0
  6
CONTINUOUS
 62
    7
 10
161.12747200000001
 20
77.903526499999998
 11
161.12747200000001
 21
78.118679499999999
  0
LINE
  8
_0-0_0
  6
CONTINUOUS
 62
    7
 10
161.12747200000001
 20
78.118679499999999
 11
161.12747200000001
 21
78.342658499999999
  0
LINE
  8
_0-0_0
  6
CONTINUOUS
 62
    7
 10
161.12747200000001
 20
78.342658499999999
 11
161.12747200000001
 21
78.573020499999998
  0
LINE
  8
_0-0_0
  6
CONTINUOUS
 62
    7
 10
161.12747200000001
 20
78.573020499999998
 11
161.12747200000001
 21
78.807243499999998
  0
LINE
  8
_0-0_0
  6
CONTINUOUS
 62
    7
 10
161.12747200000001
 20
78.807243499999998
 11
161.12747200000001
 21
79.042762499999995
  0
LINE
  8
_0-0_0
  6
CONTINUOUS
 62
    7
 10
161.12747200000001
 20
79.042762499999995
 11
161.12747200000001
 21
79.276985499999995
  0
LINE
  8
_0-0_0
  6
CONTINUOUS
 62
    7
 10
161.12747200000001
 20
79.276985499999995
 11
161.12747200000001
 21
79.507347500000009
  0
LINE
  8
_0-0_0
  6
CONTINUOUS
 62
    7
 10
161.12747200000001
 20
79.507347500000009
 11
161.12747200000001
 21
79.731330499999999
  0
LINE
  8
_0-0_0
  6
CONTINUOUS
 62
    7
 10
161.12747200000001
 20
79.731330499999999
 11
161.12747200000001
 21
79.946479499999995
  0
LINE
  8
_0-0_0
  6
CONTINUOUS
 62
    7
 10
161.12747200000001
 20
79.946479499999995
 11
161.12747200000001
 21
80.150444500000006
  0
LINE
  8
_0-0_0
  6
CONTINUOUS
 62
    7
 10
161.12747200000001
 20
80.150444500000006
 11
161.12747200000001
 21
80.340980500000001
  0
LINE
  8
_0-0_0
  6
CONTINUOUS
 62
    7
 10
161.12747200000001
 20
80.340980500000001
 11
161.12747200000001
 21
80.515998499999995
  0
LINE
  8
_0-0_0
  6
CONTINUOUS
 62
    7
 10
161.12747200000001
 20
80.515998499999995
 11
161.12747200000001
 21
80.673576499999996
  0
LINE
  8
_0-0_0
  6
CONTINUOUS
 62
    7
 10
161.12747200000001
 20
80.673576499999996
 11
161.12747200000001
 21
80.812019500000005
  0
LINE
  8
_0-0_0
  6
CONTINUOUS
 62
    7
 10
161.12747200000001
 20
80.812019500000005
 11
161.12747200000001
 21
80.899558499999998
  0
LINE
  8
_0-0_0
  6
CONTINUOUS
 62
    7
 10
161.12747200000001
 20
80.899558499999998
 11
161.12747200000001
 21
80.929771500000001
  0
LINE
  8
_0-0_0
  6
CONTINUOUS
 62
    7
 10
161.12747200000001
 20
80.929771500000001
 11
161.12747200000001
 21
81.025566499999996
  0
LINE
  8
_0-0_0
  6
CONTINUOUS
 62
    7
 10
161.12747200000001
 20
81.025566499999996
 11
161.12747200000001
 21
81.098335500000005
  0
LINE
  8
_0-0_0
  6
CONTINUOUS
 62
    7
 10
161.12747200000001
 20
81.098335500000005
 11
161.12747200000001
 21
81.1473005
  0
LINE
  8
_0-0_0
  6
CONTINUOUS
 62
    7
 10
161.12747200000001
 20
81.1473005
 11
161.12747200000001
 21
81.175010499999999
  0
LINE
  8
_0-0_0
  6
CONTINUOUS
 62
    7
 10
161.12747200000001
 20
81.171928500000007
 11
161.12747200000001
 21
81.175010499999999
  0
LINE
  8
_0-0_0
  6
CONTINUOUS
 62
    7
 10
161.12747200000001
 20
76.675006499999995
 11
161.12747200000001
 21
76.678089499999999
  0
LINE
  8
_0-0_0
  6
CONTINUOUS
 62
    7
 10
161.12747200000001
 20
76.678089499999999
 11
161.12747200000001
 21
76.702705500000008
  0
LINE
  8
_0-0_0
  6
CONTINUOUS
 62
    7
 10
161.12747200000001
 20
76.702705500000008
 11
161.12747200000001
 21
76.751670500000003
  0
LINE
  8
_0-0_0
  6
CONTINUOUS
 62
    7
 10
161.12747200000001
 20
76.675006499999995
 11
161.12747200000001
 21
76.824447500000005
  0
LINE
  8
_0-0_0
  6
CONTINUOUS
 62
    7
 10
161.12747200000001
 20
76.824447500000005
 11
161.12747200000001
 21
76.920242500000001
  0
LINE
  8
_0-0_0
  6
CONTINUOUS
 62
    7
 10
161.12747200000001
 20
76.920242500000001
 11
161.12747200000001
 21
77.0379985
  0
LINE
  8
_0-0_0
  6
CONTINUOUS
 62
    7
 10
161.12747200000001
 20
77.0379985
 11
161.12747200000001
 21
77.176425499999993
  0
LINE
  8
_0-0_0
  6
CONTINUOUS
 62
    7
 10
161.12747200000001
 20
77.176425499999993
 11
161.12747200000001
 21
77.334014499999995
  0
LINE
  8
_0-0_0
  6
CONTINUOUS
 62
    7
 10
161.12747200000001
 20
77.334014499999995
 11
161.12747200000001
 21
77.509033500000001
  0
LINE
  8
_0-0_0
  6
CONTINUOUS
 62
    7
 10
161.12747200000001
 20
77.509033500000001
 11
161.12747200000001
 21
77.699565500000006
  0
LINE
  8
_0-0_0
  6
CONTINUOUS
 62
    7
 10
161.12747200000001
 20
77.846298500000003
 11
161.12747200000001
 21
77.903526499999998
  0
LINE
  8
_0-0_0
  6
CONTINUOUS
 62
    7
 10
161.12747200000001
 20
77.699565500000006
 11
161.12747200000001
 21
77.846298500000003
  0
LINE
  8
_0-0_0
  6
CONTINUOUS
 62
    7
 10
157.527466
 20
84.724998499999998
 11
157.527466
 21
92.224998499999998
  0
LINE
  8
_0-0_0
  6
CONTINUOUS
 62
    7
 10
157.527466
 20
82.224998499999998
 11
157.527466
 21
84.724998499999998
  0
LINE
  8
_0-0_0
  6
CONTINUOUS
 62
    7
 10
146.12747200000001
 20
93.724998499999998
 11
155.83529700000003
 21
93.724998499999998
  0
LINE
  8
_0-0_0
  6
CONTINUOUS
 62
    7
 10
155.87747200000001
 20
93.724998499999998
 11
155.83529700000003
 21
93.724998499999998
  0
LINE
  8
_0-0_0
  6
CONTINUOUS
 62
    7
 10
145.82746900000001
 20
85.012977500000005
 11
145.88627600000001
 21
84.766136500000002
  0
LINE
  8
_0-0_0
  6
CONTINUOUS
 62
    7
 10
145.88627600000001
 20
84.766136500000002
 11
145.936035
 21
84.573814499999997
  0
LINE
  8
_0-0_0
  6
CONTINUOUS
 62
    7
 10
145.936035
 20
84.573814499999997
 11
146.00715600000001
 21
84.308067500000007
  0
LINE
  8
_0-0_0
  6
CONTINUOUS
 62
    7
 10
146.00715600000001
 20
84.308067500000007
 11
146.04011500000001
 21
84.181373500000007
  0
LINE
  8
_0-0_0
  6
CONTINUOUS
 62
    7
 10
146.04011500000001
 20
84.181373500000007
 11
146.06536899999998
 21
84.077918499999996
  0
LINE
  8
_0-0_0
  6
CONTINUOUS
 62
    7
 10
146.06536899999998
 20
84.077918499999996
 11
146.087402
 21
83.9779585
  0
LINE
  8
_0-0_0
  6
CONTINUOUS
 62
    7
 10
146.087402
 20
83.9779585
 11
146.10879499999999
 21
83.860252500000001
  0
LINE
  8
_0-0_0
  6
CONTINUOUS
 62
    7
 10
146.10879499999999
 20
83.860252500000001
 11
146.11735499999998
 21
83.798118500000001
  0
LINE
  8
_0-0_0
  6
CONTINUOUS
 62
    7
 10
146.11735499999998
 20
83.798118500000001
 11
146.12344400000001
 21
83.737525500000004
  0
LINE
  8
_0-0_0
  6
CONTINUOUS
 62
    7
 10
146.12344400000001
 20
83.737525500000004
 11
146.12644999999998
 21
83.688285500000006
  0
LINE
  8
_0-0_0
  6
CONTINUOUS
 62
    7
 10
146.12644999999998
 20
83.688285500000006
 11
146.12747200000001
 21
83.640068499999998
  0
LINE
  8
_0-0_0
  6
CONTINUOUS
 62
    7
 10
145.82746900000001
 20
89.4370045
 11
145.88626099999999
 21
89.683830499999999
  0
LINE
  8
_0-0_0
  6
CONTINUOUS
 62
    7
 10
145.88626099999999
 20
89.683830499999999
 11
145.936035
 21
89.876167500000008
  0
LINE
  8
_0-0_0
  6
CONTINUOUS
 62
    7
 10
145.936035
 20
89.876167500000008
 11
146.00715600000001
 21
90.141975500000001
  0
LINE
  8
_0-0_0
  6
CONTINUOUS
 62
    7
 10
146.00715600000001
 20
90.141975500000001
 11
146.04011500000001
 21
90.268684500000006
  0
LINE
  8
_0-0_0
  6
CONTINUOUS
 62
    7
 10
146.04011500000001
 20
90.268684500000006
 11
146.06538399999999
 21
90.372108499999996
  0
LINE
  8
_0-0_0
  6
CONTINUOUS
 62
    7
 10
146.06538399999999
 20
90.372108499999996
 11
146.087402
 21
90.472038499999996
  0
LINE
  8
_0-0_0
  6
CONTINUOUS
 62
    7
 10
146.087402
 20
90.472038499999996
 11
146.10878000000002
 21
90.589744500000009
  0
LINE
  8
_0-0_0
  6
CONTINUOUS
 62
    7
 10
146.10878000000002
 20
90.589744500000009
 11
146.11735499999998
 21
90.651878499999995
  0
LINE
  8
_0-0_0
  6
CONTINUOUS
 62
    7
 10
146.11735499999998
 20
90.651878499999995
 11
146.12344400000001
 21
90.712486499999997
  0
LINE
  8
_0-0_0
  6
CONTINUOUS
 62
    7
 10
146.12344400000001
 20
90.712486499999997
 11
146.12644999999998
 21
90.761726500000009
  0
LINE
  8
_0-0_0
  6
CONTINUOUS
 62
    7
 10
146.12644999999998
 20
90.761726500000009
 11
146.12747200000001
 21
90.8099445
  0
LINE
  8
_0-0_0
  6
CONTINUOUS
 62
    7
 10
146.12747200000001
 20
85.662956500000007
 11
146.12747200000001
 21
84.617301499999996
  0
LINE
  8
_0-0_0
  6
CONTINUOUS
 62
    7
 10
146.12747200000001
 20
83.332694500000002
 11
146.12747200000001
 21
84.617301499999996
  0
LINE
  8
_0-0_0
  6
CONTINUOUS
 62
    7
 10
146.12747200000001
 20
83.217308500000001
 11
146.12747200000001
 21
83.332694500000002
  0
ARC
  8
_0-0_0
  6
CONTINUOUS
 62
    7
 10
144.12747200000001
 20
94.583488500000001
 40
2
 50
0
 51
71.565000999999995
  0
LINE
  8
_0-0_0
  6
CONTINUOUS
 62
    7
 10
155.83529700000003
 20
93.724998499999998
 11
155.88978600000002
 21
93.655067500000001
  0
LINE
  8
_0-0_0
  6
CONTINUOUS
 62
    7
 10
155.88978600000002
 20
93.655067500000001
 11
155.94088699999998
 21
93.586250500000006
  0
LINE
  8
_0-0_0
  6
CONTINUOUS
 62
    7
 10
155.94088699999998
 20
93.586250500000006
 11
155.98852499999998
 21
93.518730500000004
  0
LINE
  8
_0-0_0
  6
CONTINUOUS
 62
    7
 10
155.98852499999998
 20
93.518730500000004
 11
156.03302000000002
 21
93.452186499999996
  0
LINE
  8
_0-0_0
  6
CONTINUOUS
 62
    7
 10
156.03302000000002
 20
93.452186499999996
 11
156.087738
 21
93.364646500000006
  0
LINE
  8
_0-0_0
  6
CONTINUOUS
 62
    7
 10
156.087738
 20
93.364646500000006
 11
156.13725299999999
 21
93.278541500000003
  0
LINE
  8
_0-0_0
  6
CONTINUOUS
 62
    7
 10
156.13725299999999
 20
93.278541500000003
 11
156.18171699999999
 21
93.193717500000005
  0
LINE
  8
_0-0_0
  6
CONTINUOUS
 62
    7
 10
156.18171699999999
 20
93.193717500000005
 11
156.22868299999999
 21
93.093391499999996
  0
LINE
  8
_0-0_0
  6
CONTINUOUS
 62
    7
 10
156.22868299999999
 20
93.093391499999996
 11
156.26889
 21
92.994468499999996
  0
LINE
  8
_0-0_0
  6
CONTINUOUS
 62
    7
 10
156.26889
 20
92.994468499999996
 11
156.30255099999999
 21
92.896705499999996
  0
LINE
  8
_0-0_0
  6
CONTINUOUS
 62
    7
 10
156.30255099999999
 20
92.896705499999996
 11
156.32984900000002
 21
92.799903499999999
  0
LINE
  8
_0-0_0
  6
CONTINUOUS
 62
    7
 10
156.32984900000002
 20
92.799903499999999
 11
156.35089099999999
 21
92.703849500000004
  0
LINE
  8
_0-0_0
  6
CONTINUOUS
 62
    7
 10
156.35089099999999
 20
92.703849500000004
 11
156.36682100000002
 21
92.599998499999998
  0
LINE
  8
_0-0_0
  6
CONTINUOUS
 62
    7
 10
156.36682100000002
 20
92.599998499999998
 11
156.37558000000001
 21
92.496574500000008
  0
LINE
  8
_0-0_0
  6
CONTINUOUS
 62
    7
 10
156.37558000000001
 20
92.496574500000008
 11
156.37721199999999
 21
92.393333499999997
  0
LINE
  8
_0-0_0
  6
CONTINUOUS
 62
    7
 10
156.37721199999999
 20
92.393333499999997
 11
156.37175000000002
 21
92.290046500000003
  0
LINE
  8
_0-0_0
  6
CONTINUOUS
 62
    7
 10
156.37175000000002
 20
92.290046500000003
 11
156.35913099999999
 21
92.186454499999996
  0
LINE
  8
_0-0_0
  6
CONTINUOUS
 62
    7
 10
156.35913099999999
 20
92.186454499999996
 11
156.33932500000003
 21
92.082313499999998
  0
LINE
  8
_0-0_0
  6
CONTINUOUS
 62
    7
 10
156.33932500000003
 20
92.082313499999998
 11
156.31217900000001
 21
91.977348500000005
  0
LINE
  8
_0-0_0
  6
CONTINUOUS
 62
    7
 10
156.31217900000001
 20
91.977348500000005
 11
156.27752700000002
 21
91.871314499999997
  0
LINE
  8
_0-0_0
  6
CONTINUOUS
 62
    7
 10
156.27752700000002
 20
91.871314499999997
 11
156.235184
 21
91.763938500000009
  0
LINE
  8
_0-0_0
  6
CONTINUOUS
 62
    7
 10
156.235184
 20
91.763938500000009
 11
156.18486000000001
 21
91.654930500000006
  0
LINE
  8
_0-0_0
  6
CONTINUOUS
 62
    7
 10
156.18486000000001
 20
91.654930500000006
 11
156.13061499999998
 21
91.551795499999997
  0
LINE
  8
_0-0_0
  6
CONTINUOUS
 62
    7
 10
156.13061499999998
 20
91.551795499999997
 11
156.06890900000002
 21
91.446739500000007
  0
LINE
  8
_0-0_0
  6
CONTINUOUS
 62
    7
 10
156.06890900000002
 20
91.446739500000007
 11
155.99939000000001
 21
91.3395005
  0
LINE
  8
_0-0_0
  6
CONTINUOUS
 62
    7
 10
155.99939000000001
 20
91.3395005
 11
155.92167699999999
 21
91.2298045
  0
LINE
  8
_0-0_0
  6
CONTINUOUS
 62
    7
 10
155.92167699999999
 20
91.2298045
 11
155.83529700000003
 21
91.117301499999996
  0
LINE
  8
_0-0_0
  6
CONTINUOUS
 62
    7
 10
146.12747200000001
 20
91.232688500000009
 11
146.12747200000001
 21
91.117301499999996
  0
LINE
  8
_0-0_0
  6
CONTINUOUS
 62
    7
 10
146.12747200000001
 20
89.832694500000002
 11
146.12747200000001
 21
88.787055500000008
  0
LINE
  8
_0-0_0
  6
CONTINUOUS
 62
    7
 10
146.12747200000001
 20
84.617301499999996
 11
155.83529700000003
 21
84.617301499999996
  0
LINE
  8
_0-0_0
  6
CONTINUOUS
 62
    7
 10
146.12747200000001
 20
83.332694500000002
 11
155.83529700000003
 21
83.332694500000002
  0
LINE
  8
_0-0_0
  6
CONTINUOUS
 62
    7
 10
157.12747200000001
 20
89.956565499999996
 11
157.12747200000001
 21
92.474998499999998
  0
LINE
  8
_0-0_0
  6
CONTINUOUS
 62
    7
 10
146.12747200000001
 20
94.583488500000001
 11
146.12747200000001
 21
91.232688500000009
  0
LINE
  8
_0-0_0
  6
CONTINUOUS
 62
    7
 10
135.12747200000001
 20
76.425006499999995
 11
135.12747200000001
 21
76.675071500000001
  0
LINE
  8
_0-0_0
  6
CONTINUOUS
 62
    7
 10
110.627472
 20
96.525001500000002
 11
105.627464
 21
96.525001500000002
  0
ARC
  8
_0-0_0
  6
CONTINUOUS
 62
    7
 10
105.627464
 20
92.025001500000002
 40
4.5
 50
90.000003000000007
 51
269.99999700000006
  0
LINE
  8
_0-0_0
  6
CONTINUOUS
 62
    7
 10
110.627472
 20
87.525001500000002
 11
105.627464
 21
87.525001500000002
  0
ARC
  8
_0-0_0
  6
CONTINUOUS
 62
    7
 10
110.627472
 20
92.025001500000002
 40
4.5
 50
269.99999700000001
 51
90.000002999999992
  0
LINE
  8
_0-0_0
  6
CONTINUOUS
 62
    7
 10
54.627464000000003
 20
96.525001500000002
 11
49.627464000000003
 21
96.525001500000002
  0
ARC
  8
_0-0_0
  6
CONTINUOUS
 62
    7
 10
49.627464000000003
 20
92.025001500000002
 40
4.5
 50
90.000003000000007
 51
269.99999700000006
  0
LINE
  8
_0-0_0
  6
CONTINUOUS
 62
    7
 10
54.627464000000003
 20
87.525001500000002
 11
49.627464000000003
 21
87.525001500000002
  0
ARC
  8
_0-0_0
  6
CONTINUOUS
 62
    7
 10
54.627464000000003
 20
92.025001500000002
 40
4.5
 50
269.99999700000001
 51
90.000002999999992
  0
LINE
  8
_0-0_0
  6
CONTINUOUS
 62
    7
 10
79.939979000000008
 20
96.094642500000006
 11
78.639983999999998
 21
92.594642500000006
  0
LINE
  8
_0-0_0
  6
CONTINUOUS
 62
    7
 10
78.827469000000008
 20
92.325004500000006
 11
81.427467000000007
 21
92.325004500000006
  0
ARC
  8
_0-0_0
  6
CONTINUOUS
 62
    7
 10
81.427467000000007
 20
92.525001500000002
 40
0.2
 50
269.99999700000001
 51
20.376435000000019
  0
ARC
  8
_0-0_0
  6
CONTINUOUS
 62
    7
 10
80.127464000000003
 20
96.025001500000002
 40
0.2
 50
20.376434999999997
 51
159.62357000000003
  0
LINE
  8
_0-0_0
  6
CONTINUOUS
 62
    7
 10
135.12747200000001
 20
76.425006499999995
 11
135.12747200000001
 21
78.425010499999999
  0
ARC
  8
_0-0_0
  6
CONTINUOUS
 62
    7
 10
101.127464
 20
82.825004500000006
 40
3
 50
180.00000900000003
 51
269.99999700000001
  0
LINE
  8
_0-0_0
  6
CONTINUOUS
 62
    7
 10
101.127464
 20
79.825004500000006
 11
116.127472
 21
79.825004500000006
  0
ARC
  8
_0-0_0
  6
CONTINUOUS
 62
    7
 10
116.127472
 20
82.825004500000006
 40
3
 50
269.99999700000001
 51
0
  0
ARC
  8
_0-0_0
  6
CONTINUOUS
 62
    7
 10
116.127472
 20
96.425010499999999
 40
3
 50
0
 51
90.000003000000007
  0
LINE
  8
_0-0_0
  6
CONTINUOUS
 62
    7
 10
116.127472
 20
99.425010499999999
 11
101.127464
 21
99.425010499999999
  0
ARC
  8
_0-0_0
  6
CONTINUOUS
 62
    7
 10
101.127464
 20
96.425010499999999
 40
3
 50
90.000003000000007
 51
180.00000900000001
  0
ARC
  8
_0-0_0
  6
CONTINUOUS
 62
    7
 10
47.217148000000009
 20
84.914680500000003
 40
5.089683
 50
180.00000900000003
 51
269.99999700000001
  0
LINE
  8
_0-0_0
  6
CONTINUOUS
 62
    7
 10
47.217148000000009
 20
79.825004500000006
 11
58.484474000000006
 21
79.825004500000006
  0
ARC
  8
_0-0_0
  6
CONTINUOUS
 62
    7
 10
58.484474000000006
 20
83.467994500000003
 40
3.6429879999999999
 50
269.99999700000001
 51
0.0000099999999886
  0
LINE
  8
_0-0_0
  6
CONTINUOUS
 62
    7
 10
59.127464000000003
 20
99.425010499999999
 11
45.793526
 21
99.425010499999999
  0
ARC
  8
_0-0_0
  6
CONTINUOUS
 62
    7
 10
45.793526
 20
98.425010499999999
 40
1
 50
90.000003000000007
 51
172.23356100000001
  0
ARC
  8
_0-0_0
  6
CONTINUOUS
 62
    7
 10
43.127471999999997
 20
95.362693500000006
 40
1
 50
105.68034800000001
 51
180.00000900000001
  0
LINE
  8
_0-0_0
  6
CONTINUOUS
 62
    7
 10
100.527466
 20
99.425010499999999
 11
100.527466
 21
99.364387500000007
  0
LINE
  8
_0-0_0
  6
CONTINUOUS
 62
    7
 10
59.127464000000003
 20
79.882194499999997
 11
59.127464000000003
 21
79.829093499999999
  0
LINE
  8
_0-0_0
  6
CONTINUOUS
 62
    7
 10
100.527466
 20
79.885612500000008
 11
100.527466
 21
79.829093499999999
  0
LINE
  8
_0-0_0
  6
CONTINUOUS
 62
    7
 10
157.12747200000001
 20
81.974998499999998
 11
156.32746900000001
 21
81.174995500000009
  0
LINE
  8
_0-0_0
  6
CONTINUOUS
 62
    7
 10
171.12747200000001
 20
76.925006499999995
 11
170.62763999999999
 21
76.425159500000007
  0
LINE
  8
_0-0_0
  6
CONTINUOUS
 62
    7
 10
171.12747200000001
 20
93.525001500000002
 11
170.62763999999999
 21
93.025154499999999
  0
LINE
  8
_0-0_0
  6
CONTINUOUS
 62
    7
 10
158.32746900000001
 20
91.224998499999998
 11
216.32746900000001
 21
91.224998499999998
  0
LINE
  8
_0-0_0
  6
CONTINUOUS
 62
    7
 10
158.32746900000001
 20
83.224998499999998
 11
216.32746900000001
 21
83.224998499999998
  0
LINE
  8
_0-0_0
  6
CONTINUOUS
 62
    7
 10
171.12747200000001
 20
97.525001500000002
 11
170.62763999999999
 21
98.024848500000004
  0
LINE
  8
_0-0_0
  6
CONTINUOUS
 62
    7
 10
171.12747200000001
 20
80.925010499999999
 11
170.62763999999999
 21
81.424842499999997
  0
LINE
  8
_0-0_0
  6
CONTINUOUS
 62
    7
 10
161.12747200000001
 20
97.775001500000002
 11
161.37747200000001
 21
98.025001500000002
  0
LINE
  8
_0-0_0
  6
CONTINUOUS
 62
    7
 10
161.12747200000001
 20
93.275001500000002
 11
161.37747200000001
 21
93.025001500000002
  0
LINE
  8
_0-0_0
  6
CONTINUOUS
 62
    7
 10
161.12747200000001
 20
81.175010499999999
 11
161.37747200000001
 21
81.425010499999999
  0
LINE
  8
_0-0_0
  6
CONTINUOUS
 62
    7
 10
161.12747200000001
 20
76.675006499999995
 11
161.37747200000001
 21
76.425006499999995
  0
LINE
  8
_0-0_0
  6
CONTINUOUS
 62
    7
 10
158.32746900000001
 20
91.763130500000003
 11
157.527466
 21
92.224998499999998
  0
LINE
  8
_0-0_0
  6
CONTINUOUS
 62
    7
 10
158.32746900000001
 20
82.686881499999998
 11
157.527466
 21
82.224998499999998
  0
LINE
  8
_0-0_0
  6
CONTINUOUS
 62
    7
 10
140.87742600000001
 20
97.775001500000002
 11
161.12747200000001
 21
97.775001500000002
  0
LINE
  8
_0-0_0
  6
CONTINUOUS
 62
    7
 10
156.32746900000001
 20
93.275001500000002
 11
161.12747200000001
 21
93.275001500000002
  0
LINE
  8
_0-0_0
  6
CONTINUOUS
 62
    7
 10
135.12747200000001
 20
81.175010499999999
 11
161.12747200000001
 21
81.175010499999999
  0
LINE
  8
_0-0_0
  6
CONTINUOUS
 62
    7
 10
135.12747200000001
 20
76.675006499999995
 11
161.12747200000001
 21
76.675006499999995
  0
LINE
  8
_0-0_0
  6
CONTINUOUS
 62
    7
 10
157.12747200000001
 20
92.224998499999998
 11
157.527466
 21
92.224998499999998
  0
LINE
  8
_0-0_0
  6
CONTINUOUS
 62
    7
 10
157.12747200000001
 20
82.224998499999998
 11
157.527466
 21
82.224998499999998
  0
LINE
  8
_0-0_0
  6
CONTINUOUS
 62
    7
 10
157.12747200000001
 20
92.474998499999998
 11
155.87747200000001
 21
93.725013500000003
  0
LINE
  8
_0-0_0
  6
CONTINUOUS
 62
    7
 10
26.127467999999993
 20
116.1250075
 11
28.58224100000001
 21
116.1250075
  0
LINE
  8
_0-0_0
  6
CONTINUOUS
 62
    7
 10
26.127467999999993
 20
102.92499550000001
 11
26.127467999999993
 21
116.1250075
  0
LINE
  8
_0-0_0
  6
CONTINUOUS
 62
    7
 10
229.12747200000001
 20
102.92499550000001
 11
229.12747200000001
 21
116.1250075
  0
LINE
  8
_0-0_0
  6
CONTINUOUS
 62
    7
 10
226.67269900000002
 20
116.1250075
 11
229.12747200000001
 21
116.1250075
  0
ARC
  8
_0-0_0
  6
CONTINUOUS
 62
    7
 10
220.12747200000001
 20
120.7249985
 40
8
 50
215.099627
 51
324.90037799999999
  0
LINE
  8
_0-0_0
  6
CONTINUOUS
 62
    7
 10
41.672695000000004
 20
116.1250075
 11
213.582245
 21
116.1250075
  0
ARC
  8
_0-0_0
  6
CONTINUOUS
 62
    7
 10
35.127467999999993
 20
120.7249985
 40
8
 50
215.099627
 51
324.90037799999999
  0
LINE
  8
_0-0_0
  6
CONTINUOUS
 62
    7
 10
28.58224100000001
 20
116.1250075
 11
28.493258999999995
 21
116.2542955
  0
LINE
  8
_0-0_0
  6
CONTINUOUS
 62
    7
 10
41.672695000000004
 20
116.1250075
 11
41.761681000000003
 21
116.2542955
  0
LINE
  8
_0-0_0
  6
CONTINUOUS
 62
    7
 10
41.854820000000004
 20
116.3957135
 11
41.761681000000003
 21
116.2542955
  0
LINE
  8
_0-0_0
  6
CONTINUOUS
 62
    7
 10
41.854820000000004
 20
116.3957135
 11
41.936287
 21
116.5250015
  0
ARC
  8
_0-0_0
  6
CONTINUOUS
 62
    7
 10
35.127467999999993
 20
120.7249985
 40
8
 50
328.33175599999993
 51
334.05550899999992
  0
LINE
  8
_0-0_0
  6
CONTINUOUS
 62
    7
 10
42.321217000000004
 20
117.2249985
 11
42.382694000000001
 21
117.3542865
  0
LINE
  8
_0-0_0
  6
CONTINUOUS
 62
    7
 10
42.446739000000001
 20
117.49571950000001
 11
42.382694000000001
 21
117.3542865
  0
LINE
  8
_0-0_0
  6
CONTINUOUS
 62
    7
 10
42.446739000000001
 20
117.49571950000001
 11
42.502426
 21
117.6250075
  0
ARC
  8
_0-0_0
  6
CONTINUOUS
 62
    7
 10
35.127467999999993
 20
120.7249985
 40
8
 50
337.20097500000003
 51
342.54240199999998
  0
LINE
  8
_0-0_0
  6
CONTINUOUS
 62
    7
 10
42.758987000000005
 20
118.32500450000001
 11
42.798446999999996
 21
118.45429250000001
  0
LINE
  8
_0-0_0
  6
CONTINUOUS
 62
    7
 10
42.838898
 20
118.5957105
 11
42.798446999999996
 21
118.45429250000001
  0
LINE
  8
_0-0_0
  6
CONTINUOUS
 62
    7
 10
42.838898
 20
118.5957105
 11
42.873435999999998
 21
118.7249985
  0
ARC
  8
_0-0_0
  6
CONTINUOUS
 62
    7
 10
35.127467999999993
 20
120.7249985
 40
8
 50
345.52249499999999
 51
350.64797900000002
  0
LINE
  8
_0-0_0
  6
CONTINUOUS
 62
    7
 10
43.021141
 20
119.42499550000001
 11
43.041344000000009
 21
119.5542985
  0
LINE
  8
_0-0_0
  6
CONTINUOUS
 62
    7
 10
43.060981999999996
 20
119.6957165
 11
43.041344000000009
 21
119.5542985
  0
LINE
  8
_0-0_0
  6
CONTINUOUS
 62
    7
 10
43.060981999999996
 20
119.6957165
 11
43.076683000000003
 21
119.82500450000001
  0
ARC
  8
_0-0_0
  6
CONTINUOUS
 62
    7
 10
35.127467999999993
 20
120.7249985
 40
8
 50
353.54056400000002
 51
358.56744600000002
  0
LINE
  8
_0-0_0
  6
CONTINUOUS
 62
    7
 10
43.124969000000007
 20
120.5250015
 11
43.127159000000006
 21
120.6542895
  0
LINE
  8
_0-0_0
  6
CONTINUOUS
 62
    7
 10
43.127159000000006
 20
120.6542895
 11
43.127471999999997
 21
120.7249985
  0
LINE
  8
_0-0_0
  6
CONTINUOUS
 62
    7
 10
27.127780999999999
 20
120.6542895
 11
27.127467999999993
 21
120.7249985
  0
LINE
  8
_0-0_0
  6
CONTINUOUS
 62
    7
 10
27.129966999999994
 20
120.5250015
 11
27.127780999999999
 21
120.6542895
  0
ARC
  8
_0-0_0
  6
CONTINUOUS
 62
    7
 10
35.127467999999993
 20
120.7249985
 40
8
 50
181.432545
 51
186.45945499999999
  0
LINE
  8
_0-0_0
  6
CONTINUOUS
 62
    7
 10
27.193958000000009
 20
119.6957165
 11
27.178253000000012
 21
119.82500450000001
  0
LINE
  8
_0-0_0
  6
CONTINUOUS
 62
    7
 10
27.193958000000009
 20
119.6957165
 11
27.213592000000006
 21
119.5542985
  0
LINE
  8
_0-0_0
  6
CONTINUOUS
 62
    7
 10
27.233799000000005
 20
119.42499550000001
 11
27.213592000000006
 21
119.5542985
  0
ARC
  8
_0-0_0
  6
CONTINUOUS
 62
    7
 10
35.127467999999993
 20
120.7249985
 40
8
 50
189.35203999999999
 51
194.47751
  0
LINE
  8
_0-0_0
  6
CONTINUOUS
 62
    7
 10
27.416038
 20
118.5957105
 11
27.381500000000003
 21
118.7249985
  0
LINE
  8
_0-0_0
  6
CONTINUOUS
 62
    7
 10
27.416038
 20
118.5957105
 11
27.456492999999995
 21
118.45429250000001
  0
LINE
  8
_0-0_0
  6
CONTINUOUS
 62
    7
 10
27.495956000000007
 20
118.32500450000001
 11
27.456492999999995
 21
118.45429250000001
  0
ARC
  8
_0-0_0
  6
CONTINUOUS
 62
    7
 10
35.127467999999993
 20
120.7249985
 40
8
 50
197.45760300000001
 51
202.79902999999999
  0
LINE
  8
_0-0_0
  6
CONTINUOUS
 62
    7
 10
27.808200999999997
 20
117.49571950000001
 11
27.752510000000001
 21
117.6250075
  0
LINE
  8
_0-0_0
  6
CONTINUOUS
 62
    7
 10
27.808200999999997
 20
117.49571950000001
 11
27.872242
 21
117.3542865
  0
LINE
  8
_0-0_0
  6
CONTINUOUS
 62
    7
 10
27.933719999999994
 20
117.2249985
 11
27.872242
 21
117.3542865
  0
ARC
  8
_0-0_0
  6
CONTINUOUS
 62
    7
 10
35.127467999999993
 20
120.7249985
 40
8
 50
205.94448199999999
 51
211.66823500000001
  0
LINE
  8
_0-0_0
  6
CONTINUOUS
 62
    7
 10
28.400115999999997
 20
116.3957135
 11
28.318648999999994
 21
116.5250015
  0
LINE
  8
_0-0_0
  6
CONTINUOUS
 62
    7
 10
28.400115999999997
 20
116.3957135
 11
28.493258999999995
 21
116.2542955
  0
LINE
  8
_0-0_0
  6
CONTINUOUS
 62
    7
 10
213.582245
 20
116.1250075
 11
213.49325600000003
 21
116.2542955
  0
LINE
  8
_0-0_0
  6
CONTINUOUS
 62
    7
 10
212.12777699999998
 20
120.6542895
 11
212.12747200000001
 21
120.7249985
  0
LINE
  8
_0-0_0
  6
CONTINUOUS
 62
    7
 10
212.129974
 20
120.5250015
 11
212.12777699999998
 21
120.6542895
  0
ARC
  8
_0-0_0
  6
CONTINUOUS
 62
    7
 10
220.12747200000001
 20
120.7249985
 40
8
 50
181.432545
 51
186.45945499999999
  0
LINE
  8
_0-0_0
  6
CONTINUOUS
 62
    7
 10
212.19396999999998
 20
119.6957165
 11
212.17825299999998
 21
119.82500450000001
  0
LINE
  8
_0-0_0
  6
CONTINUOUS
 62
    7
 10
212.19396999999998
 20
119.6957165
 11
212.21359200000001
 21
119.5542985
  0
LINE
  8
_0-0_0
  6
CONTINUOUS
 62
    7
 10
212.23381000000001
 20
119.42499550000001
 11
212.21359200000001
 21
119.5542985
  0
ARC
  8
_0-0_0
  6
CONTINUOUS
 62
    7
 10
220.12747200000001
 20
120.7249985
 40
8
 50
189.35203999999999
 51
194.47751
  0
LINE
  8
_0-0_0
  6
CONTINUOUS
 62
    7
 10
212.41604599999999
 20
118.5957105
 11
212.38150000000002
 21
118.7249985
  0
LINE
  8
_0-0_0
  6
CONTINUOUS
 62
    7
 10
212.41604599999999
 20
118.5957105
 11
212.45649700000001
 21
118.45429250000001
  0
LINE
  8
_0-0_0
  6
CONTINUOUS
 62
    7
 10
212.49595599999998
 20
118.32500450000001
 11
212.45649700000001
 21
118.45429250000001
  0
ARC
  8
_0-0_0
  6
CONTINUOUS
 62
    7
 10
220.12747200000001
 20
120.7249985
 40
8
 50
197.45760300000001
 51
202.79902999999999
  0
LINE
  8
_0-0_0
  6
CONTINUOUS
 62
    7
 10
212.80819700000001
 20
117.49571950000001
 11
212.75251800000001
 21
117.6250075
  0
LINE
  8
_0-0_0
  6
CONTINUOUS
 62
    7
 10
212.80819700000001
 20
117.49571950000001
 11
212.87223799999998
 21
117.3542865
  0
LINE
  8
_0-0_0
  6
CONTINUOUS
 62
    7
 10
212.93373100000002
 20
117.2249985
 11
212.87223799999998
 21
117.3542865
  0
ARC
  8
_0-0_0
  6
CONTINUOUS
 62
    7
 10
220.12747200000001
 20
120.7249985
 40
8
 50
205.94448199999999
 51
211.66823500000001
  0
LINE
  8
_0-0_0
  6
CONTINUOUS
 62
    7
 10
213.40011600000003
 20
116.3957135
 11
213.31864899999999
 21
116.5250015
  0
LINE
  8
_0-0_0
  6
CONTINUOUS
 62
    7
 10
213.40011600000003
 20
116.3957135
 11
213.49325600000003
 21
116.2542955
  0
LINE
  8
_0-0_0
  6
CONTINUOUS
 62
    7
 10
226.67269900000002
 20
116.1250075
 11
226.76168799999999
 21
116.2542955
  0
LINE
  8
_0-0_0
  6
CONTINUOUS
 62
    7
 10
226.854828
 20
116.3957135
 11
226.76168799999999
 21
116.2542955
  0
LINE
  8
_0-0_0
  6
CONTINUOUS
 62
    7
 10
226.854828
 20
116.3957135
 11
226.93629399999998
 21
116.5250015
  0
ARC
  8
_0-0_0
  6
CONTINUOUS
 62
    7
 10
220.12747200000001
 20
120.7249985
 40
8
 50
328.33175599999993
 51
334.05550899999992
  0
LINE
  8
_0-0_0
  6
CONTINUOUS
 62
    7
 10
227.321213
 20
117.2249985
 11
227.38270599999998
 21
117.3542865
  0
LINE
  8
_0-0_0
  6
CONTINUOUS
 62
    7
 10
227.44674700000002
 20
117.49571950000001
 11
227.38270599999998
 21
117.3542865
  0
LINE
  8
_0-0_0
  6
CONTINUOUS
 62
    7
 10
227.44674700000002
 20
117.49571950000001
 11
227.50242600000001
 21
117.6250075
  0
ARC
  8
_0-0_0
  6
CONTINUOUS
 62
    7
 10
220.12747200000001
 20
120.7249985
 40
8
 50
337.20097500000003
 51
342.54240199999998
  0
LINE
  8
_0-0_0
  6
CONTINUOUS
 62
    7
 10
227.75898699999999
 20
118.32500450000001
 11
227.79844700000001
 21
118.45429250000001
  0
LINE
  8
_0-0_0
  6
CONTINUOUS
 62
    7
 10
227.83889800000003
 20
118.5957105
 11
227.79844700000001
 21
118.45429250000001
  0
LINE
  8
_0-0_0
  6
CONTINUOUS
 62
    7
 10
227.83889800000003
 20
118.5957105
 11
227.87344400000001
 21
118.7249985
  0
ARC
  8
_0-0_0
  6
CONTINUOUS
 62
    7
 10
220.12747200000001
 20
120.7249985
 40
8
 50
345.52249499999999
 51
350.64797900000002
  0
LINE
  8
_0-0_0
  6
CONTINUOUS
 62
    7
 10
228.02113300000002
 20
119.42499550000001
 11
228.04135100000002
 21
119.5542985
  0
LINE
  8
_0-0_0
  6
CONTINUOUS
 62
    7
 10
228.06097399999999
 20
119.6957165
 11
228.04135100000002
 21
119.5542985
  0
LINE
  8
_0-0_0
  6
CONTINUOUS
 62
    7
 10
228.06097399999999
 20
119.6957165
 11
228.07669099999998
 21
119.82500450000001
  0
ARC
  8
_0-0_0
  6
CONTINUOUS
 62
    7
 10
220.12747200000001
 20
120.7249985
 40
8
 50
353.54056400000002
 51
358.56744600000002
  0
LINE
  8
_0-0_0
  6
CONTINUOUS
 62
    7
 10
228.12496900000002
 20
120.5250015
 11
228.12716699999999
 21
120.6542895
  0
LINE
  8
_0-0_0
  6
CONTINUOUS
 62
    7
 10
228.12716699999999
 20
120.6542895
 11
228.12747200000001
 21
120.7249985
  0
LINE
  8
_0-0_0
  6
CONTINUOUS
 62
    7
 10
229.12747200000001
 20
116.2542955
 11
229.12747200000001
 21
116.1250075
  0
LINE
  8
_0-0_0
  6
CONTINUOUS
 62
    7
 10
229.12747200000001
 20
125.0542985
 11
229.12747200000001
 21
125.1957165
  0
LINE
  8
_0-0_0
  6
CONTINUOUS
 62
    7
 10
229.12747200000001
 20
125.0542985
 11
229.12747200000001
 21
124.92499550000001
  0
LINE
  8
_0-0_0
  6
CONTINUOUS
 62
    7
 10
229.12747200000001
 20
124.2249985
 11
229.12747200000001
 21
124.92499550000001
  0
LINE
  8
_0-0_0
  6
CONTINUOUS
 62
    7
 10
229.12747200000001
 20
124.0957105
 11
229.12747200000001
 21
124.2249985
  0
LINE
  8
_0-0_0
  6
CONTINUOUS
 62
    7
 10
229.12747200000001
 20
123.95429250000001
 11
229.12747200000001
 21
124.0957105
  0
LINE
  8
_0-0_0
  6
CONTINUOUS
 62
    7
 10
229.12747200000001
 20
123.95429250000001
 11
229.12747200000001
 21
123.82500450000001
  0
LINE
  8
_0-0_0
  6
CONTINUOUS
 62
    7
 10
229.12747200000001
 20
123.1250075
 11
229.12747200000001
 21
123.82500450000001
  0
LINE
  8
_0-0_0
  6
CONTINUOUS
 62
    7
 10
229.12747200000001
 20
122.99571950000001
 11
229.12747200000001
 21
123.1250075
  0
LINE
  8
_0-0_0
  6
CONTINUOUS
 62
    7
 10
229.12747200000001
 20
122.8542865
 11
229.12747200000001
 21
122.99571950000001
  0
LINE
  8
_0-0_0
  6
CONTINUOUS
 62
    7
 10
229.12747200000001
 20
122.8542865
 11
229.12747200000001
 21
122.7249985
  0
LINE
  8
_0-0_0
  6
CONTINUOUS
 62
    7
 10
229.12747200000001
 20
122.0250015
 11
229.12747200000001
 21
122.7249985
  0
LINE
  8
_0-0_0
  6
CONTINUOUS
 62
    7
 10
229.12747200000001
 20
121.8957135
 11
229.12747200000001
 21
122.0250015
  0
LINE
  8
_0-0_0
  6
CONTINUOUS
 62
    7
 10
229.12747200000001
 20
121.7542955
 11
229.12747200000001
 21
121.8957135
  0
LINE
  8
_0-0_0
  6
CONTINUOUS
 62
    7
 10
229.12747200000001
 20
121.7542955
 11
229.12747200000001
 21
121.6250075
  0
LINE
  8
_0-0_0
  6
CONTINUOUS
 62
    7
 10
229.12747200000001
 20
120.92499550000001
 11
229.12747200000001
 21
121.6250075
  0
LINE
  8
_0-0_0
  6
CONTINUOUS
 62
    7
 10
229.12747200000001
 20
120.79570750000001
 11
229.12747200000001
 21
120.92499550000001
  0
LINE
  8
_0-0_0
  6
CONTINUOUS
 62
    7
 10
229.12747200000001
 20
120.6542895
 11
229.12747200000001
 21
120.79570750000001
  0
LINE
  8
_0-0_0
  6
CONTINUOUS
 62
    7
 10
229.12747200000001
 20
120.6542895
 11
229.12747200000001
 21
120.5250015
  0
LINE
  8
_0-0_0
  6
CONTINUOUS
 62
    7
 10
229.12747200000001
 20
119.82500450000001
 11
229.12747200000001
 21
120.5250015
  0
LINE
  8
_0-0_0
  6
CONTINUOUS
 62
    7
 10
229.12747200000001
 20
119.6957165
 11
229.12747200000001
 21
119.82500450000001
  0
LINE
  8
_0-0_0
  6
CONTINUOUS
 62
    7
 10
229.12747200000001
 20
119.5542985
 11
229.12747200000001
 21
119.6957165
  0
LINE
  8
_0-0_0
  6
CONTINUOUS
 62
    7
 10
229.12747200000001
 20
119.5542985
 11
229.12747200000001
 21
119.42499550000001
  0
LINE
  8
_0-0_0
  6
CONTINUOUS
 62
    7
 10
229.12747200000001
 20
118.7249985
 11
229.12747200000001
 21
119.42499550000001
  0
LINE
  8
_0-0_0
  6
CONTINUOUS
 62
    7
 10
229.12747200000001
 20
118.5957105
 11
229.12747200000001
 21
118.7249985
  0
LINE
  8
_0-0_0
  6
CONTINUOUS
 62
    7
 10
229.12747200000001
 20
118.45429250000001
 11
229.12747200000001
 21
118.5957105
  0
LINE
  8
_0-0_0
  6
CONTINUOUS
 62
    7
 10
229.12747200000001
 20
118.45429250000001
 11
229.12747200000001
 21
118.32500450000001
  0
LINE
  8
_0-0_0
  6
CONTINUOUS
 62
    7
 10
229.12747200000001
 20
117.6250075
 11
229.12747200000001
 21
118.32500450000001
  0
LINE
  8
_0-0_0
  6
CONTINUOUS
 62
    7
 10
229.12747200000001
 20
117.49571950000001
 11
229.12747200000001
 21
117.6250075
  0
LINE
  8
_0-0_0
  6
CONTINUOUS
 62
    7
 10
229.12747200000001
 20
117.3542865
 11
229.12747200000001
 21
117.49571950000001
  0
LINE
  8
_0-0_0
  6
CONTINUOUS
 62
    7
 10
229.12747200000001
 20
117.3542865
 11
229.12747200000001
 21
117.2249985
  0
LINE
  8
_0-0_0
  6
CONTINUOUS
 62
    7
 10
229.12747200000001
 20
116.5250015
 11
229.12747200000001
 21
117.2249985
  0
LINE
  8
_0-0_0
  6
CONTINUOUS
 62
    7
 10
229.12747200000001
 20
116.3957135
 11
229.12747200000001
 21
116.5250015
  0
LINE
  8
_0-0_0
  6
CONTINUOUS
 62
    7
 10
229.12747200000001
 20
116.2542955
 11
229.12747200000001
 21
116.3957135
  0
LINE
  8
_0-0_0
  6
CONTINUOUS
 62
    7
 10
229.12747200000001
 20
102.42499550000001
 11
229.12747200000001
 21
102.92499550000001
  0
LINE
  8
_0-0_0
  6
CONTINUOUS
 62
    7
 10
229.12747200000001
 20
130.92499550000002
 11
229.12747200000001
 21
130.33103149999999
  0
LINE
  8
_0-0_0
  6
CONTINUOUS
 62
    7
 10
229.12747200000001
 20
125.32500450000001
 11
229.12747200000001
 21
130.33103149999999
  0
LINE
  8
_0-0_0
  6
CONTINUOUS
 62
    7
 10
229.12747200000001
 20
125.1957165
 11
229.12747200000001
 21
125.32500450000001
  0
LINE
  8
_0-0_0
  6
CONTINUOUS
 62
    7
 10
26.127467999999993
 20
102.42499550000001
 11
26.127467999999993
 21
102.92499550000001
  0
LINE
  8
_0-0_0
  6
CONTINUOUS
 62
    7
 10
26.127467999999993
 20
102.42499550000001
 11
229.12747200000001
 21
102.42499550000001
  0
LINE
  8
_0-0_0
  6
CONTINUOUS
 62
    7
 10
26.127467999999993
 20
116.2542955
 11
26.127467999999993
 21
116.3957135
  0
LINE
  8
_0-0_0
  6
CONTINUOUS
 62
    7
 10
26.127467999999993
 20
116.2542955
 11
26.127467999999993
 21
116.1250075
  0
LINE
  8
_0-0_0
  6
CONTINUOUS
 62
    7
 10
26.127467999999993
 20
130.92499550000002
 11
26.127467999999993
 21
130.33103149999999
  0
LINE
  8
_0-0_0
  6
CONTINUOUS
 62
    7
 10
26.127467999999993
 20
125.32500450000001
 11
26.127467999999993
 21
130.33103149999999
  0
LINE
  8
_0-0_0
  6
CONTINUOUS
 62
    7
 10
26.127467999999993
 20
125.1957165
 11
26.127467999999993
 21
125.32500450000001
  0
LINE
  8
_0-0_0
  6
CONTINUOUS
 62
    7
 10
26.127467999999993
 20
125.0542985
 11
26.127467999999993
 21
125.1957165
  0
LINE
  8
_0-0_0
  6
CONTINUOUS
 62
    7
 10
26.127467999999993
 20
125.0542985
 11
26.127467999999993
 21
124.92499550000001
  0
LINE
  8
_0-0_0
  6
CONTINUOUS
 62
    7
 10
26.127467999999993
 20
124.2249985
 11
26.127467999999993
 21
124.92499550000001
  0
LINE
  8
_0-0_0
  6
CONTINUOUS
 62
    7
 10
26.127467999999993
 20
124.0957105
 11
26.127467999999993
 21
124.2249985
  0
LINE
  8
_0-0_0
  6
CONTINUOUS
 62
    7
 10
26.127467999999993
 20
123.95429250000001
 11
26.127467999999993
 21
124.0957105
  0
LINE
  8
_0-0_0
  6
CONTINUOUS
 62
    7
 10
26.127467999999993
 20
123.95429250000001
 11
26.127467999999993
 21
123.82500450000001
  0
LINE
  8
_0-0_0
  6
CONTINUOUS
 62
    7
 10
26.127467999999993
 20
123.1250075
 11
26.127467999999993
 21
123.82500450000001
  0
LINE
  8
_0-0_0
  6
CONTINUOUS
 62
    7
 10
26.127467999999993
 20
122.99571950000001
 11
26.127467999999993
 21
123.1250075
  0
LINE
  8
_0-0_0
  6
CONTINUOUS
 62
    7
 10
26.127467999999993
 20
122.8542865
 11
26.127467999999993
 21
122.99571950000001
  0
LINE
  8
_0-0_0
  6
CONTINUOUS
 62
    7
 10
26.127467999999993
 20
122.8542865
 11
26.127467999999993
 21
122.7249985
  0
LINE
  8
_0-0_0
  6
CONTINUOUS
 62
    7
 10
26.127467999999993
 20
122.0250015
 11
26.127467999999993
 21
122.7249985
  0
LINE
  8
_0-0_0
  6
CONTINUOUS
 62
    7
 10
26.127467999999993
 20
121.8957135
 11
26.127467999999993
 21
122.0250015
  0
LINE
  8
_0-0_0
  6
CONTINUOUS
 62
    7
 10
26.127467999999993
 20
121.7542955
 11
26.127467999999993
 21
121.8957135
  0
LINE
  8
_0-0_0
  6
CONTINUOUS
 62
    7
 10
26.127467999999993
 20
121.7542955
 11
26.127467999999993
 21
121.6250075
  0
LINE
  8
_0-0_0
  6
CONTINUOUS
 62
    7
 10
26.127467999999993
 20
120.92499550000001
 11
26.127467999999993
 21
121.6250075
  0
LINE
  8
_0-0_0
  6
CONTINUOUS
 62
    7
 10
26.127467999999993
 20
120.79570750000001
 11
26.127467999999993
 21
120.92499550000001
  0
LINE
  8
_0-0_0
  6
CONTINUOUS
 62
    7
 10
26.127467999999993
 20
120.6542895
 11
26.127467999999993
 21
120.79570750000001
  0
LINE
  8
_0-0_0
  6
CONTINUOUS
 62
    7
 10
26.127467999999993
 20
120.6542895
 11
26.127467999999993
 21
120.5250015
  0
LINE
  8
_0-0_0
  6
CONTINUOUS
 62
    7
 10
26.127467999999993
 20
119.82500450000001
 11
26.127467999999993
 21
120.5250015
  0
LINE
  8
_0-0_0
  6
CONTINUOUS
 62
    7
 10
26.127467999999993
 20
119.6957165
 11
26.127467999999993
 21
119.82500450000001
  0
LINE
  8
_0-0_0
  6
CONTINUOUS
 62
    7
 10
26.127467999999993
 20
119.5542985
 11
26.127467999999993
 21
119.6957165
  0
LINE
  8
_0-0_0
  6
CONTINUOUS
 62
    7
 10
26.127467999999993
 20
119.5542985
 11
26.127467999999993
 21
119.42499550000001
  0
LINE
  8
_0-0_0
  6
CONTINUOUS
 62
    7
 10
26.127467999999993
 20
118.7249985
 11
26.127467999999993
 21
119.42499550000001
  0
LINE
  8
_0-0_0
  6
CONTINUOUS
 62
    7
 10
26.127467999999993
 20
118.5957105
 11
26.127467999999993
 21
118.7249985
  0
LINE
  8
_0-0_0
  6
CONTINUOUS
 62
    7
 10
26.127467999999993
 20
118.45429250000001
 11
26.127467999999993
 21
118.5957105
  0
LINE
  8
_0-0_0
  6
CONTINUOUS
 62
    7
 10
26.127467999999993
 20
118.45429250000001
 11
26.127467999999993
 21
118.32500450000001
  0
LINE
  8
_0-0_0
  6
CONTINUOUS
 62
    7
 10
26.127467999999993
 20
117.6250075
 11
26.127467999999993
 21
118.32500450000001
  0
LINE
  8
_0-0_0
  6
CONTINUOUS
 62
    7
 10
26.127467999999993
 20
117.49571950000001
 11
26.127467999999993
 21
117.6250075
  0
LINE
  8
_0-0_0
  6
CONTINUOUS
 62
    7
 10
26.127467999999993
 20
117.3542865
 11
26.127467999999993
 21
117.49571950000001
  0
LINE
  8
_0-0_0
  6
CONTINUOUS
 62
    7
 10
26.127467999999993
 20
117.3542865
 11
26.127467999999993
 21
117.2249985
  0
LINE
  8
_0-0_0
  6
CONTINUOUS
 62
    7
 10
26.127467999999993
 20
116.5250015
 11
26.127467999999993
 21
117.2249985
  0
LINE
  8
_0-0_0
  6
CONTINUOUS
 62
    7
 10
26.127467999999993
 20
116.3957135
 11
26.127467999999993
 21
116.5250015
  0
LINE
  8
_0-0_0
  6
CONTINUOUS
 62
    7
 10
146.62747200000001
 20
108.4250105
 11
153.62747200000001
 21
108.4250105
  0
ARC
  8
_0-0_0
  6
CONTINUOUS
 62
    7
 10
146.62747200000001
 20
107.9250105
 40
0.5
 50
90.000003000000007
 51
180.00000900000001
  0
LINE
  8
_0-0_0
  6
CONTINUOUS
 62
    7
 10
146.12747200000001
 20
107.9250105
 11
146.12747200000001
 21
103.9250105
  0
ARC
  8
_0-0_0
  6
CONTINUOUS
 62
    7
 10
146.62747200000001
 20
103.9250105
 40
0.5
 50
180.00000900000003
 51
269.99999700000001
  0
LINE
  8
_0-0_0
  6
CONTINUOUS
 62
    7
 10
153.62747200000001
 20
103.4250105
 11
146.62747200000001
 21
103.4250105
  0
ARC
  8
_0-0_0
  6
CONTINUOUS
 62
    7
 10
153.62747200000001
 20
103.9250105
 40
0.5
 50
269.99999700000001
 51
0
  0
LINE
  8
_0-0_0
  6
CONTINUOUS
 62
    7
 10
154.12747200000001
 20
103.9250105
 11
154.12747200000001
 21
107.9250105
  0
ARC
  8
_0-0_0
  6
CONTINUOUS
 62
    7
 10
153.62747200000001
 20
107.9250105
 40
0.5
 50
0
 51
90.000003000000007
  0
ARC
  8
_0-0_0
  6
CONTINUOUS
 62
    7
 10
76.627464000000003
 20
107.9250105
 40
0.5
 50
90.000003000000007
 51
180.00000900000001
  0
LINE
  8
_0-0_0
  6
CONTINUOUS
 62
    7
 10
76.127464000000003
 20
107.9250105
 11
76.127464000000003
 21
103.9250105
  0
ARC
  8
_0-0_0
  6
CONTINUOUS
 62
    7
 10
76.627464000000003
 20
103.9250105
 40
0.5
 50
180.00000900000003
 51
269.99999700000001
  0
LINE
  8
_0-0_0
  6
CONTINUOUS
 62
    7
 10
83.627464000000003
 20
103.4250105
 11
76.627464000000003
 21
103.4250105
  0
ARC
  8
_0-0_0
  6
CONTINUOUS
 62
    7
 10
83.627464000000003
 20
103.9250105
 40
0.5
 50
269.99999700000001
 51
0
  0
LINE
  8
_0-0_0
  6
CONTINUOUS
 62
    7
 10
84.127464000000003
 20
103.9250105
 11
84.127464000000003
 21
107.9250105
  0
ARC
  8
_0-0_0
  6
CONTINUOUS
 62
    7
 10
83.627464000000003
 20
107.9250105
 40
0.5
 50
0
 51
90.000003000000007
  0
LINE
  8
_0-0_0
  6
CONTINUOUS
 62
    7
 10
76.627464000000003
 20
108.4250105
 11
83.627464000000003
 21
108.4250105
  0
LINE
  8
_0-0_0
  6
CONTINUOUS
 62
    7
 10
26.127467999999993
 20
116.5250015
 11
28.318648999999994
 21
116.5250015
  0
LINE
  8
_0-0_0
  6
CONTINUOUS
 62
    7
 10
26.127467999999993
 20
117.2249985
 11
27.933719999999994
 21
117.2249985
  0
LINE
  8
_0-0_0
  6
CONTINUOUS
 62
    7
 10
26.127467999999993
 20
117.6250075
 11
27.752510000000001
 21
117.6250075
  0
LINE
  8
_0-0_0
  6
CONTINUOUS
 62
    7
 10
26.127467999999993
 20
118.32500450000001
 11
27.495956000000007
 21
118.32500450000001
  0
LINE
  8
_0-0_0
  6
CONTINUOUS
 62
    7
 10
26.127467999999993
 20
118.7249985
 11
27.381500000000003
 21
118.7249985
  0
LINE
  8
_0-0_0
  6
CONTINUOUS
 62
    7
 10
26.127467999999993
 20
119.42499550000001
 11
27.233799000000005
 21
119.42499550000001
  0
LINE
  8
_0-0_0
  6
CONTINUOUS
 62
    7
 10
26.127467999999993
 20
119.82500450000001
 11
27.178253000000012
 21
119.82500450000001
  0
LINE
  8
_0-0_0
  6
CONTINUOUS
 62
    7
 10
26.127467999999993
 20
120.5250015
 11
27.129966999999994
 21
120.5250015
  0
LINE
  8
_0-0_0
  6
CONTINUOUS
 62
    7
 10
27.127467999999993
 20
120.7249985
 11
27.127780999999999
 21
120.79570750000001
  0
LINE
  8
_0-0_0
  6
CONTINUOUS
 62
    7
 10
43.127471999999997
 20
120.7249985
 11
43.127159000000006
 21
120.79570750000001
  0
LINE
  8
_0-0_0
  6
CONTINUOUS
 62
    7
 10
43.124969000000007
 20
120.92499550000001
 11
43.127159000000006
 21
120.79570750000001
  0
ARC
  8
_0-0_0
  6
CONTINUOUS
 62
    7
 10
35.127467999999993
 20
120.7249985
 40
8
 50
1.432544
 51
6.4594489999999993
  0
LINE
  8
_0-0_0
  6
CONTINUOUS
 62
    7
 10
43.060981999999996
 20
121.7542955
 11
43.076683000000003
 21
121.6250075
  0
LINE
  8
_0-0_0
  6
CONTINUOUS
 62
    7
 10
43.060981999999996
 20
121.7542955
 11
43.041344000000009
 21
121.8957135
  0
LINE
  8
_0-0_0
  6
CONTINUOUS
 62
    7
 10
43.021141
 20
122.0250015
 11
43.041344000000009
 21
121.8957135
  0
ARC
  8
_0-0_0
  6
CONTINUOUS
 62
    7
 10
35.127467999999993
 20
120.7249985
 40
8
 50
9.3520350000000008
 51
14.477510999999998
  0
LINE
  8
_0-0_0
  6
CONTINUOUS
 62
    7
 10
42.838898
 20
122.8542865
 11
42.873435999999998
 21
122.7249985
  0
LINE
  8
_0-0_0
  6
CONTINUOUS
 62
    7
 10
42.838898
 20
122.8542865
 11
42.798446999999996
 21
122.99571950000001
  0
LINE
  8
_0-0_0
  6
CONTINUOUS
 62
    7
 10
42.758987000000005
 20
123.1250075
 11
42.798446999999996
 21
122.99571950000001
  0
ARC
  8
_0-0_0
  6
CONTINUOUS
 62
    7
 10
35.127467999999993
 20
120.7249985
 40
8
 50
17.457602999999999
 51
22.799030999999999
  0
LINE
  8
_0-0_0
  6
CONTINUOUS
 62
    7
 10
42.446739000000001
 20
123.95429250000001
 11
42.502426
 21
123.82500450000001
  0
LINE
  8
_0-0_0
  6
CONTINUOUS
 62
    7
 10
42.446739000000001
 20
123.95429250000001
 11
42.382694000000001
 21
124.0957105
  0
LINE
  8
_0-0_0
  6
CONTINUOUS
 62
    7
 10
42.321217000000004
 20
124.2249985
 11
42.382694000000001
 21
124.0957105
  0
ARC
  8
_0-0_0
  6
CONTINUOUS
 62
    7
 10
35.127467999999993
 20
120.7249985
 40
8
 50
25.944476999999999
 51
31.668240000000001
  0
LINE
  8
_0-0_0
  6
CONTINUOUS
 62
    7
 10
41.854820000000004
 20
125.0542985
 11
41.936287
 21
124.92499550000001
  0
LINE
  8
_0-0_0
  6
CONTINUOUS
 62
    7
 10
41.854820000000004
 20
125.0542985
 11
41.761681000000003
 21
125.1957165
  0
LINE
  8
_0-0_0
  6
CONTINUOUS
 62
    7
 10
41.672695000000004
 20
125.32500450000001
 11
41.761681000000003
 21
125.1957165
  0
ARC
  8
_0-0_0
  6
CONTINUOUS
 62
    7
 10
35.127467999999993
 20
120.7249985
 40
8
 50
35.099632
 51
144.900373
  0
LINE
  8
_0-0_0
  6
CONTINUOUS
 62
    7
 10
28.58224100000001
 20
125.32500450000001
 11
28.493258999999995
 21
125.1957165
  0
LINE
  8
_0-0_0
  6
CONTINUOUS
 62
    7
 10
28.400115999999997
 20
125.0542985
 11
28.493258999999995
 21
125.1957165
  0
LINE
  8
_0-0_0
  6
CONTINUOUS
 62
    7
 10
28.400115999999997
 20
125.0542985
 11
28.318648999999994
 21
124.92499550000001
  0
ARC
  8
_0-0_0
  6
CONTINUOUS
 62
    7
 10
35.127467999999993
 20
120.7249985
 40
8
 50
148.33176499999999
 51
154.05551800000001
  0
LINE
  8
_0-0_0
  6
CONTINUOUS
 62
    7
 10
27.933719999999994
 20
124.2249985
 11
27.872242
 21
124.0957105
  0
LINE
  8
_0-0_0
  6
CONTINUOUS
 62
    7
 10
27.808200999999997
 20
123.95429250000001
 11
27.872242
 21
124.0957105
  0
LINE
  8
_0-0_0
  6
CONTINUOUS
 62
    7
 10
27.808200999999997
 20
123.95429250000001
 11
27.752510000000001
 21
123.82500450000001
  0
ARC
  8
_0-0_0
  6
CONTINUOUS
 62
    7
 10
35.127467999999993
 20
120.7249985
 40
8
 50
157.20097000000001
 51
162.54239699999999
  0
LINE
  8
_0-0_0
  6
CONTINUOUS
 62
    7
 10
27.495956000000007
 20
123.1250075
 11
27.456492999999995
 21
122.99571950000001
  0
LINE
  8
_0-0_0
  6
CONTINUOUS
 62
    7
 10
27.416038
 20
122.8542865
 11
27.456492999999995
 21
122.99571950000001
  0
LINE
  8
_0-0_0
  6
CONTINUOUS
 62
    7
 10
27.416038
 20
122.8542865
 11
27.381500000000003
 21
122.7249985
  0
ARC
  8
_0-0_0
  6
CONTINUOUS
 62
    7
 10
35.127467999999993
 20
120.7249985
 40
8
 50
165.52249
 51
170.64796000000001
  0
LINE
  8
_0-0_0
  6
CONTINUOUS
 62
    7
 10
27.233799000000005
 20
122.0250015
 11
27.213592000000006
 21
121.8957135
  0
LINE
  8
_0-0_0
  6
CONTINUOUS
 62
    7
 10
27.193958000000009
 20
121.7542955
 11
27.213592000000006
 21
121.8957135
  0
LINE
  8
_0-0_0
  6
CONTINUOUS
 62
    7
 10
27.193958000000009
 20
121.7542955
 11
27.178253000000012
 21
121.6250075
  0
ARC
  8
_0-0_0
  6
CONTINUOUS
 62
    7
 10
35.127467999999993
 20
120.7249985
 40
8
 50
173.54054500000001
 51
178.567455
  0
LINE
  8
_0-0_0
  6
CONTINUOUS
 62
    7
 10
27.129966999999994
 20
120.92499550000001
 11
27.127780999999999
 21
120.79570750000001
  0
CIRCLE
  8
_0-0_0
  6
CONTINUOUS
 62
    7
 10
35.127467999999993
 20
120.7249985
 40
7.5
  0
LINE
  8
_0-0_0
  6
CONTINUOUS
 62
    7
 10
212.12747200000001
 20
120.7249985
 11
212.12777699999998
 21
120.79570750000001
  0
LINE
  8
_0-0_0
  6
CONTINUOUS
 62
    7
 10
43.124969000000007
 20
120.5250015
 11
212.129974
 21
120.5250015
  0
LINE
  8
_0-0_0
  6
CONTINUOUS
 62
    7
 10
43.076683000000003
 20
119.82500450000001
 11
212.17825299999998
 21
119.82500450000001
  0
LINE
  8
_0-0_0
  6
CONTINUOUS
 62
    7
 10
43.021141
 20
119.42499550000001
 11
212.23381000000001
 21
119.42499550000001
  0
LINE
  8
_0-0_0
  6
CONTINUOUS
 62
    7
 10
42.873435999999998
 20
118.7249985
 11
212.38150000000002
 21
118.7249985
  0
LINE
  8
_0-0_0
  6
CONTINUOUS
 62
    7
 10
42.758987000000005
 20
118.32500450000001
 11
212.49595599999998
 21
118.32500450000001
  0
LINE
  8
_0-0_0
  6
CONTINUOUS
 62
    7
 10
42.502426
 20
117.6250075
 11
212.75251800000001
 21
117.6250075
  0
LINE
  8
_0-0_0
  6
CONTINUOUS
 62
    7
 10
42.321217000000004
 20
117.2249985
 11
212.93373100000002
 21
117.2249985
  0
LINE
  8
_0-0_0
  6
CONTINUOUS
 62
    7
 10
41.936287
 20
116.5250015
 11
213.31864899999999
 21
116.5250015
  0
LINE
  8
_0-0_0
  6
CONTINUOUS
 62
    7
 10
228.12747200000001
 20
120.7249985
 11
228.12716699999999
 21
120.79570750000001
  0
LINE
  8
_0-0_0
  6
CONTINUOUS
 62
    7
 10
228.12496900000002
 20
120.5250015
 11
229.12747200000001
 21
120.5250015
  0
LINE
  8
_0-0_0
  6
CONTINUOUS
 62
    7
 10
228.07669099999998
 20
119.82500450000001
 11
229.12747200000001
 21
119.82500450000001
  0
LINE
  8
_0-0_0
  6
CONTINUOUS
 62
    7
 10
228.02113300000002
 20
119.42499550000001
 11
229.12747200000001
 21
119.42499550000001
  0
LINE
  8
_0-0_0
  6
CONTINUOUS
 62
    7
 10
227.87344400000001
 20
118.7249985
 11
229.12747200000001
 21
118.7249985
  0
LINE
  8
_0-0_0
  6
CONTINUOUS
 62
    7
 10
227.75898699999999
 20
118.32500450000001
 11
229.12747200000001
 21
118.32500450000001
  0
LINE
  8
_0-0_0
  6
CONTINUOUS
 62
    7
 10
227.50242600000001
 20
117.6250075
 11
229.12747200000001
 21
117.6250075
  0
LINE
  8
_0-0_0
  6
CONTINUOUS
 62
    7
 10
227.321213
 20
117.2249985
 11
229.12747200000001
 21
117.2249985
  0
LINE
  8
_0-0_0
  6
CONTINUOUS
 62
    7
 10
226.93629399999998
 20
116.5250015
 11
229.12747200000001
 21
116.5250015
  0
LINE
  8
_0-0_0
  6
CONTINUOUS
 62
    7
 10
226.67269900000002
 20
125.32500450000001
 11
226.76168799999999
 21
125.1957165
  0
ARC
  8
_0-0_0
  6
CONTINUOUS
 62
    7
 10
220.12747200000001
 20
120.7249985
 40
8
 50
35.099632
 51
144.900373
  0
LINE
  8
_0-0_0
  6
CONTINUOUS
 62
    7
 10
213.582245
 20
125.32500450000001
 11
213.49325600000003
 21
125.1957165
  0
LINE
  8
_0-0_0
  6
CONTINUOUS
 62
    7
 10
213.40011600000003
 20
125.0542985
 11
213.49325600000003
 21
125.1957165
  0
LINE
  8
_0-0_0
  6
CONTINUOUS
 62
    7
 10
213.40011600000003
 20
125.0542985
 11
213.31864899999999
 21
124.92499550000001
  0
ARC
  8
_0-0_0
  6
CONTINUOUS
 62
    7
 10
220.12747200000001
 20
120.7249985
 40
8
 50
148.33176499999999
 51
154.05551800000001
  0
LINE
  8
_0-0_0
  6
CONTINUOUS
 62
    7
 10
212.93373100000002
 20
124.2249985
 11
212.87223799999998
 21
124.0957105
  0
LINE
  8
_0-0_0
  6
CONTINUOUS
 62
    7
 10
212.80819700000001
 20
123.95429250000001
 11
212.87223799999998
 21
124.0957105
  0
LINE
  8
_0-0_0
  6
CONTINUOUS
 62
    7
 10
212.80819700000001
 20
123.95429250000001
 11
212.75251800000001
 21
123.82500450000001
  0
ARC
  8
_0-0_0
  6
CONTINUOUS
 62
    7
 10
220.12747200000001
 20
120.7249985
 40
8
 50
157.20097000000001
 51
162.54239699999999
  0
LINE
  8
_0-0_0
  6
CONTINUOUS
 62
    7
 10
212.49595599999998
 20
123.1250075
 11
212.45649700000001
 21
122.99571950000001
  0
LINE
  8
_0-0_0
  6
CONTINUOUS
 62
    7
 10
212.41604599999999
 20
122.8542865
 11
212.45649700000001
 21
122.99571950000001
  0
LINE
  8
_0-0_0
  6
CONTINUOUS
 62
    7
 10
212.41604599999999
 20
122.8542865
 11
212.38150000000002
 21
122.7249985
  0
ARC
  8
_0-0_0
  6
CONTINUOUS
 62
    7
 10
220.12747200000001
 20
120.7249985
 40
8
 50
165.52249
 51
170.64796000000001
  0
LINE
  8
_0-0_0
  6
CONTINUOUS
 62
    7
 10
212.23381000000001
 20
122.0250015
 11
212.21359200000001
 21
121.8957135
  0
LINE
  8
_0-0_0
  6
CONTINUOUS
 62
    7
 10
212.19396999999998
 20
121.7542955
 11
212.21359200000001
 21
121.8957135
  0
LINE
  8
_0-0_0
  6
CONTINUOUS
 62
    7
 10
212.19396999999998
 20
121.7542955
 11
212.17825299999998
 21
121.6250075
  0
ARC
  8
_0-0_0
  6
CONTINUOUS
 62
    7
 10
220.12747200000001
 20
120.7249985
 40
8
 50
173.54054500000001
 51
178.567455
  0
LINE
  8
_0-0_0
  6
CONTINUOUS
 62
    7
 10
212.129974
 20
120.92499550000001
 11
212.12777699999998
 21
120.79570750000001
  0
LINE
  8
_0-0_0
  6
CONTINUOUS
 62
    7
 10
228.12496900000002
 20
120.92499550000001
 11
228.12716699999999
 21
120.79570750000001
  0
ARC
  8
_0-0_0
  6
CONTINUOUS
 62
    7
 10
220.12747200000001
 20
120.7249985
 40
8
 50
1.432544
 51
6.4594489999999993
  0
LINE
  8
_0-0_0
  6
CONTINUOUS
 62
    7
 10
228.06097399999999
 20
121.7542955
 11
228.07669099999998
 21
121.6250075
  0
LINE
  8
_0-0_0
  6
CONTINUOUS
 62
    7
 10
228.06097399999999
 20
121.7542955
 11
228.04135100000002
 21
121.8957135
  0
LINE
  8
_0-0_0
  6
CONTINUOUS
 62
    7
 10
228.02113300000002
 20
122.0250015
 11
228.04135100000002
 21
121.8957135
  0
ARC
  8
_0-0_0
  6
CONTINUOUS
 62
    7
 10
220.12747200000001
 20
120.7249985
 40
8
 50
9.3520350000000008
 51
14.477510999999998
  0
LINE
  8
_0-0_0
  6
CONTINUOUS
 62
    7
 10
227.83889800000003
 20
122.8542865
 11
227.87344400000001
 21
122.7249985
  0
LINE
  8
_0-0_0
  6
CONTINUOUS
 62
    7
 10
227.83889800000003
 20
122.8542865
 11
227.79844700000001
 21
122.99571950000001
  0
LINE
  8
_0-0_0
  6
CONTINUOUS
 62
    7
 10
227.75898699999999
 20
123.1250075
 11
227.79844700000001
 21
122.99571950000001
  0
ARC
  8
_0-0_0
  6
CONTINUOUS
 62
    7
 10
220.12747200000001
 20
120.7249985
 40
8
 50
17.457602999999999
 51
22.799030999999999
  0
LINE
  8
_0-0_0
  6
CONTINUOUS
 62
    7
 10
227.44674700000002
 20
123.95429250000001
 11
227.50242600000001
 21
123.82500450000001
  0
LINE
  8
_0-0_0
  6
CONTINUOUS
 62
    7
 10
227.44674700000002
 20
123.95429250000001
 11
227.38270599999998
 21
124.0957105
  0
LINE
  8
_0-0_0
  6
CONTINUOUS
 62
    7
 10
227.321213
 20
124.2249985
 11
227.38270599999998
 21
124.0957105
  0
ARC
  8
_0-0_0
  6
CONTINUOUS
 62
    7
 10
220.12747200000001
 20
120.7249985
 40
8
 50
25.944476999999999
 51
31.668240000000001
  0
LINE
  8
_0-0_0
  6
CONTINUOUS
 62
    7
 10
226.854828
 20
125.0542985
 11
226.93629399999998
 21
124.92499550000001
  0
LINE
  8
_0-0_0
  6
CONTINUOUS
 62
    7
 10
226.854828
 20
125.0542985
 11
226.76168799999999
 21
125.1957165
  0
CIRCLE
  8
_0-0_0
  6
CONTINUOUS
 62
    7
 10
220.12747200000001
 20
120.7249985
 40
7.5
  0
LINE
  8
_0-0_0
  6
CONTINUOUS
 62
    7
 10
226.93629399999998
 20
124.92499550000001
 11
229.12747200000001
 21
124.92499550000001
  0
LINE
  8
_0-0_0
  6
CONTINUOUS
 62
    7
 10
227.321213
 20
124.2249985
 11
229.12747200000001
 21
124.2249985
  0
LINE
  8
_0-0_0
  6
CONTINUOUS
 62
    7
 10
227.50242600000001
 20
123.82500450000001
 11
229.12747200000001
 21
123.82500450000001
  0
LINE
  8
_0-0_0
  6
CONTINUOUS
 62
    7
 10
227.75898699999999
 20
123.1250075
 11
229.12747200000001
 21
123.1250075
  0
LINE
  8
_0-0_0
  6
CONTINUOUS
 62
    7
 10
227.87344400000001
 20
122.7249985
 11
229.12747200000001
 21
122.7249985
  0
LINE
  8
_0-0_0
  6
CONTINUOUS
 62
    7
 10
228.02113300000002
 20
122.0250015
 11
229.12747200000001
 21
122.0250015
  0
LINE
  8
_0-0_0
  6
CONTINUOUS
 62
    7
 10
228.07669099999998
 20
121.6250075
 11
229.12747200000001
 21
121.6250075
  0
LINE
  8
_0-0_0
  6
CONTINUOUS
 62
    7
 10
228.12496900000002
 20
120.92499550000001
 11
229.12747200000001
 21
120.92499550000001
  0
LINE
  8
_0-0_0
  6
CONTINUOUS
 62
    7
 10
229.62747200000001
 20
104.2249985
 11
229.12747200000001
 21
104.2249985
  0
LINE
  8
_0-0_0
  6
CONTINUOUS
 62
    7
 10
229.62747200000001
 20
106.4250105
 11
229.12747200000001
 21
106.4250105
  0
LINE
  8
_0-0_0
  6
CONTINUOUS
 62
    7
 10
229.62747200000001
 20
108.7249985
 11
229.12747200000001
 21
108.7249985
  0
LINE
  8
_0-0_0
  6
CONTINUOUS
 62
    7
 10
229.12747200000001
 20
111.0250015
 11
229.62747200000001
 21
111.0250015
  0
LINE
  8
_0-0_0
  6
CONTINUOUS
 62
    7
 10
229.62747200000001
 20
131.2249985
 11
229.62747200000001
 21
131.12500749999998
  0
LINE
  8
_0-0_0
  6
CONTINUOUS
 62
    7
 10
25.627467999999993
 20
131.2249985
 11
25.627467999999993
 21
131.12500749999998
  0
LINE
  8
_0-0_0
  6
CONTINUOUS
 62
    7
 10
25.627467999999993
 20
111.0250015
 11
26.127467999999993
 21
111.0250015
  0
LINE
  8
_0-0_0
  6
CONTINUOUS
 62
    7
 10
26.127467999999993
 20
130.92499550000002
 11
229.12747200000001
 21
130.92499550000002
  0
LINE
  8
_0-0_0
  6
CONTINUOUS
 62
    7
 10
26.127467999999993
 20
130.33103149999999
 11
229.12747200000001
 21
130.33103149999999
  0
LINE
  8
_0-0_0
  6
CONTINUOUS
 62
    7
 10
41.672695000000004
 20
125.32500450000001
 11
213.582245
 21
125.32500450000001
  0
LINE
  8
_0-0_0
  6
CONTINUOUS
 62
    7
 10
226.67269900000002
 20
125.32500450000001
 11
229.12747200000001
 21
125.32500450000001
  0
LINE
  8
_0-0_0
  6
CONTINUOUS
 62
    7
 10
26.127467999999993
 20
125.32500450000001
 11
28.58224100000001
 21
125.32500450000001
  0
LINE
  8
_0-0_0
  6
CONTINUOUS
 62
    7
 10
25.627467999999993
 20
104.2249985
 11
26.127464000000003
 21
104.2249985
  0
LINE
  8
_0-0_0
  6
CONTINUOUS
 62
    7
 10
25.627467999999993
 20
106.4250105
 11
26.127467999999993
 21
106.4250105
  0
LINE
  8
_0-0_0
  6
CONTINUOUS
 62
    7
 10
25.627467999999993
 20
108.7249985
 11
26.127467999999993
 21
108.7249985
  0
LINE
  8
_0-0_0
  6
CONTINUOUS
 62
    7
 10
26.127467999999993
 20
124.92499550000001
 11
28.318648999999994
 21
124.92499550000001
  0
LINE
  8
_0-0_0
  6
CONTINUOUS
 62
    7
 10
26.127467999999993
 20
124.2249985
 11
27.933719999999994
 21
124.2249985
  0
LINE
  8
_0-0_0
  6
CONTINUOUS
 62
    7
 10
26.127467999999993
 20
123.82500450000001
 11
27.752510000000001
 21
123.82500450000001
  0
LINE
  8
_0-0_0
  6
CONTINUOUS
 62
    7
 10
26.127467999999993
 20
123.1250075
 11
27.495956000000007
 21
123.1250075
  0
LINE
  8
_0-0_0
  6
CONTINUOUS
 62
    7
 10
26.127467999999993
 20
122.7249985
 11
27.381500000000003
 21
122.7249985
  0
LINE
  8
_0-0_0
  6
CONTINUOUS
 62
    7
 10
26.127467999999993
 20
122.0250015
 11
27.233799000000005
 21
122.0250015
  0
LINE
  8
_0-0_0
  6
CONTINUOUS
 62
    7
 10
26.127467999999993
 20
121.6250075
 11
27.178253000000012
 21
121.6250075
  0
LINE
  8
_0-0_0
  6
CONTINUOUS
 62
    7
 10
26.127467999999993
 20
120.92499550000001
 11
27.129966999999994
 21
120.92499550000001
  0
LINE
  8
_0-0_0
  6
CONTINUOUS
 62
    7
 10
41.936287
 20
124.92499550000001
 11
213.31864899999999
 21
124.92499550000001
  0
LINE
  8
_0-0_0
  6
CONTINUOUS
 62
    7
 10
42.321217000000004
 20
124.2249985
 11
212.93373100000002
 21
124.2249985
  0
LINE
  8
_0-0_0
  6
CONTINUOUS
 62
    7
 10
42.502426
 20
123.82500450000001
 11
212.75251800000001
 21
123.82500450000001
  0
LINE
  8
_0-0_0
  6
CONTINUOUS
 62
    7
 10
42.758987000000005
 20
123.1250075
 11
212.49595599999998
 21
123.1250075
  0
LINE
  8
_0-0_0
  6
CONTINUOUS
 62
    7
 10
42.873435999999998
 20
122.7249985
 11
212.38150000000002
 21
122.7249985
  0
LINE
  8
_0-0_0
  6
CONTINUOUS
 62
    7
 10
43.021141
 20
122.0250015
 11
212.23381000000001
 21
122.0250015
  0
LINE
  8
_0-0_0
  6
CONTINUOUS
 62
    7
 10
43.076683000000003
 20
121.6250075
 11
212.17825299999998
 21
121.6250075
  0
LINE
  8
_0-0_0
  6
CONTINUOUS
 62
    7
 10
43.124969000000007
 20
120.92499550000001
 11
212.129974
 21
120.92499550000001
  0
LINE
  8
_0-0_0
  6
CONTINUOUS
 62
    7
 10
229.62747200000001
 20
102.7249985
 11
229.12747200000001
 21
102.7249985
  0
LINE
  8
_0-0_0
  6
CONTINUOUS
 62
    7
 10
229.62747200000001
 20
130.32500450000001
 11
229.62747200000001
 21
131.12500749999998
  0
LINE
  8
_0-0_0
  6
CONTINUOUS
 62
    7
 10
229.62747200000001
 20
102.5250015
 11
229.62747200000001
 21
130.32500450000001
  0
LINE
  8
_0-0_0
  6
CONTINUOUS
 62
    7
 10
25.627467999999993
 20
130.32500450000001
 11
25.627467999999993
 21
131.12500749999998
  0
LINE
  8
_0-0_0
  6
CONTINUOUS
 62
    7
 10
25.627467999999993
 20
102.5250015
 11
25.627467999999993
 21
130.32500450000001
  0
ARC
  8
_0-0_0
  6
CONTINUOUS
 62
    7
 10
35.127467999999993
 20
121.42499550000001
 40
12.800000000000001
 50
73.932597000000001
 51
106.06740099999999
  0
ARC
  8
_0-0_0
  6
CONTINUOUS
 62
    7
 10
220.12747200000001
 20
121.42499550000001
 40
12.800000000000001
 50
73.932597000000001
 51
106.06740099999999
  0
LINE
  8
_0-0_0
  6
CONTINUOUS
 62
    7
 10
229.62747200000001
 20
131.2249985
 11
229.62747200000001
 21
133.7249985
  0
LINE
  8
_0-0_0
  6
CONTINUOUS
 62
    7
 10
25.627467999999993
 20
133.7249985
 11
229.62747200000001
 21
133.7249985
  0
LINE
  8
_0-0_0
  6
CONTINUOUS
 62
    7
 10
25.627467999999993
 20
131.2249985
 11
25.627467999999993
 21
133.7249985
  0
LINE
  8
_0-0_0
  6
CONTINUOUS
 62
    7
 10
25.627467999999993
 20
102.7249985
 11
26.127464000000003
 21
102.7249985
  0
ARC
  8
_0-0_0
  6
CONTINUOUS
 62
    7
 10
151.42747500000002
 20
107.6250075
 40
0.2
 50
339.62356199999999
 51
90.000002999999978
  0
LINE
  8
_0-0_0
  6
CONTINUOUS
 62
    7
 10
151.61496
 20
107.55536650000001
 11
150.31495699999999
 21
104.05536650000001
  0
ARC
  8
_0-0_0
  6
CONTINUOUS
 62
    7
 10
150.12747200000001
 20
104.1250075
 40
0.2
 50
200.37643
 51
339.62356199999999
  0
LINE
  8
_0-0_0
  6
CONTINUOUS
 62
    7
 10
148.63998400000003
 20
107.55536650000001
 11
149.93998700000003
 21
104.05536650000001
  0
ARC
  8
_0-0_0
  6
CONTINUOUS
 62
    7
 10
148.82746900000001
 20
107.6250075
 40
0.2
 50
90.000003000000007
 51
200.37643
  0
LINE
  8
_0-0_0
  6
CONTINUOUS
 62
    7
 10
148.82746900000001
 20
107.82500450000001
 11
151.42747500000002
 21
107.82500450000001
  0
ARC
  8
_0-0_0
  6
CONTINUOUS
 62
    7
 10
81.427467000000007
 20
107.6250075
 40
0.2
 50
339.62356199999999
 51
90.000002999999978
  0
LINE
  8
_0-0_0
  6
CONTINUOUS
 62
    7
 10
81.614952000000002
 20
107.55536650000001
 11
80.314948999999999
 21
104.05536650000001
  0
ARC
  8
_0-0_0
  6
CONTINUOUS
 62
    7
 10
80.127464000000003
 20
104.1250075
 40
0.2
 50
200.37643
 51
339.62356199999999
  0
LINE
  8
_0-0_0
  6
CONTINUOUS
 62
    7
 10
78.639983999999998
 20
107.55536650000001
 11
79.939979000000008
 21
104.05536650000001
  0
ARC
  8
_0-0_0
  6
CONTINUOUS
 62
    7
 10
78.827469000000008
 20
107.6250075
 40
0.2
 50
90.000003000000007
 51
200.37643
  0
LINE
  8
_0-0_0
  6
CONTINUOUS
 62
    7
 10
78.827469000000008
 20
107.82500450000001
 11
81.427467000000007
 21
107.82500450000001
  0
CIRCLE
  8
_0-0_0
  6
CONTINUOUS
 62
    7
 10
35.127467999999993
 20
120.7249985
 40
5
  0
CIRCLE
  8
_0-0_0
  6
CONTINUOUS
 62
    7
 10
220.12747200000001
 20
120.7249985
 40
5
  0
LINE
  8
_0-0_0
  6
CONTINUOUS
 62
    7
 10
230.62747200000001
 20
130.32500450000001
 11
229.62747200000001
 21
130.32500450000001
  0
LINE
  8
_0-0_0
  6
CONTINUOUS
 62
    7
 10
230.62747200000001
 20
131.36199149999999
 11
229.62747200000001
 21
131.36199149999999
  0
LINE
  8
_0-0_0
  6
CONTINUOUS
 62
    7
 10
230.62747200000001
 20
102.5250015
 11
229.62747200000001
 21
102.5250015
  0
LINE
  8
_0-0_0
  6
CONTINUOUS
 62
    7
 10
24.627467999999993
 20
130.32500450000001
 11
25.627467999999993
 21
130.32500450000001
  0
LINE
  8
_0-0_0
  6
CONTINUOUS
 62
    7
 10
24.627467999999993
 20
131.32500450000001
 11
25.627467999999993
 21
131.32500450000001
  0
LINE
  8
_0-0_0
  6
CONTINUOUS
 62
    7
 10
24.627467999999993
 20
102.5250015
 11
25.627467999999993
 21
102.5250015
  0
LINE
  8
_0-0_0
  6
CONTINUOUS
 62
    7
 10
230.62747200000001
 20
133.5250015
 11
229.62747200000001
 21
133.5250015
  0
LINE
  8
_0-0_0
  6
CONTINUOUS
 62
    7
 10
24.627467999999993
 20
133.5250015
 11
25.627467999999993
 21
133.5250015
  0
LINE
  8
_0-0_0
  6
CONTINUOUS
 62
    7
 10
231.62747200000001
 20
129.91078950000002
 11
231.626465
 21
129.92929850000002
  0
LINE
  8
_0-0_0
  6
CONTINUOUS
 62
    7
 10
231.626465
 20
129.92929850000002
 11
231.62347399999999
 21
129.94773050000001
  0
LINE
  8
_0-0_0
  6
CONTINUOUS
 62
    7
 10
231.62347399999999
 20
129.94773050000001
 11
231.61824000000001
 21
129.96686549999998
  0
LINE
  8
_0-0_0
  6
CONTINUOUS
 62
    7
 10
231.61824000000001
 20
129.96686549999998
 11
231.61085500000002
 21
129.9858935
  0
LINE
  8
_0-0_0
  6
CONTINUOUS
 62
    7
 10
231.61085500000002
 20
129.9858935
 11
231.59030100000001
 21
130.0226055
  0
LINE
  8
_0-0_0
  6
CONTINUOUS
 62
    7
 10
231.59030100000001
 20
130.0226055
 11
231.56190500000002
 21
130.05829649999998
  0
LINE
  8
_0-0_0
  6
CONTINUOUS
 62
    7
 10
231.56190500000002
 20
130.05829649999998
 11
231.52603099999999
 21
130.0925675
  0
LINE
  8
_0-0_0
  6
CONTINUOUS
 62
    7
 10
231.52603099999999
 20
130.0925675
 11
231.47740199999998
 21
130.12903549999999
  0
LINE
  8
_0-0_0
  6
CONTINUOUS
 62
    7
 10
231.47740199999998
 20
130.12903549999999
 11
231.42062399999998
 21
130.1630475
  0
LINE
  8
_0-0_0
  6
CONTINUOUS
 62
    7
 10
231.42062399999998
 20
130.1630475
 11
231.35649100000001
 21
130.1942975
  0
LINE
  8
_0-0_0
  6
CONTINUOUS
 62
    7
 10
231.35649100000001
 20
130.1942975
 11
231.285843
 21
130.22254150000001
  0
LINE
  8
_0-0_0
  6
CONTINUOUS
 62
    7
 10
231.285843
 20
130.22254150000001
 11
231.23776199999998
 21
130.2388995
  0
LINE
  8
_0-0_0
  6
CONTINUOUS
 62
    7
 10
231.23776199999998
 20
130.2388995
 11
231.18762199999998
 21
130.25389849999999
  0
LINE
  8
_0-0_0
  6
CONTINUOUS
 62
    7
 10
231.18762199999998
 20
130.25389849999999
 11
231.13092
 21
130.26866949999999
  0
LINE
  8
_0-0_0
  6
CONTINUOUS
 62
    7
 10
231.13092
 20
130.26866949999999
 11
231.07231100000001
 21
130.28176150000002
  0
LINE
  8
_0-0_0
  6
CONTINUOUS
 62
    7
 10
231.07231100000001
 20
130.28176150000002
 11
230.955536
 21
130.3020855
  0
LINE
  8
_0-0_0
  6
CONTINUOUS
 62
    7
 10
230.955536
 20
130.3020855
 11
230.84812900000003
 21
130.3147965
  0
LINE
  8
_0-0_0
  6
CONTINUOUS
 62
    7
 10
230.84812900000003
 20
130.3147965
 11
230.73835700000001
 21
130.3224415
  0
LINE
  8
_0-0_0
  6
CONTINUOUS
 62
    7
 10
230.73835700000001
 20
130.3224415
 11
230.62747200000001
 21
130.32500450000001
  0
LINE
  8
_0-0_0
  6
CONTINUOUS
 62
    7
 10
231.62747200000001
 20
129.91078950000002
 11
231.62747200000001
 21
130.91085049999998
  0
LINE
  8
_0-0_0
  6
CONTINUOUS
 62
    7
 10
231.62747200000001
 20
130.91085049999998
 11
231.624573
 21
130.9424205
  0
LINE
  8
_0-0_0
  6
CONTINUOUS
 62
    7
 10
231.624573
 20
130.9424205
 11
231.61582900000002
 21
130.97449449999999
  0
LINE
  8
_0-0_0
  6
CONTINUOUS
 62
    7
 10
231.61582900000002
 20
130.97449449999999
 11
231.60128800000001
 21
131.0067675
  0
LINE
  8
_0-0_0
  6
CONTINUOUS
 62
    7
 10
231.60128800000001
 20
131.0067675
 11
231.58105499999999
 21
131.03893249999999
  0
LINE
  8
_0-0_0
  6
CONTINUOUS
 62
    7
 10
231.58105499999999
 20
131.03893249999999
 11
231.56448399999999
 21
131.0601575
  0
LINE
  8
_0-0_0
  6
CONTINUOUS
 62
    7
 10
231.56448399999999
 20
131.0601575
 11
231.54553199999998
 21
131.0811085
  0
LINE
  8
_0-0_0
  6
CONTINUOUS
 62
    7
 10
231.54553199999998
 20
131.0811085
 11
231.50077800000003
 21
131.1218945
  0
LINE
  8
_0-0_0
  6
CONTINUOUS
 62
    7
 10
231.50077800000003
 20
131.1218945
 11
231.44755500000002
 21
131.1606525
  0
LINE
  8
_0-0_0
  6
CONTINUOUS
 62
    7
 10
231.44755500000002
 20
131.1606525
 11
231.39761299999998
 21
131.19084950000001
  0
LINE
  8
_0-0_0
  6
CONTINUOUS
 62
    7
 10
231.39761299999998
 20
131.19084950000001
 11
231.34292599999998
 21
131.21906250000001
  0
LINE
  8
_0-0_0
  6
CONTINUOUS
 62
    7
 10
231.34292599999998
 20
131.21906250000001
 11
231.283951
 21
131.24510950000001
  0
LINE
  8
_0-0_0
  6
CONTINUOUS
 62
    7
 10
231.283951
 20
131.24510950000001
 11
231.23719799999998
 21
131.26309950000001
  0
LINE
  8
_0-0_0
  6
CONTINUOUS
 62
    7
 10
231.23719799999998
 20
131.26309950000001
 11
231.18850700000002
 21
131.27970149999999
  0
LINE
  8
_0-0_0
  6
CONTINUOUS
 62
    7
 10
231.18850700000002
 20
131.27970149999999
 11
231.08612099999999
 21
131.30858649999999
  0
LINE
  8
_0-0_0
  6
CONTINUOUS
 62
    7
 10
231.08612099999999
 20
131.30858649999999
 11
230.97837800000002
 21
131.3314135
  0
LINE
  8
_0-0_0
  6
CONTINUOUS
 62
    7
 10
230.97837800000002
 20
131.3314135
 11
230.86676
 21
131.34799950000001
  0
LINE
  8
_0-0_0
  6
CONTINUOUS
 62
    7
 10
230.86676
 20
131.34799950000001
 11
230.75268499999999
 21
131.3581925
  0
LINE
  8
_0-0_0
  6
CONTINUOUS
 62
    7
 10
230.75268499999999
 20
131.3581925
 11
230.62747200000001
 21
131.36199149999999
  0
ARC
  8
_0-0_0
  6
CONTINUOUS
 62
    7
 10
230.62747200000001
 20
103.5250015
 40
1
 50
269.99999700000001
 51
0
  0
LINE
  8
_0-0_0
  6
CONTINUOUS
 62
    7
 10
231.62747200000001
 20
103.5250015
 11
231.62747200000001
 21
129.91078950000002
  0
LINE
  8
_0-0_0
  6
CONTINUOUS
 62
    7
 10
23.627467999999993
 20
129.91078950000002
 11
23.628467000000001
 21
129.92929850000002
  0
LINE
  8
_0-0_0
  6
CONTINUOUS
 62
    7
 10
23.628467000000001
 20
129.92929850000002
 11
23.631466000000003
 21
129.94773050000001
  0
LINE
  8
_0-0_0
  6
CONTINUOUS
 62
    7
 10
23.631466000000003
 20
129.94773050000001
 11
23.636703000000011
 21
129.96686549999998
  0
LINE
  8
_0-0_0
  6
CONTINUOUS
 62
    7
 10
23.636703000000011
 20
129.96686549999998
 11
23.644081
 21
129.9858935
  0
LINE
  8
_0-0_0
  6
CONTINUOUS
 62
    7
 10
23.644081
 20
129.9858935
 11
23.664631
 21
130.0226055
  0
LINE
  8
_0-0_0
  6
CONTINUOUS
 62
    7
 10
23.664631
 20
130.0226055
 11
23.693027000000001
 21
130.05829649999998
  0
LINE
  8
_0-0_0
  6
CONTINUOUS
 62
    7
 10
23.693027000000001
 20
130.05829649999998
 11
23.728908000000004
 21
130.0925675
  0
LINE
  8
_0-0_0
  6
CONTINUOUS
 62
    7
 10
23.728908000000004
 20
130.0925675
 11
23.77753100000001
 21
130.12903549999999
  0
LINE
  8
_0-0_0
  6
CONTINUOUS
 62
    7
 10
23.77753100000001
 20
130.12903549999999
 11
23.834312000000011
 21
130.1630475
  0
LINE
  8
_0-0_0
  6
CONTINUOUS
 62
    7
 10
23.834312000000011
 20
130.1630475
 11
23.89845600000001
 21
130.1942975
  0
LINE
  8
_0-0_0
  6
CONTINUOUS
 62
    7
 10
23.89845600000001
 20
130.1942975
 11
23.969105000000013
 21
130.22254150000001
  0
LINE
  8
_0-0_0
  6
CONTINUOUS
 62
    7
 10
23.969105000000013
 20
130.22254150000001
 11
24.017185000000012
 21
130.2388995
  0
LINE
  8
_0-0_0
  6
CONTINUOUS
 62
    7
 10
24.017185000000012
 20
130.2388995
 11
24.067322000000004
 21
130.25389849999999
  0
LINE
  8
_0-0_0
  6
CONTINUOUS
 62
    7
 10
24.067322000000004
 20
130.25389849999999
 11
24.124022999999994
 21
130.26866949999999
  0
LINE
  8
_0-0_0
  6
CONTINUOUS
 62
    7
 10
24.124022999999994
 20
130.26866949999999
 11
24.182629000000006
 21
130.28176150000002
  0
LINE
  8
_0-0_0
  6
CONTINUOUS
 62
    7
 10
24.182629000000006
 20
130.28176150000002
 11
24.299412000000004
 21
130.3020855
  0
LINE
  8
_0-0_0
  6
CONTINUOUS
 62
    7
 10
24.299412000000004
 20
130.3020855
 11
24.406818000000001
 21
130.3147965
  0
LINE
  8
_0-0_0
  6
CONTINUOUS
 62
    7
 10
24.406818000000001
 20
130.3147965
 11
24.516586000000004
 21
130.3224415
  0
LINE
  8
_0-0_0
  6
CONTINUOUS
 62
    7
 10
24.516586000000004
 20
130.3224415
 11
24.627467999999993
 21
130.32500450000001
  0
LINE
  8
_0-0_0
  6
CONTINUOUS
 62
    7
 10
23.627467999999993
 20
130.88045449999998
 11
23.630359999999996
 21
130.91135450000002
  0
LINE
  8
_0-0_0
  6
CONTINUOUS
 62
    7
 10
23.630359999999996
 20
130.91135450000002
 11
23.639057000000008
 21
130.9428025
  0
LINE
  8
_0-0_0
  6
CONTINUOUS
 62
    7
 10
23.639057000000008
 20
130.9428025
 11
23.653541000000004
 21
130.97446450000001
  0
LINE
  8
_0-0_0
  6
CONTINUOUS
 62
    7
 10
23.653541000000004
 20
130.97446450000001
 11
23.67370600000001
 21
131.00606550000001
  0
LINE
  8
_0-0_0
  6
CONTINUOUS
 62
    7
 10
23.67370600000001
 20
131.00606550000001
 11
23.690226999999993
 21
131.02692450000001
  0
LINE
  8
_0-0_0
  6
CONTINUOUS
 62
    7
 10
23.690226999999993
 20
131.02692450000001
 11
23.709133000000008
 21
131.04755349999999
  0
LINE
  8
_0-0_0
  6
CONTINUOUS
 62
    7
 10
23.709133000000008
 20
131.04755349999999
 11
23.753772999999995
 21
131.08769949999999
  0
LINE
  8
_0-0_0
  6
CONTINUOUS
 62
    7
 10
23.753772999999995
 20
131.08769949999999
 11
23.806900000000013
 21
131.12589250000002
  0
LINE
  8
_0-0_0
  6
CONTINUOUS
 62
    7
 10
23.806900000000013
 20
131.12589250000002
 11
23.856796000000003
 21
131.15572350000002
  0
LINE
  8
_0-0_0
  6
CONTINUOUS
 62
    7
 10
23.856796000000003
 20
131.15572350000002
 11
23.911467999999999
 21
131.18358649999999
  0
LINE
  8
_0-0_0
  6
CONTINUOUS
 62
    7
 10
23.911467999999999
 20
131.18358649999999
 11
23.970444000000001
 21
131.2093275
  0
LINE
  8
_0-0_0
  6
CONTINUOUS
 62
    7
 10
23.970444000000001
 20
131.2093275
 11
24.017203999999992
 21
131.22711950000001
  0
LINE
  8
_0-0_0
  6
CONTINUOUS
 62
    7
 10
24.017203999999992
 20
131.22711950000001
 11
24.065906000000012
 21
131.2435375
  0
LINE
  8
_0-0_0
  6
CONTINUOUS
 62
    7
 10
24.065906000000012
 20
131.2435375
 11
24.168339000000003
 21
131.27211750000001
  0
LINE
  8
_0-0_0
  6
CONTINUOUS
 62
    7
 10
24.168339000000003
 20
131.27211750000001
 11
24.276157000000012
 21
131.2947155
  0
LINE
  8
_0-0_0
  6
CONTINUOUS
 62
    7
 10
24.276157000000012
 20
131.2947155
 11
24.387844000000001
 21
131.31113450000001
  0
LINE
  8
_0-0_0
  6
CONTINUOUS
 62
    7
 10
24.387844000000001
 20
131.31113450000001
 11
24.502003000000002
 21
131.3212355
  0
LINE
  8
_0-0_0
  6
CONTINUOUS
 62
    7
 10
24.502003000000002
 20
131.3212355
 11
24.627467999999993
 21
131.32500450000001
  0
LINE
  8
_0-0_0
  6
CONTINUOUS
 62
    7
 10
23.627467999999993
 20
129.91078950000002
 11
23.627467999999993
 21
130.88045449999998
  0
ARC
  8
_0-0_0
  6
CONTINUOUS
 62
    7
 10
24.627467999999993
 20
103.5250015
 40
1
 50
180.00000900000003
 51
269.99999700000001
  0
LINE
  8
_0-0_0
  6
CONTINUOUS
 62
    7
 10
23.627467999999993
 20
103.5250015
 11
23.627467999999993
 21
129.91078950000002
  0
LINE
  8
_0-0_0
  6
CONTINUOUS
 62
    7
 10
231.62747200000001
 20
130.91085049999998
 11
231.62747200000001
 21
132.5250015
  0
ARC
  8
_0-0_0
  6
CONTINUOUS
 62
    7
 10
230.62747200000001
 20
132.5250015
 40
1
 50
0
 51
90.000003000000007
  0
ARC
  8
_0-0_0
  6
CONTINUOUS
 62
    7
 10
24.627467999999993
 20
132.5250015
 40
1
 50
90.000003000000007
 51
180.00000900000001
  0
LINE
  8
_0-0_0
  6
CONTINUOUS
 62
    7
 10
23.627467999999993
 20
130.88045449999998
 11
23.627467999999993
 21
132.5250015
  0
LINE
  8
_0-0_0
  6
CONTINUOUS
 62
    7
 10
-4.2823980000000006
 20
102.52501650000001
 11
-4.2823980000000006
 21
101.9250105
  0
LINE
  8
_0-0_0
  6
CONTINUOUS
 62
    7
 10
-1.7823980000000006
 20
96.680015499999996
 11
-1.7823980000000006
 21
98.925010499999999
  0
LINE
  8
_0-0_0
  6
CONTINUOUS
 62
    7
 10
-0.7823980000000005
 20
98.925010499999999
 11
-0.7823980000000005
 21
100.9250105
  0
ARC
  8
_0-0_0
  6
CONTINUOUS
 62
    7
 10
-1.2823980000000006
 20
100.9250105
 40
0.5
 50
0
 51
90.000003000000007
  0
LINE
  8
_0-0_0
  6
CONTINUOUS
 62
    7
 10
-1.2823980000000006
 20
101.4250105
 11
-2.7823980000000006
 21
101.4250105
  0
ARC
  8
_0-0_0
  6
CONTINUOUS
 62
    7
 10
-2.7823980000000006
 20
102.42499550000001
 40
1
 50
180.00000900000003
 51
269.99999700000001
  0
LINE
  8
_0-0_0
  6
CONTINUOUS
 62
    7
 10
-3.7823980000000006
 20
102.52501650000001
 11
-3.7823980000000006
 21
102.42499550000001
  0
ARC
  8
_0-0_0
  6
CONTINUOUS
 62
    7
 10
-2.7823980000000006
 20
101.9250105
 40
1.5
 50
180.00000900000003
 51
269.99999700000001
  0
LINE
  8
_0-0_0
  6
CONTINUOUS
 62
    7
 10
-2.7823980000000006
 20
100.4250105
 11
-3.4823990000000009
 21
100.4250105
  0
ARC
  8
_0-0_0
  6
CONTINUOUS
 62
    7
 10
-3.4823990000000009
 20
101.4250105
 40
1
 50
180.00000900000003
 51
269.99999700000001
  0
LINE
  8
_0-0_0
  6
CONTINUOUS
 62
    7
 10
-4.4823990000000009
 20
102.42499550000001
 11
-4.4823990000000009
 21
101.4250105
  0
LINE
  8
_0-0_0
  6
CONTINUOUS
 62
    7
 10
-12.682399000000004
 20
101.4250105
 11
-12.682399000000004
 21
102.4250105
  0
ARC
  8
_0-0_0
  6
CONTINUOUS
 62
    7
 10
-13.682399000000004
 20
101.4250105
 40
1
 50
269.99999700000001
 51
0
  0
LINE
  8
_0-0_0
  6
CONTINUOUS
 62
    7
 10
-13.682399000000004
 20
100.4250105
 11
-13.88239999999999
 21
100.4250105
  0
ARC
  8
_0-0_0
  6
CONTINUOUS
 62
    7
 10
-13.88239999999999
 20
101.4250105
 40
1
 50
269.99999700000001
 51
0
  0
LINE
  8
_0-0_0
  6
CONTINUOUS
 62
    7
 10
-12.882398999999992
 20
101.4250105
 11
-12.882398999999992
 21
102.52501650000001
  0
LINE
  8
_0-0_0
  6
CONTINUOUS
 62
    7
 10
-13.38239999999999
 20
102.4250105
 11
-13.38239999999999
 21
102.52501650000001
  0
ARC
  8
_0-0_0
  6
CONTINUOUS
 62
    7
 10
-14.38239999999999
 20
102.4250105
 40
1
 50
269.99999700000001
 51
0
  0
LINE
  8
_0-0_0
  6
CONTINUOUS
 62
    7
 10
-14.38239999999999
 20
101.4250105
 11
-15.88239999999999
 21
101.4250105
  0
ARC
  8
_0-0_0
  6
CONTINUOUS
 62
    7
 10
-15.88239999999999
 20
100.9250105
 40
0.5
 50
90.000003000000007
 51
180.00000900000001
  0
LINE
  8
_0-0_0
  6
CONTINUOUS
 62
    7
 10
-16.38239999999999
 20
100.9250105
 11
-16.38239999999999
 21
98.925010499999999
  0
LINE
  8
_0-0_0
  6
CONTINUOUS
 62
    7
 10
-15.38239999999999
 20
96.680015499999996
 11
-15.38239999999999
 21
98.925010499999999
  0
LINE
  8
_0-0_0
  6
CONTINUOUS
 62
    7
 10
-17.282398999999998
 20
78.325004500000006
 11
-17.282398999999998
 21
96.680015499999996
  0
LINE
  8
_0-0_0
  6
CONTINUOUS
 62
    7
 10
-0.4823990000000009
 20
78.325004500000006
 11
-0.4823990000000009
 21
96.680015499999996
  0
CIRCLE
  8
_0-0_0
  6
CONTINUOUS
 62
    7
 10
-8.5823989999999952
 20
98.925010499999999
 40
2.0499999999999998
  0
LINE
  8
_0-0_0
  6
CONTINUOUS
 62
    7
 10
-0.4823990000000009
 20
100.4250105
 11
-0.4823990000000009
 21
100.4000015
  0
LINE
  8
_0-0_0
  6
CONTINUOUS
 62
    7
 10
-0.4823990000000009
 20
97.179954500000008
 11
-0.4823990000000009
 21
97.450004500000006
  0
LINE
  8
_0-0_0
  6
CONTINUOUS
 62
    7
 10
-0.4823990000000009
 20
96.680015499999996
 11
-0.4823990000000009
 21
97.180015499999996
  0
LINE
  8
_0-0_0
  6
CONTINUOUS
 62
    7
 10
-0.4823990000000009
 20
76.325004500000006
 11
-0.4823990000000009
 21
78.325004500000006
  0
LINE
  8
_0-0_0
  6
CONTINUOUS
 62
    7
 10
-17.282398999999998
 20
76.325004500000006
 11
-17.282398999999998
 21
78.325004500000006
  0
LINE
  8
_0-0_0
  6
CONTINUOUS
 62
    7
 10
-17.282398999999998
 20
76.325004500000006
 11
-0.4823990000000009
 21
76.325004500000006
  0
LINE
  8
_0-0_0
  6
CONTINUOUS
 62
    7
 10
-17.282398999999998
 20
100.4250105
 11
-17.282398999999998
 21
98.925010499999999
  0
LINE
  8
_0-0_0
  6
CONTINUOUS
 62
    7
 10
-17.282398999999998
 20
97.180000500000006
 11
-17.282398999999998
 21
98.925010499999999
  0
LINE
  8
_0-0_0
  6
CONTINUOUS
 62
    7
 10
-17.282398999999998
 20
96.680015499999996
 11
-17.282398999999998
 21
97.180015499999996
  0
LINE
  8
_0-0_0
  6
CONTINUOUS
 62
    7
 10
-16.38239999999999
 20
97.180076499999998
 11
-16.38239999999999
 21
98.925010499999999
  0
ARC
  8
_0-0_0
  6
CONTINUOUS
 62
    7
 10
-2.0823989999999952
 20
78.425010499999999
 40
2
 50
323.13010300000002
 51
0.0000000000000127
  0
LINE
  8
_0-0_0
  6
CONTINUOUS
 62
    7
 10
-0.0823989999999952
 20
78.425010499999999
 11
-0.0823989999999952
 21
79.825065500000008
  0
LINE
  8
_0-0_0
  6
CONTINUOUS
 62
    7
 10
0.2176019999999994
 20
84.914680500000003
 11
0.2176019999999994
 21
95.362693500000006
  0
LINE
  8
_0-0_0
  6
CONTINUOUS
 62
    7
 10
0.2176019999999994
 20
96.325492499999996
 11
0.2176019999999994
 21
98.560142499999998
  0
LINE
  8
_0-0_0
  6
CONTINUOUS
 62
    7
 10
-17.282398999999998
 20
100.4250105
 11
-16.38239999999999
 21
100.4250105
  0
LINE
  8
_0-0_0
  6
CONTINUOUS
 62
    7
 10
-17.382398999999992
 20
79.825004500000006
 11
-17.282398999999998
 21
79.825004500000006
  0
LINE
  8
_0-0_0
  6
CONTINUOUS
 62
    7
 10
-17.382398999999992
 20
79.825004500000006
 11
-17.382398999999992
 21
84.914680500000003
  0
LINE
  8
_0-0_0
  6
CONTINUOUS
 62
    7
 10
-17.382398999999992
 20
95.362709500000008
 11
-17.382398999999992
 21
96.325492499999996
  0
LINE
  8
_0-0_0
  6
CONTINUOUS
 62
    7
 10
-17.382398999999992
 20
99.425010499999999
 11
-17.282398999999998
 21
99.425010499999999
  0
LINE
  8
_0-0_0
  6
CONTINUOUS
 62
    7
 10
-17.382398999999992
 20
98.560142499999998
 11
-17.382398999999992
 21
99.425010499999999
  0
LINE
  8
_0-0_0
  6
CONTINUOUS
 62
    7
 10
-17.382398999999992
 20
96.325492499999996
 11
-17.382398999999992
 21
98.560142499999998
  0
LINE
  8
_0-0_0
  6
CONTINUOUS
 62
    7
 10
-17.382398999999992
 20
84.914680500000003
 11
-17.382398999999992
 21
95.362709500000008
  0
LINE
  8
_0-0_0
  6
CONTINUOUS
 62
    7
 10
-17.082398999999995
 20
98.313743500000001
 11
-17.082398999999995
 21
100.20000450000001
  0
LINE
  8
_0-0_0
  6
CONTINUOUS
 62
    7
 10
-17.082398999999995
 20
97.650001500000002
 11
-17.082398999999995
 21
98.313743500000001
  0
LINE
  8
_0-0_0
  6
CONTINUOUS
 62
    7
 10
-0.0823989999999952
 20
99.536277499999997
 11
-0.0823989999999952
 21
97.650306499999999
  0
LINE
  8
_0-0_0
  6
CONTINUOUS
 62
    7
 10
-0.0823989999999952
 20
100.1916275
 11
-0.0823989999999952
 21
99.536277499999997
  0
LINE
  8
_0-0_0
  6
CONTINUOUS
 62
    7
 10
0.2176019999999994
 20
79.825004500000006
 11
0.2176019999999994
 21
84.914680500000003
  0
LINE
  8
_0-0_0
  6
CONTINUOUS
 62
    7
 10
0.2176019999999994
 20
98.560142499999998
 11
0.2176019999999994
 21
99.425010499999999
  0
LINE
  8
_0-0_0
  6
CONTINUOUS
 62
    7
 10
0.2176019999999994
 20
95.362693500000006
 11
0.2176019999999994
 21
96.325492499999996
  0
LINE
  8
_0-0_0
  6
CONTINUOUS
 62
    7
 10
0.2176019999999994
 20
99.425010499999999
 11
-0.0824010000000043
 21
99.425010499999999
  0
LINE
  8
_0-0_0
  6
CONTINUOUS
 62
    7
 10
0.2176019999999994
 20
79.825004500000006
 11
-0.4823990000000009
 21
79.825004500000006
  0
LINE
  8
_0-0_0
  6
CONTINUOUS
 62
    7
 10
-0.4823990000000009
 20
100.4250105
 11
-0.7823980000000005
 21
100.4250105
  0
LINE
  8
_0-0_0
  6
CONTINUOUS
 62
    7
 10
-0.7823980000000005
 20
98.925010499999999
 11
-0.7823980000000005
 21
97.180076499999998
  0
LINE
  8
_0-0_0
  6
CONTINUOUS
 62
    7
 10
-4.4823990000000009
 20
102.42499550000001
 11
-4.4823990000000009
 21
102.52507750000001
  0
LINE
  8
_0-0_0
  6
CONTINUOUS
 62
    7
 10
-12.682399000000004
 20
102.52507750000001
 11
-12.682399000000004
 21
102.4250105
  0
LINE
  8
_0-0_0
  6
CONTINUOUS
 62
    7
 10
-1.7823980000000006
 20
97.180015499999996
 11
-0.4823990000000009
 21
97.180015499999996
  0
ARC
  8
_0-0_0
  6
CONTINUOUS
 62
    7
 10
-16.582398999999995
 20
100.20000450000001
 40
0.2
 50
359.91222800000003
 51
89.999948000000003
  0
ARC
  8
_0-0_0
  6
CONTINUOUS
 62
    7
 10
-16.582503000000003
 20
97.650154499999999
 40
0.200169
 50
270.02985900000004
 51
2.3526610000000452
  0
LINE
  8
_0-0_0
  6
CONTINUOUS
 62
    7
 10
-16.88239999999999
 20
100.4000015
 11
-16.582398999999995
 21
100.4000015
  0
LINE
  8
_0-0_0
  6
CONTINUOUS
 62
    7
 10
-16.88239999999999
 20
97.450004500000006
 11
-16.582398999999995
 21
97.450004500000006
  0
ARC
  8
_0-0_0
  6
CONTINUOUS
 62
    7
 10
-16.882295999999997
 20
100.19985150000001
 40
0.200169
 50
90.029849999999996
 51
182.352667
  0
ARC
  8
_0-0_0
  6
CONTINUOUS
 62
    7
 10
-16.882398999999992
 20
97.650001500000002
 40
0.2
 50
179.912237
 51
269.99994299999997
  0
ARC
  8
_0-0_0
  6
CONTINUOUS
 62
    7
 10
-0.582295000000002
 20
97.650154499999999
 40
0.200169
 50
177.647333
 51
269.97013600000002
  0
ARC
  8
_0-0_0
  6
CONTINUOUS
 62
    7
 10
-0.5823979999999977
 20
100.20000450000001
 40
0.2
 50
90.000049999999987
 51
180.08776299999997
  0
LINE
  8
_0-0_0
  6
CONTINUOUS
 62
    7
 10
-0.2823980000000005
 20
97.450004500000006
 11
-0.5823989999999952
 21
97.450004500000006
  0
LINE
  8
_0-0_0
  6
CONTINUOUS
 62
    7
 10
-0.2823980000000005
 20
100.4000015
 11
-0.5823989999999952
 21
100.4000015
  0
ARC
  8
_0-0_0
  6
CONTINUOUS
 62
    7
 10
-0.2823980000000005
 20
97.650001500000002
 40
0.2
 50
270.00005199999998
 51
0.0877600000000175
  0
ARC
  8
_0-0_0
  6
CONTINUOUS
 62
    7
 10
-0.2825029999999912
 20
100.19985150000001
 40
0.200169
 50
357.64733799999999
 51
89.970147999999995
  0
LINE
  8
_0-0_0
  6
CONTINUOUS
 62
    7
 10
-17.282398999999998
 20
97.180015499999996
 11
-15.38239999999999
 21
97.180015499999996
  0
LINE
  8
_0-0_0
  6
CONTINUOUS
 62
    7
 10
0.2176019999999994
 20
102.92499550000001
 11
0.2176019999999994
 21
116.1250075
  0
ARC
  8
_0-0_0
  6
CONTINUOUS
 62
    7
 10
-0.2823980000000005
 20
102.92499550000001
 40
0.5
 50
269.99999700000001
 51
0
  0
ARC
  8
_0-0_0
  6
CONTINUOUS
 62
    7
 10
0.1590230000000048
 20
116.32500450000001
 40
0.1
 50
135
 51
225
  0
LINE
  8
_0-0_0
  6
CONTINUOUS
 62
    7
 10
0.0883120000000019
 20
116.2542955
 11
0.2176019999999994
 21
116.1250075
  0
LINE
  8
_0-0_0
  6
CONTINUOUS
 62
    7
 10
-0.2823980000000005
 20
102.42499550000001
 11
-2.1823979999999921
 21
102.42499550000001
  0
ARC
  8
_0-0_0
  6
CONTINUOUS
 62
    7
 10
-2.1823979999999921
 20
102.92499550000001
 40
0.5
 50
233.12990600000001
 51
269.99999700000001
  0
ARC
  8
_0-0_0
  6
CONTINUOUS
 62
    7
 10
-14.88239999999999
 20
102.9250105
 40
0.5
 50
269.99999700000001
 51
306.87009999999998
  0
LINE
  8
_0-0_0
  6
CONTINUOUS
 62
    7
 10
-14.88239999999999
 20
102.4250105
 11
-16.782398999999998
 21
102.4250105
  0
ARC
  8
_0-0_0
  6
CONTINUOUS
 62
    7
 10
-16.782398999999998
 20
102.9250105
 40
0.5
 50
180.00000900000003
 51
269.99999700000001
  0
LINE
  8
_0-0_0
  6
CONTINUOUS
 62
    7
 10
-17.282398999999998
 20
112.36000850000001
 11
-17.282398999999998
 21
102.9250105
  0
LINE
  8
_0-0_0
  6
CONTINUOUS
 62
    7
 10
-17.282398999999998
 20
112.36000850000001
 11
-16.582399999999993
 21
112.36000850000001
  0
LINE
  8
_0-0_0
  6
CONTINUOUS
 62
    7
 10
-0.5823979999999977
 20
130.92499550000002
 11
-0.3763679999999993
 21
130.92499550000002
  0
LINE
  8
_0-0_0
  6
CONTINUOUS
 62
    7
 10
-0.3763679999999993
 20
130.92499550000002
 11
0.2176019999999994
 21
130.33103149999999
  0
LINE
  8
_0-0_0
  6
CONTINUOUS
 62
    7
 10
0.2176019999999994
 20
125.32500450000001
 11
0.2176019999999994
 21
130.33103149999999
  0
LINE
  8
_0-0_0
  6
CONTINUOUS
 62
    7
 10
0.0883120000000019
 20
125.1957165
 11
0.2176019999999994
 21
125.32500450000001
  0
ARC
  8
_0-0_0
  6
CONTINUOUS
 62
    7
 10
0.1590230000000048
 20
125.1250075
 40
0.1
 50
135
 51
225
  0
LINE
  8
_0-0_0
  6
CONTINUOUS
 62
    7
 10
0.0883120000000019
 20
125.0542985
 11
0.2176019999999994
 21
124.92499550000001
  0
LINE
  8
_0-0_0
  6
CONTINUOUS
 62
    7
 10
0.2176019999999994
 20
124.2249985
 11
0.2176019999999994
 21
124.92499550000001
  0
LINE
  8
_0-0_0
  6
CONTINUOUS
 62
    7
 10
0.0883120000000019
 20
124.0957105
 11
0.2176019999999994
 21
124.2249985
  0
ARC
  8
_0-0_0
  6
CONTINUOUS
 62
    7
 10
0.1590230000000048
 20
124.0250015
 40
0.1
 50
135
 51
225
  0
LINE
  8
_0-0_0
  6
CONTINUOUS
 62
    7
 10
0.0883120000000019
 20
123.95429250000001
 11
0.2176019999999994
 21
123.82500450000001
  0
LINE
  8
_0-0_0
  6
CONTINUOUS
 62
    7
 10
0.2176019999999994
 20
123.1250075
 11
0.2176019999999994
 21
123.82500450000001
  0
LINE
  8
_0-0_0
  6
CONTINUOUS
 62
    7
 10
0.0883120000000019
 20
122.99571950000001
 11
0.2176019999999994
 21
123.1250075
  0
ARC
  8
_0-0_0
  6
CONTINUOUS
 62
    7
 10
0.1590230000000048
 20
122.92499550000001
 40
0.1
 50
135
 51
225
  0
LINE
  8
_0-0_0
  6
CONTINUOUS
 62
    7
 10
0.0883120000000019
 20
122.8542865
 11
0.2176019999999994
 21
122.7249985
  0
LINE
  8
_0-0_0
  6
CONTINUOUS
 62
    7
 10
0.2176019999999994
 20
122.0250015
 11
0.2176019999999994
 21
122.7249985
  0
LINE
  8
_0-0_0
  6
CONTINUOUS
 62
    7
 10
0.0883120000000019
 20
121.8957135
 11
0.2176019999999994
 21
122.0250015
  0
ARC
  8
_0-0_0
  6
CONTINUOUS
 62
    7
 10
0.1590230000000048
 20
121.82500450000001
 40
0.1
 50
135
 51
225
  0
LINE
  8
_0-0_0
  6
CONTINUOUS
 62
    7
 10
0.0883120000000019
 20
121.7542955
 11
0.2176019999999994
 21
121.6250075
  0
LINE
  8
_0-0_0
  6
CONTINUOUS
 62
    7
 10
0.2176019999999994
 20
120.92499550000001
 11
0.2176019999999994
 21
121.6250075
  0
LINE
  8
_0-0_0
  6
CONTINUOUS
 62
    7
 10
0.0883120000000019
 20
120.79570750000001
 11
0.2176019999999994
 21
120.92499550000001
  0
ARC
  8
_0-0_0
  6
CONTINUOUS
 62
    7
 10
0.1590230000000048
 20
120.7249985
 40
0.1
 50
135
 51
225
  0
LINE
  8
_0-0_0
  6
CONTINUOUS
 62
    7
 10
0.0883120000000019
 20
120.6542895
 11
0.2176019999999994
 21
120.5250015
  0
LINE
  8
_0-0_0
  6
CONTINUOUS
 62
    7
 10
0.2176019999999994
 20
119.82500450000001
 11
0.2176019999999994
 21
120.5250015
  0
LINE
  8
_0-0_0
  6
CONTINUOUS
 62
    7
 10
0.0883120000000019
 20
119.6957165
 11
0.2176019999999994
 21
119.82500450000001
  0
ARC
  8
_0-0_0
  6
CONTINUOUS
 62
    7
 10
0.1590230000000048
 20
119.6250075
 40
0.1
 50
135
 51
225
  0
LINE
  8
_0-0_0
  6
CONTINUOUS
 62
    7
 10
0.0883120000000019
 20
119.5542985
 11
0.2176019999999994
 21
119.42499550000001
  0
LINE
  8
_0-0_0
  6
CONTINUOUS
 62
    7
 10
0.2176019999999994
 20
118.7249985
 11
0.2176019999999994
 21
119.42499550000001
  0
LINE
  8
_0-0_0
  6
CONTINUOUS
 62
    7
 10
0.0883120000000019
 20
118.5957105
 11
0.2176019999999994
 21
118.7249985
  0
ARC
  8
_0-0_0
  6
CONTINUOUS
 62
    7
 10
0.1590230000000048
 20
118.5250015
 40
0.1
 50
135
 51
225
  0
LINE
  8
_0-0_0
  6
CONTINUOUS
 62
    7
 10
0.0883120000000019
 20
118.45429250000001
 11
0.2176019999999994
 21
118.32500450000001
  0
LINE
  8
_0-0_0
  6
CONTINUOUS
 62
    7
 10
0.2176019999999994
 20
117.6250075
 11
0.2176019999999994
 21
118.32500450000001
  0
LINE
  8
_0-0_0
  6
CONTINUOUS
 62
    7
 10
0.0883120000000019
 20
117.49571950000001
 11
0.2176019999999994
 21
117.6250075
  0
ARC
  8
_0-0_0
  6
CONTINUOUS
 62
    7
 10
0.1590230000000048
 20
117.4250105
 40
0.1
 50
135
 51
225
  0
LINE
  8
_0-0_0
  6
CONTINUOUS
 62
    7
 10
0.0883120000000019
 20
117.3542865
 11
0.2176019999999994
 21
117.2249985
  0
LINE
  8
_0-0_0
  6
CONTINUOUS
 62
    7
 10
0.2176019999999994
 20
116.5250015
 11
0.2176019999999994
 21
117.2249985
  0
LINE
  8
_0-0_0
  6
CONTINUOUS
 62
    7
 10
0.0883120000000019
 20
116.3957135
 11
0.2176019999999994
 21
116.5250015
  0
LINE
  8
_0-0_0
  6
CONTINUOUS
 62
    7
 10
0.2176019999999994
 20
108.4250105
 11
0.3176020000000079
 21
108.4250105
  0
LINE
  8
_0-0_0
  6
CONTINUOUS
 62
    7
 10
0.3176020000000079
 20
107.9250105
 11
0.3176020000000079
 21
108.4250105
  0
LINE
  8
_0-0_0
  6
CONTINUOUS
 62
    7
 10
0.3176020000000079
 20
107.9250105
 11
0.3176020000000079
 21
103.9250105
  0
LINE
  8
_0-0_0
  6
CONTINUOUS
 62
    7
 10
0.2176019999999994
 20
103.4250105
 11
0.3176020000000079
 21
103.4250105
  0
LINE
  8
_0-0_0
  6
CONTINUOUS
 62
    7
 10
0.3176020000000079
 20
103.4250105
 11
0.3176020000000079
 21
103.9250105
  0
LINE
  8
_0-0_0
  6
CONTINUOUS
 62
    7
 10
-17.282398999999998
 20
112.4250105
 11
-17.282398999999998
 21
112.36000850000001
  0
LINE
  8
_0-0_0
  6
CONTINUOUS
 62
    7
 10
-0.7823980000000005
 20
131.2249985
 11
-0.7823980000000005
 21
131.12500749999998
  0
LINE
  8
_0-0_0
  6
CONTINUOUS
 62
    7
 10
-17.382398999999992
 20
112.4250105
 11
-16.582398999999995
 21
112.4250105
  0
LINE
  8
_0-0_0
  6
CONTINUOUS
 62
    7
 10
-16.88239999999999
 20
134.2249985
 11
-16.88239999999999
 21
130.00347149999999
  0
LINE
  8
_0-0_0
  6
CONTINUOUS
 62
    7
 10
-15.782398999999998
 20
134.2249985
 11
-15.782398999999998
 21
131.2249985
  0
LINE
  8
_0-0_0
  6
CONTINUOUS
 62
    7
 10
-16.88239999999999
 20
130.00347149999999
 11
-16.582398999999995
 21
130.00347149999999
  0
ARC
  8
_0-0_0
  6
CONTINUOUS
 62
    7
 10
-13.282398999999998
 20
131.2249985
 40
2.5
 50
90.000003000000007
 51
180.00000900000001
  0
ARC
  8
_0-0_0
  6
CONTINUOUS
 62
    7
 10
-3.2823980000000006
 20
131.2249985
 40
2.5
 50
0
 51
90.000003000000007
  0
LINE
  8
_0-0_0
  6
CONTINUOUS
 62
    7
 10
-15.782398999999998
 20
131.12500749999998
 11
-15.782398999999998
 21
131.2249985
  0
LINE
  8
_0-0_0
  6
CONTINUOUS
 62
    7
 10
-3.2823980000000006
 20
133.7249985
 11
-13.282398999999998
 21
133.7249985
  0
LINE
  8
_0-0_0
  6
CONTINUOUS
 62
    7
 10
0.4176010000000047
 20
103.9250105
 11
0.4176010000000047
 21
104.05536650000001
  0
LINE
  8
_0-0_0
  6
CONTINUOUS
 62
    7
 10
0.4176010000000047
 20
107.55536650000001
 11
0.4176010000000047
 21
104.05536650000001
  0
LINE
  8
_0-0_0
  6
CONTINUOUS
 62
    7
 10
0.3176020000000079
 20
107.82500450000001
 11
0.4176010000000047
 21
107.82500450000001
  0
LINE
  8
_0-0_0
  6
CONTINUOUS
 62
    7
 10
0.4176010000000047
 20
107.55536650000001
 11
0.4176010000000047
 21
107.82500450000001
  0
LINE
  8
_0-0_0
  6
CONTINUOUS
 62
    7
 10
0.0176030000000082
 20
130.32500450000001
 11
-0.9823969999999917
 21
131.32500450000001
  0
LINE
  8
_0-0_0
  6
CONTINUOUS
 62
    7
 10
0.017600999999999
 20
102.5250015
 11
0.0176030000000082
 21
130.32500450000001
  0
LINE
  8
_0-0_0
  6
CONTINUOUS
 62
    7
 10
-16.582398999999995
 20
102.5250015
 11
0.017600999999999
 21
102.5250015
  0
LINE
  8
_0-0_0
  6
CONTINUOUS
 62
    7
 10
-16.582398999999995
 20
130.32500450000001
 11
-16.582398999999995
 21
102.5250015
  0
LINE
  8
_0-0_0
  6
CONTINUOUS
 62
    7
 10
-17.382398999999992
 20
112.4250105
 11
-17.382398999999992
 21
129.23781550000001
  0
LINE
  8
_0-0_0
  6
CONTINUOUS
 62
    7
 10
-17.382398999999992
 20
133.7249985
 11
-17.382398999999992
 21
129.23781550000001
  0
ARC
  8
_0-0_0
  6
CONTINUOUS
 62
    7
 10
14.069340000000011
 20
109.24282050000001
 40
37.269466000000001
 50
146.14857699999999
 51
147.55443399999999
  0
ARC
  8
_0-0_0
  6
CONTINUOUS
 62
    7
 10
-3.5514450000000011
 20
130.92499550000002
 40
2.6000000000000001
 50
8.8498839999999994
 51
90.000002999999992
  0
LINE
  8
_0-0_0
  6
CONTINUOUS
 62
    7
 10
-3.5514450000000011
 20
133.5250015
 11
-13.013352999999995
 21
133.5250015
  0
ARC
  8
_0-0_0
  6
CONTINUOUS
 62
    7
 10
-13.013352999999995
 20
130.92501049999998
 40
2.6000000000000001
 50
90.000003000000007
 51
171.150115
  0
LINE
  8
_0-0_0
  6
CONTINUOUS
 62
    7
 10
-16.582398999999995
 20
130.32500450000001
 11
-15.582398999999995
 21
131.32500450000001
  0
LINE
  8
_0-0_0
  6
CONTINUOUS
 62
    7
 10
-0.9823969999999917
 20
129.91078950000002
 11
0.0176030000000082
 21
130.32500450000001
  0
ARC
  8
_0-0_0
  6
CONTINUOUS
 62
    7
 10
-6.5249409999999983
 20
142.11112250000002
 40
12.126564999999999
 50
292.155034
 51
297.19674500000002
  0
LINE
  8
_0-0_0
  6
CONTINUOUS
 62
    7
 10
-0.9823990000000009
 20
103.5250015
 11
0.017600999999999
 21
102.5250015
  0
LINE
  8
_0-0_0
  6
CONTINUOUS
 62
    7
 10
-15.582398999999995
 20
103.5250015
 11
-16.582398999999995
 21
102.5250015
  0
LINE
  8
_0-0_0
  6
CONTINUOUS
 62
    7
 10
-15.582398999999995
 20
129.91078950000002
 11
-16.582398999999995
 21
130.32500450000001
  0
ARC
  8
_0-0_0
  6
CONTINUOUS
 62
    7
 10
-10.039858999999993
 20
142.11112250000002
 40
12.126567
 50
242.80325699999997
 51
247.84494000000001
  0
CIRCLE
  8
_0-0_0
  6
CONTINUOUS
 62
    7
 10
-8.2823989999999981
 20
110.7249985
 40
2.0670000000000002
  0
LINE
  8
_0-0_0
  6
CONTINUOUS
 62
    7
 10
-15.782398999999998
 20
134.2249985
 11
-16.88239999999999
 21
134.2249985
  0
LINE
  8
_0-0_0
  6
CONTINUOUS
 62
    7
 10
0.3176020000000079
 20
103.9250105
 11
0.4176010000000047
 21
103.9250105
  0
LINE
  8
_0-0_0
  6
CONTINUOUS
 62
    7
 10
0.3176020000000079
 20
103.9250105
 11
0.4176010000000047
 21
103.9250105
  0
LINE
  8
_0-0_0
  6
CONTINUOUS
 62
    7
 10
-17.382398999999992
 20
133.7249985
 11
-16.88239999999999
 21
134.2249985
  0
ENDSEC
  0
EOF
