  0
SECTION
  2
HEADER
  9
$ACADVER
  1
AC1009
  9
$INSBASE
 10
0
 20
0
 30
0
  9
$EXTMIN
 10
0
 20
0
  9
$EXTMAX
 10
1682
 20
1188
  9
$LIMMIN
 10
0
 20
0
  9
$LIMMAX
 10
1682
 20
1188
  9
$LTSCALE
 40
2
  0
ENDSEC
  0
SECTION
  2
TABLES
  0
TABLE
  2
LTYPE
 70
     9
  0
LTYPE
  2
CONTINUOUS
 70
    64
  3
実線
 72
    65
 73
     0
 40
0.0
  0
LTYPE
  2
DASHED1
 70
    64
  3
--  --  --  --  --  --  --  --  
 72
    65
 73
     2
 40
2.5
 49
1.25
 49
-1.25
  0
LTYPE
  2
DASHED2
 70
    64
  3
----    ----    ----    ----    
 72
    65
 73
     2
 40
5.0
 49
2.5
 49
-2.5
  0
LTYPE
  2
DASHED3
 70
    64
  3
------  ------  ------  ------  
 72
    65
 73
     2
 40
5.0
 49
3.75
 49
-1.25
  0
LTYPE
  2
CENTER1
 70
    64
  3
----- - ----- - ----- - ----- - 
 72
    65
 73
     4
 40
10.0
 49
6.25
 49
-1.25
 49
1.25
 49
-1.25
  0
LTYPE
  2
CENTER2
 70
    64
  3
----------  --  ----------  --  
 72
    65
 73
     4
 40
20.0
 49
12.5
 49
-2.5
 49
2.5
 49
-2.5
  0
LTYPE
  2
PHANTOM1
 70
    64
  3
--- - - --- - - --- - - --- - - 
 72
    65
 73
     6
 40
10.0
 49
3.25
 49
-1.25
 49
1.25
 49
-1.25
 49
1.25
 49
-1.25
  0
LTYPE
  2
PHANTOM2
 70
    64
  3
--------  -  -  --------  -  -  
 72
    65
 73
     6
 40
20.0
 49
10.0
 49
-2.5
 49
1.25
 49
-2.5
 49
1.25
 49
-2.5
  0
LTYPE
  2
DOT
 70
    64
  3
-   -   -   -   -   -   -   -   
 72
    65
 73
     2
 40
2.5
 49
0.625
 49
-1.875
  0
LTYPE
  2
DUMMY
 70
    64
  3
ダミー
 72
    65
 73
     0
 40
0.0
  0
LTYPE
  2
RAND1
 70
    64
  3
ランダム線1
 72
    65
 73
     4
 40
10.0
 49
1.0
 49
-2.0
 49
3.0
 49
-4.0
  0
LTYPE
  2
RAND2
 70
    64
  3
ランダム線2
 72
    65
 73
     4
 40
14.0
 49
2.0
 49
-3.0
 49
4.0
 49
-5.0
  0
LTYPE
  2
RAND3
 70
    64
  3
ランダム線3
 72
    65
 73
     4
 40
18.0
 49
3.0
 49
-4.0
 49
5.0
 49
-6.0
  0
LTYPE
  2
RAND4
 70
    64
  3
ランダム線4
 72
    65
 73
     4
 40
22.0
 49
4.0
 49
-5.0
 49
6.0
 49
-7.0
  0
LTYPE
  2
RAND5
 70
    64
  3
ランダム線5
 72
    65
 73
     4
 40
26.0
 49
5.0
 49
-6.0
 49
7.0
 49
-8.0
  0
LTYPE
  2
LONG1
 70
    64
  3
----------  --  ----------  --  
 72
    65
 73
     4
 40
40.0
 49
32.5
 49
-2.5
 49
2.5
 49
-2.5
  0
LTYPE
  2
LONG2
 70
    64
  3
--------  -  -  --------  -  -  
 72
    65
 73
     6
 40
40.0
 49
30.0
 49
-2.5
 49
1.25
 49
-2.5
 49
1.25
 49
-2.5
  0
LTYPE
  2
LONG3
 70
    64
  3
+++++++++++++++..+++++++++++++++
 72
    65
 73
     2
 40
40.0
 49
37.5
 49
-2.5
  0
LTYPE
  2
LONG4
 70
    64
  3
+++++++++++++++..+++++++++++++++
 72
    65
 73
     2
 40
80.0
 49
75.0
 49
-5.0
  0
LTYPE
  2
LONG5
 70
    64
  3
----------  --  ----------  --  
 72
    65
 73
     4
 40
60.0
 49
37.5
 49
-7.5
 49
7.5
 49
-7.5
  0
LTYPE
  2
dashed
 70
   64
  3
-------   -------------   ------
 72
   65
 73
    2
 40
7.5
 49
6
 49
-1.5
  0
LTYPE
  2
dashed_spaced
 70
   64
  3
----        --------        ----
 72
   65
 73
    2
 40
12
 49
6
 49
-6
  0
LTYPE
  2
long_dashed_dotted
 70
   64
  3
------------- --- --------------
 72
   65
 73
    4
 40
15.25
 49
12
 49
-1.5
 49
0.25
 49
-1.5
  0
LTYPE
  2
long_dashed_double-dotted
 70
   64
  3
----------- --- --- ------------
 72
   65
 73
    6
 40
17
 49
12
 49
-1.5
 49
0.25
 49
-1.5
 49
0.25
 49
-1.5
  0
LTYPE
  2
long_dashed_triplicate-dotted
 70
   64
  3
--------- --- --- --- ----------
 72
   65
 73
    8
 40
18.75
 49
12
 49
-1.5
 49
0.25
 49
-1.5
 49
0.25
 49
-1.5
 49
0.25
 49
-1.5
  0
LTYPE
  2
dotted
 70
   64
  3
   -       -       -       -    
 72
   65
 73
    2
 40
1.75
 49
0.25
 49
-1.5
  0
LTYPE
  2
chain
 70
   64
  3
-------------- -- --------------
 72
   65
 73
    4
 40
18.5
 49
12
 49
-1.5
 49
3.5
 49
-1.5
  0
LTYPE
  2
chain_double_dash
 70
   64
  3
------------ -- -- -------------
 72
   65
 73
    6
 40
23.5
 49
12
 49
-1.5
 49
3.5
 49
-1.5
 49
3.5
 49
-1.5
  0
LTYPE
  2
dashed_dotted
 70
   64
  3
-----------     -     ----------
 72
   65
 73
    4
 40
9.25
 49
6
 49
-1.5
 49
0.25
 49
-1.5
  0
LTYPE
  2
double-dashed_dotted
 70
   64
  3
------   -----------   -   -----
 72
   65
 73
    6
 40
16.75
 49
6
 49
-1.5
 49
6
 49
-1.5
 49
0.25
 49
-1.5
  0
LTYPE
  2
dashed_double-dotted
 70
   64
  3
---------    -    -    ---------
 72
   65
 73
    6
 40
11
 49
6
 49
-1.5
 49
0.25
 49
-1.5
 49
0.25
 49
-1.5
  0
LTYPE
  2
double-dashed_double-dotted
 70
   64
  3
-----   ---------   -   -   ----
 72
   65
 73
    8
 40
18.5
 49
6
 49
-1.5
 49
6
 49
-1.5
 49
0.25
 49
-1.5
 49
0.25
 49
-1.5
  0
LTYPE
  2
dashed_triplicate-dotted
 70
   64
  3
-------    -    -    -    ------
 72
   65
 73
    8
 40
12.75
 49
6
 49
-1.5
 49
0.25
 49
-1.5
 49
0.25
 49
-1.5
 49
0.25
 49
-1.5
  0
LTYPE
  2
double-dashed_triplicate-dotted
 70
   64
  3
-----  ---------  -  -  -  -----
 72
   65
 73
   10
 40
20.25
 49
6
 49
-1.5
 49
6
 49
-1.5
 49
0.25
 49
-1.5
 49
0.25
 49
-1.5
 49
0.25
 49
-1.5
  0
LTYPE
  2
undefined
 70
   64
  3
--------------------------------
 72
   65
 73
    0
 40
0
  0
ENDTAB
  0
TABLE
  2
STYLE
  5
3
100
AcDbSymbolTable
 70
     1
  0
STYLE
  5
10
100
AcDbSymbolTableRecord
100
AcDbTextStyleTableRecord
  2
STANDARD
 70
     0
 40
0.0
 41
1.0
 50
0.0
 71
     0
 42
0.2
  3
txt
  4
bigfont.shx
  0
STYLE
  5
26
100
AcDbSymbolTableRecord
100
AcDbTextStyleTableRecord
  2
TATEGAKI
 70
    68
 40
0.0
 41
1.0
 50
0.0
 71
     0
 42
1.0
  3
txt
  4
bigfont.shx
  0
ENDTAB
  0
TABLE
  2
LAYER
 70
    2
  0
LAYER
  2
_0-0_0
 70
   64
 62
    7
  6
CONTINUOUS
  0
LAYER
  2
ADD_LINE
 70
   64
 62
    7
  6
CONTINUOUS
  0
ENDTAB
  0
ENDSEC
  0
SECTION
  2
BLOCKS
  0
ENDSEC
  0
SECTION
  2
ENTITIES
  0
LINE
  8
_0-0_0
  6
CONTINUOUS
 62
    7
 10
-549.07116700000006
 20
813.90052749999995
 11
-549.07116700000006
 21
813.89952049999999
  0
LINE
  8
_0-0_0
  6
CONTINUOUS
 62
    7
 10
-396.25863600000002
 20
774.96958949999998
 11
-397.55865500000004
 21
771.46958949999998
  0
ARC
  8
_0-0_0
  6
CONTINUOUS
 62
    7
 10
-396.07116700000006
 20
774.89994750000005
 40
0.2
 50
20.376434999999997
 51
159.62357000000003
  0
ARC
  8
_0-0_0
  6
CONTINUOUS
 62
    7
 10
-358.07116700000006
 20
777.79994150000005
 40
2.2000000000000002
 50
180.00000900000003
 51
303.74900400000001
  0
LINE
  8
_0-0_0
  6
CONTINUOUS
 62
    7
 10
-360.27114899999992
 20
779.29994150000005
 11
-360.27114899999992
 21
777.79994150000005
  0
LINE
  8
_0-0_0
  6
CONTINUOUS
 62
    7
 10
-360.27114899999992
 20
779.29994150000005
 11
-434.87115500000004
 21
779.29994150000005
  0
LINE
  8
_0-0_0
  6
CONTINUOUS
 62
    7
 10
-434.87115500000004
 20
779.29994150000005
 11
-434.87115500000004
 21
777.79994150000005
  0
ARC
  8
_0-0_0
  6
CONTINUOUS
 62
    7
 10
-437.07116700000006
 20
777.79994150000005
 40
2.2000000000000002
 50
236.25102899999999
 51
0
  0
ARC
  8
_0-0_0
  6
CONTINUOUS
 62
    7
 10
-438.57116700000006
 20
775.55494650000003
 40
0.5
 50
56.251010000000008
 51
180.00000900000001
  0
LINE
  8
_0-0_0
  6
CONTINUOUS
 62
    7
 10
-439.07116700000006
 20
755.19993550000004
 11
-439.07116700000006
 21
755.97706549999998
  0
LINE
  8
_0-0_0
  6
CONTINUOUS
 62
    7
 10
-439.07116700000006
 20
755.19993550000004
 11
-429.27114899999992
 21
755.19993550000004
  0
ARC
  8
_0-0_0
  6
CONTINUOUS
 62
    7
 10
-429.27114899999992
 20
755.39994750000005
 40
0.2
 50
269.99999700000001
 51
0
  0
LINE
  8
_0-0_0
  6
CONTINUOUS
 62
    7
 10
-429.07116700000006
 20
757.09992950000003
 11
-429.07116700000006
 21
755.39994750000005
  0
ARC
  8
_0-0_0
  6
CONTINUOUS
 62
    7
 10
-428.87115500000004
 20
757.09992950000003
 40
0.2
 50
90.000003000000007
 51
180.00000900000001
  0
LINE
  8
_0-0_0
  6
CONTINUOUS
 62
    7
 10
-428.37115500000004
 20
757.29994150000005
 11
-428.87115500000004
 21
757.29994150000005
  0
ARC
  8
_0-0_0
  6
CONTINUOUS
 62
    7
 10
-428.37115500000004
 20
756.79994150000005
 40
0.5
 50
90.000003000000007
 51
180.00000900000001
  0
LINE
  8
_0-0_0
  6
CONTINUOUS
 62
    7
 10
-428.87115500000004
 20
755.29994150000005
 11
-428.87115500000004
 21
756.79994150000005
  0
LINE
  8
_0-0_0
  6
CONTINUOUS
 62
    7
 10
-359.27114899999992
 20
755.29994150000005
 11
-428.87115500000004
 21
755.29994150000005
  0
LINE
  8
_0-0_0
  6
CONTINUOUS
 62
    7
 10
-359.27114899999992
 20
755.29994150000005
 11
-359.27114899999992
 21
756.79994150000005
  0
ARC
  8
_0-0_0
  6
CONTINUOUS
 62
    7
 10
-359.77114899999992
 20
756.79994150000005
 40
0.5
 50
0
 51
90.000003000000007
  0
LINE
  8
_0-0_0
  6
CONTINUOUS
 62
    7
 10
-359.27114899999992
 20
757.29994150000005
 11
-359.77114899999992
 21
757.29994150000005
  0
ARC
  8
_0-0_0
  6
CONTINUOUS
 62
    7
 10
-359.27114899999992
 20
757.09992950000003
 40
0.2
 50
0
 51
90.000003000000007
  0
LINE
  8
_0-0_0
  6
CONTINUOUS
 62
    7
 10
-359.07116700000006
 20
755.39994750000005
 11
-359.07116700000006
 21
757.09992950000003
  0
ARC
  8
_0-0_0
  6
CONTINUOUS
 62
    7
 10
-358.87115500000004
 20
755.39994750000005
 40
0.2
 50
180.00000900000003
 51
269.99999700000001
  0
LINE
  8
_0-0_0
  6
CONTINUOUS
 62
    7
 10
-358.87115500000004
 20
755.19993550000004
 11
-358.07116700000006
 21
755.19993550000004
  0
ARC
  8
_0-0_0
  6
CONTINUOUS
 62
    7
 10
-358.07116700000006
 20
757.19993550000004
 40
2
 50
269.99999700000001
 51
0.0000099999999886
  0
LINE
  8
_0-0_0
  6
CONTINUOUS
 62
    7
 10
-356.07116700000006
 20
775.55494650000003
 11
-356.07116700000006
 21
757.19993550000004
  0
ARC
  8
_0-0_0
  6
CONTINUOUS
 62
    7
 10
-356.57116700000006
 20
775.55494650000003
 40
0.5
 50
0
 51
123.74898500000002
  0
LINE
  8
_0-0_0
  6
CONTINUOUS
 62
    7
 10
-427.57116700000006
 20
757.49995450000006
 11
-427.57116700000006
 21
757.69993550000004
  0
LINE
  8
_0-0_0
  6
CONTINUOUS
 62
    7
 10
-427.57116700000006
 20
757.69993550000004
 11
-360.57116700000006
 21
757.69993550000004
  0
LINE
  8
_0-0_0
  6
CONTINUOUS
 62
    7
 10
-360.57116700000006
 20
757.49995450000006
 11
-360.57116700000006
 21
757.69993550000004
  0
ARC
  8
_0-0_0
  6
CONTINUOUS
 62
    7
 10
-360.37115500000004
 20
757.49995450000006
 40
0.2
 50
180.00000900000003
 51
269.99999700000001
  0
LINE
  8
_0-0_0
  6
CONTINUOUS
 62
    7
 10
-360.37115500000004
 20
757.29994150000005
 11
-427.77114899999992
 21
757.29994150000005
  0
ARC
  8
_0-0_0
  6
CONTINUOUS
 62
    7
 10
-427.77114899999992
 20
757.49995450000006
 40
0.2
 50
269.99999700000001
 51
0
  0
ARC
  8
_0-0_0
  6
CONTINUOUS
 62
    7
 10
-397.37115500000004
 20
771.39994750000005
 40
0.2
 50
159.62357
 51
269.99999700000001
  0
LINE
  8
_0-0_0
  6
CONTINUOUS
 62
    7
 10
-397.37115500000004
 20
771.19993550000004
 11
-394.77114899999992
 21
771.19993550000004
  0
ARC
  8
_0-0_0
  6
CONTINUOUS
 62
    7
 10
-394.77114899999992
 20
771.39994750000005
 40
0.2
 50
269.99999700000001
 51
20.376435000000019
  0
LINE
  8
_0-0_0
  6
CONTINUOUS
 62
    7
 10
-394.58367899999985
 20
771.46958949999998
 11
-395.88366700000006
 21
774.96958949999998
  0
LINE
  8
_0-0_0
  6
CONTINUOUS
 62
    7
 10
-439.07116700000006
 20
774.89994750000005
 11
-439.07116700000006
 21
776.87730350000004
  0
LINE
  8
_0-0_0
  6
CONTINUOUS
 62
    7
 10
-439.07116700000006
 20
774.89994750000005
 11
-439.07116700000006
 21
757.29994150000005
  0
LINE
  8
_0-0_0
  6
CONTINUOUS
 62
    7
 10
-439.07116700000006
 20
755.97706549999998
 11
-439.07116700000006
 21
757.29994150000005
  0
LINE
  8
_0-0_0
  6
CONTINUOUS
 62
    7
 10
-356.07116700000006
 20
781.29994150000005
 11
-356.07116700000006
 21
780.29994150000005
  0
LINE
  8
_0-0_0
  6
CONTINUOUS
 62
    7
 10
-356.07116700000006
 20
780.29994150000005
 11
-356.07116700000006
 21
779.79994150000005
  0
LINE
  8
_0-0_0
  6
CONTINUOUS
 62
    7
 10
-356.07116700000006
 20
779.79994150000005
 11
-356.07116700000006
 21
777.79994150000005
  0
LINE
  8
_0-0_0
  6
CONTINUOUS
 62
    7
 10
-356.07116700000006
 20
777.79994150000005
 11
-356.07116700000006
 21
775.55494650000003
  0
LINE
  8
_0-0_0
  6
CONTINUOUS
 62
    7
 10
-378.07116700000006
 20
775.29994150000005
 11
-378.07116700000006
 21
761.69993550000004
  0
ARC
  8
_0-0_0
  6
CONTINUOUS
 62
    7
 10
-375.07116700000006
 20
775.29994150000005
 40
3
 50
90.000003000000007
 51
180.00000900000001
  0
LINE
  8
_0-0_0
  6
CONTINUOUS
 62
    7
 10
-361.73721299999988
 20
778.29994150000005
 11
-375.07116700000006
 21
778.29994150000005
  0
ARC
  8
_0-0_0
  6
CONTINUOUS
 62
    7
 10
-361.73721299999988
 20
777.29994150000005
 40
1
 50
7.7664340000000012
 51
90.000002999999992
  0
ARC
  8
_0-0_0
  6
CONTINUOUS
 62
    7
 10
-358.07116700000006
 20
777.79994150000005
 40
2.7000000000000002
 50
187.76643899999999
 51
254.31966600000001
  0
ARC
  8
_0-0_0
  6
CONTINUOUS
 62
    7
 10
-359.07116700000006
 20
774.23762450000004
 40
1
 50
0
 51
74.319649999999996
  0
LINE
  8
_0-0_0
  6
CONTINUOUS
 62
    7
 10
-358.07116700000006
 20
761.69993550000004
 11
-358.07116700000006
 21
774.23762450000004
  0
ARC
  8
_0-0_0
  6
CONTINUOUS
 62
    7
 10
-361.07116700000006
 20
761.69993550000004
 40
3
 50
269.99999700000001
 51
0.0000099999999886
  0
LINE
  8
_0-0_0
  6
CONTINUOUS
 62
    7
 10
-375.07116700000006
 20
758.69993550000004
 11
-361.07116700000006
 21
758.69993550000004
  0
ARC
  8
_0-0_0
  6
CONTINUOUS
 62
    7
 10
-375.07116700000006
 20
761.69993550000004
 40
3
 50
180.00000900000003
 51
269.99999700000001
  0
LINE
  8
_0-0_0
  6
CONTINUOUS
 62
    7
 10
-432.07116700000006
 20
758.69993550000004
 11
-417.07116700000006
 21
758.69993550000004
  0
ARC
  8
_0-0_0
  6
CONTINUOUS
 62
    7
 10
-432.07116700000006
 20
761.69993550000004
 40
3
 50
180.00000900000003
 51
269.99999700000001
  0
LINE
  8
_0-0_0
  6
CONTINUOUS
 62
    7
 10
-435.07116700000006
 20
775.29994150000005
 11
-435.07116700000006
 21
761.69993550000004
  0
ARC
  8
_0-0_0
  6
CONTINUOUS
 62
    7
 10
-432.07116700000006
 20
775.29994150000005
 40
3
 50
90.000003000000007
 51
180.00000900000001
  0
LINE
  8
_0-0_0
  6
CONTINUOUS
 62
    7
 10
-417.07116700000006
 20
778.29994150000005
 11
-432.07116700000006
 21
778.29994150000005
  0
ARC
  8
_0-0_0
  6
CONTINUOUS
 62
    7
 10
-417.07116700000006
 20
775.29994150000005
 40
3
 50
0
 51
90.000003000000007
  0
LINE
  8
_0-0_0
  6
CONTINUOUS
 62
    7
 10
-414.07116700000006
 20
761.69993550000004
 11
-414.07116700000006
 21
775.29994150000005
  0
ARC
  8
_0-0_0
  6
CONTINUOUS
 62
    7
 10
-417.07116700000006
 20
761.69993550000004
 40
3
 50
269.99999700000001
 51
0.0000099999999886
  0
LINE
  8
_0-0_0
  6
CONTINUOUS
 62
    7
 10
-360.07116700000006
 20
779.29994150000005
 11
-360.27114899999992
 21
779.29994150000005
  0
ARC
  8
_0-0_0
  6
CONTINUOUS
 62
    7
 10
-358.07116700000006
 20
777.79994150000005
 40
2
 50
180.00000900000003
 51
0.0000000000000254
  0
LINE
  8
_0-0_0
  6
CONTINUOUS
 62
    7
 10
-360.07116700000006
 20
779.29994150000005
 11
-360.07116700000006
 21
777.79994150000005
  0
LINE
  8
_0-0_0
  6
CONTINUOUS
 62
    7
 10
-434.87115500000004
 20
779.29994150000005
 11
-435.07116700000006
 21
779.29994150000005
  0
LINE
  8
_0-0_0
  6
CONTINUOUS
 62
    7
 10
-435.07116700000006
 20
779.29994150000005
 11
-435.07116700000006
 21
777.79994150000005
  0
ARC
  8
_0-0_0
  6
CONTINUOUS
 62
    7
 10
-437.07116700000006
 20
777.79994150000005
 40
2
 50
180.00000900000003
 51
0.0000000000000254
  0
LINE
  8
_0-0_0
  6
CONTINUOUS
 62
    7
 10
-452.57113600000002
 20
779.79994150000005
 11
-452.57113600000002
 21
779.29994150000005
  0
LINE
  8
_0-0_0
  6
CONTINUOUS
 62
    7
 10
-439.07116700000006
 20
776.88343750000001
 11
-439.07116700000006
 21
777.59992950000003
  0
LINE
  8
_0-0_0
  6
CONTINUOUS
 62
    7
 10
-439.07116700000006
 20
776.88343750000001
 11
-439.07116700000006
 21
776.87730350000004
  0
LINE
  8
_0-0_0
  6
CONTINUOUS
 62
    7
 10
-439.07116700000006
 20
775.66880749999996
 11
-439.07116700000006
 21
775.55494650000003
  0
LINE
  8
_0-0_0
  6
CONTINUOUS
 62
    7
 10
-451.07113600000002
 20
776.89994750000005
 11
-451.07113600000002
 21
774.89994750000005
  0
LINE
  8
_0-0_0
  6
CONTINUOUS
 62
    7
 10
-439.07116700000006
 20
776.89994750000005
 11
-451.07113600000002
 21
776.89994750000005
  0
LINE
  8
_0-0_0
  6
CONTINUOUS
 62
    7
 10
-451.07113600000002
 20
771.39994750000005
 11
-451.07113600000002
 21
774.39994750000005
  0
LINE
  8
_0-0_0
  6
CONTINUOUS
 62
    7
 10
-451.07113600000002
 20
774.39994750000005
 11
-451.07113600000002
 21
774.89994750000005
  0
LINE
  8
_0-0_0
  6
CONTINUOUS
 62
    7
 10
-451.07113600000002
 20
771.39994750000005
 11
-451.07113600000002
 21
770.89994750000005
  0
ARC
  8
_0-0_0
  6
CONTINUOUS
 62
    7
 10
-445.07113600000002
 20
771.59992950000003
 40
0.500016
 50
0.001164
 51
179.99560600000004
  0
LINE
  8
_0-0_0
  6
CONTINUOUS
 62
    7
 10
-445.57116700000006
 20
771.59992950000003
 11
-445.57116700000006
 21
759.59992950000003
  0
ARC
  8
_0-0_0
  6
CONTINUOUS
 62
    7
 10
-445.07113600000002
 20
759.59996049999995
 40
0.500016
 50
180.00117
 51
359.995611
  0
LINE
  8
_0-0_0
  6
CONTINUOUS
 62
    7
 10
-444.57116700000006
 20
771.59992950000003
 11
-444.57116700000006
 21
759.59992950000003
  0
ARC
  8
_0-0_0
  6
CONTINUOUS
 62
    7
 10
-446.57113600000002
 20
771.59992950000003
 40
0.500016
 50
0.001164
 51
179.99560600000004
  0
LINE
  8
_0-0_0
  6
CONTINUOUS
 62
    7
 10
-447.07116700000006
 20
771.59992950000003
 11
-447.07116700000006
 21
759.59992950000003
  0
ARC
  8
_0-0_0
  6
CONTINUOUS
 62
    7
 10
-446.57113600000002
 20
759.59996049999995
 40
0.500016
 50
180.00117
 51
359.995611
  0
LINE
  8
_0-0_0
  6
CONTINUOUS
 62
    7
 10
-446.07116700000006
 20
771.59992950000003
 11
-446.07116700000006
 21
759.59992950000003
  0
ARC
  8
_0-0_0
  6
CONTINUOUS
 62
    7
 10
-448.07113600000002
 20
771.59992950000003
 40
0.500016
 50
0.001164
 51
179.99560600000004
  0
LINE
  8
_0-0_0
  6
CONTINUOUS
 62
    7
 10
-448.57116700000006
 20
771.59992950000003
 11
-448.57116700000006
 21
759.59992950000003
  0
ARC
  8
_0-0_0
  6
CONTINUOUS
 62
    7
 10
-448.07113600000002
 20
759.59996049999995
 40
0.500016
 50
180.00117
 51
359.995611
  0
LINE
  8
_0-0_0
  6
CONTINUOUS
 62
    7
 10
-447.57116700000006
 20
771.59992950000003
 11
-447.57116700000006
 21
759.59992950000003
  0
ARC
  8
_0-0_0
  6
CONTINUOUS
 62
    7
 10
-449.57113600000002
 20
771.59992950000003
 40
0.500016
 50
0.001164
 51
179.99560600000004
  0
LINE
  8
_0-0_0
  6
CONTINUOUS
 62
    7
 10
-450.07113600000002
 20
771.59992950000003
 11
-450.07113600000002
 21
759.59992950000003
  0
ARC
  8
_0-0_0
  6
CONTINUOUS
 62
    7
 10
-449.57113600000002
 20
759.59996049999995
 40
0.500016
 50
180.00117
 51
359.995611
  0
LINE
  8
_0-0_0
  6
CONTINUOUS
 62
    7
 10
-449.07116700000006
 20
771.59992950000003
 11
-449.07116700000006
 21
759.59992950000003
  0
LINE
  8
_0-0_0
  6
CONTINUOUS
 62
    7
 10
-439.07116700000006
 20
755.29994150000005
 11
-455.74658199999999
 21
755.29994150000005
  0
LINE
  8
_0-0_0
  6
CONTINUOUS
 62
    7
 10
-428.52114899999992
 20
757.27690150000001
 11
-428.52114899999992
 21
757.29994150000005
  0
LINE
  8
_0-0_0
  6
CONTINUOUS
 62
    7
 10
-359.62115500000004
 20
757.27690150000001
 11
-359.62115500000004
 21
757.29994150000005
  0
LINE
  8
_0-0_0
  6
CONTINUOUS
 62
    7
 10
-452.57113600000002
 20
779.79994150000005
 11
-452.57113600000002
 21
780.29994150000005
  0
LINE
  8
_0-0_0
  6
CONTINUOUS
 62
    7
 10
-356.07116700000006
 20
780.29994150000005
 11
-452.57113600000002
 21
780.29994150000005
  0
LINE
  8
_0-0_0
  6
CONTINUOUS
 62
    7
 10
-452.57113600000002
 20
780.29994150000005
 11
-452.57113600000002
 21
781.29994150000005
  0
LINE
  8
_0-0_0
  6
CONTINUOUS
 62
    7
 10
-356.0710140000001
 20
781.30000250000001
 11
-356.0710140000001
 21
780.80000250000001
  0
LINE
  8
_0-0_0
  6
CONTINUOUS
 62
    7
 10
-356.0710140000001
 20
780.80000250000001
 11
-356.0710140000001
 21
779.30000250000001
  0
ARC
  8
_0-0_0
  6
CONTINUOUS
 62
    7
 10
-365.57116700000006
 20
770.89994750000005
 40
4.5
 50
269.99999700000001
 51
90.000002999999992
  0
LINE
  8
_0-0_0
  6
CONTINUOUS
 62
    7
 10
-365.57116700000006
 20
766.39994750000005
 11
-370.57116700000006
 21
766.39994750000005
  0
ARC
  8
_0-0_0
  6
CONTINUOUS
 62
    7
 10
-370.57116700000006
 20
770.89994750000005
 40
4.5
 50
90.000003000000007
 51
269.99999700000006
  0
LINE
  8
_0-0_0
  6
CONTINUOUS
 62
    7
 10
-370.57116700000006
 20
775.39994750000005
 11
-365.57116700000006
 21
775.39994750000005
  0
ARC
  8
_0-0_0
  6
CONTINUOUS
 62
    7
 10
-421.57116700000006
 20
770.89994750000005
 40
4.5
 50
269.99999700000001
 51
90.000002999999992
  0
LINE
  8
_0-0_0
  6
CONTINUOUS
 62
    7
 10
-421.57116700000006
 20
766.39994750000005
 11
-426.57116700000006
 21
766.39994750000005
  0
ARC
  8
_0-0_0
  6
CONTINUOUS
 62
    7
 10
-426.57116700000006
 20
770.89994750000005
 40
4.5
 50
90.000003000000007
 51
269.99999700000006
  0
LINE
  8
_0-0_0
  6
CONTINUOUS
 62
    7
 10
-426.57116700000006
 20
775.39994750000005
 11
-421.57116700000006
 21
775.39994750000005
  0
LINE
  8
_0-0_0
  6
CONTINUOUS
 62
    7
 10
-439.07116700000006
 20
777.59992950000003
 11
-439.07116700000006
 21
779.29994150000005
  0
LINE
  8
_0-0_0
  6
CONTINUOUS
 62
    7
 10
-439.07116700000006
 20
779.29994150000005
 11
-452.57113600000002
 21
779.29994150000005
  0
LINE
  8
_0-0_0
  6
CONTINUOUS
 62
    7
 10
-452.57113600000002
 20
777.59992950000003
 11
-452.57113600000002
 21
779.29994150000005
  0
LINE
  8
_0-0_0
  6
CONTINUOUS
 62
    7
 10
-451.07113600000002
 20
776.89994750000005
 11
-455.74658199999999
 21
776.89994750000005
  0
LINE
  8
_0-0_0
  6
CONTINUOUS
 62
    7
 10
-451.07113600000002
 20
771.39994750000005
 11
-455.74658199999999
 21
771.39994750000005
  0
LINE
  8
_0-0_0
  6
CONTINUOUS
 62
    7
 10
-456.37902799999983
 20
755.40257250000002
 11
-456.25955199999999
 21
755.36695850000001
  0
LINE
  8
_0-0_0
  6
CONTINUOUS
 62
    7
 10
-456.25955199999999
 20
755.36695850000001
 11
-456.13799999999992
 21
755.33906549999995
  0
LINE
  8
_0-0_0
  6
CONTINUOUS
 62
    7
 10
-456.13799999999992
 20
755.33906549999995
 11
-456.01486199999999
 21
755.31904550000002
  0
LINE
  8
_0-0_0
  6
CONTINUOUS
 62
    7
 10
-456.01486199999999
 20
755.31904550000002
 11
-455.890625
 21
755.30693050000002
  0
LINE
  8
_0-0_0
  6
CONTINUOUS
 62
    7
 10
-455.890625
 20
755.30693050000002
 11
-455.76580800000011
 21
755.30278050000004
  0
LINE
  8
_0-0_0
  6
CONTINUOUS
 62
    7
 10
-455.76580800000011
 20
755.30278050000004
 11
-455.74658199999999
 21
755.30287150000004
  0
ARC
  8
_0-0_0
  6
CONTINUOUS
 62
    7
 10
-455.74658199999999
 20
757.29994150000005
 40
2
 50
251.56498899999997
 51
269.99999700000001
  0
LINE
  8
_0-0_0
  6
CONTINUOUS
 62
    7
 10
-452.57113600000002
 20
777.59992950000003
 11
-439.07116700000006
 21
777.59992950000003
  0
CIRCLE
  8
_0-0_0
  6
CONTINUOUS
 62
    7
 10
-358.07116700000006
 20
777.79994150000005
 40
1.4750000000000001
  0
CIRCLE
  8
_0-0_0
  6
CONTINUOUS
 62
    7
 10
-437.07116700000006
 20
777.79994150000005
 40
1.4750000000000001
  0
ARC
  8
_0-0_0
  6
CONTINUOUS
 62
    7
 10
-455.74658199999999
 20
774.89994750000005
 40
2
 50
90.000003000000007
 51
108.434997
  0
LINE
  8
_0-0_0
  6
CONTINUOUS
 62
    7
 10
-460.54547099999991
 20
771.39994750000005
 11
-461.23883000000001
 21
771.39994750000005
  0
LINE
  8
_0-0_0
  6
CONTINUOUS
 62
    7
 10
-460.54547099999991
 20
771.39994750000005
 11
-456.22094700000002
 21
771.39994750000005
  0
LINE
  8
_0-0_0
  6
CONTINUOUS
 62
    7
 10
-455.74658199999999
 20
771.39994750000005
 11
-456.22094700000002
 21
771.39994750000005
  0
LINE
  8
_0-0_0
  6
CONTINUOUS
 62
    7
 10
-460.7036129999999
 20
756.84410049999997
 11
-456.37902799999983
 21
755.40257250000002
  0
LINE
  8
_0-0_0
  6
CONTINUOUS
 62
    7
 10
-361.52114899999992
 20
770.89994750000005
 11
-363.83056600000009
 21
766.89994750000005
  0
LINE
  8
_0-0_0
  6
CONTINUOUS
 62
    7
 10
-372.31176800000003
 20
766.89994750000005
 11
-363.83056600000009
 21
766.89994750000005
  0
LINE
  8
_0-0_0
  6
CONTINUOUS
 62
    7
 10
-372.31176800000003
 20
766.89994750000005
 11
-374.62115500000004
 21
770.89994750000005
  0
LINE
  8
_0-0_0
  6
CONTINUOUS
 62
    7
 10
-374.62115500000004
 20
770.89994750000005
 11
-372.31176800000003
 21
774.89994750000005
  0
LINE
  8
_0-0_0
  6
CONTINUOUS
 62
    7
 10
-363.83056600000009
 20
774.89994750000005
 11
-372.31176800000003
 21
774.89994750000005
  0
LINE
  8
_0-0_0
  6
CONTINUOUS
 62
    7
 10
-363.83056600000009
 20
774.89994750000005
 11
-361.52114899999992
 21
770.89994750000005
  0
LINE
  8
_0-0_0
  6
CONTINUOUS
 62
    7
 10
-428.31176800000003
 20
774.89994750000005
 11
-430.62115500000004
 21
770.89994750000005
  0
LINE
  8
_0-0_0
  6
CONTINUOUS
 62
    7
 10
-419.83056600000009
 20
774.89994750000005
 11
-428.31176800000003
 21
774.89994750000005
  0
LINE
  8
_0-0_0
  6
CONTINUOUS
 62
    7
 10
-417.52114899999992
 20
770.89994750000005
 11
-419.83056600000009
 21
774.89994750000005
  0
LINE
  8
_0-0_0
  6
CONTINUOUS
 62
    7
 10
-419.83056600000009
 20
766.89994750000005
 11
-417.52114899999992
 21
770.89994750000005
  0
LINE
  8
_0-0_0
  6
CONTINUOUS
 62
    7
 10
-428.31176800000003
 20
766.89994750000005
 11
-419.83056600000009
 21
766.89994750000005
  0
LINE
  8
_0-0_0
  6
CONTINUOUS
 62
    7
 10
-430.62115500000004
 20
770.89994750000005
 11
-428.31176800000003
 21
766.89994750000005
  0
LINE
  8
_0-0_0
  6
CONTINUOUS
 62
    7
 10
-456.82116700000006
 20
776.64994750000005
 11
-456.37902799999983
 21
776.79731749999996
  0
LINE
  8
_0-0_0
  6
CONTINUOUS
 62
    7
 10
-462.07113600000002
 20
772.14997849999997
 11
-462.07113600000002
 21
771.02894549999996
  0
LINE
  8
_0-0_0
  6
CONTINUOUS
 62
    7
 10
-462.07113600000002
 20
770.10762050000005
 11
-462.07113600000002
 21
771.02894549999996
  0
LINE
  8
_0-0_0
  6
CONTINUOUS
 62
    7
 10
-461.77114899999992
 20
768.3119355
 11
-461.82995600000004
 21
768.55876150000006
  0
LINE
  8
_0-0_0
  6
CONTINUOUS
 62
    7
 10
-461.82995600000004
 20
768.55876150000006
 11
-461.87969999999996
 21
768.75111349999997
  0
LINE
  8
_0-0_0
  6
CONTINUOUS
 62
    7
 10
-461.87969999999996
 20
768.75111349999997
 11
-461.95083599999998
 21
769.01692149999997
  0
LINE
  8
_0-0_0
  6
CONTINUOUS
 62
    7
 10
-461.95083599999998
 20
769.01692149999997
 11
-461.9837950000001
 21
769.14363049999997
  0
LINE
  8
_0-0_0
  6
CONTINUOUS
 62
    7
 10
-461.9837950000001
 20
769.14363049999997
 11
-462.00906399999985
 21
769.24705449999999
  0
LINE
  8
_0-0_0
  6
CONTINUOUS
 62
    7
 10
-462.00906399999985
 20
769.24705449999999
 11
-462.03106699999989
 21
769.3469695
  0
LINE
  8
_0-0_0
  6
CONTINUOUS
 62
    7
 10
-462.03106699999989
 20
769.3469695
 11
-462.05245999999988
 21
769.4646755
  0
LINE
  8
_0-0_0
  6
CONTINUOUS
 62
    7
 10
-462.05245999999988
 20
769.4646755
 11
-462.06103499999995
 21
769.52680950000001
  0
LINE
  8
_0-0_0
  6
CONTINUOUS
 62
    7
 10
-462.06103499999995
 20
769.52680950000001
 11
-462.06710799999996
 21
769.58741750000002
  0
LINE
  8
_0-0_0
  6
CONTINUOUS
 62
    7
 10
-462.06710799999996
 20
769.58741750000002
 11
-462.07012899999995
 21
769.63667250000003
  0
LINE
  8
_0-0_0
  6
CONTINUOUS
 62
    7
 10
-462.07012899999995
 20
769.63667250000003
 11
-462.07113600000002
 21
769.68489050000005
  0
LINE
  8
_0-0_0
  6
CONTINUOUS
 62
    7
 10
-461.77114899999992
 20
763.88792450000005
 11
-461.68768300000011
 21
764.26661650000005
  0
LINE
  8
_0-0_0
  6
CONTINUOUS
 62
    7
 10
-461.68768300000011
 20
764.26661650000005
 11
-461.64758299999994
 21
764.4581455
  0
LINE
  8
_0-0_0
  6
CONTINUOUS
 62
    7
 10
-461.64758299999994
 20
764.4581455
 11
-461.59149200000002
 21
764.74815350000006
  0
LINE
  8
_0-0_0
  6
CONTINUOUS
 62
    7
 10
-461.59149200000002
 20
764.74815350000006
 11
-461.5538939999999
 21
764.96772750000002
  0
LINE
  8
_0-0_0
  6
CONTINUOUS
 62
    7
 10
-461.5538939999999
 20
764.96772750000002
 11
-461.52127100000007
 21
765.18897949999996
  0
LINE
  8
_0-0_0
  6
CONTINUOUS
 62
    7
 10
-461.52127100000007
 20
765.18897949999996
 11
-461.49411000000009
 21
765.41578649999997
  0
LINE
  8
_0-0_0
  6
CONTINUOUS
 62
    7
 10
-461.49411000000009
 20
765.41578649999997
 11
-461.47402899999997
 21
765.64317349999999
  0
LINE
  8
_0-0_0
  6
CONTINUOUS
 62
    7
 10
-461.47402899999997
 20
765.64317349999999
 11
-461.46688799999993
 21
765.7569125
  0
LINE
  8
_0-0_0
  6
CONTINUOUS
 62
    7
 10
-461.46688799999993
 20
765.7569125
 11
-461.46173099999987
 21
765.87059050000005
  0
LINE
  8
_0-0_0
  6
CONTINUOUS
 62
    7
 10
-461.46173099999987
 20
765.87059050000005
 11
-461.45800800000006
 21
766.02201850000006
  0
LINE
  8
_0-0_0
  6
CONTINUOUS
 62
    7
 10
-461.45800800000006
 20
766.02201850000006
 11
-461.45794699999988
 21
766.1732935
  0
LINE
  8
_0-0_0
  6
CONTINUOUS
 62
    7
 10
-461.45794699999988
 20
766.1732935
 11
-461.46154799999999
 21
766.32435550000002
  0
LINE
  8
_0-0_0
  6
CONTINUOUS
 62
    7
 10
-461.46154799999999
 20
766.32435550000002
 11
-461.47103900000002
 21
766.51289350000002
  0
LINE
  8
_0-0_0
  6
CONTINUOUS
 62
    7
 10
-461.47103900000002
 20
766.51289350000002
 11
-461.48590100000001
 21
766.70112549999999
  0
LINE
  8
_0-0_0
  6
CONTINUOUS
 62
    7
 10
-461.48590100000001
 20
766.70112549999999
 11
-461.50582899999995
 21
766.88908349999997
  0
LINE
  8
_0-0_0
  6
CONTINUOUS
 62
    7
 10
-461.50582899999995
 20
766.88908349999997
 11
-461.52221699999996
 21
767.01795949999996
  0
LINE
  8
_0-0_0
  6
CONTINUOUS
 62
    7
 10
-461.52221699999996
 20
767.01795949999996
 11
-461.54061899999988
 21
767.1465915
  0
LINE
  8
_0-0_0
  6
CONTINUOUS
 62
    7
 10
-461.54061899999988
 20
767.1465915
 11
-461.56478900000002
 21
767.29853849999995
  0
LINE
  8
_0-0_0
  6
CONTINUOUS
 62
    7
 10
-461.56478900000002
 20
767.29853849999995
 11
-461.59118600000011
 21
767.44987449999996
  0
LINE
  8
_0-0_0
  6
CONTINUOUS
 62
    7
 10
-461.59118600000011
 20
767.44987449999996
 11
-461.6473390000001
 21
767.74049349999996
  0
LINE
  8
_0-0_0
  6
CONTINUOUS
 62
    7
 10
-461.6473390000001
 20
767.74049349999996
 11
-461.6875
 21
767.93244949999996
  0
LINE
  8
_0-0_0
  6
CONTINUOUS
 62
    7
 10
-461.6875
 20
767.93244949999996
 11
-461.77114899999992
 21
768.3119355
  0
LINE
  8
_0-0_0
  6
CONTINUOUS
 62
    7
 10
-461.77114899999992
 20
763.88792450000005
 11
-461.82995600000004
 21
763.64106749999996
  0
LINE
  8
_0-0_0
  6
CONTINUOUS
 62
    7
 10
-461.82995600000004
 20
763.64106749999996
 11
-461.87969999999996
 21
763.44874549999997
  0
LINE
  8
_0-0_0
  6
CONTINUOUS
 62
    7
 10
-461.87969999999996
 20
763.44874549999997
 11
-461.95083599999998
 21
763.18299850000005
  0
LINE
  8
_0-0_0
  6
CONTINUOUS
 62
    7
 10
-461.95083599999998
 20
763.18299850000005
 11
-461.9837950000001
 21
763.05632049999997
  0
LINE
  8
_0-0_0
  6
CONTINUOUS
 62
    7
 10
-461.9837950000001
 20
763.05632049999997
 11
-462.00903300000004
 21
762.95286550000003
  0
LINE
  8
_0-0_0
  6
CONTINUOUS
 62
    7
 10
-462.00903300000004
 20
762.95286550000003
 11
-462.03106699999989
 21
762.85288949999995
  0
LINE
  8
_0-0_0
  6
CONTINUOUS
 62
    7
 10
-462.03106699999989
 20
762.85288949999995
 11
-462.05245999999988
 21
762.73518349999995
  0
LINE
  8
_0-0_0
  6
CONTINUOUS
 62
    7
 10
-462.05245999999988
 20
762.73518349999995
 11
-462.06103499999995
 21
762.67304950000005
  0
LINE
  8
_0-0_0
  6
CONTINUOUS
 62
    7
 10
-462.06103499999995
 20
762.67304950000005
 11
-462.06710799999996
 21
762.61244150000005
  0
LINE
  8
_0-0_0
  6
CONTINUOUS
 62
    7
 10
-462.06710799999996
 20
762.61244150000005
 11
-462.07012899999995
 21
762.56321749999995
  0
LINE
  8
_0-0_0
  6
CONTINUOUS
 62
    7
 10
-462.07012899999995
 20
762.56321749999995
 11
-462.07113600000002
 21
762.51499950000004
  0
LINE
  8
_0-0_0
  6
CONTINUOUS
 62
    7
 10
-462.07113600000002
 20
758.74147049999999
 11
-462.07113600000002
 21
762.09223950000001
  0
ARC
  8
_0-0_0
  6
CONTINUOUS
 62
    7
 10
-460.07113600000002
 20
758.74147049999999
 40
2
 50
180.00000900000003
 51
251.56498900000003
  0
LINE
  8
_0-0_0
  6
CONTINUOUS
 62
    7
 10
-357.62115500000004
 20
777.59992950000003
 11
-356.9711299999999
 21
777.59992950000003
  0
ARC
  8
_0-0_0
  6
CONTINUOUS
 62
    7
 10
-357.62115500000004
 20
777.34992950000003
 40
0.25
 50
90.000003000000007
 51
180.00000900000001
  0
LINE
  8
_0-0_0
  6
CONTINUOUS
 62
    7
 10
-357.87115500000004
 20
777.34992950000003
 11
-357.87115500000004
 21
776.69993550000004
  0
LINE
  8
_0-0_0
  6
CONTINUOUS
 62
    7
 10
-358.27114899999992
 20
776.69993550000004
 11
-357.87115500000004
 21
776.69993550000004
  0
LINE
  8
_0-0_0
  6
CONTINUOUS
 62
    7
 10
-358.27114899999992
 20
776.69993550000004
 11
-358.27114899999992
 21
777.34992950000003
  0
ARC
  8
_0-0_0
  6
CONTINUOUS
 62
    7
 10
-358.52114899999992
 20
777.34992950000003
 40
0.25
 50
0
 51
90.000003000000007
  0
LINE
  8
_0-0_0
  6
CONTINUOUS
 62
    7
 10
-359.17114300000003
 20
777.59992950000003
 11
-358.52114899999992
 21
777.59992950000003
  0
LINE
  8
_0-0_0
  6
CONTINUOUS
 62
    7
 10
-359.17114300000003
 20
777.59992950000003
 11
-359.17114300000003
 21
777.99995450000006
  0
LINE
  8
_0-0_0
  6
CONTINUOUS
 62
    7
 10
-358.52114899999992
 20
777.99995450000006
 11
-359.17114300000003
 21
777.99995450000006
  0
ARC
  8
_0-0_0
  6
CONTINUOUS
 62
    7
 10
-358.52114899999992
 20
778.24995450000006
 40
0.25
 50
269.99999700000001
 51
0
  0
LINE
  8
_0-0_0
  6
CONTINUOUS
 62
    7
 10
-358.27114899999992
 20
778.24995450000006
 11
-358.27114899999992
 21
778.89994750000005
  0
LINE
  8
_0-0_0
  6
CONTINUOUS
 62
    7
 10
-357.87115500000004
 20
778.89994750000005
 11
-358.27114899999992
 21
778.89994750000005
  0
LINE
  8
_0-0_0
  6
CONTINUOUS
 62
    7
 10
-357.87115500000004
 20
778.89994750000005
 11
-357.87115500000004
 21
778.24995450000006
  0
ARC
  8
_0-0_0
  6
CONTINUOUS
 62
    7
 10
-357.62115500000004
 20
778.24995450000006
 40
0.25
 50
180.00000900000003
 51
269.99999700000001
  0
LINE
  8
_0-0_0
  6
CONTINUOUS
 62
    7
 10
-356.9711299999999
 20
777.99995450000006
 11
-357.62115500000004
 21
777.99995450000006
  0
LINE
  8
_0-0_0
  6
CONTINUOUS
 62
    7
 10
-356.9711299999999
 20
777.99995450000006
 11
-356.9711299999999
 21
777.59992950000003
  0
LINE
  8
_0-0_0
  6
CONTINUOUS
 62
    7
 10
-436.62115500000004
 20
777.59992950000003
 11
-435.9711299999999
 21
777.59992950000003
  0
ARC
  8
_0-0_0
  6
CONTINUOUS
 62
    7
 10
-436.62115500000004
 20
777.34992950000003
 40
0.25
 50
90.000003000000007
 51
180.00000900000001
  0
LINE
  8
_0-0_0
  6
CONTINUOUS
 62
    7
 10
-436.87115500000004
 20
777.34992950000003
 11
-436.87115500000004
 21
776.69993550000004
  0
LINE
  8
_0-0_0
  6
CONTINUOUS
 62
    7
 10
-437.27114899999992
 20
776.69993550000004
 11
-436.87115500000004
 21
776.69993550000004
  0
LINE
  8
_0-0_0
  6
CONTINUOUS
 62
    7
 10
-437.27114899999992
 20
776.69993550000004
 11
-437.27114899999992
 21
777.34992950000003
  0
ARC
  8
_0-0_0
  6
CONTINUOUS
 62
    7
 10
-437.52114899999992
 20
777.34992950000003
 40
0.25
 50
0
 51
90.000003000000007
  0
LINE
  8
_0-0_0
  6
CONTINUOUS
 62
    7
 10
-438.17114300000003
 20
777.59992950000003
 11
-437.52114899999992
 21
777.59992950000003
  0
LINE
  8
_0-0_0
  6
CONTINUOUS
 62
    7
 10
-438.17114300000003
 20
777.59992950000003
 11
-438.17114300000003
 21
777.99995450000006
  0
LINE
  8
_0-0_0
  6
CONTINUOUS
 62
    7
 10
-437.52114899999992
 20
777.99995450000006
 11
-438.17114300000003
 21
777.99995450000006
  0
ARC
  8
_0-0_0
  6
CONTINUOUS
 62
    7
 10
-437.52114899999992
 20
778.24995450000006
 40
0.25
 50
269.99999700000001
 51
0
  0
LINE
  8
_0-0_0
  6
CONTINUOUS
 62
    7
 10
-437.27114899999992
 20
778.24995450000006
 11
-437.27114899999992
 21
778.89994750000005
  0
LINE
  8
_0-0_0
  6
CONTINUOUS
 62
    7
 10
-436.87115500000004
 20
778.89994750000005
 11
-437.27114899999992
 21
778.89994750000005
  0
LINE
  8
_0-0_0
  6
CONTINUOUS
 62
    7
 10
-436.87115500000004
 20
778.89994750000005
 11
-436.87115500000004
 21
778.24995450000006
  0
ARC
  8
_0-0_0
  6
CONTINUOUS
 62
    7
 10
-436.62115500000004
 20
778.24995450000006
 40
0.25
 50
180.00000900000003
 51
269.99999700000001
  0
LINE
  8
_0-0_0
  6
CONTINUOUS
 62
    7
 10
-435.9711299999999
 20
777.99995450000006
 11
-436.62115500000004
 21
777.99995450000006
  0
LINE
  8
_0-0_0
  6
CONTINUOUS
 62
    7
 10
-435.9711299999999
 20
777.99995450000006
 11
-435.9711299999999
 21
777.59992950000003
  0
LINE
  8
_0-0_0
  6
CONTINUOUS
 62
    7
 10
-477.07113600000002
 20
775.6253815
 11
-477.07113600000002
 21
775.47865249999995
  0
LINE
  8
_0-0_0
  6
CONTINUOUS
 62
    7
 10
-477.07113600000002
 20
775.81590249999999
 11
-477.07113600000002
 21
775.6253815
  0
LINE
  8
_0-0_0
  6
CONTINUOUS
 62
    7
 10
-477.07113600000002
 20
775.99092050000002
 11
-477.07113600000002
 21
775.81590249999999
  0
LINE
  8
_0-0_0
  6
CONTINUOUS
 62
    7
 10
-477.07113600000002
 20
776.14851350000004
 11
-477.07113600000002
 21
775.99092050000002
  0
LINE
  8
_0-0_0
  6
CONTINUOUS
 62
    7
 10
-477.07113600000002
 20
776.28694150000001
 11
-477.07113600000002
 21
776.14851350000004
  0
LINE
  8
_0-0_0
  6
CONTINUOUS
 62
    7
 10
-477.07113600000002
 20
776.40470849999997
 11
-477.07113600000002
 21
776.28694150000001
  0
LINE
  8
_0-0_0
  6
CONTINUOUS
 62
    7
 10
-477.07113600000002
 20
776.50050350000004
 11
-477.07113600000002
 21
776.40470849999997
  0
LINE
  8
_0-0_0
  6
CONTINUOUS
 62
    7
 10
-477.07113600000002
 20
776.57328749999999
 11
-477.07113600000002
 21
776.50050350000004
  0
LINE
  8
_0-0_0
  6
CONTINUOUS
 62
    7
 10
-477.07113600000002
 20
776.62223849999998
 11
-477.07113600000002
 21
776.57328749999999
  0
LINE
  8
_0-0_0
  6
CONTINUOUS
 62
    7
 10
-477.07113600000002
 20
776.64994750000005
 11
-477.07113600000002
 21
776.62223849999998
  0
LINE
  8
_0-0_0
  6
CONTINUOUS
 62
    7
 10
-477.07113600000002
 20
776.64994750000005
 11
-477.07113600000002
 21
776.64686549999999
  0
LINE
  8
_0-0_0
  6
CONTINUOUS
 62
    7
 10
-477.07113600000002
 20
772.1530305
 11
-477.07113600000002
 21
772.14994750000005
  0
LINE
  8
_0-0_0
  6
CONTINUOUS
 62
    7
 10
-477.07113600000002
 20
772.17765750000001
 11
-477.07113600000002
 21
772.14994750000005
  0
LINE
  8
_0-0_0
  6
CONTINUOUS
 62
    7
 10
-477.07113600000002
 20
772.2266085
 11
-477.07113600000002
 21
772.17765750000001
  0
LINE
  8
_0-0_0
  6
CONTINUOUS
 62
    7
 10
-477.07113600000002
 20
772.29939249999995
 11
-477.07113600000002
 21
772.2266085
  0
LINE
  8
_0-0_0
  6
CONTINUOUS
 62
    7
 10
-477.07113600000002
 20
772.39518750000002
 11
-477.07113600000002
 21
772.29939249999995
  0
LINE
  8
_0-0_0
  6
CONTINUOUS
 62
    7
 10
-477.07113600000002
 20
772.42536949999999
 11
-477.07113600000002
 21
772.39518750000002
  0
LINE
  8
_0-0_0
  6
CONTINUOUS
 62
    7
 10
-477.07113600000002
 20
772.51292450000005
 11
-477.07113600000002
 21
772.42536949999999
  0
LINE
  8
_0-0_0
  6
CONTINUOUS
 62
    7
 10
-477.07113600000002
 20
772.65135150000003
 11
-477.07113600000002
 21
772.51292450000005
  0
LINE
  8
_0-0_0
  6
CONTINUOUS
 62
    7
 10
-477.07113600000002
 20
772.80894450000005
 11
-477.07113600000002
 21
772.65135150000003
  0
LINE
  8
_0-0_0
  6
CONTINUOUS
 62
    7
 10
-477.07113600000002
 20
772.98396249999996
 11
-477.07113600000002
 21
772.80894450000005
  0
LINE
  8
_0-0_0
  6
CONTINUOUS
 62
    7
 10
-477.07113600000002
 20
773.17451449999999
 11
-477.07113600000002
 21
772.98396249999996
  0
LINE
  8
_0-0_0
  6
CONTINUOUS
 62
    7
 10
-477.07113600000002
 20
773.37846349999995
 11
-477.07113600000002
 21
773.17451449999999
  0
LINE
  8
_0-0_0
  6
CONTINUOUS
 62
    7
 10
-477.07113600000002
 20
773.59361249999995
 11
-477.07113600000002
 21
773.37846349999995
  0
LINE
  8
_0-0_0
  6
CONTINUOUS
 62
    7
 10
-477.07113600000002
 20
773.8176115
 11
-477.07113600000002
 21
773.59361249999995
  0
LINE
  8
_0-0_0
  6
CONTINUOUS
 62
    7
 10
-477.07113600000002
 20
774.04795850000005
 11
-477.07113600000002
 21
773.8176115
  0
LINE
  8
_0-0_0
  6
CONTINUOUS
 62
    7
 10
-477.07113600000002
 20
774.28218049999998
 11
-477.07113600000002
 21
774.04795850000005
  0
LINE
  8
_0-0_0
  6
CONTINUOUS
 62
    7
 10
-477.07113600000002
 20
774.51771550000001
 11
-477.07113600000002
 21
774.28218049999998
  0
LINE
  8
_0-0_0
  6
CONTINUOUS
 62
    7
 10
-477.07113600000002
 20
774.75190750000002
 11
-477.07113600000002
 21
774.51771550000001
  0
LINE
  8
_0-0_0
  6
CONTINUOUS
 62
    7
 10
-477.07113600000002
 20
774.98228449999999
 11
-477.07113600000002
 21
774.75190750000002
  0
LINE
  8
_0-0_0
  6
CONTINUOUS
 62
    7
 10
-477.07113600000002
 20
775.20628350000004
 11
-477.07113600000002
 21
774.98228449999999
  0
LINE
  8
_0-0_0
  6
CONTINUOUS
 62
    7
 10
-477.07113600000002
 20
775.42143250000004
 11
-477.07113600000002
 21
775.20628350000004
  0
LINE
  8
_0-0_0
  6
CONTINUOUS
 62
    7
 10
-477.07113600000002
 20
775.47865249999995
 11
-477.07113600000002
 21
775.42143250000004
  0
LINE
  8
_0-0_0
  6
CONTINUOUS
 62
    7
 10
-462.07113600000002
 20
767.66200249999997
 11
-462.07113600000002
 21
768.70762649999995
  0
LINE
  8
_0-0_0
  6
CONTINUOUS
 62
    7
 10
-462.07113600000002
 20
769.9922335
 11
-462.07113600000002
 21
768.70762649999995
  0
LINE
  8
_0-0_0
  6
CONTINUOUS
 62
    7
 10
-462.07113600000002
 20
770.10762050000005
 11
-462.07113600000002
 21
769.9922335
  0
LINE
  8
_0-0_0
  6
CONTINUOUS
 62
    7
 10
-462.07113600000002
 20
767.66200249999997
 11
-462.07113600000002
 21
764.53788750000001
  0
LINE
  8
_0-0_0
  6
CONTINUOUS
 62
    7
 10
-462.07113600000002
 20
762.09223950000001
 11
-462.07113600000002
 21
762.20762649999995
  0
LINE
  8
_0-0_0
  6
CONTINUOUS
 62
    7
 10
-462.07113600000002
 20
763.4922335
 11
-462.07113600000002
 21
762.20762649999995
  0
LINE
  8
_0-0_0
  6
CONTINUOUS
 62
    7
 10
-462.07113600000002
 20
763.4922335
 11
-462.07113600000002
 21
764.53788750000001
  0
LINE
  8
_0-0_0
  6
CONTINUOUS
 62
    7
 10
-477.07113600000002
 20
759.0253755
 11
-477.07113600000002
 21
758.87864650000006
  0
LINE
  8
_0-0_0
  6
CONTINUOUS
 62
    7
 10
-477.07113600000002
 20
759.21592650000002
 11
-477.07113600000002
 21
759.0253755
  0
LINE
  8
_0-0_0
  6
CONTINUOUS
 62
    7
 10
-477.07113600000002
 20
759.39094550000004
 11
-477.07113600000002
 21
759.21592650000002
  0
LINE
  8
_0-0_0
  6
CONTINUOUS
 62
    7
 10
-477.07113600000002
 20
759.54850750000003
 11
-477.07113600000002
 21
759.39094550000004
  0
LINE
  8
_0-0_0
  6
CONTINUOUS
 62
    7
 10
-477.07113600000002
 20
759.68696550000004
 11
-477.07113600000002
 21
759.54850750000003
  0
LINE
  8
_0-0_0
  6
CONTINUOUS
 62
    7
 10
-477.07113600000002
 20
759.80470249999996
 11
-477.07113600000002
 21
759.68696550000004
  0
LINE
  8
_0-0_0
  6
CONTINUOUS
 62
    7
 10
-477.07113600000002
 20
759.90049750000003
 11
-477.07113600000002
 21
759.80470249999996
  0
LINE
  8
_0-0_0
  6
CONTINUOUS
 62
    7
 10
-477.07113600000002
 20
759.97328149999998
 11
-477.07113600000002
 21
759.90049750000003
  0
LINE
  8
_0-0_0
  6
CONTINUOUS
 62
    7
 10
-477.07113600000002
 20
760.02223149999998
 11
-477.07113600000002
 21
759.97328149999998
  0
LINE
  8
_0-0_0
  6
CONTINUOUS
 62
    7
 10
-477.07113600000002
 20
760.04994150000005
 11
-477.07113600000002
 21
760.02223149999998
  0
LINE
  8
_0-0_0
  6
CONTINUOUS
 62
    7
 10
-477.07113600000002
 20
760.04994150000005
 11
-477.07113600000002
 21
760.04685949999998
  0
LINE
  8
_0-0_0
  6
CONTINUOUS
 62
    7
 10
-477.07113600000002
 20
755.55302449999999
 11
-477.07113600000002
 21
755.54994150000005
  0
LINE
  8
_0-0_0
  6
CONTINUOUS
 62
    7
 10
-477.07113600000002
 20
755.5776515
 11
-477.07113600000002
 21
755.54994150000005
  0
LINE
  8
_0-0_0
  6
CONTINUOUS
 62
    7
 10
-477.07113600000002
 20
755.62660249999999
 11
-477.07113600000002
 21
755.5776515
  0
LINE
  8
_0-0_0
  6
CONTINUOUS
 62
    7
 10
-477.07113600000002
 20
755.69938650000006
 11
-477.07113600000002
 21
755.62660249999999
  0
LINE
  8
_0-0_0
  6
CONTINUOUS
 62
    7
 10
-477.07113600000002
 20
755.79518150000001
 11
-477.07113600000002
 21
755.69938650000006
  0
LINE
  8
_0-0_0
  6
CONTINUOUS
 62
    7
 10
-477.07113600000002
 20
755.82539350000002
 11
-477.07113600000002
 21
755.79518150000001
  0
LINE
  8
_0-0_0
  6
CONTINUOUS
 62
    7
 10
-477.07113600000002
 20
755.91291750000005
 11
-477.07113600000002
 21
755.82539350000002
  0
LINE
  8
_0-0_0
  6
CONTINUOUS
 62
    7
 10
-477.07113600000002
 20
756.05137649999995
 11
-477.07113600000002
 21
755.91291750000005
  0
LINE
  8
_0-0_0
  6
CONTINUOUS
 62
    7
 10
-477.07113600000002
 20
756.20896849999997
 11
-477.07113600000002
 21
756.05137649999995
  0
LINE
  8
_0-0_0
  6
CONTINUOUS
 62
    7
 10
-477.07113600000002
 20
756.38398749999999
 11
-477.07113600000002
 21
756.20896849999997
  0
LINE
  8
_0-0_0
  6
CONTINUOUS
 62
    7
 10
-477.07113600000002
 20
756.57450849999998
 11
-477.07113600000002
 21
756.38398749999999
  0
LINE
  8
_0-0_0
  6
CONTINUOUS
 62
    7
 10
-477.07113600000002
 20
756.77845750000006
 11
-477.07113600000002
 21
756.57450849999998
  0
LINE
  8
_0-0_0
  6
CONTINUOUS
 62
    7
 10
-477.07113600000002
 20
756.99360650000006
 11
-477.07113600000002
 21
756.77845750000006
  0
LINE
  8
_0-0_0
  6
CONTINUOUS
 62
    7
 10
-477.07113600000002
 20
757.21760549999999
 11
-477.07113600000002
 21
756.99360650000006
  0
LINE
  8
_0-0_0
  6
CONTINUOUS
 62
    7
 10
-477.07113600000002
 20
757.44795250000004
 11
-477.07113600000002
 21
757.21760549999999
  0
LINE
  8
_0-0_0
  6
CONTINUOUS
 62
    7
 10
-477.07113600000002
 20
757.68217449999997
 11
-477.07113600000002
 21
757.44795250000004
  0
LINE
  8
_0-0_0
  6
CONTINUOUS
 62
    7
 10
-477.07113600000002
 20
757.9177095
 11
-477.07113600000002
 21
757.68217449999997
  0
LINE
  8
_0-0_0
  6
CONTINUOUS
 62
    7
 10
-477.07113600000002
 20
758.15193150000005
 11
-477.07113600000002
 21
757.9177095
  0
LINE
  8
_0-0_0
  6
CONTINUOUS
 62
    7
 10
-477.07113600000002
 20
758.38227849999998
 11
-477.07113600000002
 21
758.15193150000005
  0
LINE
  8
_0-0_0
  6
CONTINUOUS
 62
    7
 10
-477.07113600000002
 20
758.60627750000003
 11
-477.07113600000002
 21
758.38227849999998
  0
LINE
  8
_0-0_0
  6
CONTINUOUS
 62
    7
 10
-477.07113600000002
 20
758.82142650000003
 11
-477.07113600000002
 21
758.60627750000003
  0
LINE
  8
_0-0_0
  6
CONTINUOUS
 62
    7
 10
-477.07113600000002
 20
758.87864650000006
 11
-477.07113600000002
 21
758.82142650000003
  0
LINE
  8
_0-0_0
  6
CONTINUOUS
 62
    7
 10
-366.07116700000006
 20
768.64994750000005
 11
-370.07116700000006
 21
768.64994750000005
  0
ARC
  8
_0-0_0
  6
CONTINUOUS
 62
    7
 10
-370.07116700000006
 20
770.89994750000005
 40
2.25
 50
90.000003000000007
 51
269.99999700000006
  0
LINE
  8
_0-0_0
  6
CONTINUOUS
 62
    7
 10
-370.07116700000006
 20
773.14994750000005
 11
-366.07116700000006
 21
773.14994750000005
  0
ARC
  8
_0-0_0
  6
CONTINUOUS
 62
    7
 10
-366.07116700000006
 20
770.89994750000005
 40
2.25
 50
269.99999700000001
 51
90.000002999999992
  0
ARC
  8
_0-0_0
  6
CONTINUOUS
 62
    7
 10
-426.07116700000006
 20
770.89994750000005
 40
2.25
 50
90.000003000000007
 51
269.99999700000006
  0
LINE
  8
_0-0_0
  6
CONTINUOUS
 62
    7
 10
-426.07116700000006
 20
773.14994750000005
 11
-422.07116700000006
 21
773.14994750000005
  0
ARC
  8
_0-0_0
  6
CONTINUOUS
 62
    7
 10
-422.07116700000006
 20
770.89994750000005
 40
2.25
 50
269.99999700000001
 51
90.000002999999992
  0
LINE
  8
_0-0_0
  6
CONTINUOUS
 62
    7
 10
-422.07116700000006
 20
768.64994750000005
 11
-426.07116700000006
 21
768.64994750000005
  0
LINE
  8
_0-0_0
  6
CONTINUOUS
 62
    7
 10
-477.07113600000002
 20
775.6253815
 11
-477.32113600000002
 21
775.64994750000005
  0
LINE
  8
_0-0_0
  6
CONTINUOUS
 62
    7
 10
-477.07113600000002
 20
775.42143250000004
 11
-477.32113600000002
 21
775.64994750000005
  0
LINE
  8
_0-0_0
  6
CONTINUOUS
 62
    7
 10
-477.07113600000002
 20
775.81590249999999
 11
-477.32113600000002
 21
775.86939949999999
  0
LINE
  8
_0-0_0
  6
CONTINUOUS
 62
    7
 10
-477.07113600000002
 20
775.6253815
 11
-477.32113600000002
 21
775.86939949999999
  0
LINE
  8
_0-0_0
  6
CONTINUOUS
 62
    7
 10
-477.07113600000002
 20
775.99092050000002
 11
-477.32113600000002
 21
776.07276950000005
  0
LINE
  8
_0-0_0
  6
CONTINUOUS
 62
    7
 10
-477.07113600000002
 20
775.81590249999999
 11
-477.32113600000002
 21
776.07276950000005
  0
LINE
  8
_0-0_0
  6
CONTINUOUS
 62
    7
 10
-477.07113600000002
 20
776.14851350000004
 11
-477.32113600000002
 21
776.25779750000004
  0
LINE
  8
_0-0_0
  6
CONTINUOUS
 62
    7
 10
-477.07113600000002
 20
775.99092050000002
 11
-477.32113600000002
 21
776.25779750000004
  0
LINE
  8
_0-0_0
  6
CONTINUOUS
 62
    7
 10
-477.07113600000002
 20
776.28694150000001
 11
-477.32113600000002
 21
776.42250049999996
  0
LINE
  8
_0-0_0
  6
CONTINUOUS
 62
    7
 10
-477.07113600000002
 20
776.14851350000004
 11
-477.32113600000002
 21
776.42250049999996
  0
LINE
  8
_0-0_0
  6
CONTINUOUS
 62
    7
 10
-477.07113600000002
 20
776.40470849999997
 11
-477.32113600000002
 21
776.56501749999995
  0
LINE
  8
_0-0_0
  6
CONTINUOUS
 62
    7
 10
-477.07113600000002
 20
776.28694150000001
 11
-477.32113600000002
 21
776.56501749999995
  0
LINE
  8
_0-0_0
  6
CONTINUOUS
 62
    7
 10
-477.07113600000002
 20
776.50050350000004
 11
-477.32113600000002
 21
776.68379149999998
  0
LINE
  8
_0-0_0
  6
CONTINUOUS
 62
    7
 10
-477.07113600000002
 20
776.40470849999997
 11
-477.32113600000002
 21
776.68379149999998
  0
LINE
  8
_0-0_0
  6
CONTINUOUS
 62
    7
 10
-477.07113600000002
 20
776.57328749999999
 11
-477.32113600000002
 21
776.77757250000002
  0
LINE
  8
_0-0_0
  6
CONTINUOUS
 62
    7
 10
-477.07113600000002
 20
776.50050350000004
 11
-477.32113600000002
 21
776.77757250000002
  0
LINE
  8
_0-0_0
  6
CONTINUOUS
 62
    7
 10
-477.07113600000002
 20
776.62223849999998
 11
-477.32113600000002
 21
776.84532149999995
  0
LINE
  8
_0-0_0
  6
CONTINUOUS
 62
    7
 10
-477.07113600000002
 20
776.57328749999999
 11
-477.32113600000002
 21
776.84532149999995
  0
LINE
  8
_0-0_0
  6
CONTINUOUS
 62
    7
 10
-477.07113600000002
 20
776.64686549999999
 11
-477.32113600000002
 21
776.88624549999997
  0
LINE
  8
_0-0_0
  6
CONTINUOUS
 62
    7
 10
-477.07113600000002
 20
776.62223849999998
 11
-477.32113600000002
 21
776.88624549999997
  0
LINE
  8
_0-0_0
  6
CONTINUOUS
 62
    7
 10
-477.07113600000002
 20
776.64686549999999
 11
-477.32113600000002
 21
776.89994750000005
  0
LINE
  8
_0-0_0
  6
CONTINUOUS
 62
    7
 10
-477.07113600000002
 20
772.1530305
 11
-477.32113600000002
 21
771.89994750000005
  0
LINE
  8
_0-0_0
  6
CONTINUOUS
 62
    7
 10
-477.07113600000002
 20
772.17765750000001
 11
-477.32113600000002
 21
771.91365050000002
  0
LINE
  8
_0-0_0
  6
CONTINUOUS
 62
    7
 10
-477.07113600000002
 20
772.1530305
 11
-477.32113600000002
 21
771.91365050000002
  0
LINE
  8
_0-0_0
  6
CONTINUOUS
 62
    7
 10
-477.07113600000002
 20
772.2266085
 11
-477.32113600000002
 21
771.95457450000004
  0
LINE
  8
_0-0_0
  6
CONTINUOUS
 62
    7
 10
-477.07113600000002
 20
772.17765750000001
 11
-477.32113600000002
 21
771.95457450000004
  0
LINE
  8
_0-0_0
  6
CONTINUOUS
 62
    7
 10
-477.07113600000002
 20
772.29939249999995
 11
-477.32113600000002
 21
772.02229250000005
  0
LINE
  8
_0-0_0
  6
CONTINUOUS
 62
    7
 10
-477.07113600000002
 20
772.2266085
 11
-477.32113600000002
 21
772.02229250000005
  0
LINE
  8
_0-0_0
  6
CONTINUOUS
 62
    7
 10
-477.07113600000002
 20
772.39518750000002
 11
-477.32113600000002
 21
772.11607349999997
  0
LINE
  8
_0-0_0
  6
CONTINUOUS
 62
    7
 10
-477.07113600000002
 20
772.29939249999995
 11
-477.32113600000002
 21
772.11607349999997
  0
LINE
  8
_0-0_0
  6
CONTINUOUS
 62
    7
 10
-477.07113600000002
 20
772.39518750000002
 11
-477.20111099999986
 21
772.31132449999996
  0
LINE
  8
_0-0_0
  6
CONTINUOUS
 62
    7
 10
-477.07113600000002
 20
772.51292450000005
 11
-477.32113600000002
 21
772.23487850000004
  0
LINE
  8
_0-0_0
  6
CONTINUOUS
 62
    7
 10
-477.20111099999986
 20
772.31132449999996
 11
-477.32113600000002
 21
772.23487850000004
  0
LINE
  8
_0-0_0
  6
CONTINUOUS
 62
    7
 10
-477.07113600000002
 20
772.65135150000003
 11
-477.32113600000002
 21
772.37739550000003
  0
LINE
  8
_0-0_0
  6
CONTINUOUS
 62
    7
 10
-477.07113600000002
 20
772.51292450000005
 11
-477.32113600000002
 21
772.37739550000003
  0
LINE
  8
_0-0_0
  6
CONTINUOUS
 62
    7
 10
-477.07113600000002
 20
772.80894450000005
 11
-477.32113600000002
 21
772.54206850000003
  0
LINE
  8
_0-0_0
  6
CONTINUOUS
 62
    7
 10
-477.07113600000002
 20
772.65135150000003
 11
-477.32113600000002
 21
772.54206850000003
  0
LINE
  8
_0-0_0
  6
CONTINUOUS
 62
    7
 10
-477.07113600000002
 20
772.98396249999996
 11
-477.32113600000002
 21
772.72712650000005
  0
LINE
  8
_0-0_0
  6
CONTINUOUS
 62
    7
 10
-477.07113600000002
 20
772.80894450000005
 11
-477.32113600000002
 21
772.72712650000005
  0
LINE
  8
_0-0_0
  6
CONTINUOUS
 62
    7
 10
-477.07113600000002
 20
773.17451449999999
 11
-477.32113600000002
 21
772.9304965
  0
LINE
  8
_0-0_0
  6
CONTINUOUS
 62
    7
 10
-477.07113600000002
 20
772.98396249999996
 11
-477.32113600000002
 21
772.9304965
  0
LINE
  8
_0-0_0
  6
CONTINUOUS
 62
    7
 10
-477.07113600000002
 20
773.37846349999995
 11
-477.32113600000002
 21
773.14994750000005
  0
LINE
  8
_0-0_0
  6
CONTINUOUS
 62
    7
 10
-477.07113600000002
 20
773.17451449999999
 11
-477.32113600000002
 21
773.14994750000005
  0
LINE
  8
_0-0_0
  6
CONTINUOUS
 62
    7
 10
-477.07113600000002
 20
773.59361249999995
 11
-477.32113600000002
 21
773.38310249999995
  0
LINE
  8
_0-0_0
  6
CONTINUOUS
 62
    7
 10
-477.07113600000002
 20
773.37846349999995
 11
-477.32113600000002
 21
773.38310249999995
  0
LINE
  8
_0-0_0
  6
CONTINUOUS
 62
    7
 10
-477.07113600000002
 20
773.8176115
 11
-477.32113600000002
 21
773.62739550000003
  0
LINE
  8
_0-0_0
  6
CONTINUOUS
 62
    7
 10
-477.07113600000002
 20
773.59361249999995
 11
-477.32113600000002
 21
773.62739550000003
  0
LINE
  8
_0-0_0
  6
CONTINUOUS
 62
    7
 10
-477.07113600000002
 20
774.04795850000005
 11
-477.32113600000002
 21
773.88017249999996
  0
LINE
  8
_0-0_0
  6
CONTINUOUS
 62
    7
 10
-477.07113600000002
 20
773.8176115
 11
-477.32113600000002
 21
773.88017249999996
  0
LINE
  8
_0-0_0
  6
CONTINUOUS
 62
    7
 10
-477.07113600000002
 20
774.28218049999998
 11
-477.32113600000002
 21
774.13862549999999
  0
LINE
  8
_0-0_0
  6
CONTINUOUS
 62
    7
 10
-477.07113600000002
 20
774.04795850000005
 11
-477.32113600000002
 21
774.13862549999999
  0
LINE
  8
_0-0_0
  6
CONTINUOUS
 62
    7
 10
-477.07113600000002
 20
774.51771550000001
 11
-477.32113600000002
 21
774.39994750000005
  0
LINE
  8
_0-0_0
  6
CONTINUOUS
 62
    7
 10
-477.07113600000002
 20
774.28218049999998
 11
-477.32113600000002
 21
774.39994750000005
  0
LINE
  8
_0-0_0
  6
CONTINUOUS
 62
    7
 10
-477.07113600000002
 20
774.75190750000002
 11
-477.32113600000002
 21
774.6612705
  0
LINE
  8
_0-0_0
  6
CONTINUOUS
 62
    7
 10
-477.07113600000002
 20
774.51771550000001
 11
-477.32113600000002
 21
774.6612705
  0
LINE
  8
_0-0_0
  6
CONTINUOUS
 62
    7
 10
-477.07113600000002
 20
774.98228449999999
 11
-477.32113600000002
 21
774.91972350000003
  0
LINE
  8
_0-0_0
  6
CONTINUOUS
 62
    7
 10
-477.07113600000002
 20
774.75190750000002
 11
-477.32113600000002
 21
774.91972350000003
  0
LINE
  8
_0-0_0
  6
CONTINUOUS
 62
    7
 10
-477.07113600000002
 20
775.20628350000004
 11
-477.32113600000002
 21
775.17250049999996
  0
LINE
  8
_0-0_0
  6
CONTINUOUS
 62
    7
 10
-477.07113600000002
 20
774.98228449999999
 11
-477.32113600000002
 21
775.17250049999996
  0
LINE
  8
_0-0_0
  6
CONTINUOUS
 62
    7
 10
-477.07113600000002
 20
775.42143250000004
 11
-477.32113600000002
 21
775.41679350000004
  0
LINE
  8
_0-0_0
  6
CONTINUOUS
 62
    7
 10
-477.07113600000002
 20
775.20628350000004
 11
-477.32113600000002
 21
775.41679350000004
  0
LINE
  8
_0-0_0
  6
CONTINUOUS
 62
    7
 10
-462.07113600000002
 20
769.9922335
 11
-471.77896099999998
 21
769.9922335
  0
LINE
  8
_0-0_0
  6
CONTINUOUS
 62
    7
 10
-471.77896099999998
 20
769.9922335
 11
-471.83343500000001
 21
770.06217949999996
  0
LINE
  8
_0-0_0
  6
CONTINUOUS
 62
    7
 10
-471.83343500000001
 20
770.06217949999996
 11
-471.88455199999999
 21
770.13099650000004
  0
LINE
  8
_0-0_0
  6
CONTINUOUS
 62
    7
 10
-471.88455199999999
 20
770.13099650000004
 11
-471.93218999999999
 21
770.19850150000002
  0
LINE
  8
_0-0_0
  6
CONTINUOUS
 62
    7
 10
-471.93218999999999
 20
770.19850150000002
 11
-471.97668399999998
 21
770.2650605
  0
LINE
  8
_0-0_0
  6
CONTINUOUS
 62
    7
 10
-471.97668399999998
 20
770.2650605
 11
-472.03143300000011
 21
770.35261549999996
  0
LINE
  8
_0-0_0
  6
CONTINUOUS
 62
    7
 10
-472.03143300000011
 20
770.35261549999996
 11
-472.08093299999996
 21
770.43870549999997
  0
LINE
  8
_0-0_0
  6
CONTINUOUS
 62
    7
 10
-472.08093299999996
 20
770.43870549999997
 11
-472.12539700000002
 21
770.52354449999996
  0
LINE
  8
_0-0_0
  6
CONTINUOUS
 62
    7
 10
-472.12539700000002
 20
770.52354449999996
 11
-472.1723629999999
 21
770.62385549999999
  0
LINE
  8
_0-0_0
  6
CONTINUOUS
 62
    7
 10
-472.1723629999999
 20
770.62385549999999
 11
-472.21255500000007
 21
770.72279349999997
  0
LINE
  8
_0-0_0
  6
CONTINUOUS
 62
    7
 10
-472.21255500000007
 20
770.72279349999997
 11
-472.246216
 21
770.82054149999999
  0
LINE
  8
_0-0_0
  6
CONTINUOUS
 62
    7
 10
-472.246216
 20
770.82054149999999
 11
-472.27349800000002
 21
770.91734350000002
  0
LINE
  8
_0-0_0
  6
CONTINUOUS
 62
    7
 10
-472.27349800000002
 20
770.91734350000002
 11
-472.29455600000006
 21
771.01338150000004
  0
LINE
  8
_0-0_0
  6
CONTINUOUS
 62
    7
 10
-472.29455600000006
 20
771.01338150000004
 11
-472.31048599999986
 21
771.11726350000004
  0
LINE
  8
_0-0_0
  6
CONTINUOUS
 62
    7
 10
-472.31048599999986
 20
771.11726350000004
 11
-472.31924400000003
 21
771.22068750000005
  0
LINE
  8
_0-0_0
  6
CONTINUOUS
 62
    7
 10
-472.31924400000003
 20
771.22068750000005
 11
-472.32089199999996
 21
771.32392849999997
  0
LINE
  8
_0-0_0
  6
CONTINUOUS
 62
    7
 10
-472.32089199999996
 20
771.32392849999997
 11
-472.31543000000011
 21
771.42720050000003
  0
LINE
  8
_0-0_0
  6
CONTINUOUS
 62
    7
 10
-472.31543000000011
 20
771.42720050000003
 11
-472.30279500000006
 21
771.53080750000004
  0
LINE
  8
_0-0_0
  6
CONTINUOUS
 62
    7
 10
-472.30279500000006
 20
771.53080750000004
 11
-472.28298900000004
 21
771.63493349999999
  0
LINE
  8
_0-0_0
  6
CONTINUOUS
 62
    7
 10
-472.28298900000004
 20
771.63493349999999
 11
-472.25585899999987
 21
771.73991350000006
  0
LINE
  8
_0-0_0
  6
CONTINUOUS
 62
    7
 10
-472.25585899999987
 20
771.73991350000006
 11
-472.22119100000009
 21
771.84593150000001
  0
LINE
  8
_0-0_0
  6
CONTINUOUS
 62
    7
 10
-472.22119100000009
 20
771.84593150000001
 11
-472.17886300000009
 21
771.95332350000001
  0
LINE
  8
_0-0_0
  6
CONTINUOUS
 62
    7
 10
-472.17886300000009
 20
771.95332350000001
 11
-472.12853999999993
 21
772.06233250000002
  0
LINE
  8
_0-0_0
  6
CONTINUOUS
 62
    7
 10
-472.12853999999993
 20
772.06233250000002
 11
-472.08282499999996
 21
772.14997849999997
  0
LINE
  8
_0-0_0
  6
CONTINUOUS
 62
    7
 10
-462.07113600000002
 20
768.70762649999995
 11
-471.77896099999998
 21
768.70762649999995
  0
LINE
  8
_0-0_0
  6
CONTINUOUS
 62
    7
 10
-471.77896099999998
 20
768.70762649999995
 11
-471.87329099999988
 21
768.46101350000004
  0
LINE
  8
_0-0_0
  6
CONTINUOUS
 62
    7
 10
-471.87329099999988
 20
768.46101350000004
 11
-471.95724500000006
 21
768.22105350000004
  0
LINE
  8
_0-0_0
  6
CONTINUOUS
 62
    7
 10
-471.95724500000006
 20
768.22105350000004
 11
-472.03143300000011
 21
767.98692349999999
  0
LINE
  8
_0-0_0
  6
CONTINUOUS
 62
    7
 10
-472.03143300000011
 20
767.98692349999999
 11
-472.09628299999986
 21
767.75788850000004
  0
LINE
  8
_0-0_0
  6
CONTINUOUS
 62
    7
 10
-472.09628299999986
 20
767.75788850000004
 11
-472.15234400000008
 21
767.53321849999998
  0
LINE
  8
_0-0_0
  6
CONTINUOUS
 62
    7
 10
-472.15234400000008
 20
767.53321849999998
 11
-472.19988999999987
 21
767.31224050000003
  0
LINE
  8
_0-0_0
  6
CONTINUOUS
 62
    7
 10
-472.19988999999987
 20
767.31224050000003
 11
-472.23931900000002
 21
767.0943145
  0
LINE
  8
_0-0_0
  6
CONTINUOUS
 62
    7
 10
-472.23931900000002
 20
767.0943145
 11
-472.27081300000009
 21
766.87886049999997
  0
LINE
  8
_0-0_0
  6
CONTINUOUS
 62
    7
 10
-472.27081300000009
 20
766.87886049999997
 11
-472.29455600000006
 21
766.66532849999999
  0
LINE
  8
_0-0_0
  6
CONTINUOUS
 62
    7
 10
-472.29455600000006
 20
766.66532849999999
 11
-472.31048599999986
 21
766.45762649999995
  0
LINE
  8
_0-0_0
  6
CONTINUOUS
 62
    7
 10
-472.31048599999986
 20
766.45762649999995
 11
-472.31924400000003
 21
766.25077850000002
  0
LINE
  8
_0-0_0
  6
CONTINUOUS
 62
    7
 10
-472.31924400000003
 20
766.25077850000002
 11
-472.32089199999996
 21
766.04429649999997
  0
LINE
  8
_0-0_0
  6
CONTINUOUS
 62
    7
 10
-472.32089199999996
 20
766.04429649999997
 11
-472.31543000000011
 21
765.83772250000004
  0
LINE
  8
_0-0_0
  6
CONTINUOUS
 62
    7
 10
-472.31543000000011
 20
765.83772250000004
 11
-472.30279500000006
 21
765.63053850000006
  0
LINE
  8
_0-0_0
  6
CONTINUOUS
 62
    7
 10
-472.30279500000006
 20
765.63053850000006
 11
-472.28298900000004
 21
765.4222565
  0
LINE
  8
_0-0_0
  6
CONTINUOUS
 62
    7
 10
-472.28298900000004
 20
765.4222565
 11
-472.25585899999987
 21
765.21232550000002
  0
LINE
  8
_0-0_0
  6
CONTINUOUS
 62
    7
 10
-472.25585899999987
 20
765.21232550000002
 11
-472.22119100000009
 21
765.00025949999997
  0
LINE
  8
_0-0_0
  6
CONTINUOUS
 62
    7
 10
-472.22119100000009
 20
765.00025949999997
 11
-472.17886300000009
 21
764.78550749999999
  0
LINE
  8
_0-0_0
  6
CONTINUOUS
 62
    7
 10
-472.17886300000009
 20
764.78550749999999
 11
-472.12853999999993
 21
764.56748949999997
  0
LINE
  8
_0-0_0
  6
CONTINUOUS
 62
    7
 10
-472.12853999999993
 20
764.56748949999997
 11
-472.07428000000004
 21
764.36122150000006
  0
LINE
  8
_0-0_0
  6
CONTINUOUS
 62
    7
 10
-472.07428000000004
 20
764.36122150000006
 11
-472.01257299999997
 21
764.15110749999997
  0
LINE
  8
_0-0_0
  6
CONTINUOUS
 62
    7
 10
-472.01257299999997
 20
764.15110749999997
 11
-471.94305399999985
 21
763.93663049999998
  0
LINE
  8
_0-0_0
  6
CONTINUOUS
 62
    7
 10
-471.94305399999985
 20
763.93663049999998
 11
-471.86535600000002
 21
763.71723950000001
  0
LINE
  8
_0-0_0
  6
CONTINUOUS
 62
    7
 10
-471.86535600000002
 20
763.71723950000001
 11
-471.77896099999998
 21
763.4922335
  0
LINE
  8
_0-0_0
  6
CONTINUOUS
 62
    7
 10
-462.07113600000002
 20
763.4922335
 11
-471.77896099999998
 21
763.4922335
  0
ARC
  8
_0-0_0
  6
CONTINUOUS
 62
    7
 10
-466.90741000000003
 20
769.34992950000003
 40
4.9136889999999998
 50
172.48898299999999
 51
187.51101699999998
  0
LINE
  8
_0-0_0
  6
CONTINUOUS
 62
    7
 10
-462.07113600000002
 20
762.20762649999995
 11
-471.77896099999998
 21
762.20762649999995
  0
LINE
  8
_0-0_0
  6
CONTINUOUS
 62
    7
 10
-471.77896099999998
 20
759.59992950000003
 11
-471.83343500000001
 21
759.66987549999999
  0
LINE
  8
_0-0_0
  6
CONTINUOUS
 62
    7
 10
-471.83343500000001
 20
759.66987549999999
 11
-471.88455199999999
 21
759.73869349999995
  0
LINE
  8
_0-0_0
  6
CONTINUOUS
 62
    7
 10
-471.88455199999999
 20
759.73869349999995
 11
-471.93218999999999
 21
759.80619750000005
  0
LINE
  8
_0-0_0
  6
CONTINUOUS
 62
    7
 10
-471.93218999999999
 20
759.80619750000005
 11
-471.97668399999998
 21
759.87275650000004
  0
LINE
  8
_0-0_0
  6
CONTINUOUS
 62
    7
 10
-471.97668399999998
 20
759.87275650000004
 11
-472.03143300000011
 21
759.96031149999999
  0
LINE
  8
_0-0_0
  6
CONTINUOUS
 62
    7
 10
-472.03143300000011
 20
759.96031149999999
 11
-472.08093299999996
 21
760.0464015
  0
LINE
  8
_0-0_0
  6
CONTINUOUS
 62
    7
 10
-472.08093299999996
 20
760.0464015
 11
-472.12539700000002
 21
760.13124049999999
  0
LINE
  8
_0-0_0
  6
CONTINUOUS
 62
    7
 10
-472.12539700000002
 20
760.13124049999999
 11
-472.1723629999999
 21
760.23155150000002
  0
LINE
  8
_0-0_0
  6
CONTINUOUS
 62
    7
 10
-472.1723629999999
 20
760.23155150000002
 11
-472.21255500000007
 21
760.3304895
  0
LINE
  8
_0-0_0
  6
CONTINUOUS
 62
    7
 10
-472.21255500000007
 20
760.3304895
 11
-472.246216
 21
760.42823750000002
  0
LINE
  8
_0-0_0
  6
CONTINUOUS
 62
    7
 10
-472.246216
 20
760.42823750000002
 11
-472.27349800000002
 21
760.52503950000005
  0
LINE
  8
_0-0_0
  6
CONTINUOUS
 62
    7
 10
-472.27349800000002
 20
760.52503950000005
 11
-472.29455600000006
 21
760.62107849999995
  0
LINE
  8
_0-0_0
  6
CONTINUOUS
 62
    7
 10
-472.29455600000006
 20
760.62107849999995
 11
-472.31048599999986
 21
760.72496049999995
  0
LINE
  8
_0-0_0
  6
CONTINUOUS
 62
    7
 10
-472.31048599999986
 20
760.72496049999995
 11
-472.31924400000003
 21
760.82838449999997
  0
LINE
  8
_0-0_0
  6
CONTINUOUS
 62
    7
 10
-472.31924400000003
 20
760.82838449999997
 11
-472.32089199999996
 21
760.93159449999996
  0
LINE
  8
_0-0_0
  6
CONTINUOUS
 62
    7
 10
-472.32089199999996
 20
760.93159449999996
 11
-472.31543000000011
 21
761.03489650000006
  0
LINE
  8
_0-0_0
  6
CONTINUOUS
 62
    7
 10
-472.31543000000011
 20
761.03489650000006
 11
-472.30279500000006
 21
761.13850349999996
  0
LINE
  8
_0-0_0
  6
CONTINUOUS
 62
    7
 10
-472.30279500000006
 20
761.13850349999996
 11
-472.28298900000004
 21
761.24262950000002
  0
LINE
  8
_0-0_0
  6
CONTINUOUS
 62
    7
 10
-472.28298900000004
 20
761.24262950000002
 11
-472.25585899999987
 21
761.34761049999997
  0
LINE
  8
_0-0_0
  6
CONTINUOUS
 62
    7
 10
-472.25585899999987
 20
761.34761049999997
 11
-472.22119100000009
 21
761.45362850000004
  0
LINE
  8
_0-0_0
  6
CONTINUOUS
 62
    7
 10
-472.22119100000009
 20
761.45362850000004
 11
-472.17886300000009
 21
761.56101950000004
  0
LINE
  8
_0-0_0
  6
CONTINUOUS
 62
    7
 10
-472.17886300000009
 20
761.56101950000004
 11
-472.12853999999993
 21
761.66999850000002
  0
LINE
  8
_0-0_0
  6
CONTINUOUS
 62
    7
 10
-472.12853999999993
 20
761.66999850000002
 11
-472.07428000000004
 21
761.77314750000005
  0
LINE
  8
_0-0_0
  6
CONTINUOUS
 62
    7
 10
-472.07428000000004
 20
761.77314750000005
 11
-472.01257299999997
 21
761.8782195
  0
LINE
  8
_0-0_0
  6
CONTINUOUS
 62
    7
 10
-472.01257299999997
 20
761.8782195
 11
-471.94305399999985
 21
761.98542750000001
  0
LINE
  8
_0-0_0
  6
CONTINUOUS
 62
    7
 10
-471.94305399999985
 20
761.98542750000001
 11
-471.86535600000002
 21
762.09513849999996
  0
LINE
  8
_0-0_0
  6
CONTINUOUS
 62
    7
 10
-471.86535600000002
 20
762.09513849999996
 11
-471.77896099999998
 21
762.20762649999995
  0
LINE
  8
_0-0_0
  6
CONTINUOUS
 62
    7
 10
-462.07113600000002
 20
759.59992950000003
 11
-471.77896099999998
 21
759.59992950000003
  0
ARC
  8
_0-0_0
  6
CONTINUOUS
 62
    7
 10
-466.89724699999988
 20
762.84904449999999
 40
4.9238749999999998
 50
172.49424200000001
 51
181.535968
  0
ARC
  8
_0-0_0
  6
CONTINUOUS
 62
    7
 10
-466.85922200000005
 20
762.85401950000005
 40
4.9620009999999999
 50
181.58130700000004
 51
187.48478900000003
  0
LINE
  8
_0-0_0
  6
CONTINUOUS
 62
    7
 10
-471.82113600000002
 20
759.59992950000003
 11
-471.77896099999998
 21
759.59992950000003
  0
LINE
  8
_0-0_0
  6
CONTINUOUS
 62
    7
 10
-477.07113600000002
 20
759.0253755
 11
-477.32113600000002
 21
759.04994150000005
  0
LINE
  8
_0-0_0
  6
CONTINUOUS
 62
    7
 10
-477.07113600000002
 20
758.82142650000003
 11
-477.32113600000002
 21
759.04994150000005
  0
LINE
  8
_0-0_0
  6
CONTINUOUS
 62
    7
 10
-477.07113600000002
 20
759.21592650000002
 11
-477.32113600000002
 21
759.26939349999998
  0
LINE
  8
_0-0_0
  6
CONTINUOUS
 62
    7
 10
-477.07113600000002
 20
759.0253755
 11
-477.32113600000002
 21
759.26939349999998
  0
LINE
  8
_0-0_0
  6
CONTINUOUS
 62
    7
 10
-477.07113600000002
 20
759.39094550000004
 11
-477.32113600000002
 21
759.47276250000004
  0
LINE
  8
_0-0_0
  6
CONTINUOUS
 62
    7
 10
-477.07113600000002
 20
759.21592650000002
 11
-477.32113600000002
 21
759.47276250000004
  0
LINE
  8
_0-0_0
  6
CONTINUOUS
 62
    7
 10
-477.07113600000002
 20
759.54850750000003
 11
-477.32113600000002
 21
759.65779150000003
  0
LINE
  8
_0-0_0
  6
CONTINUOUS
 62
    7
 10
-477.07113600000002
 20
759.39094550000004
 11
-477.32113600000002
 21
759.65779150000003
  0
LINE
  8
_0-0_0
  6
CONTINUOUS
 62
    7
 10
-477.07113600000002
 20
759.68696550000004
 11
-477.32113600000002
 21
759.82249449999995
  0
LINE
  8
_0-0_0
  6
CONTINUOUS
 62
    7
 10
-477.07113600000002
 20
759.54850750000003
 11
-477.32113600000002
 21
759.82249449999995
  0
LINE
  8
_0-0_0
  6
CONTINUOUS
 62
    7
 10
-477.07113600000002
 20
759.80470249999996
 11
-477.32113600000002
 21
759.96501150000006
  0
LINE
  8
_0-0_0
  6
CONTINUOUS
 62
    7
 10
-477.07113600000002
 20
759.68696550000004
 11
-477.32113600000002
 21
759.96501150000006
  0
LINE
  8
_0-0_0
  6
CONTINUOUS
 62
    7
 10
-477.07113600000002
 20
759.90049750000003
 11
-477.32113600000002
 21
760.08381650000001
  0
LINE
  8
_0-0_0
  6
CONTINUOUS
 62
    7
 10
-477.07113600000002
 20
759.80470249999996
 11
-477.32113600000002
 21
760.08381650000001
  0
LINE
  8
_0-0_0
  6
CONTINUOUS
 62
    7
 10
-477.07113600000002
 20
759.97328149999998
 11
-477.32113600000002
 21
760.17759650000005
  0
LINE
  8
_0-0_0
  6
CONTINUOUS
 62
    7
 10
-477.07113600000002
 20
759.90049750000003
 11
-477.32113600000002
 21
760.17759650000005
  0
LINE
  8
_0-0_0
  6
CONTINUOUS
 62
    7
 10
-477.07113600000002
 20
760.02223149999998
 11
-477.32113600000002
 21
760.24531549999995
  0
LINE
  8
_0-0_0
  6
CONTINUOUS
 62
    7
 10
-477.07113600000002
 20
759.97328149999998
 11
-477.32113600000002
 21
760.24531549999995
  0
LINE
  8
_0-0_0
  6
CONTINUOUS
 62
    7
 10
-477.07113600000002
 20
760.04685949999998
 11
-477.32113600000002
 21
760.28623949999997
  0
LINE
  8
_0-0_0
  6
CONTINUOUS
 62
    7
 10
-477.07113600000002
 20
760.02223149999998
 11
-477.32113600000002
 21
760.28623949999997
  0
LINE
  8
_0-0_0
  6
CONTINUOUS
 62
    7
 10
-477.07113600000002
 20
760.04685949999998
 11
-477.32113600000002
 21
760.29994150000005
  0
LINE
  8
_0-0_0
  6
CONTINUOUS
 62
    7
 10
-477.07113600000002
 20
755.55302449999999
 11
-477.32113600000002
 21
755.29994150000005
  0
LINE
  8
_0-0_0
  6
CONTINUOUS
 62
    7
 10
-477.07113600000002
 20
755.5776515
 11
-477.32113600000002
 21
755.31364450000001
  0
LINE
  8
_0-0_0
  6
CONTINUOUS
 62
    7
 10
-477.07113600000002
 20
755.55302449999999
 11
-477.32113600000002
 21
755.31364450000001
  0
LINE
  8
_0-0_0
  6
CONTINUOUS
 62
    7
 10
-477.07113600000002
 20
755.62660249999999
 11
-477.32113600000002
 21
755.35456850000003
  0
LINE
  8
_0-0_0
  6
CONTINUOUS
 62
    7
 10
-477.07113600000002
 20
755.5776515
 11
-477.32113600000002
 21
755.35456850000003
  0
LINE
  8
_0-0_0
  6
CONTINUOUS
 62
    7
 10
-477.07113600000002
 20
755.69938650000006
 11
-477.32113600000002
 21
755.42228650000004
  0
LINE
  8
_0-0_0
  6
CONTINUOUS
 62
    7
 10
-477.07113600000002
 20
755.62660249999999
 11
-477.32113600000002
 21
755.42228650000004
  0
LINE
  8
_0-0_0
  6
CONTINUOUS
 62
    7
 10
-477.07113600000002
 20
755.79518150000001
 11
-477.32113600000002
 21
755.51606749999996
  0
LINE
  8
_0-0_0
  6
CONTINUOUS
 62
    7
 10
-477.07113600000002
 20
755.69938650000006
 11
-477.32113600000002
 21
755.51606749999996
  0
LINE
  8
_0-0_0
  6
CONTINUOUS
 62
    7
 10
-477.07113600000002
 20
755.79518150000001
 11
-477.20111099999986
 21
755.71131849999995
  0
LINE
  8
_0-0_0
  6
CONTINUOUS
 62
    7
 10
-477.07113600000002
 20
755.91291750000005
 11
-477.32113600000002
 21
755.63487250000003
  0
LINE
  8
_0-0_0
  6
CONTINUOUS
 62
    7
 10
-477.20111099999986
 20
755.71131849999995
 11
-477.32113600000002
 21
755.63487250000003
  0
LINE
  8
_0-0_0
  6
CONTINUOUS
 62
    7
 10
-477.07113600000002
 20
756.05137649999995
 11
-477.32113600000002
 21
755.77738950000003
  0
LINE
  8
_0-0_0
  6
CONTINUOUS
 62
    7
 10
-477.07113600000002
 20
755.91291750000005
 11
-477.32113600000002
 21
755.77738950000003
  0
LINE
  8
_0-0_0
  6
CONTINUOUS
 62
    7
 10
-477.07113600000002
 20
756.20896849999997
 11
-477.32113600000002
 21
755.94209250000006
  0
LINE
  8
_0-0_0
  6
CONTINUOUS
 62
    7
 10
-477.07113600000002
 20
756.05137649999995
 11
-477.32113600000002
 21
755.94209250000006
  0
LINE
  8
_0-0_0
  6
CONTINUOUS
 62
    7
 10
-477.07113600000002
 20
756.38398749999999
 11
-477.32113600000002
 21
756.12712050000005
  0
LINE
  8
_0-0_0
  6
CONTINUOUS
 62
    7
 10
-477.07113600000002
 20
756.20896849999997
 11
-477.32113600000002
 21
756.12712050000005
  0
LINE
  8
_0-0_0
  6
CONTINUOUS
 62
    7
 10
-477.07113600000002
 20
756.57450849999998
 11
-477.32113600000002
 21
756.3304895
  0
LINE
  8
_0-0_0
  6
CONTINUOUS
 62
    7
 10
-477.07113600000002
 20
756.38398749999999
 11
-477.32113600000002
 21
756.3304895
  0
LINE
  8
_0-0_0
  6
CONTINUOUS
 62
    7
 10
-477.07113600000002
 20
756.77845750000006
 11
-477.32113600000002
 21
756.54994150000005
  0
LINE
  8
_0-0_0
  6
CONTINUOUS
 62
    7
 10
-477.07113600000002
 20
756.57450849999998
 11
-477.32113600000002
 21
756.54994150000005
  0
LINE
  8
_0-0_0
  6
CONTINUOUS
 62
    7
 10
-477.07113600000002
 20
756.99360650000006
 11
-477.32113600000002
 21
756.78309650000006
  0
LINE
  8
_0-0_0
  6
CONTINUOUS
 62
    7
 10
-477.07113600000002
 20
756.77845750000006
 11
-477.32113600000002
 21
756.78309650000006
  0
LINE
  8
_0-0_0
  6
CONTINUOUS
 62
    7
 10
-477.07113600000002
 20
757.21760549999999
 11
-477.32113600000002
 21
757.02738950000003
  0
LINE
  8
_0-0_0
  6
CONTINUOUS
 62
    7
 10
-477.07113600000002
 20
756.99360650000006
 11
-477.32113600000002
 21
757.02738950000003
  0
LINE
  8
_0-0_0
  6
CONTINUOUS
 62
    7
 10
-477.07113600000002
 20
757.44795250000004
 11
-477.32113600000002
 21
757.28016649999995
  0
LINE
  8
_0-0_0
  6
CONTINUOUS
 62
    7
 10
-477.07113600000002
 20
757.21760549999999
 11
-477.32113600000002
 21
757.28016649999995
  0
LINE
  8
_0-0_0
  6
CONTINUOUS
 62
    7
 10
-477.07113600000002
 20
757.68217449999997
 11
-477.32113600000002
 21
757.53861949999998
  0
LINE
  8
_0-0_0
  6
CONTINUOUS
 62
    7
 10
-477.07113600000002
 20
757.44795250000004
 11
-477.32113600000002
 21
757.53861949999998
  0
LINE
  8
_0-0_0
  6
CONTINUOUS
 62
    7
 10
-477.07113600000002
 20
757.9177095
 11
-477.32113600000002
 21
757.79994150000005
  0
LINE
  8
_0-0_0
  6
CONTINUOUS
 62
    7
 10
-477.07113600000002
 20
757.68217449999997
 11
-477.32113600000002
 21
757.79994150000005
  0
LINE
  8
_0-0_0
  6
CONTINUOUS
 62
    7
 10
-477.07113600000002
 20
758.15193150000005
 11
-477.32113600000002
 21
758.0612635
  0
LINE
  8
_0-0_0
  6
CONTINUOUS
 62
    7
 10
-477.07113600000002
 20
757.9177095
 11
-477.32113600000002
 21
758.0612635
  0
LINE
  8
_0-0_0
  6
CONTINUOUS
 62
    7
 10
-477.07113600000002
 20
758.38227849999998
 11
-477.32113600000002
 21
758.31971750000002
  0
LINE
  8
_0-0_0
  6
CONTINUOUS
 62
    7
 10
-477.07113600000002
 20
758.15193150000005
 11
-477.32113600000002
 21
758.31971750000002
  0
LINE
  8
_0-0_0
  6
CONTINUOUS
 62
    7
 10
-477.07113600000002
 20
758.60627750000003
 11
-477.32113600000002
 21
758.57249449999995
  0
LINE
  8
_0-0_0
  6
CONTINUOUS
 62
    7
 10
-477.07113600000002
 20
758.38227849999998
 11
-477.32113600000002
 21
758.57249449999995
  0
LINE
  8
_0-0_0
  6
CONTINUOUS
 62
    7
 10
-477.07113600000002
 20
758.82142650000003
 11
-477.32113600000002
 21
758.81678750000003
  0
LINE
  8
_0-0_0
  6
CONTINUOUS
 62
    7
 10
-477.07113600000002
 20
758.60627750000003
 11
-477.32113600000002
 21
758.81678750000003
  0
LINE
  8
_0-0_0
  6
CONTINUOUS
 62
    7
 10
-486.82113600000002
 20
775.6253815
 11
-486.57113600000002
 21
775.64994750000005
  0
LINE
  8
_0-0_0
  6
CONTINUOUS
 62
    7
 10
-486.57113600000002
 20
775.64994750000005
 11
-477.32113600000002
 21
775.64994750000005
  0
LINE
  8
_0-0_0
  6
CONTINUOUS
 62
    7
 10
-486.82113600000002
 20
775.42143250000004
 11
-486.57113600000002
 21
775.64994750000005
  0
LINE
  8
_0-0_0
  6
CONTINUOUS
 62
    7
 10
-486.82113600000002
 20
775.42143250000004
 11
-477.07113600000002
 21
775.42143250000004
  0
LINE
  8
_0-0_0
  6
CONTINUOUS
 62
    7
 10
-486.82113600000002
 20
775.81590249999999
 11
-486.57113600000002
 21
775.86939949999999
  0
LINE
  8
_0-0_0
  6
CONTINUOUS
 62
    7
 10
-486.57113600000002
 20
775.86939949999999
 11
-477.32113600000002
 21
775.86939949999999
  0
LINE
  8
_0-0_0
  6
CONTINUOUS
 62
    7
 10
-486.82113600000002
 20
775.6253815
 11
-486.57113600000002
 21
775.86939949999999
  0
LINE
  8
_0-0_0
  6
CONTINUOUS
 62
    7
 10
-486.82113600000002
 20
775.99092050000002
 11
-486.57113600000002
 21
776.07276950000005
  0
LINE
  8
_0-0_0
  6
CONTINUOUS
 62
    7
 10
-486.57113600000002
 20
776.07276950000005
 11
-477.32113600000002
 21
776.07276950000005
  0
LINE
  8
_0-0_0
  6
CONTINUOUS
 62
    7
 10
-486.82113600000002
 20
775.81590249999999
 11
-486.57113600000002
 21
776.07276950000005
  0
LINE
  8
_0-0_0
  6
CONTINUOUS
 62
    7
 10
-486.82113600000002
 20
776.14851350000004
 11
-486.57113600000002
 21
776.25779750000004
  0
LINE
  8
_0-0_0
  6
CONTINUOUS
 62
    7
 10
-486.57113600000002
 20
776.25779750000004
 11
-477.32113600000002
 21
776.25779750000004
  0
LINE
  8
_0-0_0
  6
CONTINUOUS
 62
    7
 10
-486.82113600000002
 20
775.99092050000002
 11
-486.57113600000002
 21
776.25779750000004
  0
LINE
  8
_0-0_0
  6
CONTINUOUS
 62
    7
 10
-486.82113600000002
 20
776.28694150000001
 11
-486.57113600000002
 21
776.42250049999996
  0
LINE
  8
_0-0_0
  6
CONTINUOUS
 62
    7
 10
-486.57113600000002
 20
776.42250049999996
 11
-477.32113600000002
 21
776.42250049999996
  0
LINE
  8
_0-0_0
  6
CONTINUOUS
 62
    7
 10
-486.82113600000002
 20
776.14851350000004
 11
-486.57113600000002
 21
776.42250049999996
  0
LINE
  8
_0-0_0
  6
CONTINUOUS
 62
    7
 10
-486.82113600000002
 20
776.40470849999997
 11
-486.57113600000002
 21
776.56501749999995
  0
LINE
  8
_0-0_0
  6
CONTINUOUS
 62
    7
 10
-486.57113600000002
 20
776.56501749999995
 11
-477.32113600000002
 21
776.56501749999995
  0
LINE
  8
_0-0_0
  6
CONTINUOUS
 62
    7
 10
-486.82113600000002
 20
776.28694150000001
 11
-486.57113600000002
 21
776.56501749999995
  0
LINE
  8
_0-0_0
  6
CONTINUOUS
 62
    7
 10
-486.82113600000002
 20
776.50050350000004
 11
-486.57113600000002
 21
776.68379149999998
  0
LINE
  8
_0-0_0
  6
CONTINUOUS
 62
    7
 10
-486.57113600000002
 20
776.68379149999998
 11
-477.32113600000002
 21
776.68379149999998
  0
LINE
  8
_0-0_0
  6
CONTINUOUS
 62
    7
 10
-486.82113600000002
 20
776.40470849999997
 11
-486.57113600000002
 21
776.68379149999998
  0
LINE
  8
_0-0_0
  6
CONTINUOUS
 62
    7
 10
-486.82113600000002
 20
776.57328749999999
 11
-486.57113600000002
 21
776.77757250000002
  0
LINE
  8
_0-0_0
  6
CONTINUOUS
 62
    7
 10
-486.57113600000002
 20
776.77757250000002
 11
-477.32113600000002
 21
776.77757250000002
  0
LINE
  8
_0-0_0
  6
CONTINUOUS
 62
    7
 10
-486.82113600000002
 20
776.50050350000004
 11
-486.57113600000002
 21
776.77757250000002
  0
LINE
  8
_0-0_0
  6
CONTINUOUS
 62
    7
 10
-486.82113600000002
 20
776.62223849999998
 11
-486.57113600000002
 21
776.84532149999995
  0
LINE
  8
_0-0_0
  6
CONTINUOUS
 62
    7
 10
-486.57113600000002
 20
776.84532149999995
 11
-477.32113600000002
 21
776.84532149999995
  0
LINE
  8
_0-0_0
  6
CONTINUOUS
 62
    7
 10
-486.82113600000002
 20
776.57328749999999
 11
-486.57113600000002
 21
776.84532149999995
  0
LINE
  8
_0-0_0
  6
CONTINUOUS
 62
    7
 10
-486.82113600000002
 20
776.64686549999999
 11
-486.57113600000002
 21
776.88624549999997
  0
LINE
  8
_0-0_0
  6
CONTINUOUS
 62
    7
 10
-486.57113600000002
 20
776.88624549999997
 11
-477.32113600000002
 21
776.88624549999997
  0
LINE
  8
_0-0_0
  6
CONTINUOUS
 62
    7
 10
-486.82113600000002
 20
776.62223849999998
 11
-486.57113600000002
 21
776.88624549999997
  0
LINE
  8
_0-0_0
  6
CONTINUOUS
 62
    7
 10
-486.57113600000002
 20
776.89994750000005
 11
-477.32113600000002
 21
776.89994750000005
  0
LINE
  8
_0-0_0
  6
CONTINUOUS
 62
    7
 10
-486.82113600000002
 20
776.64686549999999
 11
-486.57113600000002
 21
776.89994750000005
  0
LINE
  8
_0-0_0
  6
CONTINUOUS
 62
    7
 10
-486.82113600000002
 20
772.1530305
 11
-486.57113600000002
 21
771.89994750000005
  0
LINE
  8
_0-0_0
  6
CONTINUOUS
 62
    7
 10
-486.57113600000002
 20
771.89994750000005
 11
-477.32113600000002
 21
771.89994750000005
  0
LINE
  8
_0-0_0
  6
CONTINUOUS
 62
    7
 10
-486.82113600000002
 20
772.17765750000001
 11
-486.57113600000002
 21
771.91365050000002
  0
LINE
  8
_0-0_0
  6
CONTINUOUS
 62
    7
 10
-486.57113600000002
 20
771.91365050000002
 11
-477.32113600000002
 21
771.91365050000002
  0
LINE
  8
_0-0_0
  6
CONTINUOUS
 62
    7
 10
-486.82113600000002
 20
772.1530305
 11
-486.57113600000002
 21
771.91365050000002
  0
LINE
  8
_0-0_0
  6
CONTINUOUS
 62
    7
 10
-486.82113600000002
 20
772.2266085
 11
-486.57113600000002
 21
771.95457450000004
  0
LINE
  8
_0-0_0
  6
CONTINUOUS
 62
    7
 10
-486.57113600000002
 20
771.95457450000004
 11
-477.32113600000002
 21
771.95457450000004
  0
LINE
  8
_0-0_0
  6
CONTINUOUS
 62
    7
 10
-486.82113600000002
 20
772.17765750000001
 11
-486.57113600000002
 21
771.95457450000004
  0
LINE
  8
_0-0_0
  6
CONTINUOUS
 62
    7
 10
-486.82113600000002
 20
772.29939249999995
 11
-486.57113600000002
 21
772.02229250000005
  0
LINE
  8
_0-0_0
  6
CONTINUOUS
 62
    7
 10
-486.57113600000002
 20
772.02229250000005
 11
-477.32113600000002
 21
772.02229250000005
  0
LINE
  8
_0-0_0
  6
CONTINUOUS
 62
    7
 10
-486.82113600000002
 20
772.2266085
 11
-486.57113600000002
 21
772.02229250000005
  0
LINE
  8
_0-0_0
  6
CONTINUOUS
 62
    7
 10
-486.82113600000002
 20
772.39518750000002
 11
-486.57113600000002
 21
772.11607349999997
  0
LINE
  8
_0-0_0
  6
CONTINUOUS
 62
    7
 10
-486.57113600000002
 20
772.11607349999997
 11
-477.32113600000002
 21
772.11607349999997
  0
LINE
  8
_0-0_0
  6
CONTINUOUS
 62
    7
 10
-486.82113600000002
 20
772.29939249999995
 11
-486.57113600000002
 21
772.11607349999997
  0
LINE
  8
_0-0_0
  6
CONTINUOUS
 62
    7
 10
-486.57113600000002
 20
772.23487850000004
 11
-477.32113600000002
 21
772.23487850000004
  0
LINE
  8
_0-0_0
  6
CONTINUOUS
 62
    7
 10
-486.69116200000008
 20
772.31132449999996
 11
-486.57113600000002
 21
772.23487850000004
  0
LINE
  8
_0-0_0
  6
CONTINUOUS
 62
    7
 10
-486.82113600000002
 20
772.39518750000002
 11
-486.69116200000008
 21
772.31132449999996
  0
LINE
  8
_0-0_0
  6
CONTINUOUS
 62
    7
 10
-486.82113600000002
 20
772.51292450000005
 11
-486.57113600000002
 21
772.23487850000004
  0
LINE
  8
_0-0_0
  6
CONTINUOUS
 62
    7
 10
-486.82113600000002
 20
772.65135150000003
 11
-486.57113600000002
 21
772.37739550000003
  0
LINE
  8
_0-0_0
  6
CONTINUOUS
 62
    7
 10
-486.57113600000002
 20
772.37739550000003
 11
-477.32113600000002
 21
772.37739550000003
  0
LINE
  8
_0-0_0
  6
CONTINUOUS
 62
    7
 10
-486.82113600000002
 20
772.51292450000005
 11
-486.57113600000002
 21
772.37739550000003
  0
LINE
  8
_0-0_0
  6
CONTINUOUS
 62
    7
 10
-486.82113600000002
 20
772.80894450000005
 11
-486.57113600000002
 21
772.54206850000003
  0
LINE
  8
_0-0_0
  6
CONTINUOUS
 62
    7
 10
-486.57113600000002
 20
772.54206850000003
 11
-477.32113600000002
 21
772.54206850000003
  0
LINE
  8
_0-0_0
  6
CONTINUOUS
 62
    7
 10
-486.82113600000002
 20
772.65135150000003
 11
-486.57113600000002
 21
772.54206850000003
  0
LINE
  8
_0-0_0
  6
CONTINUOUS
 62
    7
 10
-486.82113600000002
 20
772.98396249999996
 11
-486.57113600000002
 21
772.72712650000005
  0
LINE
  8
_0-0_0
  6
CONTINUOUS
 62
    7
 10
-486.57113600000002
 20
772.72712650000005
 11
-477.32113600000002
 21
772.72712650000005
  0
LINE
  8
_0-0_0
  6
CONTINUOUS
 62
    7
 10
-486.82113600000002
 20
772.80894450000005
 11
-486.57113600000002
 21
772.72712650000005
  0
LINE
  8
_0-0_0
  6
CONTINUOUS
 62
    7
 10
-486.82113600000002
 20
773.17451449999999
 11
-486.57113600000002
 21
772.9304965
  0
LINE
  8
_0-0_0
  6
CONTINUOUS
 62
    7
 10
-486.57113600000002
 20
772.9304965
 11
-477.32113600000002
 21
772.9304965
  0
LINE
  8
_0-0_0
  6
CONTINUOUS
 62
    7
 10
-486.82113600000002
 20
772.98396249999996
 11
-486.57113600000002
 21
772.9304965
  0
LINE
  8
_0-0_0
  6
CONTINUOUS
 62
    7
 10
-486.82113600000002
 20
773.37846349999995
 11
-486.57113600000002
 21
773.14994750000005
  0
LINE
  8
_0-0_0
  6
CONTINUOUS
 62
    7
 10
-486.57113600000002
 20
773.14994750000005
 11
-477.32113600000002
 21
773.14994750000005
  0
LINE
  8
_0-0_0
  6
CONTINUOUS
 62
    7
 10
-486.82113600000002
 20
773.37846349999995
 11
-477.07113600000002
 21
773.37846349999995
  0
LINE
  8
_0-0_0
  6
CONTINUOUS
 62
    7
 10
-486.82113600000002
 20
773.17451449999999
 11
-486.57113600000002
 21
773.14994750000005
  0
LINE
  8
_0-0_0
  6
CONTINUOUS
 62
    7
 10
-486.82113600000002
 20
773.59361249999995
 11
-486.57113600000002
 21
773.38310249999995
  0
LINE
  8
_0-0_0
  6
CONTINUOUS
 62
    7
 10
-486.57113600000002
 20
773.38310249999995
 11
-477.32113600000002
 21
773.38310249999995
  0
LINE
  8
_0-0_0
  6
CONTINUOUS
 62
    7
 10
-486.82113600000002
 20
773.59361249999995
 11
-477.07113600000002
 21
773.59361249999995
  0
LINE
  8
_0-0_0
  6
CONTINUOUS
 62
    7
 10
-486.82113600000002
 20
773.37846349999995
 11
-486.57113600000002
 21
773.38310249999995
  0
LINE
  8
_0-0_0
  6
CONTINUOUS
 62
    7
 10
-486.82113600000002
 20
773.8176115
 11
-486.57113600000002
 21
773.62739550000003
  0
LINE
  8
_0-0_0
  6
CONTINUOUS
 62
    7
 10
-486.57113600000002
 20
773.62739550000003
 11
-477.32113600000002
 21
773.62739550000003
  0
LINE
  8
_0-0_0
  6
CONTINUOUS
 62
    7
 10
-486.82113600000002
 20
773.8176115
 11
-477.07113600000002
 21
773.8176115
  0
LINE
  8
_0-0_0
  6
CONTINUOUS
 62
    7
 10
-486.82113600000002
 20
773.59361249999995
 11
-486.57113600000002
 21
773.62739550000003
  0
LINE
  8
_0-0_0
  6
CONTINUOUS
 62
    7
 10
-486.82113600000002
 20
774.04795850000005
 11
-486.57113600000002
 21
773.88017249999996
  0
LINE
  8
_0-0_0
  6
CONTINUOUS
 62
    7
 10
-486.57113600000002
 20
773.88017249999996
 11
-477.32113600000002
 21
773.88017249999996
  0
LINE
  8
_0-0_0
  6
CONTINUOUS
 62
    7
 10
-486.82113600000002
 20
774.04795850000005
 11
-477.07113600000002
 21
774.04795850000005
  0
LINE
  8
_0-0_0
  6
CONTINUOUS
 62
    7
 10
-486.82113600000002
 20
773.8176115
 11
-486.57113600000002
 21
773.88017249999996
  0
LINE
  8
_0-0_0
  6
CONTINUOUS
 62
    7
 10
-486.82113600000002
 20
774.28218049999998
 11
-486.57113600000002
 21
774.13862549999999
  0
LINE
  8
_0-0_0
  6
CONTINUOUS
 62
    7
 10
-486.57113600000002
 20
774.13862549999999
 11
-477.32113600000002
 21
774.13862549999999
  0
LINE
  8
_0-0_0
  6
CONTINUOUS
 62
    7
 10
-486.82113600000002
 20
774.28218049999998
 11
-477.07113600000002
 21
774.28218049999998
  0
LINE
  8
_0-0_0
  6
CONTINUOUS
 62
    7
 10
-486.82113600000002
 20
774.04795850000005
 11
-486.57113600000002
 21
774.13862549999999
  0
LINE
  8
_0-0_0
  6
CONTINUOUS
 62
    7
 10
-486.82113600000002
 20
774.51771550000001
 11
-486.57113600000002
 21
774.39994750000005
  0
LINE
  8
_0-0_0
  6
CONTINUOUS
 62
    7
 10
-486.57113600000002
 20
774.39994750000005
 11
-477.32113600000002
 21
774.39994750000005
  0
LINE
  8
_0-0_0
  6
CONTINUOUS
 62
    7
 10
-486.82113600000002
 20
774.51771550000001
 11
-477.07113600000002
 21
774.51771550000001
  0
LINE
  8
_0-0_0
  6
CONTINUOUS
 62
    7
 10
-486.82113600000002
 20
774.28218049999998
 11
-486.57113600000002
 21
774.39994750000005
  0
LINE
  8
_0-0_0
  6
CONTINUOUS
 62
    7
 10
-486.82113600000002
 20
774.75190750000002
 11
-486.57113600000002
 21
774.6612705
  0
LINE
  8
_0-0_0
  6
CONTINUOUS
 62
    7
 10
-486.57113600000002
 20
774.6612705
 11
-477.32113600000002
 21
774.6612705
  0
LINE
  8
_0-0_0
  6
CONTINUOUS
 62
    7
 10
-486.82113600000002
 20
774.75190750000002
 11
-477.07113600000002
 21
774.75190750000002
  0
LINE
  8
_0-0_0
  6
CONTINUOUS
 62
    7
 10
-486.82113600000002
 20
774.51771550000001
 11
-486.57113600000002
 21
774.6612705
  0
LINE
  8
_0-0_0
  6
CONTINUOUS
 62
    7
 10
-486.82113600000002
 20
774.98228449999999
 11
-486.57113600000002
 21
774.91972350000003
  0
LINE
  8
_0-0_0
  6
CONTINUOUS
 62
    7
 10
-486.57113600000002
 20
774.91972350000003
 11
-477.32113600000002
 21
774.91972350000003
  0
LINE
  8
_0-0_0
  6
CONTINUOUS
 62
    7
 10
-486.82113600000002
 20
774.98228449999999
 11
-477.07113600000002
 21
774.98228449999999
  0
LINE
  8
_0-0_0
  6
CONTINUOUS
 62
    7
 10
-486.82113600000002
 20
774.75190750000002
 11
-486.57113600000002
 21
774.91972350000003
  0
LINE
  8
_0-0_0
  6
CONTINUOUS
 62
    7
 10
-486.82113600000002
 20
775.20628350000004
 11
-486.57113600000002
 21
775.17250049999996
  0
LINE
  8
_0-0_0
  6
CONTINUOUS
 62
    7
 10
-486.57113600000002
 20
775.17250049999996
 11
-477.32113600000002
 21
775.17250049999996
  0
LINE
  8
_0-0_0
  6
CONTINUOUS
 62
    7
 10
-486.82113600000002
 20
775.20628350000004
 11
-477.07113600000002
 21
775.20628350000004
  0
LINE
  8
_0-0_0
  6
CONTINUOUS
 62
    7
 10
-486.82113600000002
 20
774.98228449999999
 11
-486.57113600000002
 21
775.17250049999996
  0
LINE
  8
_0-0_0
  6
CONTINUOUS
 62
    7
 10
-486.82113600000002
 20
775.42143250000004
 11
-486.57113600000002
 21
775.41679350000004
  0
LINE
  8
_0-0_0
  6
CONTINUOUS
 62
    7
 10
-486.57113600000002
 20
775.41679350000004
 11
-477.32113600000002
 21
775.41679350000004
  0
LINE
  8
_0-0_0
  6
CONTINUOUS
 62
    7
 10
-486.82113600000002
 20
775.20628350000004
 11
-486.57113600000002
 21
775.41679350000004
  0
LINE
  8
_0-0_0
  6
CONTINUOUS
 62
    7
 10
-473.07113600000002
 20
771.34992950000003
 11
-473.07113600000002
 21
763.36839250000003
  0
LINE
  8
_0-0_0
  6
CONTINUOUS
 62
    7
 10
-473.07113600000002
 20
763.36839250000003
 11
-473.07113600000002
 21
760.84992950000003
  0
LINE
  8
_0-0_0
  6
CONTINUOUS
 62
    7
 10
-486.82113600000002
 20
759.0253755
 11
-486.57113600000002
 21
759.04994150000005
  0
LINE
  8
_0-0_0
  6
CONTINUOUS
 62
    7
 10
-486.57113600000002
 20
759.04994150000005
 11
-477.32113600000002
 21
759.04994150000005
  0
LINE
  8
_0-0_0
  6
CONTINUOUS
 62
    7
 10
-486.82113600000002
 20
758.82142650000003
 11
-486.57113600000002
 21
759.04994150000005
  0
LINE
  8
_0-0_0
  6
CONTINUOUS
 62
    7
 10
-486.82113600000002
 20
758.82142650000003
 11
-477.07113600000002
 21
758.82142650000003
  0
LINE
  8
_0-0_0
  6
CONTINUOUS
 62
    7
 10
-486.82113600000002
 20
759.21592650000002
 11
-486.57113600000002
 21
759.26939349999998
  0
LINE
  8
_0-0_0
  6
CONTINUOUS
 62
    7
 10
-486.57113600000002
 20
759.26939349999998
 11
-477.32113600000002
 21
759.26939349999998
  0
LINE
  8
_0-0_0
  6
CONTINUOUS
 62
    7
 10
-486.82113600000002
 20
759.0253755
 11
-486.57113600000002
 21
759.26939349999998
  0
LINE
  8
_0-0_0
  6
CONTINUOUS
 62
    7
 10
-486.82113600000002
 20
759.39094550000004
 11
-486.57113600000002
 21
759.47276250000004
  0
LINE
  8
_0-0_0
  6
CONTINUOUS
 62
    7
 10
-486.57113600000002
 20
759.47276250000004
 11
-477.32113600000002
 21
759.47276250000004
  0
LINE
  8
_0-0_0
  6
CONTINUOUS
 62
    7
 10
-486.82113600000002
 20
759.21592650000002
 11
-486.57113600000002
 21
759.47276250000004
  0
LINE
  8
_0-0_0
  6
CONTINUOUS
 62
    7
 10
-486.82113600000002
 20
759.54850750000003
 11
-486.57113600000002
 21
759.65779150000003
  0
LINE
  8
_0-0_0
  6
CONTINUOUS
 62
    7
 10
-486.57113600000002
 20
759.65779150000003
 11
-477.32113600000002
 21
759.65779150000003
  0
LINE
  8
_0-0_0
  6
CONTINUOUS
 62
    7
 10
-486.82113600000002
 20
759.39094550000004
 11
-486.57113600000002
 21
759.65779150000003
  0
LINE
  8
_0-0_0
  6
CONTINUOUS
 62
    7
 10
-486.82113600000002
 20
759.68696550000004
 11
-486.57113600000002
 21
759.82249449999995
  0
LINE
  8
_0-0_0
  6
CONTINUOUS
 62
    7
 10
-486.57113600000002
 20
759.82249449999995
 11
-477.32113600000002
 21
759.82249449999995
  0
LINE
  8
_0-0_0
  6
CONTINUOUS
 62
    7
 10
-486.82113600000002
 20
759.54850750000003
 11
-486.57113600000002
 21
759.82249449999995
  0
LINE
  8
_0-0_0
  6
CONTINUOUS
 62
    7
 10
-486.82113600000002
 20
759.80470249999996
 11
-486.57113600000002
 21
759.96501150000006
  0
LINE
  8
_0-0_0
  6
CONTINUOUS
 62
    7
 10
-486.57113600000002
 20
759.96501150000006
 11
-477.32113600000002
 21
759.96501150000006
  0
LINE
  8
_0-0_0
  6
CONTINUOUS
 62
    7
 10
-486.82113600000002
 20
759.68696550000004
 11
-486.57113600000002
 21
759.96501150000006
  0
LINE
  8
_0-0_0
  6
CONTINUOUS
 62
    7
 10
-486.82113600000002
 20
759.90049750000003
 11
-486.57113600000002
 21
760.08381650000001
  0
LINE
  8
_0-0_0
  6
CONTINUOUS
 62
    7
 10
-486.57113600000002
 20
760.08381650000001
 11
-477.32113600000002
 21
760.08381650000001
  0
LINE
  8
_0-0_0
  6
CONTINUOUS
 62
    7
 10
-486.82113600000002
 20
759.80470249999996
 11
-486.57113600000002
 21
760.08381650000001
  0
LINE
  8
_0-0_0
  6
CONTINUOUS
 62
    7
 10
-486.82113600000002
 20
759.97328149999998
 11
-486.57113600000002
 21
760.17759650000005
  0
LINE
  8
_0-0_0
  6
CONTINUOUS
 62
    7
 10
-486.57113600000002
 20
760.17759650000005
 11
-477.32113600000002
 21
760.17759650000005
  0
LINE
  8
_0-0_0
  6
CONTINUOUS
 62
    7
 10
-486.82113600000002
 20
759.90049750000003
 11
-486.57113600000002
 21
760.17759650000005
  0
LINE
  8
_0-0_0
  6
CONTINUOUS
 62
    7
 10
-486.82113600000002
 20
760.02223149999998
 11
-486.57113600000002
 21
760.24531549999995
  0
LINE
  8
_0-0_0
  6
CONTINUOUS
 62
    7
 10
-486.57113600000002
 20
760.24531549999995
 11
-477.32113600000002
 21
760.24531549999995
  0
LINE
  8
_0-0_0
  6
CONTINUOUS
 62
    7
 10
-486.82113600000002
 20
759.97328149999998
 11
-486.57113600000002
 21
760.24531549999995
  0
LINE
  8
_0-0_0
  6
CONTINUOUS
 62
    7
 10
-486.82113600000002
 20
760.04685949999998
 11
-486.57113600000002
 21
760.28623949999997
  0
LINE
  8
_0-0_0
  6
CONTINUOUS
 62
    7
 10
-486.57113600000002
 20
760.28623949999997
 11
-477.32113600000002
 21
760.28623949999997
  0
LINE
  8
_0-0_0
  6
CONTINUOUS
 62
    7
 10
-486.82113600000002
 20
760.02223149999998
 11
-486.57113600000002
 21
760.28623949999997
  0
LINE
  8
_0-0_0
  6
CONTINUOUS
 62
    7
 10
-486.57113600000002
 20
760.29994150000005
 11
-477.32113600000002
 21
760.29994150000005
  0
LINE
  8
_0-0_0
  6
CONTINUOUS
 62
    7
 10
-486.82113600000002
 20
760.04685949999998
 11
-486.57113600000002
 21
760.29994150000005
  0
LINE
  8
_0-0_0
  6
CONTINUOUS
 62
    7
 10
-486.82113600000002
 20
755.55302449999999
 11
-486.57113600000002
 21
755.29994150000005
  0
LINE
  8
_0-0_0
  6
CONTINUOUS
 62
    7
 10
-486.57113600000002
 20
755.29994150000005
 11
-477.32113600000002
 21
755.29994150000005
  0
LINE
  8
_0-0_0
  6
CONTINUOUS
 62
    7
 10
-486.82113600000002
 20
755.5776515
 11
-486.57113600000002
 21
755.31364450000001
  0
LINE
  8
_0-0_0
  6
CONTINUOUS
 62
    7
 10
-486.57113600000002
 20
755.31364450000001
 11
-477.32113600000002
 21
755.31364450000001
  0
LINE
  8
_0-0_0
  6
CONTINUOUS
 62
    7
 10
-486.82113600000002
 20
755.55302449999999
 11
-486.57113600000002
 21
755.31364450000001
  0
LINE
  8
_0-0_0
  6
CONTINUOUS
 62
    7
 10
-486.82113600000002
 20
755.62660249999999
 11
-486.57113600000002
 21
755.35456850000003
  0
LINE
  8
_0-0_0
  6
CONTINUOUS
 62
    7
 10
-486.57113600000002
 20
755.35456850000003
 11
-477.32113600000002
 21
755.35456850000003
  0
LINE
  8
_0-0_0
  6
CONTINUOUS
 62
    7
 10
-486.82113600000002
 20
755.5776515
 11
-486.57113600000002
 21
755.35456850000003
  0
LINE
  8
_0-0_0
  6
CONTINUOUS
 62
    7
 10
-486.82113600000002
 20
755.69938650000006
 11
-486.57113600000002
 21
755.42228650000004
  0
LINE
  8
_0-0_0
  6
CONTINUOUS
 62
    7
 10
-486.57113600000002
 20
755.42228650000004
 11
-477.32113600000002
 21
755.42228650000004
  0
LINE
  8
_0-0_0
  6
CONTINUOUS
 62
    7
 10
-486.82113600000002
 20
755.62660249999999
 11
-486.57113600000002
 21
755.42228650000004
  0
LINE
  8
_0-0_0
  6
CONTINUOUS
 62
    7
 10
-486.82113600000002
 20
755.79518150000001
 11
-486.57113600000002
 21
755.51606749999996
  0
LINE
  8
_0-0_0
  6
CONTINUOUS
 62
    7
 10
-486.57113600000002
 20
755.51606749999996
 11
-477.32113600000002
 21
755.51606749999996
  0
LINE
  8
_0-0_0
  6
CONTINUOUS
 62
    7
 10
-486.82113600000002
 20
755.69938650000006
 11
-486.57113600000002
 21
755.51606749999996
  0
LINE
  8
_0-0_0
  6
CONTINUOUS
 62
    7
 10
-486.57113600000002
 20
755.63487250000003
 11
-477.32113600000002
 21
755.63487250000003
  0
LINE
  8
_0-0_0
  6
CONTINUOUS
 62
    7
 10
-486.69116200000008
 20
755.71131849999995
 11
-486.57113600000002
 21
755.63487250000003
  0
LINE
  8
_0-0_0
  6
CONTINUOUS
 62
    7
 10
-486.82113600000002
 20
755.79518150000001
 11
-486.69116200000008
 21
755.71131849999995
  0
LINE
  8
_0-0_0
  6
CONTINUOUS
 62
    7
 10
-486.82113600000002
 20
755.91291750000005
 11
-486.57113600000002
 21
755.63487250000003
  0
LINE
  8
_0-0_0
  6
CONTINUOUS
 62
    7
 10
-486.82113600000002
 20
756.05137649999995
 11
-486.57113600000002
 21
755.77738950000003
  0
LINE
  8
_0-0_0
  6
CONTINUOUS
 62
    7
 10
-486.57113600000002
 20
755.77738950000003
 11
-477.32113600000002
 21
755.77738950000003
  0
LINE
  8
_0-0_0
  6
CONTINUOUS
 62
    7
 10
-486.82113600000002
 20
755.91291750000005
 11
-486.57113600000002
 21
755.77738950000003
  0
LINE
  8
_0-0_0
  6
CONTINUOUS
 62
    7
 10
-486.82113600000002
 20
756.20896849999997
 11
-486.57113600000002
 21
755.94209250000006
  0
LINE
  8
_0-0_0
  6
CONTINUOUS
 62
    7
 10
-486.57113600000002
 20
755.94209250000006
 11
-477.32113600000002
 21
755.94209250000006
  0
LINE
  8
_0-0_0
  6
CONTINUOUS
 62
    7
 10
-486.82113600000002
 20
756.05137649999995
 11
-486.57113600000002
 21
755.94209250000006
  0
LINE
  8
_0-0_0
  6
CONTINUOUS
 62
    7
 10
-486.82113600000002
 20
756.38398749999999
 11
-486.57113600000002
 21
756.12712050000005
  0
LINE
  8
_0-0_0
  6
CONTINUOUS
 62
    7
 10
-486.57113600000002
 20
756.12712050000005
 11
-477.32113600000002
 21
756.12712050000005
  0
LINE
  8
_0-0_0
  6
CONTINUOUS
 62
    7
 10
-486.82113600000002
 20
756.20896849999997
 11
-486.57113600000002
 21
756.12712050000005
  0
LINE
  8
_0-0_0
  6
CONTINUOUS
 62
    7
 10
-486.82113600000002
 20
756.57450849999998
 11
-486.57113600000002
 21
756.3304895
  0
LINE
  8
_0-0_0
  6
CONTINUOUS
 62
    7
 10
-486.57113600000002
 20
756.3304895
 11
-477.32113600000002
 21
756.3304895
  0
LINE
  8
_0-0_0
  6
CONTINUOUS
 62
    7
 10
-486.82113600000002
 20
756.38398749999999
 11
-486.57113600000002
 21
756.3304895
  0
LINE
  8
_0-0_0
  6
CONTINUOUS
 62
    7
 10
-486.82113600000002
 20
756.77845750000006
 11
-486.57113600000002
 21
756.54994150000005
  0
LINE
  8
_0-0_0
  6
CONTINUOUS
 62
    7
 10
-486.57113600000002
 20
756.54994150000005
 11
-477.32113600000002
 21
756.54994150000005
  0
LINE
  8
_0-0_0
  6
CONTINUOUS
 62
    7
 10
-486.82113600000002
 20
756.77845750000006
 11
-477.07113600000002
 21
756.77845750000006
  0
LINE
  8
_0-0_0
  6
CONTINUOUS
 62
    7
 10
-486.82113600000002
 20
756.57450849999998
 11
-486.57113600000002
 21
756.54994150000005
  0
LINE
  8
_0-0_0
  6
CONTINUOUS
 62
    7
 10
-486.82113600000002
 20
756.99360650000006
 11
-486.57113600000002
 21
756.78309650000006
  0
LINE
  8
_0-0_0
  6
CONTINUOUS
 62
    7
 10
-486.57113600000002
 20
756.78309650000006
 11
-477.32113600000002
 21
756.78309650000006
  0
LINE
  8
_0-0_0
  6
CONTINUOUS
 62
    7
 10
-486.82113600000002
 20
756.99360650000006
 11
-477.07113600000002
 21
756.99360650000006
  0
LINE
  8
_0-0_0
  6
CONTINUOUS
 62
    7
 10
-486.82113600000002
 20
756.77845750000006
 11
-486.57113600000002
 21
756.78309650000006
  0
LINE
  8
_0-0_0
  6
CONTINUOUS
 62
    7
 10
-486.82113600000002
 20
757.21760549999999
 11
-486.57113600000002
 21
757.02738950000003
  0
LINE
  8
_0-0_0
  6
CONTINUOUS
 62
    7
 10
-486.57113600000002
 20
757.02738950000003
 11
-477.32113600000002
 21
757.02738950000003
  0
LINE
  8
_0-0_0
  6
CONTINUOUS
 62
    7
 10
-486.82113600000002
 20
757.21760549999999
 11
-477.07113600000002
 21
757.21760549999999
  0
LINE
  8
_0-0_0
  6
CONTINUOUS
 62
    7
 10
-486.82113600000002
 20
756.99360650000006
 11
-486.57113600000002
 21
757.02738950000003
  0
LINE
  8
_0-0_0
  6
CONTINUOUS
 62
    7
 10
-486.82113600000002
 20
757.44795250000004
 11
-486.57113600000002
 21
757.28016649999995
  0
LINE
  8
_0-0_0
  6
CONTINUOUS
 62
    7
 10
-486.57113600000002
 20
757.28016649999995
 11
-477.32113600000002
 21
757.28016649999995
  0
LINE
  8
_0-0_0
  6
CONTINUOUS
 62
    7
 10
-486.82113600000002
 20
757.44795250000004
 11
-477.07113600000002
 21
757.44795250000004
  0
LINE
  8
_0-0_0
  6
CONTINUOUS
 62
    7
 10
-486.82113600000002
 20
757.21760549999999
 11
-486.57113600000002
 21
757.28016649999995
  0
LINE
  8
_0-0_0
  6
CONTINUOUS
 62
    7
 10
-486.82113600000002
 20
757.68217449999997
 11
-486.57113600000002
 21
757.53861949999998
  0
LINE
  8
_0-0_0
  6
CONTINUOUS
 62
    7
 10
-486.57113600000002
 20
757.53861949999998
 11
-477.32113600000002
 21
757.53861949999998
  0
LINE
  8
_0-0_0
  6
CONTINUOUS
 62
    7
 10
-486.82113600000002
 20
757.68217449999997
 11
-477.07113600000002
 21
757.68217449999997
  0
LINE
  8
_0-0_0
  6
CONTINUOUS
 62
    7
 10
-486.82113600000002
 20
757.44795250000004
 11
-486.57113600000002
 21
757.53861949999998
  0
LINE
  8
_0-0_0
  6
CONTINUOUS
 62
    7
 10
-486.82113600000002
 20
757.9177095
 11
-486.57113600000002
 21
757.79994150000005
  0
LINE
  8
_0-0_0
  6
CONTINUOUS
 62
    7
 10
-486.57113600000002
 20
757.79994150000005
 11
-477.32113600000002
 21
757.79994150000005
  0
LINE
  8
_0-0_0
  6
CONTINUOUS
 62
    7
 10
-486.82113600000002
 20
757.9177095
 11
-477.07113600000002
 21
757.9177095
  0
LINE
  8
_0-0_0
  6
CONTINUOUS
 62
    7
 10
-486.82113600000002
 20
757.68217449999997
 11
-486.57113600000002
 21
757.79994150000005
  0
LINE
  8
_0-0_0
  6
CONTINUOUS
 62
    7
 10
-486.82113600000002
 20
758.15193150000005
 11
-486.57113600000002
 21
758.0612635
  0
LINE
  8
_0-0_0
  6
CONTINUOUS
 62
    7
 10
-486.57113600000002
 20
758.0612635
 11
-477.32113600000002
 21
758.0612635
  0
LINE
  8
_0-0_0
  6
CONTINUOUS
 62
    7
 10
-486.82113600000002
 20
758.15193150000005
 11
-477.07113600000002
 21
758.15193150000005
  0
LINE
  8
_0-0_0
  6
CONTINUOUS
 62
    7
 10
-486.82113600000002
 20
757.9177095
 11
-486.57113600000002
 21
758.0612635
  0
LINE
  8
_0-0_0
  6
CONTINUOUS
 62
    7
 10
-486.82113600000002
 20
758.38227849999998
 11
-486.57113600000002
 21
758.31971750000002
  0
LINE
  8
_0-0_0
  6
CONTINUOUS
 62
    7
 10
-486.57113600000002
 20
758.31971750000002
 11
-477.32113600000002
 21
758.31971750000002
  0
LINE
  8
_0-0_0
  6
CONTINUOUS
 62
    7
 10
-486.82113600000002
 20
758.38227849999998
 11
-477.07113600000002
 21
758.38227849999998
  0
LINE
  8
_0-0_0
  6
CONTINUOUS
 62
    7
 10
-486.82113600000002
 20
758.15193150000005
 11
-486.57113600000002
 21
758.31971750000002
  0
LINE
  8
_0-0_0
  6
CONTINUOUS
 62
    7
 10
-486.82113600000002
 20
758.60627750000003
 11
-486.57113600000002
 21
758.57249449999995
  0
LINE
  8
_0-0_0
  6
CONTINUOUS
 62
    7
 10
-486.57113600000002
 20
758.57249449999995
 11
-477.32113600000002
 21
758.57249449999995
  0
LINE
  8
_0-0_0
  6
CONTINUOUS
 62
    7
 10
-486.82113600000002
 20
758.60627750000003
 11
-477.07113600000002
 21
758.60627750000003
  0
LINE
  8
_0-0_0
  6
CONTINUOUS
 62
    7
 10
-486.82113600000002
 20
758.38227849999998
 11
-486.57113600000002
 21
758.57249449999995
  0
LINE
  8
_0-0_0
  6
CONTINUOUS
 62
    7
 10
-486.82113600000002
 20
758.82142650000003
 11
-486.57113600000002
 21
758.81678750000003
  0
LINE
  8
_0-0_0
  6
CONTINUOUS
 62
    7
 10
-486.57113600000002
 20
758.81678750000003
 11
-477.32113600000002
 21
758.81678750000003
  0
LINE
  8
_0-0_0
  6
CONTINUOUS
 62
    7
 10
-486.82113600000002
 20
758.60627750000003
 11
-486.57113600000002
 21
758.81678750000003
  0
LINE
  8
_0-0_0
  6
CONTINUOUS
 62
    7
 10
-487.07113600000002
 20
776.39994750000005
 11
-487.07113600000002
 21
772.6447905
  0
LINE
  8
_0-0_0
  6
CONTINUOUS
 62
    7
 10
-487.07113600000002
 20
772.6447905
 11
-487.07113600000002
 21
772.39994750000005
  0
LINE
  8
_0-0_0
  6
CONTINUOUS
 62
    7
 10
-487.07113600000002
 20
759.79994150000005
 11
-487.07113600000002
 21
756.04478449999999
  0
LINE
  8
_0-0_0
  6
CONTINUOUS
 62
    7
 10
-487.07113600000002
 20
756.04478449999999
 11
-487.07113600000002
 21
755.79994150000005
  0
LINE
  8
_0-0_0
  6
CONTINUOUS
 62
    7
 10
-473.4711299999999
 20
771.09992950000003
 11
-473.4711299999999
 21
768.59992950000003
  0
LINE
  8
_0-0_0
  6
CONTINUOUS
 62
    7
 10
-473.4711299999999
 20
768.59992950000003
 11
-473.4711299999999
 21
761.09992950000003
  0
LINE
  8
_0-0_0
  6
CONTINUOUS
 62
    7
 10
-474.27114899999992
 20
770.63807650000001
 11
-474.27114899999992
 21
768.36900349999996
  0
LINE
  8
_0-0_0
  6
CONTINUOUS
 62
    7
 10
-474.27114899999992
 20
768.36900349999996
 11
-474.27114899999992
 21
761.56181349999997
  0
LINE
  8
_0-0_0
  6
CONTINUOUS
 62
    7
 10
-532.27114899999992
 20
770.09992950000003
 11
-532.27114899999992
 21
770.09858650000001
  0
LINE
  8
_0-0_0
  6
CONTINUOUS
 62
    7
 10
-532.27114899999992
 20
770.09858650000001
 11
-532.27114899999992
 21
762.09992950000003
  0
LINE
  8
_0-0_0
  6
CONTINUOUS
 62
    7
 10
-451.07113600000002
 20
776.64994750000005
 11
-477.07113600000002
 21
776.64994750000005
  0
LINE
  8
_0-0_0
  6
CONTINUOUS
 62
    7
 10
-451.07113600000002
 20
772.14994750000005
 11
-477.07113600000002
 21
772.14994750000005
  0
LINE
  8
_0-0_0
  6
CONTINUOUS
 62
    7
 10
-472.27114899999992
 20
760.04994150000005
 11
-477.07113600000002
 21
760.04994150000005
  0
LINE
  8
_0-0_0
  6
CONTINUOUS
 62
    7
 10
-456.82116700000006
 20
755.54994150000005
 11
-477.07113600000002
 21
755.54994150000005
  0
LINE
  8
_0-0_0
  6
CONTINUOUS
 62
    7
 10
-477.07113600000002
 20
776.64994750000005
 11
-477.32113600000002
 21
776.89994750000005
  0
LINE
  8
_0-0_0
  6
CONTINUOUS
 62
    7
 10
-477.07113600000002
 20
772.14994750000005
 11
-477.32113600000002
 21
771.89994750000005
  0
LINE
  8
_0-0_0
  6
CONTINUOUS
 62
    7
 10
-477.07113600000002
 20
760.04994150000005
 11
-477.32113600000002
 21
760.29994150000005
  0
LINE
  8
_0-0_0
  6
CONTINUOUS
 62
    7
 10
-477.07113600000002
 20
755.54994150000005
 11
-477.32113600000002
 21
755.29994150000005
  0
LINE
  8
_0-0_0
  6
CONTINUOUS
 62
    7
 10
-473.07113600000002
 20
771.34992950000003
 11
-472.27114899999992
 21
772.14994750000005
  0
LINE
  8
_0-0_0
  6
CONTINUOUS
 62
    7
 10
-473.07113600000002
 20
760.84992950000003
 11
-471.82113600000002
 21
759.59992950000003
  0
LINE
  8
_0-0_0
  6
CONTINUOUS
 62
    7
 10
-487.07113600000002
 20
776.39994750000005
 11
-486.57128899999998
 21
776.89979549999998
  0
LINE
  8
_0-0_0
  6
CONTINUOUS
 62
    7
 10
-487.07113600000002
 20
772.39994750000005
 11
-486.57128899999998
 21
771.90010050000001
  0
LINE
  8
_0-0_0
  6
CONTINUOUS
 62
    7
 10
-487.07113600000002
 20
759.79994150000005
 11
-486.57128899999998
 21
760.29978949999997
  0
LINE
  8
_0-0_0
  6
CONTINUOUS
 62
    7
 10
-487.07113600000002
 20
755.79994150000005
 11
-486.57128899999998
 21
755.3000945
  0
LINE
  8
_0-0_0
  6
CONTINUOUS
 62
    7
 10
-473.07113600000002
 20
771.09992950000003
 11
-473.4711299999999
 21
771.09992950000003
  0
LINE
  8
_0-0_0
  6
CONTINUOUS
 62
    7
 10
-473.07113600000002
 20
761.09992950000003
 11
-473.4711299999999
 21
761.09992950000003
  0
LINE
  8
_0-0_0
  6
CONTINUOUS
 62
    7
 10
-474.27114899999992
 20
770.63807650000001
 11
-473.4711299999999
 21
771.09992950000003
  0
LINE
  8
_0-0_0
  6
CONTINUOUS
 62
    7
 10
-474.27114899999992
 20
761.56181349999997
 11
-473.4711299999999
 21
761.09992950000003
  0
LINE
  8
_0-0_0
  6
CONTINUOUS
 62
    7
 10
-474.27114899999992
 20
770.09992950000003
 11
-532.27114899999992
 21
770.09992950000003
  0
LINE
  8
_0-0_0
  6
CONTINUOUS
 62
    7
 10
-474.27114899999992
 20
762.09992950000003
 11
-532.27114899999992
 21
762.09992950000003
  0
ARC
  8
_0-0_0
  6
CONTINUOUS
 62
    7
 10
-457.57113600000002
 20
799.60002150000003
 40
8
 50
215.099627
 51
324.90037799999999
  0
LINE
  8
_0-0_0
  6
CONTINUOUS
 62
    7
 10
-466.57113600000002
 20
795.00001550000002
 11
-464.11636300000009
 21
795.00001550000002
  0
LINE
  8
_0-0_0
  6
CONTINUOUS
 62
    7
 10
-466.57113600000002
 20
781.80000250000001
 11
-466.57113600000002
 21
795.00001550000002
  0
LINE
  8
_0-0_0
  6
CONTINUOUS
 62
    7
 10
1706.4289549999999
 20
781.80000250000001
 11
1706.4289549999999
 21
795.00001550000002
  0
LINE
  8
_0-0_0
  6
CONTINUOUS
 62
    7
 10
1703.9741210000002
 20
795.00001550000002
 11
1706.4289549999999
 21
795.00001550000002
  0
ARC
  8
_0-0_0
  6
CONTINUOUS
 62
    7
 10
1697.4289549999999
 20
799.60002150000003
 40
8
 50
215.099627
 51
324.90037799999999
  0
LINE
  8
_0-0_0
  6
CONTINUOUS
 62
    7
 10
-451.02590899999996
 20
795.00001550000002
 11
1690.883789
 21
795.00001550000002
  0
LINE
  8
_0-0_0
  6
CONTINUOUS
 62
    7
 10
-451.02590899999996
 20
795.00001550000002
 11
-450.93695099999991
 21
795.12931849999995
  0
LINE
  8
_0-0_0
  6
CONTINUOUS
 62
    7
 10
1690.883789
 20
795.00001550000002
 11
1690.7946780000002
 21
795.12931849999995
  0
LINE
  8
_0-0_0
  6
CONTINUOUS
 62
    7
 10
1704.15625
 20
795.2707365
 11
1704.2377930000002
 21
795.40000950000001
  0
ARC
  8
_0-0_0
  6
CONTINUOUS
 62
    7
 10
1697.4289549999999
 20
799.60002150000003
 40
8
 50
328.33175599999993
 51
334.05550899999992
  0
LINE
  8
_0-0_0
  6
CONTINUOUS
 62
    7
 10
1704.6228030000002
 20
796.10002150000003
 11
1704.7165530000002
 21
796.30000250000001
  0
LINE
  8
_0-0_0
  6
CONTINUOUS
 62
    7
 10
1704.7165530000002
 20
796.30000250000001
 11
1704.8039549999999
 21
796.50001550000002
  0
ARC
  8
_0-0_0
  6
CONTINUOUS
 62
    7
 10
1697.4289549999999
 20
799.60002150000003
 40
8
 50
337.20097500000003
 51
342.54240199999998
  0
LINE
  8
_0-0_0
  6
CONTINUOUS
 62
    7
 10
1705.060547
 20
797.20002750000003
 11
1705.120606
 21
797.40000950000001
  0
LINE
  8
_0-0_0
  6
CONTINUOUS
 62
    7
 10
1705.120606
 20
797.40000950000001
 11
1705.1748050000001
 21
797.60002150000003
  0
ARC
  8
_0-0_0
  6
CONTINUOUS
 62
    7
 10
1697.4289549999999
 20
799.60002150000003
 40
8
 50
345.52249499999999
 51
350.64797900000002
  0
LINE
  8
_0-0_0
  6
CONTINUOUS
 62
    7
 10
1705.32251
 20
798.30000250000001
 11
1705.3530270000001
 21
798.50001550000002
  0
LINE
  8
_0-0_0
  6
CONTINUOUS
 62
    7
 10
1705.3530270000001
 20
798.50001550000002
 11
1705.3781739999999
 21
798.70002750000003
  0
ARC
  8
_0-0_0
  6
CONTINUOUS
 62
    7
 10
1697.4289549999999
 20
799.60002150000003
 40
8
 50
353.54056400000002
 51
358.56744600000002
  0
LINE
  8
_0-0_0
  6
CONTINUOUS
 62
    7
 10
1705.4265140000002
 20
799.40000950000001
 11
1705.4289549999999
 21
799.60002150000003
  0
LINE
  8
_0-0_0
  6
CONTINUOUS
 62
    7
 10
1689.4313969999998
 20
799.40000950000001
 11
1689.4289549999999
 21
799.60002150000003
  0
ARC
  8
_0-0_0
  6
CONTINUOUS
 62
    7
 10
1697.4289549999999
 20
799.60002150000003
 40
8
 50
181.432545
 51
186.45945499999999
  0
LINE
  8
_0-0_0
  6
CONTINUOUS
 62
    7
 10
1689.5048830000001
 20
798.50001550000002
 11
1689.4797360000002
 21
798.70002750000003
  0
LINE
  8
_0-0_0
  6
CONTINUOUS
 62
    7
 10
1689.5354000000002
 20
798.30000250000001
 11
1689.5048830000001
 21
798.50001550000002
  0
ARC
  8
_0-0_0
  6
CONTINUOUS
 62
    7
 10
1697.4289549999999
 20
799.60002150000003
 40
8
 50
189.35203999999999
 51
194.47751
  0
LINE
  8
_0-0_0
  6
CONTINUOUS
 62
    7
 10
1689.7373050000001
 20
797.40000950000001
 11
1689.683106
 21
797.60002150000003
  0
LINE
  8
_0-0_0
  6
CONTINUOUS
 62
    7
 10
1689.7973630000001
 20
797.20002750000003
 11
1689.7373050000001
 21
797.40000950000001
  0
ARC
  8
_0-0_0
  6
CONTINUOUS
 62
    7
 10
1697.4289549999999
 20
799.60002150000003
 40
8
 50
197.45760300000001
 51
202.79902999999999
  0
LINE
  8
_0-0_0
  6
CONTINUOUS
 62
    7
 10
1690.1413579999999
 20
796.30000250000001
 11
1690.0539549999999
 21
796.50001550000002
  0
LINE
  8
_0-0_0
  6
CONTINUOUS
 62
    7
 10
1690.2351079999999
 20
796.10002150000003
 11
1690.1413579999999
 21
796.30000250000001
  0
ARC
  8
_0-0_0
  6
CONTINUOUS
 62
    7
 10
1697.4289549999999
 20
799.60002150000003
 40
8
 50
205.94448199999999
 51
211.66823500000001
  0
LINE
  8
_0-0_0
  6
CONTINUOUS
 62
    7
 10
1690.7016600000002
 20
795.2707365
 11
1690.6201169999999
 21
795.40000950000001
  0
LINE
  8
_0-0_0
  6
CONTINUOUS
 62
    7
 10
1690.7016600000002
 20
795.2707365
 11
1690.7946780000002
 21
795.12931849999995
  0
LINE
  8
_0-0_0
  6
CONTINUOUS
 62
    7
 10
1703.9741210000002
 20
795.00001550000002
 11
1704.0632329999999
 21
795.12931849999995
  0
LINE
  8
_0-0_0
  6
CONTINUOUS
 62
    7
 10
1704.15625
 20
795.2707365
 11
1704.0632329999999
 21
795.12931849999995
  0
LINE
  8
_0-0_0
  6
CONTINUOUS
 62
    7
 10
1706.4289549999999
 20
795.12931849999995
 11
1706.4289549999999
 21
795.00001550000002
  0
LINE
  8
_0-0_0
  6
CONTINUOUS
 62
    7
 10
1706.4289549999999
 20
803.92930550000005
 11
1706.4289549999999
 21
804.07072449999998
  0
LINE
  8
_0-0_0
  6
CONTINUOUS
 62
    7
 10
1706.4289549999999
 20
803.92930550000005
 11
1706.4289549999999
 21
803.80000250000001
  0
LINE
  8
_0-0_0
  6
CONTINUOUS
 62
    7
 10
1706.4289549999999
 20
803.10002150000003
 11
1706.4289549999999
 21
803.80000250000001
  0
LINE
  8
_0-0_0
  6
CONTINUOUS
 62
    7
 10
1706.4289549999999
 20
802.90000950000001
 11
1706.4289549999999
 21
803.10002150000003
  0
LINE
  8
_0-0_0
  6
CONTINUOUS
 62
    7
 10
1706.4289549999999
 20
802.90000950000001
 11
1706.4289549999999
 21
802.70002750000003
  0
LINE
  8
_0-0_0
  6
CONTINUOUS
 62
    7
 10
1706.4289549999999
 20
802.00001550000002
 11
1706.4289549999999
 21
802.70002750000003
  0
LINE
  8
_0-0_0
  6
CONTINUOUS
 62
    7
 10
1706.4289549999999
 20
801.80000250000001
 11
1706.4289549999999
 21
802.00001550000002
  0
LINE
  8
_0-0_0
  6
CONTINUOUS
 62
    7
 10
1706.4289549999999
 20
801.80000250000001
 11
1706.4289549999999
 21
801.60002150000003
  0
LINE
  8
_0-0_0
  6
CONTINUOUS
 62
    7
 10
1706.4289549999999
 20
800.90000950000001
 11
1706.4289549999999
 21
801.60002150000003
  0
LINE
  8
_0-0_0
  6
CONTINUOUS
 62
    7
 10
1706.4289549999999
 20
800.70002750000003
 11
1706.4289549999999
 21
800.90000950000001
  0
LINE
  8
_0-0_0
  6
CONTINUOUS
 62
    7
 10
1706.4289549999999
 20
800.70002750000003
 11
1706.4289549999999
 21
800.50001550000002
  0
LINE
  8
_0-0_0
  6
CONTINUOUS
 62
    7
 10
1706.4289549999999
 20
799.80000250000001
 11
1706.4289549999999
 21
800.50001550000002
  0
LINE
  8
_0-0_0
  6
CONTINUOUS
 62
    7
 10
1706.4289549999999
 20
799.60002150000003
 11
1706.4289549999999
 21
799.80000250000001
  0
LINE
  8
_0-0_0
  6
CONTINUOUS
 62
    7
 10
1706.4289549999999
 20
799.60002150000003
 11
1706.4289549999999
 21
799.40000950000001
  0
LINE
  8
_0-0_0
  6
CONTINUOUS
 62
    7
 10
1706.4289549999999
 20
798.70002750000003
 11
1706.4289549999999
 21
799.40000950000001
  0
LINE
  8
_0-0_0
  6
CONTINUOUS
 62
    7
 10
1706.4289549999999
 20
798.50001550000002
 11
1706.4289549999999
 21
798.70002750000003
  0
LINE
  8
_0-0_0
  6
CONTINUOUS
 62
    7
 10
1706.4289549999999
 20
798.50001550000002
 11
1706.4289549999999
 21
798.30000250000001
  0
LINE
  8
_0-0_0
  6
CONTINUOUS
 62
    7
 10
1706.4289549999999
 20
797.60002150000003
 11
1706.4289549999999
 21
798.30000250000001
  0
LINE
  8
_0-0_0
  6
CONTINUOUS
 62
    7
 10
1706.4289549999999
 20
797.40000950000001
 11
1706.4289549999999
 21
797.60002150000003
  0
LINE
  8
_0-0_0
  6
CONTINUOUS
 62
    7
 10
1706.4289549999999
 20
797.40000950000001
 11
1706.4289549999999
 21
797.20002750000003
  0
LINE
  8
_0-0_0
  6
CONTINUOUS
 62
    7
 10
1706.4289549999999
 20
796.50001550000002
 11
1706.4289549999999
 21
797.20002750000003
  0
LINE
  8
_0-0_0
  6
CONTINUOUS
 62
    7
 10
1706.4289549999999
 20
796.30000250000001
 11
1706.4289549999999
 21
796.50001550000002
  0
LINE
  8
_0-0_0
  6
CONTINUOUS
 62
    7
 10
1706.4289549999999
 20
796.30000250000001
 11
1706.4289549999999
 21
796.10002150000003
  0
LINE
  8
_0-0_0
  6
CONTINUOUS
 62
    7
 10
1706.4289549999999
 20
795.40000950000001
 11
1706.4289549999999
 21
796.10002150000003
  0
LINE
  8
_0-0_0
  6
CONTINUOUS
 62
    7
 10
1706.4289549999999
 20
795.2707365
 11
1706.4289549999999
 21
795.40000950000001
  0
LINE
  8
_0-0_0
  6
CONTINUOUS
 62
    7
 10
1706.4289549999999
 20
795.12931849999995
 11
1706.4289549999999
 21
795.2707365
  0
LINE
  8
_0-0_0
  6
CONTINUOUS
 62
    7
 10
1706.4289549999999
 20
781.30000250000001
 11
1706.4289549999999
 21
781.80000250000001
  0
LINE
  8
_0-0_0
  6
CONTINUOUS
 62
    7
 10
1706.4289549999999
 20
809.80000250000001
 11
1706.4289549999999
 21
809.20603949999997
  0
LINE
  8
_0-0_0
  6
CONTINUOUS
 62
    7
 10
1706.4289549999999
 20
804.20002750000003
 11
1706.4289549999999
 21
809.20603949999997
  0
LINE
  8
_0-0_0
  6
CONTINUOUS
 62
    7
 10
1706.4289549999999
 20
804.07072449999998
 11
1706.4289549999999
 21
804.20002750000003
  0
LINE
  8
_0-0_0
  6
CONTINUOUS
 62
    7
 10
-466.57113600000002
 20
781.30000250000001
 11
-466.57113600000002
 21
781.80000250000001
  0
LINE
  8
_0-0_0
  6
CONTINUOUS
 62
    7
 10
-466.57113600000002
 20
781.30000250000001
 11
1706.4289549999999
 21
781.30000250000001
  0
LINE
  8
_0-0_0
  6
CONTINUOUS
 62
    7
 10
-466.57113600000002
 20
795.12931849999995
 11
-466.57113600000002
 21
795.2707365
  0
LINE
  8
_0-0_0
  6
CONTINUOUS
 62
    7
 10
-466.57113600000002
 20
795.12931849999995
 11
-466.57113600000002
 21
795.00001550000002
  0
LINE
  8
_0-0_0
  6
CONTINUOUS
 62
    7
 10
-466.57113600000002
 20
809.80000250000001
 11
-466.57113600000002
 21
809.20603949999997
  0
LINE
  8
_0-0_0
  6
CONTINUOUS
 62
    7
 10
-466.57113600000002
 20
804.20002750000003
 11
-466.57113600000002
 21
809.20603949999997
  0
LINE
  8
_0-0_0
  6
CONTINUOUS
 62
    7
 10
-466.57113600000002
 20
804.07072449999998
 11
-466.57113600000002
 21
804.20002750000003
  0
LINE
  8
_0-0_0
  6
CONTINUOUS
 62
    7
 10
-466.57113600000002
 20
803.92930550000005
 11
-466.57113600000002
 21
804.07072449999998
  0
LINE
  8
_0-0_0
  6
CONTINUOUS
 62
    7
 10
-466.57113600000002
 20
803.92930550000005
 11
-466.57113600000002
 21
803.80000250000001
  0
LINE
  8
_0-0_0
  6
CONTINUOUS
 62
    7
 10
-466.57113600000002
 20
803.10002150000003
 11
-466.57113600000002
 21
803.80000250000001
  0
LINE
  8
_0-0_0
  6
CONTINUOUS
 62
    7
 10
-466.57113600000002
 20
802.97071849999998
 11
-466.57113600000002
 21
803.10002150000003
  0
LINE
  8
_0-0_0
  6
CONTINUOUS
 62
    7
 10
-466.57113600000002
 20
802.82929950000005
 11
-466.57113600000002
 21
802.97071849999998
  0
LINE
  8
_0-0_0
  6
CONTINUOUS
 62
    7
 10
-466.57113600000002
 20
802.82929950000005
 11
-466.57113600000002
 21
802.70002750000003
  0
LINE
  8
_0-0_0
  6
CONTINUOUS
 62
    7
 10
-466.57113600000002
 20
802.00001550000002
 11
-466.57113600000002
 21
802.70002750000003
  0
LINE
  8
_0-0_0
  6
CONTINUOUS
 62
    7
 10
-466.57113600000002
 20
801.87074250000001
 11
-466.57113600000002
 21
802.00001550000002
  0
LINE
  8
_0-0_0
  6
CONTINUOUS
 62
    7
 10
-466.57113600000002
 20
801.72929350000004
 11
-466.57113600000002
 21
801.87074250000001
  0
LINE
  8
_0-0_0
  6
CONTINUOUS
 62
    7
 10
-466.57113600000002
 20
801.72929350000004
 11
-466.57113600000002
 21
801.60002150000003
  0
LINE
  8
_0-0_0
  6
CONTINUOUS
 62
    7
 10
-466.57113600000002
 20
800.90000950000001
 11
-466.57113600000002
 21
801.60002150000003
  0
LINE
  8
_0-0_0
  6
CONTINUOUS
 62
    7
 10
-466.57113600000002
 20
800.7707365
 11
-466.57113600000002
 21
800.90000950000001
  0
LINE
  8
_0-0_0
  6
CONTINUOUS
 62
    7
 10
-466.57113600000002
 20
800.62931849999995
 11
-466.57113600000002
 21
800.7707365
  0
LINE
  8
_0-0_0
  6
CONTINUOUS
 62
    7
 10
-466.57113600000002
 20
800.62931849999995
 11
-466.57113600000002
 21
800.50001550000002
  0
LINE
  8
_0-0_0
  6
CONTINUOUS
 62
    7
 10
-466.57113600000002
 20
799.80000250000001
 11
-466.57113600000002
 21
800.50001550000002
  0
LINE
  8
_0-0_0
  6
CONTINUOUS
 62
    7
 10
-466.57113600000002
 20
799.67073049999999
 11
-466.57113600000002
 21
799.80000250000001
  0
LINE
  8
_0-0_0
  6
CONTINUOUS
 62
    7
 10
-466.57113600000002
 20
799.52931149999995
 11
-466.57113600000002
 21
799.67073049999999
  0
LINE
  8
_0-0_0
  6
CONTINUOUS
 62
    7
 10
-466.57113600000002
 20
799.52931149999995
 11
-466.57113600000002
 21
799.40000950000001
  0
LINE
  8
_0-0_0
  6
CONTINUOUS
 62
    7
 10
-466.57113600000002
 20
798.70002750000003
 11
-466.57113600000002
 21
799.40000950000001
  0
LINE
  8
_0-0_0
  6
CONTINUOUS
 62
    7
 10
-466.57113600000002
 20
798.57072449999998
 11
-466.57113600000002
 21
798.70002750000003
  0
LINE
  8
_0-0_0
  6
CONTINUOUS
 62
    7
 10
-466.57113600000002
 20
798.42930550000005
 11
-466.57113600000002
 21
798.57072449999998
  0
LINE
  8
_0-0_0
  6
CONTINUOUS
 62
    7
 10
-466.57113600000002
 20
798.42930550000005
 11
-466.57113600000002
 21
798.30000250000001
  0
LINE
  8
_0-0_0
  6
CONTINUOUS
 62
    7
 10
-466.57113600000002
 20
797.60002150000003
 11
-466.57113600000002
 21
798.30000250000001
  0
LINE
  8
_0-0_0
  6
CONTINUOUS
 62
    7
 10
-466.57113600000002
 20
797.47071849999998
 11
-466.57113600000002
 21
797.60002150000003
  0
LINE
  8
_0-0_0
  6
CONTINUOUS
 62
    7
 10
-466.57113600000002
 20
797.32929950000005
 11
-466.57113600000002
 21
797.47071849999998
  0
LINE
  8
_0-0_0
  6
CONTINUOUS
 62
    7
 10
-466.57113600000002
 20
797.32929950000005
 11
-466.57113600000002
 21
797.20002750000003
  0
LINE
  8
_0-0_0
  6
CONTINUOUS
 62
    7
 10
-466.57113600000002
 20
796.50001550000002
 11
-466.57113600000002
 21
797.20002750000003
  0
LINE
  8
_0-0_0
  6
CONTINUOUS
 62
    7
 10
-466.57113600000002
 20
796.37074250000001
 11
-466.57113600000002
 21
796.50001550000002
  0
LINE
  8
_0-0_0
  6
CONTINUOUS
 62
    7
 10
-466.57113600000002
 20
796.22929350000004
 11
-466.57113600000002
 21
796.37074250000001
  0
LINE
  8
_0-0_0
  6
CONTINUOUS
 62
    7
 10
-466.57113600000002
 20
796.22929350000004
 11
-466.57113600000002
 21
796.10002150000003
  0
LINE
  8
_0-0_0
  6
CONTINUOUS
 62
    7
 10
-466.57113600000002
 20
795.40000950000001
 11
-466.57113600000002
 21
796.10002150000003
  0
LINE
  8
_0-0_0
  6
CONTINUOUS
 62
    7
 10
-466.57113600000002
 20
795.2707365
 11
-466.57113600000002
 21
795.40000950000001
  0
LINE
  8
_0-0_0
  6
CONTINUOUS
 62
    7
 10
-464.11636300000009
 20
795.00001550000002
 11
-464.20535299999983
 21
795.12931849999995
  0
LINE
  8
_0-0_0
  6
CONTINUOUS
 62
    7
 10
-450.84381099999996
 20
795.2707365
 11
-450.93695099999991
 21
795.12931849999995
  0
LINE
  8
_0-0_0
  6
CONTINUOUS
 62
    7
 10
-450.84381099999996
 20
795.2707365
 11
-450.76232899999991
 21
795.40000950000001
  0
ARC
  8
_0-0_0
  6
CONTINUOUS
 62
    7
 10
-457.57113600000002
 20
799.60002150000003
 40
8
 50
328.33175599999993
 51
334.05550899999992
  0
LINE
  8
_0-0_0
  6
CONTINUOUS
 62
    7
 10
-450.3773799999999
 20
796.10002150000003
 11
-450.28347799999983
 21
796.30000250000001
  0
LINE
  8
_0-0_0
  6
CONTINUOUS
 62
    7
 10
-450.28347799999983
 20
796.30000250000001
 11
-450.19616700000006
 21
796.50001550000002
  0
ARC
  8
_0-0_0
  6
CONTINUOUS
 62
    7
 10
-457.57113600000002
 20
799.60002150000003
 40
8
 50
337.20097500000003
 51
342.54240199999998
  0
LINE
  8
_0-0_0
  6
CONTINUOUS
 62
    7
 10
-449.93963600000006
 20
797.20002750000003
 11
-449.87957800000004
 21
797.40000950000001
  0
LINE
  8
_0-0_0
  6
CONTINUOUS
 62
    7
 10
-449.87957800000004
 20
797.40000950000001
 11
-449.82519499999989
 21
797.60002150000003
  0
ARC
  8
_0-0_0
  6
CONTINUOUS
 62
    7
 10
-457.57113600000002
 20
799.60002150000003
 40
8
 50
345.52249499999999
 51
350.64797900000002
  0
LINE
  8
_0-0_0
  6
CONTINUOUS
 62
    7
 10
-449.67749000000003
 20
798.30000250000001
 11
-449.64712499999996
 21
798.50001550000002
  0
LINE
  8
_0-0_0
  6
CONTINUOUS
 62
    7
 10
-449.64712499999996
 20
798.50001550000002
 11
-449.62194799999997
 21
798.70002750000003
  0
ARC
  8
_0-0_0
  6
CONTINUOUS
 62
    7
 10
-457.57113600000002
 20
799.60002150000003
 40
8
 50
353.54056400000002
 51
358.56744600000002
  0
LINE
  8
_0-0_0
  6
CONTINUOUS
 62
    7
 10
-449.57363899999996
 20
799.40000950000001
 11
-449.57113600000002
 21
799.60002150000003
  0
LINE
  8
_0-0_0
  6
CONTINUOUS
 62
    7
 10
-465.570831
 20
799.52931149999995
 11
-465.57113600000002
 21
799.60002150000003
  0
LINE
  8
_0-0_0
  6
CONTINUOUS
 62
    7
 10
-465.56863399999997
 20
799.40000950000001
 11
-465.570831
 21
799.52931149999995
  0
ARC
  8
_0-0_0
  6
CONTINUOUS
 62
    7
 10
-457.57113600000002
 20
799.60002150000003
 40
8
 50
181.432545
 51
186.45945499999999
  0
LINE
  8
_0-0_0
  6
CONTINUOUS
 62
    7
 10
-465.504639
 20
798.57072449999998
 11
-465.52035500000011
 21
798.70002750000003
  0
LINE
  8
_0-0_0
  6
CONTINUOUS
 62
    7
 10
-465.504639
 20
798.57072449999998
 11
-465.48501600000009
 21
798.42930550000005
  0
LINE
  8
_0-0_0
  6
CONTINUOUS
 62
    7
 10
-465.46481300000005
 20
798.30000250000001
 11
-465.48501600000009
 21
798.42930550000005
  0
ARC
  8
_0-0_0
  6
CONTINUOUS
 62
    7
 10
-457.57113600000002
 20
799.60002150000003
 40
8
 50
189.35203999999999
 51
194.47751
  0
LINE
  8
_0-0_0
  6
CONTINUOUS
 62
    7
 10
-465.28256199999987
 20
797.47071849999998
 11
-465.31710799999996
 21
797.60002150000003
  0
LINE
  8
_0-0_0
  6
CONTINUOUS
 62
    7
 10
-465.28256199999987
 20
797.47071849999998
 11
-465.2421260000001
 21
797.32929950000005
  0
LINE
  8
_0-0_0
  6
CONTINUOUS
 62
    7
 10
-465.20266700000002
 20
797.20002750000003
 11
-465.2421260000001
 21
797.32929950000005
  0
ARC
  8
_0-0_0
  6
CONTINUOUS
 62
    7
 10
-457.57113600000002
 20
799.60002150000003
 40
8
 50
197.45760300000001
 51
202.79902999999999
  0
LINE
  8
_0-0_0
  6
CONTINUOUS
 62
    7
 10
-464.89041099999986
 20
796.37074250000001
 11
-464.94610599999987
 21
796.50001550000002
  0
LINE
  8
_0-0_0
  6
CONTINUOUS
 62
    7
 10
-464.89041099999986
 20
796.37074250000001
 11
-464.82635499999992
 21
796.22929350000004
  0
LINE
  8
_0-0_0
  6
CONTINUOUS
 62
    7
 10
-464.76489300000003
 20
796.10002150000003
 11
-464.82635499999992
 21
796.22929350000004
  0
ARC
  8
_0-0_0
  6
CONTINUOUS
 62
    7
 10
-457.57113600000002
 20
799.60002150000003
 40
8
 50
205.94448199999999
 51
211.66823500000001
  0
LINE
  8
_0-0_0
  6
CONTINUOUS
 62
    7
 10
-464.2984919999999
 20
795.2707365
 11
-464.37994400000002
 21
795.40000950000001
  0
LINE
  8
_0-0_0
  6
CONTINUOUS
 62
    7
 10
-464.2984919999999
 20
795.2707365
 11
-464.20535299999983
 21
795.12931849999995
  0
LINE
  8
_0-0_0
  6
CONTINUOUS
 62
    7
 10
1640.4289549999999
 20
787.30000250000001
 11
1647.4289549999999
 21
787.30000250000001
  0
ARC
  8
_0-0_0
  6
CONTINUOUS
 62
    7
 10
1640.4289549999999
 20
786.80000250000001
 40
0.5
 50
90.000003000000007
 51
180.00000900000001
  0
LINE
  8
_0-0_0
  6
CONTINUOUS
 62
    7
 10
1639.9289549999999
 20
786.80000250000001
 11
1639.9289549999999
 21
782.80000250000001
  0
ARC
  8
_0-0_0
  6
CONTINUOUS
 62
    7
 10
1640.4289549999999
 20
782.80000250000001
 40
0.5
 50
180.00000900000003
 51
269.99999700000001
  0
LINE
  8
_0-0_0
  6
CONTINUOUS
 62
    7
 10
1647.4289549999999
 20
782.30000250000001
 11
1640.4289549999999
 21
782.30000250000001
  0
ARC
  8
_0-0_0
  6
CONTINUOUS
 62
    7
 10
1647.4289549999999
 20
782.80000250000001
 40
0.5
 50
269.99999700000001
 51
0
  0
LINE
  8
_0-0_0
  6
CONTINUOUS
 62
    7
 10
1647.9289549999999
 20
782.80000250000001
 11
1647.9289549999999
 21
786.80000250000001
  0
ARC
  8
_0-0_0
  6
CONTINUOUS
 62
    7
 10
1647.4289549999999
 20
786.80000250000001
 40
0.5
 50
0
 51
90.000003000000007
  0
ARC
  8
_0-0_0
  6
CONTINUOUS
 62
    7
 10
-399.57116700000006
 20
786.80000250000001
 40
0.5
 50
90.000003000000007
 51
180.00000900000001
  0
LINE
  8
_0-0_0
  6
CONTINUOUS
 62
    7
 10
-400.07116700000006
 20
786.80000250000001
 11
-400.07116700000006
 21
782.80000250000001
  0
ARC
  8
_0-0_0
  6
CONTINUOUS
 62
    7
 10
-399.57116700000006
 20
782.80000250000001
 40
0.5
 50
180.00000900000003
 51
269.99999700000001
  0
LINE
  8
_0-0_0
  6
CONTINUOUS
 62
    7
 10
-392.57116700000006
 20
782.30000250000001
 11
-399.57116700000006
 21
782.30000250000001
  0
ARC
  8
_0-0_0
  6
CONTINUOUS
 62
    7
 10
-392.57116700000006
 20
782.80000250000001
 40
0.5
 50
269.99999700000001
 51
0
  0
LINE
  8
_0-0_0
  6
CONTINUOUS
 62
    7
 10
-392.07116700000006
 20
782.80000250000001
 11
-392.07116700000006
 21
786.80000250000001
  0
ARC
  8
_0-0_0
  6
CONTINUOUS
 62
    7
 10
-392.57116700000006
 20
786.80000250000001
 40
0.5
 50
0
 51
90.000003000000007
  0
LINE
  8
_0-0_0
  6
CONTINUOUS
 62
    7
 10
-399.57116700000006
 20
787.30000250000001
 11
-392.57116700000006
 21
787.30000250000001
  0
LINE
  8
_0-0_0
  6
CONTINUOUS
 62
    7
 10
-450.76232899999991
 20
795.40000950000001
 11
1690.6201169999999
 21
795.40000950000001
  0
LINE
  8
_0-0_0
  6
CONTINUOUS
 62
    7
 10
-450.3773799999999
 20
796.10002150000003
 11
1690.2351079999999
 21
796.10002150000003
  0
LINE
  8
_0-0_0
  6
CONTINUOUS
 62
    7
 10
-450.28347799999983
 20
796.30000250000001
 11
1690.1413579999999
 21
796.30000250000001
  0
LINE
  8
_0-0_0
  6
CONTINUOUS
 62
    7
 10
-450.19616700000006
 20
796.50001550000002
 11
1690.0539549999999
 21
796.50001550000002
  0
LINE
  8
_0-0_0
  6
CONTINUOUS
 62
    7
 10
-449.93963600000006
 20
797.20002750000003
 11
1689.7973630000001
 21
797.20002750000003
  0
LINE
  8
_0-0_0
  6
CONTINUOUS
 62
    7
 10
-449.87957800000004
 20
797.40000950000001
 11
1689.7373050000001
 21
797.40000950000001
  0
LINE
  8
_0-0_0
  6
CONTINUOUS
 62
    7
 10
-449.82519499999989
 20
797.60002150000003
 11
1689.683106
 21
797.60002150000003
  0
LINE
  8
_0-0_0
  6
CONTINUOUS
 62
    7
 10
-449.67749000000003
 20
798.30000250000001
 11
1689.5354000000002
 21
798.30000250000001
  0
LINE
  8
_0-0_0
  6
CONTINUOUS
 62
    7
 10
-449.64712499999996
 20
798.50001550000002
 11
1689.5048830000001
 21
798.50001550000002
  0
LINE
  8
_0-0_0
  6
CONTINUOUS
 62
    7
 10
-449.62194799999997
 20
798.70002750000003
 11
1689.4797360000002
 21
798.70002750000003
  0
LINE
  8
_0-0_0
  6
CONTINUOUS
 62
    7
 10
-449.57363899999996
 20
799.40000950000001
 11
1689.4313969999998
 21
799.40000950000001
  0
LINE
  8
_0-0_0
  6
CONTINUOUS
 62
    7
 10
-449.57113600000002
 20
799.60002150000003
 11
1689.4289549999999
 21
799.60002150000003
  0
LINE
  8
_0-0_0
  6
CONTINUOUS
 62
    7
 10
1703.9741210000002
 20
804.20002750000003
 11
1704.0632329999999
 21
804.07072449999998
  0
ARC
  8
_0-0_0
  6
CONTINUOUS
 62
    7
 10
1697.4289549999999
 20
799.60002150000003
 40
8
 50
35.099632
 51
144.900373
  0
LINE
  8
_0-0_0
  6
CONTINUOUS
 62
    7
 10
1690.883789
 20
804.20002750000003
 11
1690.7946780000002
 21
804.07072449999998
  0
LINE
  8
_0-0_0
  6
CONTINUOUS
 62
    7
 10
1690.7016600000002
 20
803.92930550000005
 11
1690.7946780000002
 21
804.07072449999998
  0
LINE
  8
_0-0_0
  6
CONTINUOUS
 62
    7
 10
1690.7016600000002
 20
803.92930550000005
 11
1690.6201169999999
 21
803.80000250000001
  0
ARC
  8
_0-0_0
  6
CONTINUOUS
 62
    7
 10
1697.4289549999999
 20
799.60002150000003
 40
8
 50
148.33176499999999
 51
154.05551800000001
  0
LINE
  8
_0-0_0
  6
CONTINUOUS
 62
    7
 10
1690.2351079999999
 20
803.10002150000003
 11
1690.1413579999999
 21
802.90000950000001
  0
LINE
  8
_0-0_0
  6
CONTINUOUS
 62
    7
 10
1690.1413579999999
 20
802.90000950000001
 11
1690.0539549999999
 21
802.70002750000003
  0
ARC
  8
_0-0_0
  6
CONTINUOUS
 62
    7
 10
1697.4289549999999
 20
799.60002150000003
 40
8
 50
157.20097000000001
 51
162.54239699999999
  0
LINE
  8
_0-0_0
  6
CONTINUOUS
 62
    7
 10
1689.7973630000001
 20
802.00001550000002
 11
1689.7373050000001
 21
801.80000250000001
  0
LINE
  8
_0-0_0
  6
CONTINUOUS
 62
    7
 10
1689.7373050000001
 20
801.80000250000001
 11
1689.683106
 21
801.60002150000003
  0
ARC
  8
_0-0_0
  6
CONTINUOUS
 62
    7
 10
1697.4289549999999
 20
799.60002150000003
 40
8
 50
165.52249
 51
170.64796000000001
  0
LINE
  8
_0-0_0
  6
CONTINUOUS
 62
    7
 10
1689.5354000000002
 20
800.90000950000001
 11
1689.5048830000001
 21
800.70002750000003
  0
LINE
  8
_0-0_0
  6
CONTINUOUS
 62
    7
 10
1689.5048830000001
 20
800.70002750000003
 11
1689.4797360000002
 21
800.50001550000002
  0
ARC
  8
_0-0_0
  6
CONTINUOUS
 62
    7
 10
1697.4289549999999
 20
799.60002150000003
 40
8
 50
173.54054500000001
 51
178.567455
  0
LINE
  8
_0-0_0
  6
CONTINUOUS
 62
    7
 10
1689.4313969999998
 20
799.80000250000001
 11
1689.4289549999999
 21
799.60002150000003
  0
LINE
  8
_0-0_0
  6
CONTINUOUS
 62
    7
 10
1705.4265140000002
 20
799.80000250000001
 11
1705.4289549999999
 21
799.60002150000003
  0
ARC
  8
_0-0_0
  6
CONTINUOUS
 62
    7
 10
1697.4289549999999
 20
799.60002150000003
 40
8
 50
1.432544
 51
6.4594489999999993
  0
LINE
  8
_0-0_0
  6
CONTINUOUS
 62
    7
 10
1705.3530270000001
 20
800.70002750000003
 11
1705.3781739999999
 21
800.50001550000002
  0
LINE
  8
_0-0_0
  6
CONTINUOUS
 62
    7
 10
1705.32251
 20
800.90000950000001
 11
1705.3530270000001
 21
800.70002750000003
  0
ARC
  8
_0-0_0
  6
CONTINUOUS
 62
    7
 10
1697.4289549999999
 20
799.60002150000003
 40
8
 50
9.3520350000000008
 51
14.477510999999998
  0
LINE
  8
_0-0_0
  6
CONTINUOUS
 62
    7
 10
1705.120606
 20
801.80000250000001
 11
1705.1748050000001
 21
801.60002150000003
  0
LINE
  8
_0-0_0
  6
CONTINUOUS
 62
    7
 10
1705.060547
 20
802.00001550000002
 11
1705.120606
 21
801.80000250000001
  0
ARC
  8
_0-0_0
  6
CONTINUOUS
 62
    7
 10
1697.4289549999999
 20
799.60002150000003
 40
8
 50
17.457602999999999
 51
22.799030999999999
  0
LINE
  8
_0-0_0
  6
CONTINUOUS
 62
    7
 10
1704.7165530000002
 20
802.90000950000001
 11
1704.8039549999999
 21
802.70002750000003
  0
LINE
  8
_0-0_0
  6
CONTINUOUS
 62
    7
 10
1704.6228030000002
 20
803.10002150000003
 11
1704.7165530000002
 21
802.90000950000001
  0
ARC
  8
_0-0_0
  6
CONTINUOUS
 62
    7
 10
1697.4289549999999
 20
799.60002150000003
 40
8
 50
25.944476999999999
 51
31.668240000000001
  0
LINE
  8
_0-0_0
  6
CONTINUOUS
 62
    7
 10
1704.15625
 20
803.92930550000005
 11
1704.2377930000002
 21
803.80000250000001
  0
LINE
  8
_0-0_0
  6
CONTINUOUS
 62
    7
 10
1704.15625
 20
803.92930550000005
 11
1704.0632329999999
 21
804.07072449999998
  0
CIRCLE
  8
_0-0_0
  6
CONTINUOUS
 62
    7
 10
1697.4289549999999
 20
799.60002150000003
 40
7.5
  0
LINE
  8
_0-0_0
  6
CONTINUOUS
 62
    7
 10
1705.4265140000002
 20
799.40000950000001
 11
1706.4289549999999
 21
799.40000950000001
  0
LINE
  8
_0-0_0
  6
CONTINUOUS
 62
    7
 10
1705.4289549999999
 20
799.60002150000003
 11
1706.4289549999999
 21
799.60002150000003
  0
LINE
  8
_0-0_0
  6
CONTINUOUS
 62
    7
 10
1705.3781739999999
 20
798.70002750000003
 11
1706.4289549999999
 21
798.70002750000003
  0
LINE
  8
_0-0_0
  6
CONTINUOUS
 62
    7
 10
1705.3530270000001
 20
798.50001550000002
 11
1706.4289549999999
 21
798.50001550000002
  0
LINE
  8
_0-0_0
  6
CONTINUOUS
 62
    7
 10
1705.32251
 20
798.30000250000001
 11
1706.4289549999999
 21
798.30000250000001
  0
LINE
  8
_0-0_0
  6
CONTINUOUS
 62
    7
 10
1705.1748050000001
 20
797.60002150000003
 11
1706.4289549999999
 21
797.60002150000003
  0
LINE
  8
_0-0_0
  6
CONTINUOUS
 62
    7
 10
1705.120606
 20
797.40000950000001
 11
1706.4289549999999
 21
797.40000950000001
  0
LINE
  8
_0-0_0
  6
CONTINUOUS
 62
    7
 10
1705.060547
 20
797.20002750000003
 11
1706.4289549999999
 21
797.20002750000003
  0
LINE
  8
_0-0_0
  6
CONTINUOUS
 62
    7
 10
1704.8039549999999
 20
796.50001550000002
 11
1706.4289549999999
 21
796.50001550000002
  0
LINE
  8
_0-0_0
  6
CONTINUOUS
 62
    7
 10
1704.7165530000002
 20
796.30000250000001
 11
1706.4289549999999
 21
796.30000250000001
  0
LINE
  8
_0-0_0
  6
CONTINUOUS
 62
    7
 10
1704.6228030000002
 20
796.10002150000003
 11
1706.4289549999999
 21
796.10002150000003
  0
LINE
  8
_0-0_0
  6
CONTINUOUS
 62
    7
 10
1704.2377930000002
 20
795.40000950000001
 11
1706.4289549999999
 21
795.40000950000001
  0
LINE
  8
_0-0_0
  6
CONTINUOUS
 62
    7
 10
1704.2377930000002
 20
803.80000250000001
 11
1706.4289549999999
 21
803.80000250000001
  0
LINE
  8
_0-0_0
  6
CONTINUOUS
 62
    7
 10
1704.6228030000002
 20
803.10002150000003
 11
1706.4289549999999
 21
803.10002150000003
  0
LINE
  8
_0-0_0
  6
CONTINUOUS
 62
    7
 10
1704.7165530000002
 20
802.90000950000001
 11
1706.4289549999999
 21
802.90000950000001
  0
LINE
  8
_0-0_0
  6
CONTINUOUS
 62
    7
 10
1704.8039549999999
 20
802.70002750000003
 11
1706.4289549999999
 21
802.70002750000003
  0
LINE
  8
_0-0_0
  6
CONTINUOUS
 62
    7
 10
1705.060547
 20
802.00001550000002
 11
1706.4289549999999
 21
802.00001550000002
  0
LINE
  8
_0-0_0
  6
CONTINUOUS
 62
    7
 10
1705.120606
 20
801.80000250000001
 11
1706.4289549999999
 21
801.80000250000001
  0
LINE
  8
_0-0_0
  6
CONTINUOUS
 62
    7
 10
1705.1748050000001
 20
801.60002150000003
 11
1706.4289549999999
 21
801.60002150000003
  0
LINE
  8
_0-0_0
  6
CONTINUOUS
 62
    7
 10
1705.32251
 20
800.90000950000001
 11
1706.4289549999999
 21
800.90000950000001
  0
LINE
  8
_0-0_0
  6
CONTINUOUS
 62
    7
 10
1705.3530270000001
 20
800.70002750000003
 11
1706.4289549999999
 21
800.70002750000003
  0
LINE
  8
_0-0_0
  6
CONTINUOUS
 62
    7
 10
1705.3781739999999
 20
800.50001550000002
 11
1706.4289549999999
 21
800.50001550000002
  0
LINE
  8
_0-0_0
  6
CONTINUOUS
 62
    7
 10
1705.4265140000002
 20
799.80000250000001
 11
1706.4289549999999
 21
799.80000250000001
  0
LINE
  8
_0-0_0
  6
CONTINUOUS
 62
    7
 10
1706.9289549999999
 20
783.10002150000003
 11
1706.4289549999999
 21
783.10002150000003
  0
LINE
  8
_0-0_0
  6
CONTINUOUS
 62
    7
 10
1706.4289549999999
 20
785.30000250000001
 11
1706.9289549999999
 21
785.30000250000001
  0
LINE
  8
_0-0_0
  6
CONTINUOUS
 62
    7
 10
1706.9289549999999
 20
787.60002150000003
 11
1706.4289549999999
 21
787.60002150000003
  0
LINE
  8
_0-0_0
  6
CONTINUOUS
 62
    7
 10
-466.57113600000002
 20
787.60002150000003
 11
-467.07113600000002
 21
787.60002150000003
  0
LINE
  8
_0-0_0
  6
CONTINUOUS
 62
    7
 10
1706.4289549999999
 20
789.90000950000001
 11
1706.9289549999999
 21
789.90000950000001
  0
LINE
  8
_0-0_0
  6
CONTINUOUS
 62
    7
 10
1706.9289549999999
 20
810.10002150000003
 11
1706.9289549999999
 21
810.00001550000002
  0
LINE
  8
_0-0_0
  6
CONTINUOUS
 62
    7
 10
-467.07113600000002
 20
810.10002150000003
 11
-467.07113600000002
 21
810.00001550000002
  0
LINE
  8
_0-0_0
  6
CONTINUOUS
 62
    7
 10
-467.07113600000002
 20
789.90000950000001
 11
-466.57113600000002
 21
789.90000950000001
  0
LINE
  8
_0-0_0
  6
CONTINUOUS
 62
    7
 10
-466.57113600000002
 20
809.80000250000001
 11
1706.4289549999999
 21
809.80000250000001
  0
LINE
  8
_0-0_0
  6
CONTINUOUS
 62
    7
 10
-466.57113600000002
 20
809.20603949999997
 11
1706.4289549999999
 21
809.20603949999997
  0
LINE
  8
_0-0_0
  6
CONTINUOUS
 62
    7
 10
1703.9741210000002
 20
804.20002750000003
 11
1706.4289549999999
 21
804.20002750000003
  0
LINE
  8
_0-0_0
  6
CONTINUOUS
 62
    7
 10
-466.57113600000002
 20
804.20002750000003
 11
-464.11636300000009
 21
804.20002750000003
  0
ARC
  8
_0-0_0
  6
CONTINUOUS
 62
    7
 10
-457.57113600000002
 20
799.60002150000003
 40
8
 50
35.099632
 51
144.900373
  0
LINE
  8
_0-0_0
  6
CONTINUOUS
 62
    7
 10
-451.02590899999996
 20
804.20002750000003
 11
1690.883789
 21
804.20002750000003
  0
LINE
  8
_0-0_0
  6
CONTINUOUS
 62
    7
 10
-467.07113600000002
 20
783.10002150000003
 11
-466.57113600000002
 21
783.10002150000003
  0
LINE
  8
_0-0_0
  6
CONTINUOUS
 62
    7
 10
-467.07113600000002
 20
785.30000250000001
 11
-466.57113600000002
 21
785.30000250000001
  0
LINE
  8
_0-0_0
  6
CONTINUOUS
 62
    7
 10
-464.11636300000009
 20
804.20002750000003
 11
-464.20535299999983
 21
804.07072449999998
  0
LINE
  8
_0-0_0
  6
CONTINUOUS
 62
    7
 10
-464.2984919999999
 20
803.92930550000005
 11
-464.20535299999983
 21
804.07072449999998
  0
LINE
  8
_0-0_0
  6
CONTINUOUS
 62
    7
 10
-466.57113600000002
 20
803.80000250000001
 11
-464.37994400000002
 21
803.80000250000001
  0
LINE
  8
_0-0_0
  6
CONTINUOUS
 62
    7
 10
-464.2984919999999
 20
803.92930550000005
 11
-464.37994400000002
 21
803.80000250000001
  0
ARC
  8
_0-0_0
  6
CONTINUOUS
 62
    7
 10
-457.57113600000002
 20
799.60002150000003
 40
8
 50
148.33176499999999
 51
154.05551800000001
  0
LINE
  8
_0-0_0
  6
CONTINUOUS
 62
    7
 10
-466.57113600000002
 20
803.10002150000003
 11
-464.76489300000003
 21
803.10002150000003
  0
LINE
  8
_0-0_0
  6
CONTINUOUS
 62
    7
 10
-464.76489300000003
 20
803.10002150000003
 11
-464.82635499999992
 21
802.97071849999998
  0
LINE
  8
_0-0_0
  6
CONTINUOUS
 62
    7
 10
-464.89041099999986
 20
802.82929950000005
 11
-464.82635499999992
 21
802.97071849999998
  0
LINE
  8
_0-0_0
  6
CONTINUOUS
 62
    7
 10
-466.57113600000002
 20
802.70002750000003
 11
-464.94610599999987
 21
802.70002750000003
  0
LINE
  8
_0-0_0
  6
CONTINUOUS
 62
    7
 10
-464.89041099999986
 20
802.82929950000005
 11
-464.94610599999987
 21
802.70002750000003
  0
ARC
  8
_0-0_0
  6
CONTINUOUS
 62
    7
 10
-457.57113600000002
 20
799.60002150000003
 40
8
 50
157.20097000000001
 51
162.54239699999999
  0
LINE
  8
_0-0_0
  6
CONTINUOUS
 62
    7
 10
-466.57113600000002
 20
802.00001550000002
 11
-465.20266700000002
 21
802.00001550000002
  0
LINE
  8
_0-0_0
  6
CONTINUOUS
 62
    7
 10
-465.20266700000002
 20
802.00001550000002
 11
-465.2421260000001
 21
801.87074250000001
  0
LINE
  8
_0-0_0
  6
CONTINUOUS
 62
    7
 10
-465.28256199999987
 20
801.72929350000004
 11
-465.2421260000001
 21
801.87074250000001
  0
LINE
  8
_0-0_0
  6
CONTINUOUS
 62
    7
 10
-466.57113600000002
 20
801.60002150000003
 11
-465.31710799999996
 21
801.60002150000003
  0
LINE
  8
_0-0_0
  6
CONTINUOUS
 62
    7
 10
-465.28256199999987
 20
801.72929350000004
 11
-465.31710799999996
 21
801.60002150000003
  0
ARC
  8
_0-0_0
  6
CONTINUOUS
 62
    7
 10
-457.57113600000002
 20
799.60002150000003
 40
8
 50
165.52249
 51
170.64796000000001
  0
LINE
  8
_0-0_0
  6
CONTINUOUS
 62
    7
 10
-466.57113600000002
 20
800.90000950000001
 11
-465.46481300000005
 21
800.90000950000001
  0
LINE
  8
_0-0_0
  6
CONTINUOUS
 62
    7
 10
-465.46481300000005
 20
800.90000950000001
 11
-465.48501600000009
 21
800.7707365
  0
LINE
  8
_0-0_0
  6
CONTINUOUS
 62
    7
 10
-465.504639
 20
800.62931849999995
 11
-465.48501600000009
 21
800.7707365
  0
LINE
  8
_0-0_0
  6
CONTINUOUS
 62
    7
 10
-466.57113600000002
 20
800.50001550000002
 11
-465.52035500000011
 21
800.50001550000002
  0
LINE
  8
_0-0_0
  6
CONTINUOUS
 62
    7
 10
-465.504639
 20
800.62931849999995
 11
-465.52035500000011
 21
800.50001550000002
  0
ARC
  8
_0-0_0
  6
CONTINUOUS
 62
    7
 10
-457.57113600000002
 20
799.60002150000003
 40
8
 50
173.54054500000001
 51
178.567455
  0
LINE
  8
_0-0_0
  6
CONTINUOUS
 62
    7
 10
-466.57113600000002
 20
799.80000250000001
 11
-465.56863399999997
 21
799.80000250000001
  0
LINE
  8
_0-0_0
  6
CONTINUOUS
 62
    7
 10
-465.56863399999997
 20
799.80000250000001
 11
-465.570831
 21
799.67073049999999
  0
LINE
  8
_0-0_0
  6
CONTINUOUS
 62
    7
 10
-465.57113600000002
 20
799.60002150000003
 11
-465.570831
 21
799.67073049999999
  0
LINE
  8
_0-0_0
  6
CONTINUOUS
 62
    7
 10
-466.57113600000002
 20
799.40000950000001
 11
-465.56863399999997
 21
799.40000950000001
  0
LINE
  8
_0-0_0
  6
CONTINUOUS
 62
    7
 10
-466.57113600000002
 20
798.70002750000003
 11
-465.52035500000011
 21
798.70002750000003
  0
LINE
  8
_0-0_0
  6
CONTINUOUS
 62
    7
 10
-466.57113600000002
 20
798.30000250000001
 11
-465.46481300000005
 21
798.30000250000001
  0
LINE
  8
_0-0_0
  6
CONTINUOUS
 62
    7
 10
-466.57113600000002
 20
797.60002150000003
 11
-465.31710799999996
 21
797.60002150000003
  0
LINE
  8
_0-0_0
  6
CONTINUOUS
 62
    7
 10
-466.57113600000002
 20
797.20002750000003
 11
-465.20266700000002
 21
797.20002750000003
  0
LINE
  8
_0-0_0
  6
CONTINUOUS
 62
    7
 10
-466.57113600000002
 20
796.50001550000002
 11
-464.94610599999987
 21
796.50001550000002
  0
LINE
  8
_0-0_0
  6
CONTINUOUS
 62
    7
 10
-466.57113600000002
 20
796.10002150000003
 11
-464.76489300000003
 21
796.10002150000003
  0
LINE
  8
_0-0_0
  6
CONTINUOUS
 62
    7
 10
-466.57113600000002
 20
795.40000950000001
 11
-464.37994400000002
 21
795.40000950000001
  0
LINE
  8
_0-0_0
  6
CONTINUOUS
 62
    7
 10
-449.57363899999996
 20
799.80000250000001
 11
-449.57113600000002
 21
799.60002150000003
  0
ARC
  8
_0-0_0
  6
CONTINUOUS
 62
    7
 10
-457.57113600000002
 20
799.60002150000003
 40
8
 50
1.432544
 51
6.4594489999999993
  0
LINE
  8
_0-0_0
  6
CONTINUOUS
 62
    7
 10
-449.64712499999996
 20
800.70002750000003
 11
-449.62194799999997
 21
800.50001550000002
  0
LINE
  8
_0-0_0
  6
CONTINUOUS
 62
    7
 10
-449.67749000000003
 20
800.90000950000001
 11
-449.64712499999996
 21
800.70002750000003
  0
ARC
  8
_0-0_0
  6
CONTINUOUS
 62
    7
 10
-457.57113600000002
 20
799.60002150000003
 40
8
 50
9.3520350000000008
 51
14.477510999999998
  0
LINE
  8
_0-0_0
  6
CONTINUOUS
 62
    7
 10
-449.87957800000004
 20
801.80000250000001
 11
-449.82519499999989
 21
801.60002150000003
  0
LINE
  8
_0-0_0
  6
CONTINUOUS
 62
    7
 10
-449.93963600000006
 20
802.00001550000002
 11
-449.87957800000004
 21
801.80000250000001
  0
ARC
  8
_0-0_0
  6
CONTINUOUS
 62
    7
 10
-457.57113600000002
 20
799.60002150000003
 40
8
 50
17.457602999999999
 51
22.799030999999999
  0
LINE
  8
_0-0_0
  6
CONTINUOUS
 62
    7
 10
-450.28347799999983
 20
802.90000950000001
 11
-450.19616700000006
 21
802.70002750000003
  0
LINE
  8
_0-0_0
  6
CONTINUOUS
 62
    7
 10
-450.3773799999999
 20
803.10002150000003
 11
-450.28347799999983
 21
802.90000950000001
  0
ARC
  8
_0-0_0
  6
CONTINUOUS
 62
    7
 10
-457.57113600000002
 20
799.60002150000003
 40
8
 50
25.944476999999999
 51
31.668240000000001
  0
LINE
  8
_0-0_0
  6
CONTINUOUS
 62
    7
 10
-450.84381099999996
 20
803.92930550000005
 11
-450.76232899999991
 21
803.80000250000001
  0
LINE
  8
_0-0_0
  6
CONTINUOUS
 62
    7
 10
-450.84381099999996
 20
803.92930550000005
 11
-450.93695099999991
 21
804.07072449999998
  0
LINE
  8
_0-0_0
  6
CONTINUOUS
 62
    7
 10
-451.02590899999996
 20
804.20002750000003
 11
-450.93695099999991
 21
804.07072449999998
  0
CIRCLE
  8
_0-0_0
  6
CONTINUOUS
 62
    7
 10
-457.57113600000002
 20
799.60002150000003
 40
7.5
  0
LINE
  8
_0-0_0
  6
CONTINUOUS
 62
    7
 10
-449.57363899999996
 20
799.80000250000001
 11
1689.4313969999998
 21
799.80000250000001
  0
LINE
  8
_0-0_0
  6
CONTINUOUS
 62
    7
 10
-449.62194799999997
 20
800.50001550000002
 11
1689.4797360000002
 21
800.50001550000002
  0
LINE
  8
_0-0_0
  6
CONTINUOUS
 62
    7
 10
-449.64712499999996
 20
800.70002750000003
 11
1689.5048830000001
 21
800.70002750000003
  0
LINE
  8
_0-0_0
  6
CONTINUOUS
 62
    7
 10
-449.67749000000003
 20
800.90000950000001
 11
1689.5354000000002
 21
800.90000950000001
  0
LINE
  8
_0-0_0
  6
CONTINUOUS
 62
    7
 10
-449.82519499999989
 20
801.60002150000003
 11
1689.683106
 21
801.60002150000003
  0
LINE
  8
_0-0_0
  6
CONTINUOUS
 62
    7
 10
-449.87957800000004
 20
801.80000250000001
 11
1689.7373050000001
 21
801.80000250000001
  0
LINE
  8
_0-0_0
  6
CONTINUOUS
 62
    7
 10
-449.93963600000006
 20
802.00001550000002
 11
1689.7973630000001
 21
802.00001550000002
  0
LINE
  8
_0-0_0
  6
CONTINUOUS
 62
    7
 10
-450.19616700000006
 20
802.70002750000003
 11
1690.0539549999999
 21
802.70002750000003
  0
LINE
  8
_0-0_0
  6
CONTINUOUS
 62
    7
 10
-450.28347799999983
 20
802.90000950000001
 11
1690.1413579999999
 21
802.90000950000001
  0
LINE
  8
_0-0_0
  6
CONTINUOUS
 62
    7
 10
-450.3773799999999
 20
803.10002150000003
 11
1690.2351079999999
 21
803.10002150000003
  0
LINE
  8
_0-0_0
  6
CONTINUOUS
 62
    7
 10
-450.76232899999991
 20
803.80000250000001
 11
1690.6201169999999
 21
803.80000250000001
  0
LINE
  8
_0-0_0
  6
CONTINUOUS
 62
    7
 10
1706.9289549999999
 20
781.60002150000003
 11
1706.4289549999999
 21
781.60002150000003
  0
LINE
  8
_0-0_0
  6
CONTINUOUS
 62
    7
 10
1706.9289549999999
 20
809.20002750000003
 11
1706.9289549999999
 21
810.00001550000002
  0
LINE
  8
_0-0_0
  6
CONTINUOUS
 62
    7
 10
1706.9289549999999
 20
781.40000950000001
 11
1706.9289549999999
 21
809.20002750000003
  0
ARC
  8
_0-0_0
  6
CONTINUOUS
 62
    7
 10
1697.4289549999999
 20
800.30000250000001
 40
12.800000000000001
 50
73.932597000000001
 51
106.06740099999999
  0
LINE
  8
_0-0_0
  6
CONTINUOUS
 62
    7
 10
-467.07113600000002
 20
809.20002750000003
 11
-467.07113600000002
 21
810.00001550000002
  0
LINE
  8
_0-0_0
  6
CONTINUOUS
 62
    7
 10
-467.07113600000002
 20
781.40000950000001
 11
-467.07113600000002
 21
809.20002750000003
  0
ARC
  8
_0-0_0
  6
CONTINUOUS
 62
    7
 10
-457.57113600000002
 20
800.30000250000001
 40
12.800000000000001
 50
73.932597000000001
 51
106.06740099999999
  0
LINE
  8
_0-0_0
  6
CONTINUOUS
 62
    7
 10
252.92883300000005
 20
812.59999049999999
 11
252.92883300000005
 21
818.23991350000006
  0
LINE
  8
_0-0_0
  6
CONTINUOUS
 62
    7
 10
271.92883300000005
 20
818.23991350000006
 11
271.92883300000005
 21
812.59999049999999
  0
LINE
  8
_0-0_0
  6
CONTINUOUS
 62
    7
 10
972.92883300000005
 20
812.59999049999999
 11
972.92883300000005
 21
818.23991350000006
  0
LINE
  8
_0-0_0
  6
CONTINUOUS
 62
    7
 10
991.92883300000005
 20
818.23991350000006
 11
991.92883300000005
 21
812.59999049999999
  0
LINE
  8
_0-0_0
  6
CONTINUOUS
 62
    7
 10
1706.9289549999999
 20
810.10002150000003
 11
1706.9289549999999
 21
812.60002150000003
  0
LINE
  8
_0-0_0
  6
CONTINUOUS
 62
    7
 10
-467.07113600000002
 20
812.60002150000003
 11
1706.9289549999999
 21
812.60002150000003
  0
LINE
  8
_0-0_0
  6
CONTINUOUS
 62
    7
 10
-467.07113600000002
 20
810.10002150000003
 11
-467.07113600000002
 21
812.60002150000003
  0
LINE
  8
_0-0_0
  6
CONTINUOUS
 62
    7
 10
-467.07113600000002
 20
781.60002150000003
 11
-466.57113600000002
 21
781.60002150000003
  0
ARC
  8
_0-0_0
  6
CONTINUOUS
 62
    7
 10
1645.2290039999998
 20
786.50001550000002
 40
0.2
 50
339.62356199999999
 51
90.000002999999978
  0
LINE
  8
_0-0_0
  6
CONTINUOUS
 62
    7
 10
1645.4165039999998
 20
786.43037449999997
 11
1644.1164549999999
 21
782.93037449999997
  0
ARC
  8
_0-0_0
  6
CONTINUOUS
 62
    7
 10
1643.9289549999999
 20
783.00001550000002
 40
0.2
 50
200.37643
 51
339.62356199999999
  0
LINE
  8
_0-0_0
  6
CONTINUOUS
 62
    7
 10
1642.4414059999999
 20
786.43037449999997
 11
1643.7414549999999
 21
782.93037449999997
  0
ARC
  8
_0-0_0
  6
CONTINUOUS
 62
    7
 10
1642.6289059999999
 20
786.50001550000002
 40
0.2
 50
90.000003000000007
 51
200.37643
  0
LINE
  8
_0-0_0
  6
CONTINUOUS
 62
    7
 10
1642.6289059999999
 20
786.70002750000003
 11
1645.2290039999998
 21
786.70002750000003
  0
ARC
  8
_0-0_0
  6
CONTINUOUS
 62
    7
 10
-394.77114899999992
 20
786.50001550000002
 40
0.2
 50
339.62356199999999
 51
90.000002999999978
  0
LINE
  8
_0-0_0
  6
CONTINUOUS
 62
    7
 10
-394.58367899999985
 20
786.43037449999997
 11
-395.88366700000006
 21
782.93037449999997
  0
ARC
  8
_0-0_0
  6
CONTINUOUS
 62
    7
 10
-396.07116700000006
 20
783.00001550000002
 40
0.2
 50
200.37643
 51
339.62356199999999
  0
LINE
  8
_0-0_0
  6
CONTINUOUS
 62
    7
 10
-397.55865500000004
 20
786.43037449999997
 11
-396.25863600000002
 21
782.93037449999997
  0
ARC
  8
_0-0_0
  6
CONTINUOUS
 62
    7
 10
-397.37115500000004
 20
786.50001550000002
 40
0.2
 50
90.000003000000007
 51
200.37643
  0
LINE
  8
_0-0_0
  6
CONTINUOUS
 62
    7
 10
-397.37115500000004
 20
786.70002750000003
 11
-394.77114899999992
 21
786.70002750000003
  0
LINE
  8
_0-0_0
  6
CONTINUOUS
 62
    7
 10
1707.9289549999999
 20
809.20002750000003
 11
1706.9289549999999
 21
809.20002750000003
  0
LINE
  8
_0-0_0
  6
CONTINUOUS
 62
    7
 10
1707.9289549999999
 20
810.23701449999999
 11
1706.9289549999999
 21
810.23701449999999
  0
LINE
  8
_0-0_0
  6
CONTINUOUS
 62
    7
 10
1707.9289549999999
 20
781.40000950000001
 11
1706.9289549999999
 21
781.40000950000001
  0
ARC
  8
_0-0_0
  6
CONTINUOUS
 62
    7
 10
982.42883300000005
 20
800.30000250000001
 40
20.299999
 50
62.096725999999997
 51
117.903272
  0
CIRCLE
  8
_0-0_0
  6
CONTINUOUS
 62
    7
 10
982.42883300000005
 20
816.60002150000003
 40
2.5
  0
ARC
  8
_0-0_0
  6
CONTINUOUS
 62
    7
 10
262.42883300000005
 20
800.30000250000001
 40
20.299999
 50
62.096725999999997
 51
117.903272
  0
CIRCLE
  8
_0-0_0
  6
CONTINUOUS
 62
    7
 10
262.42883300000005
 20
816.60002150000003
 40
2.5
  0
LINE
  8
_0-0_0
  6
CONTINUOUS
 62
    7
 10
-468.07113600000002
 20
809.20002750000003
 11
-467.07113600000002
 21
809.20002750000003
  0
LINE
  8
_0-0_0
  6
CONTINUOUS
 62
    7
 10
-468.07113600000002
 20
810.20002750000003
 11
-467.07113600000002
 21
810.20002750000003
  0
LINE
  8
_0-0_0
  6
CONTINUOUS
 62
    7
 10
-468.07113600000002
 20
781.40000950000001
 11
-467.07113600000002
 21
781.40000950000001
  0
LINE
  8
_0-0_0
  6
CONTINUOUS
 62
    7
 10
1707.9289549999999
 20
812.40000950000001
 11
1706.9289549999999
 21
812.40000950000001
  0
LINE
  8
_0-0_0
  6
CONTINUOUS
 62
    7
 10
-468.07113600000002
 20
812.40000950000001
 11
-467.07113600000002
 21
812.40000950000001
  0
LINE
  8
_0-0_0
  6
CONTINUOUS
 62
    7
 10
1708.9289549999999
 20
808.78581250000002
 11
1708.9279790000001
 21
808.80430550000005
  0
LINE
  8
_0-0_0
  6
CONTINUOUS
 62
    7
 10
1708.9279790000001
 20
808.80430550000005
 11
1708.9250489999999
 21
808.82273850000001
  0
LINE
  8
_0-0_0
  6
CONTINUOUS
 62
    7
 10
1708.9250489999999
 20
808.82273850000001
 11
1708.9196780000002
 21
808.84187350000002
  0
LINE
  8
_0-0_0
  6
CONTINUOUS
 62
    7
 10
1708.9196780000002
 20
808.84187350000002
 11
1708.9123540000001
 21
808.86091650000003
  0
LINE
  8
_0-0_0
  6
CONTINUOUS
 62
    7
 10
1708.9123540000001
 20
808.86091650000003
 11
1708.891846
 21
808.8976285
  0
LINE
  8
_0-0_0
  6
CONTINUOUS
 62
    7
 10
1708.891846
 20
808.8976285
 11
1708.8632809999999
 21
808.93330349999997
  0
LINE
  8
_0-0_0
  6
CONTINUOUS
 62
    7
 10
1708.8632809999999
 20
808.93330349999997
 11
1708.827393
 21
808.96757449999996
  0
LINE
  8
_0-0_0
  6
CONTINUOUS
 62
    7
 10
1708.827393
 20
808.96757449999996
 11
1708.7788089999999
 21
809.00404349999997
  0
LINE
  8
_0-0_0
  6
CONTINUOUS
 62
    7
 10
1708.7788089999999
 20
809.00404349999997
 11
1708.7221680000002
 21
809.0380705
  0
LINE
  8
_0-0_0
  6
CONTINUOUS
 62
    7
 10
1708.7221680000002
 20
809.0380705
 11
1708.6579590000001
 21
809.0693205
  0
LINE
  8
_0-0_0
  6
CONTINUOUS
 62
    7
 10
1708.6579590000001
 20
809.0693205
 11
1708.5874020000001
 21
809.09754950000001
  0
LINE
  8
_0-0_0
  6
CONTINUOUS
 62
    7
 10
1708.5874020000001
 20
809.09754950000001
 11
1708.539307
 21
809.11390649999998
  0
LINE
  8
_0-0_0
  6
CONTINUOUS
 62
    7
 10
1708.539307
 20
809.11390649999998
 11
1708.4890140000002
 21
809.12892150000005
  0
LINE
  8
_0-0_0
  6
CONTINUOUS
 62
    7
 10
1708.4890140000002
 20
809.12892150000005
 11
1708.4323730000001
 21
809.14369150000005
  0
LINE
  8
_0-0_0
  6
CONTINUOUS
 62
    7
 10
1708.4323730000001
 20
809.14369150000005
 11
1708.373779
 21
809.15678349999996
  0
LINE
  8
_0-0_0
  6
CONTINUOUS
 62
    7
 10
1708.373779
 20
809.15678349999996
 11
1708.2570799999999
 21
809.17707849999999
  0
LINE
  8
_0-0_0
  6
CONTINUOUS
 62
    7
 10
1708.2570799999999
 20
809.17707849999999
 11
1708.1496579999998
 21
809.18980350000004
  0
LINE
  8
_0-0_0
  6
CONTINUOUS
 62
    7
 10
1708.1496579999998
 20
809.18980350000004
 11
1708.0397950000001
 21
809.19746350000003
  0
LINE
  8
_0-0_0
  6
CONTINUOUS
 62
    7
 10
1708.0397950000001
 20
809.19746350000003
 11
1707.9289549999999
 21
809.20002750000003
  0
LINE
  8
_0-0_0
  6
CONTINUOUS
 62
    7
 10
1708.9289549999999
 20
808.78581250000002
 11
1708.9289549999999
 21
809.78587349999998
  0
LINE
  8
_0-0_0
  6
CONTINUOUS
 62
    7
 10
1708.9289549999999
 20
809.78587349999998
 11
1708.9260250000002
 21
809.81742850000001
  0
LINE
  8
_0-0_0
  6
CONTINUOUS
 62
    7
 10
1708.9260250000002
 20
809.81742850000001
 11
1708.9172360000002
 21
809.84950249999997
  0
LINE
  8
_0-0_0
  6
CONTINUOUS
 62
    7
 10
1708.9172360000002
 20
809.84950249999997
 11
1708.9028320000002
 21
809.88179049999997
  0
LINE
  8
_0-0_0
  6
CONTINUOUS
 62
    7
 10
1708.9028320000002
 20
809.88179049999997
 11
1708.882568
 21
809.91395550000004
  0
LINE
  8
_0-0_0
  6
CONTINUOUS
 62
    7
 10
1708.882568
 20
809.91395550000004
 11
1708.8659670000002
 21
809.93516550000004
  0
LINE
  8
_0-0_0
  6
CONTINUOUS
 62
    7
 10
1708.8659670000002
 20
809.93516550000004
 11
1708.8469239999999
 21
809.95613049999997
  0
LINE
  8
_0-0_0
  6
CONTINUOUS
 62
    7
 10
1708.8469239999999
 20
809.95613049999997
 11
1708.8022460000002
 21
809.99690250000003
  0
LINE
  8
_0-0_0
  6
CONTINUOUS
 62
    7
 10
1708.8022460000002
 20
809.99690250000003
 11
1708.7490240000002
 21
810.03565949999995
  0
LINE
  8
_0-0_0
  6
CONTINUOUS
 62
    7
 10
1708.7490240000002
 20
810.03565949999995
 11
1708.6992190000001
 21
810.06587249999995
  0
LINE
  8
_0-0_0
  6
CONTINUOUS
 62
    7
 10
1708.6992190000001
 20
810.06587249999995
 11
1708.6445309999999
 21
810.09407050000004
  0
LINE
  8
_0-0_0
  6
CONTINUOUS
 62
    7
 10
1708.6445309999999
 20
810.09407050000004
 11
1708.5854490000002
 21
810.12013249999995
  0
LINE
  8
_0-0_0
  6
CONTINUOUS
 62
    7
 10
1708.5854490000002
 20
810.12013249999995
 11
1708.5385740000002
 21
810.13810750000005
  0
LINE
  8
_0-0_0
  6
CONTINUOUS
 62
    7
 10
1708.5385740000002
 20
810.13810750000005
 11
1708.48999
 21
810.15470849999997
  0
LINE
  8
_0-0_0
  6
CONTINUOUS
 62
    7
 10
1708.48999
 20
810.15470849999997
 11
1708.3876949999999
 21
810.18360849999999
  0
LINE
  8
_0-0_0
  6
CONTINUOUS
 62
    7
 10
1708.3876949999999
 20
810.18360849999999
 11
1708.2797850000002
 21
810.2064365
  0
LINE
  8
_0-0_0
  6
CONTINUOUS
 62
    7
 10
1708.2797850000002
 20
810.2064365
 11
1708.1682129999999
 21
810.22300749999999
  0
LINE
  8
_0-0_0
  6
CONTINUOUS
 62
    7
 10
1708.1682129999999
 20
810.22300749999999
 11
1708.0541990000002
 21
810.23319949999996
  0
LINE
  8
_0-0_0
  6
CONTINUOUS
 62
    7
 10
1708.0541990000002
 20
810.23319949999996
 11
1707.9289549999999
 21
810.23701449999999
  0
ARC
  8
_0-0_0
  6
CONTINUOUS
 62
    7
 10
1707.9289549999999
 20
782.40000950000001
 40
1
 50
269.99999700000001
 51
0
  0
LINE
  8
_0-0_0
  6
CONTINUOUS
 62
    7
 10
1708.9289549999999
 20
782.40000950000001
 11
1708.9289549999999
 21
808.78581250000002
  0
CIRCLE
  8
_0-0_0
  6
CONTINUOUS
 62
    7
 10
1697.4289549999999
 20
799.60002150000003
 40
5
  0
LINE
  8
_0-0_0
  6
CONTINUOUS
 62
    7
 10
-469.07113600000002
 20
808.78581250000002
 11
-469.07012899999995
 21
808.80430550000005
  0
LINE
  8
_0-0_0
  6
CONTINUOUS
 62
    7
 10
-469.07012899999995
 20
808.80430550000005
 11
-469.067139
 21
808.82273850000001
  0
LINE
  8
_0-0_0
  6
CONTINUOUS
 62
    7
 10
-469.067139
 20
808.82273850000001
 11
-469.0619200000001
 21
808.84187350000002
  0
LINE
  8
_0-0_0
  6
CONTINUOUS
 62
    7
 10
-469.0619200000001
 20
808.84187350000002
 11
-469.05453499999999
 21
808.86091650000003
  0
LINE
  8
_0-0_0
  6
CONTINUOUS
 62
    7
 10
-469.05453499999999
 20
808.86091650000003
 11
-469.033997
 21
808.8976285
  0
LINE
  8
_0-0_0
  6
CONTINUOUS
 62
    7
 10
-469.033997
 20
808.8976285
 11
-469.00558499999988
 21
808.93330349999997
  0
LINE
  8
_0-0_0
  6
CONTINUOUS
 62
    7
 10
-469.00558499999988
 20
808.93330349999997
 11
-468.96969600000011
 21
808.96757449999996
  0
LINE
  8
_0-0_0
  6
CONTINUOUS
 62
    7
 10
-468.96969600000011
 20
808.96757449999996
 11
-468.92108099999996
 21
809.00404349999997
  0
LINE
  8
_0-0_0
  6
CONTINUOUS
 62
    7
 10
-468.92108099999996
 20
809.00404349999997
 11
-468.86428799999999
 21
809.0380705
  0
LINE
  8
_0-0_0
  6
CONTINUOUS
 62
    7
 10
-468.86428799999999
 20
809.0380705
 11
-468.80017099999986
 21
809.0693205
  0
LINE
  8
_0-0_0
  6
CONTINUOUS
 62
    7
 10
-468.80017099999986
 20
809.0693205
 11
-468.72949199999994
 21
809.09754950000001
  0
LINE
  8
_0-0_0
  6
CONTINUOUS
 62
    7
 10
-468.72949199999994
 20
809.09754950000001
 11
-468.68142699999999
 21
809.11390649999998
  0
LINE
  8
_0-0_0
  6
CONTINUOUS
 62
    7
 10
-468.68142699999999
 20
809.11390649999998
 11
-468.63128699999993
 21
809.12892150000005
  0
LINE
  8
_0-0_0
  6
CONTINUOUS
 62
    7
 10
-468.63128699999993
 20
809.12892150000005
 11
-468.57458499999984
 21
809.14369150000005
  0
LINE
  8
_0-0_0
  6
CONTINUOUS
 62
    7
 10
-468.57458499999984
 20
809.14369150000005
 11
-468.51599099999999
 21
809.15678349999996
  0
LINE
  8
_0-0_0
  6
CONTINUOUS
 62
    7
 10
-468.51599099999999
 20
809.15678349999996
 11
-468.39919999999984
 21
809.17707849999999
  0
LINE
  8
_0-0_0
  6
CONTINUOUS
 62
    7
 10
-468.39919999999984
 20
809.17707849999999
 11
-468.29180900000006
 21
809.18980350000004
  0
LINE
  8
_0-0_0
  6
CONTINUOUS
 62
    7
 10
-468.29180900000006
 20
809.18980350000004
 11
-468.18203700000004
 21
809.19746350000003
  0
LINE
  8
_0-0_0
  6
CONTINUOUS
 62
    7
 10
-468.18203700000004
 20
809.19746350000003
 11
-468.07113600000002
 21
809.20002750000003
  0
LINE
  8
_0-0_0
  6
CONTINUOUS
 62
    7
 10
-469.07113600000002
 20
809.75547749999998
 11
-469.06823699999995
 21
809.7863615
  0
LINE
  8
_0-0_0
  6
CONTINUOUS
 62
    7
 10
-469.06823699999995
 20
809.7863615
 11
-469.05956999999989
 21
809.81782550000003
  0
LINE
  8
_0-0_0
  6
CONTINUOUS
 62
    7
 10
-469.05956999999989
 20
809.81782550000003
 11
-469.04507400000011
 21
809.84947150000005
  0
LINE
  8
_0-0_0
  6
CONTINUOUS
 62
    7
 10
-469.04507400000011
 20
809.84947150000005
 11
-469.02490200000011
 21
809.8810575
  0
LINE
  8
_0-0_0
  6
CONTINUOUS
 62
    7
 10
-469.02490200000011
 20
809.8810575
 11
-469.00839199999996
 21
809.90193150000005
  0
LINE
  8
_0-0_0
  6
CONTINUOUS
 62
    7
 10
-469.00839199999996
 20
809.90193150000005
 11
-468.98947099999987
 21
809.92256150000003
  0
LINE
  8
_0-0_0
  6
CONTINUOUS
 62
    7
 10
-468.98947099999987
 20
809.92256150000003
 11
-468.94482399999993
 21
809.96272250000004
  0
LINE
  8
_0-0_0
  6
CONTINUOUS
 62
    7
 10
-468.94482399999993
 20
809.96272250000004
 11
-468.89172400000007
 21
810.00090050000006
  0
LINE
  8
_0-0_0
  6
CONTINUOUS
 62
    7
 10
-468.89172400000007
 20
810.00090050000006
 11
-468.84179700000004
 21
810.03071550000004
  0
LINE
  8
_0-0_0
  6
CONTINUOUS
 62
    7
 10
-468.84179700000004
 20
810.03071550000004
 11
-468.78713999999991
 21
810.05860849999999
  0
LINE
  8
_0-0_0
  6
CONTINUOUS
 62
    7
 10
-468.78713999999991
 20
810.05860849999999
 11
-468.72818000000007
 21
810.08433549999995
  0
LINE
  8
_0-0_0
  6
CONTINUOUS
 62
    7
 10
-468.72818000000007
 20
810.08433549999995
 11
-468.68139599999995
 21
810.10212650000005
  0
LINE
  8
_0-0_0
  6
CONTINUOUS
 62
    7
 10
-468.68139599999995
 20
810.10212650000005
 11
-468.63268999999991
 21
810.11854549999998
  0
LINE
  8
_0-0_0
  6
CONTINUOUS
 62
    7
 10
-468.63268999999991
 20
810.11854549999998
 11
-468.53027299999985
 21
810.14714049999998
  0
LINE
  8
_0-0_0
  6
CONTINUOUS
 62
    7
 10
-468.53027299999985
 20
810.14714049999998
 11
-468.4224549999999
 21
810.16972350000003
  0
LINE
  8
_0-0_0
  6
CONTINUOUS
 62
    7
 10
-468.4224549999999
 20
810.16972350000003
 11
-468.31075999999985
 21
810.18614149999996
  0
LINE
  8
_0-0_0
  6
CONTINUOUS
 62
    7
 10
-468.31075999999985
 20
810.18614149999996
 11
-468.196594
 21
810.19624350000004
  0
LINE
  8
_0-0_0
  6
CONTINUOUS
 62
    7
 10
-468.196594
 20
810.19624350000004
 11
-468.07113600000002
 21
810.20002750000003
  0
LINE
  8
_0-0_0
  6
CONTINUOUS
 62
    7
 10
-469.07113600000002
 20
808.78581250000002
 11
-469.07113600000002
 21
809.75547749999998
  0
ARC
  8
_0-0_0
  6
CONTINUOUS
 62
    7
 10
-468.07113600000002
 20
782.40000950000001
 40
1
 50
180.00000900000003
 51
269.99999700000001
  0
LINE
  8
_0-0_0
  6
CONTINUOUS
 62
    7
 10
-469.07113600000002
 20
782.40000950000001
 11
-469.07113600000002
 21
808.78581250000002
  0
CIRCLE
  8
_0-0_0
  6
CONTINUOUS
 62
    7
 10
-457.57113600000002
 20
799.60002150000003
 40
5
  0
LINE
  8
_0-0_0
  6
CONTINUOUS
 62
    7
 10
1708.9289549999999
 20
809.78587349999998
 11
1708.9289549999999
 21
811.40000950000001
  0
ARC
  8
_0-0_0
  6
CONTINUOUS
 62
    7
 10
1707.9289549999999
 20
811.40000950000001
 40
1
 50
0
 51
90.000003000000007
  0
ARC
  8
_0-0_0
  6
CONTINUOUS
 62
    7
 10
-468.07113600000002
 20
811.40000950000001
 40
1
 50
90.000003000000007
 51
180.00000900000001
  0
LINE
  8
_0-0_0
  6
CONTINUOUS
 62
    7
 10
-469.07113600000002
 20
809.75547749999998
 11
-469.07113600000002
 21
811.40000950000001
  0
LINE
  8
_0-0_0
  6
CONTINUOUS
 62
    7
 10
-556.886841
 20
779.29994150000005
 11
-556.886841
 21
779.27494750000005
  0
LINE
  8
_0-0_0
  6
CONTINUOUS
 62
    7
 10
-556.886841
 20
776.2228235
 11
-556.886841
 21
776.32493550000004
  0
LINE
  8
_0-0_0
  6
CONTINUOUS
 62
    7
 10
-556.886841
 20
755.19993550000004
 11
-556.886841
 21
755.97706549999998
  0
LINE
  8
_0-0_0
  6
CONTINUOUS
 62
    7
 10
-573.68682899999999
 20
755.19993550000004
 11
-556.886841
 21
755.19993550000004
  0
LINE
  8
_0-0_0
  6
CONTINUOUS
 62
    7
 10
-573.68682899999999
 20
763.09992950000003
 11
-573.68682899999999
 21
755.19993550000004
  0
LINE
  8
_0-0_0
  6
CONTINUOUS
 62
    7
 10
-573.68682899999999
 20
775.55525150000005
 11
-573.68682899999999
 21
769.09992950000003
  0
LINE
  8
_0-0_0
  6
CONTINUOUS
 62
    7
 10
-556.386841
 20
758.69993550000004
 11
-556.18682899999999
 21
758.69993550000004
  0
LINE
  8
_0-0_0
  6
CONTINUOUS
 62
    7
 10
-556.18682899999999
 20
758.69993550000004
 11
-556.18682899999999
 21
761.69993550000004
  0
LINE
  8
_0-0_0
  6
CONTINUOUS
 62
    7
 10
-556.18682899999999
 20
775.29994150000005
 11
-556.18682899999999
 21
761.69993550000004
  0
LINE
  8
_0-0_0
  6
CONTINUOUS
 62
    7
 10
-556.386841
 20
778.29994150000005
 11
-556.18682899999999
 21
778.29994150000005
  0
LINE
  8
_0-0_0
  6
CONTINUOUS
 62
    7
 10
-556.18682899999999
 20
775.29994150000005
 11
-556.18682899999999
 21
778.29994150000005
  0
LINE
  8
_0-0_0
  6
CONTINUOUS
 62
    7
 10
-557.08679200000006
 20
777.59901449999995
 11
-557.08679200000006
 21
776.41981450000003
  0
LINE
  8
_0-0_0
  6
CONTINUOUS
 62
    7
 10
-557.08679200000006
 20
779.79994150000005
 11
-557.08679200000006
 21
779.29994150000005
  0
LINE
  8
_0-0_0
  6
CONTINUOUS
 62
    7
 10
-558.08679200000006
 20
776.88343750000001
 11
-558.08679200000006
 21
777.59992950000003
  0
ARC
  8
_0-0_0
  6
CONTINUOUS
 62
    7
 10
-558.386841
 20
774.89994750000005
 40
2
 50
0
 51
90.000003000000007
  0
LINE
  8
_0-0_0
  6
CONTINUOUS
 62
    7
 10
-556.386841
 20
771.39994750000005
 11
-556.386841
 21
774.39994750000005
  0
LINE
  8
_0-0_0
  6
CONTINUOUS
 62
    7
 10
-556.386841
 20
774.39994750000005
 11
-556.386841
 21
774.89994750000005
  0
LINE
  8
_0-0_0
  6
CONTINUOUS
 62
    7
 10
-556.386841
 20
757.29994150000005
 11
-556.386841
 21
770.89994750000005
  0
LINE
  8
_0-0_0
  6
CONTINUOUS
 62
    7
 10
-556.386841
 20
771.39994750000005
 11
-556.386841
 21
770.89994750000005
  0
ARC
  8
_0-0_0
  6
CONTINUOUS
 62
    7
 10
-558.386841
 20
757.29994150000005
 40
2
 50
273.84026500000004
 51
0.000010000000014
  0
LINE
  8
_0-0_0
  6
CONTINUOUS
 62
    7
 10
-571.68682899999999
 20
776.88343750000001
 11
-571.68682899999999
 21
777.59992950000003
  0
LINE
  8
_0-0_0
  6
CONTINUOUS
 62
    7
 10
-571.68682899999999
 20
776.88343750000001
 11
-571.68682899999999
 21
776.87730350000004
  0
LINE
  8
_0-0_0
  6
CONTINUOUS
 62
    7
 10
-573.68682899999999
 20
775.55525150000005
 11
-573.68682899999999
 21
776.05525150000005
  0
LINE
  8
_0-0_0
  6
CONTINUOUS
 62
    7
 10
-573.386841
 20
774.89994750000005
 11
-573.386841
 21
761.29994150000005
  0
LINE
  8
_0-0_0
  6
CONTINUOUS
 62
    7
 10
-573.386841
 20
760.79994150000005
 11
-573.386841
 21
761.29994150000005
  0
LINE
  8
_0-0_0
  6
CONTINUOUS
 62
    7
 10
-573.386841
 20
757.79994150000005
 11
-573.386841
 21
760.79994150000005
  0
LINE
  8
_0-0_0
  6
CONTINUOUS
 62
    7
 10
-573.386841
 20
757.29994150000005
 11
-573.386841
 21
757.79994150000005
  0
ARC
  8
_0-0_0
  6
CONTINUOUS
 62
    7
 10
-571.386841
 20
774.89994750000005
 40
2
 50
93.840255999999997
 51
180.00000900000001
  0
LINE
  8
_0-0_0
  6
CONTINUOUS
 62
    7
 10
-573.68682899999999
 20
763.09992950000003
 11
-573.68682899999999
 21
769.09992950000003
  0
LINE
  8
_0-0_0
  6
CONTINUOUS
 62
    7
 10
-573.68682899999999
 20
777.59992950000003
 11
-573.68682899999999
 21
776.05525150000005
  0
LINE
  8
_0-0_0
  6
CONTINUOUS
 62
    7
 10
-573.68682899999999
 20
769.09992950000003
 11
-573.386841
 21
769.09992950000003
  0
LINE
  8
_0-0_0
  6
CONTINUOUS
 62
    7
 10
-573.68682899999999
 20
763.09992950000003
 11
-573.386841
 21
763.09992950000003
  0
LINE
  8
_0-0_0
  6
CONTINUOUS
 62
    7
 10
-558.386841
 20
755.29994150000005
 11
-567.386841
 21
755.29994150000005
  0
LINE
  8
_0-0_0
  6
CONTINUOUS
 62
    7
 10
-570.886841
 20
755.29994150000005
 11
-571.386841
 21
755.29994150000005
  0
LINE
  8
_0-0_0
  6
CONTINUOUS
 62
    7
 10
-567.886841
 20
755.29994150000005
 11
-570.886841
 21
755.29994150000005
  0
LINE
  8
_0-0_0
  6
CONTINUOUS
 62
    7
 10
-567.386841
 20
755.29994150000005
 11
-567.886841
 21
755.29994150000005
  0
ARC
  8
_0-0_0
  6
CONTINUOUS
 62
    7
 10
-571.386841
 20
757.29994150000005
 40
2
 50
180.00000900000003
 51
269.99999700000001
  0
ARC
  8
_0-0_0
  6
CONTINUOUS
 62
    7
 10
-557.58679200000006
 20
779.79994150000005
 40
0.5
 50
0
 51
90.000003000000007
  0
LINE
  8
_0-0_0
  6
CONTINUOUS
 62
    7
 10
-559.08679200000006
 20
780.29994150000005
 11
-557.58679200000006
 21
780.29994150000005
  0
ARC
  8
_0-0_0
  6
CONTINUOUS
 62
    7
 10
-559.08679200000006
 20
781.29994150000005
 40
1
 50
180.00000900000003
 51
269.99999700000001
  0
LINE
  8
_0-0_0
  6
CONTINUOUS
 62
    7
 10
-560.08679200000006
 20
781.29994150000005
 11
-560.08679200000006
 21
781.40003950000005
  0
LINE
  8
_0-0_0
  6
CONTINUOUS
 62
    7
 10
-560.58679200000006
 20
780.29994150000005
 11
-560.58679200000006
 21
781.40003950000005
  0
ARC
  8
_0-0_0
  6
CONTINUOUS
 62
    7
 10
-559.58679200000006
 20
780.29994150000005
 40
1
 50
180.00000900000003
 51
269.99999700000001
  0
LINE
  8
_0-0_0
  6
CONTINUOUS
 62
    7
 10
-559.58679200000006
 20
779.29994150000005
 11
-559.78680399999985
 21
779.29994150000005
  0
ARC
  8
_0-0_0
  6
CONTINUOUS
 62
    7
 10
-559.78680399999985
 20
780.29994150000005
 40
1
 50
180.00000900000003
 51
269.99999700000001
  0
ARC
  8
_0-0_0
  6
CONTINUOUS
 62
    7
 10
-569.98681600000009
 20
780.29994150000005
 40
1
 50
269.99999700000001
 51
0
  0
LINE
  8
_0-0_0
  6
CONTINUOUS
 62
    7
 10
-569.98681600000009
 20
779.29994150000005
 11
-570.68682899999999
 21
779.29994150000005
  0
LINE
  8
_0-0_0
  6
CONTINUOUS
 62
    7
 10
-556.886841
 20
779.29994150000005
 11
-557.08679200000006
 21
779.29994150000005
  0
LINE
  8
_0-0_0
  6
CONTINUOUS
 62
    7
 10
-573.68682899999999
 20
777.59992950000003
 11
-556.886841
 21
777.59992950000003
  0
LINE
  8
_0-0_0
  6
CONTINUOUS
 62
    7
 10
-556.886841
 20
777.59992950000003
 11
-556.886841
 21
779.29994150000005
  0
LINE
  8
_0-0_0
  6
CONTINUOUS
 62
    7
 10
-560.78680399999985
 20
781.40003950000005
 11
-560.78680399999985
 21
780.29994150000005
  0
LINE
  8
_0-0_0
  6
CONTINUOUS
 62
    7
 10
-568.98681600000009
 20
780.29994150000005
 11
-568.98681600000009
 21
781.40003950000005
  0
LINE
  8
_0-0_0
  6
CONTINUOUS
 62
    7
 10
-572.68682899999999
 20
779.29994150000005
 11
-573.68682899999999
 21
779.29994150000005
  0
LINE
  8
_0-0_0
  6
CONTINUOUS
 62
    7
 10
-573.68682899999999
 20
777.59992950000003
 11
-573.68682899999999
 21
779.29994150000005
  0
LINE
  8
_0-0_0
  6
CONTINUOUS
 62
    7
 10
-558.386841
 20
776.89994750000005
 11
-558.886841
 21
776.89994750000005
  0
CIRCLE
  8
_0-0_0
  6
CONTINUOUS
 62
    7
 10
-558.886841
 20
774.39994750000005
 40
2.5
  0
LINE
  8
_0-0_0
  6
CONTINUOUS
 62
    7
 10
-571.386841
 20
776.89994750000005
 11
-562.386841
 21
776.89994750000005
  0
LINE
  8
_0-0_0
  6
CONTINUOUS
 62
    7
 10
-558.886841
 20
776.89994750000005
 11
-561.886841
 21
776.89994750000005
  0
LINE
  8
_0-0_0
  6
CONTINUOUS
 62
    7
 10
-562.386841
 20
776.89994750000005
 11
-561.886841
 21
776.89994750000005
  0
ARC
  8
_0-0_0
  6
CONTINUOUS
 62
    7
 10
-556.886841
 20
770.89994750000005
 40
0.5
 50
0
 51
90.000003000000007
  0
LINE
  8
_0-0_0
  6
CONTINUOUS
 62
    7
 10
-558.386841
 20
755.40257250000002
 11
-558.37091099999998
 21
755.37532050000004
  0
LINE
  8
_0-0_0
  6
CONTINUOUS
 62
    7
 10
-558.37091099999998
 20
755.37532050000004
 11
-558.35510199999999
 21
755.35234049999997
  0
LINE
  8
_0-0_0
  6
CONTINUOUS
 62
    7
 10
-558.35510199999999
 20
755.35234049999997
 11
-558.34112499999992
 21
755.33558649999998
  0
LINE
  8
_0-0_0
  6
CONTINUOUS
 62
    7
 10
-558.34112499999992
 20
755.33558649999998
 11
-558.32720900000004
 21
755.3222505
  0
LINE
  8
_0-0_0
  6
CONTINUOUS
 62
    7
 10
-558.32720900000004
 20
755.3222505
 11
-558.31500199999982
 21
755.31333949999998
  0
LINE
  8
_0-0_0
  6
CONTINUOUS
 62
    7
 10
-558.31500199999982
 20
755.31333949999998
 11
-558.30285600000002
 21
755.30711350000001
  0
LINE
  8
_0-0_0
  6
CONTINUOUS
 62
    7
 10
-558.30285600000002
 20
755.30711350000001
 11
-558.29199199999994
 21
755.30384849999996
  0
LINE
  8
_0-0_0
  6
CONTINUOUS
 62
    7
 10
-558.29199199999994
 20
755.30384849999996
 11
-558.28125
 21
755.30278050000004
  0
LINE
  8
_0-0_0
  6
CONTINUOUS
 62
    7
 10
-558.28125
 20
755.30278050000004
 11
-558.27880899999991
 21
755.30287150000004
  0
LINE
  8
_0-0_0
  6
CONTINUOUS
 62
    7
 10
-572.68682899999999
 20
776.41981450000003
 11
-572.68682899999999
 21
777.59901449999995
  0
ARC
  8
_0-0_0
  6
CONTINUOUS
 62
    7
 10
-572.886841
 20
761.29994150000005
 40
0.5
 50
180.00000900000003
 51
269.99999700000001
  0
CIRCLE
  8
_0-0_0
  6
CONTINUOUS
 62
    7
 10
-570.886841
 20
757.79994150000005
 40
2.5
  0
LINE
  8
_0-0_0
  6
CONTINUOUS
 62
    7
 10
-571.386841
 20
776.79731749999996
 11
-571.40270999999984
 21
776.82456950000005
  0
LINE
  8
_0-0_0
  6
CONTINUOUS
 62
    7
 10
-571.40270999999984
 20
776.82456950000005
 11
-571.41851799999995
 21
776.84754950000001
  0
LINE
  8
_0-0_0
  6
CONTINUOUS
 62
    7
 10
-571.41851799999995
 20
776.84754950000001
 11
-571.43249500000002
 21
776.86430350000001
  0
LINE
  8
_0-0_0
  6
CONTINUOUS
 62
    7
 10
-571.43249500000002
 20
776.86430350000001
 11
-571.4464109999999
 21
776.87763949999999
  0
LINE
  8
_0-0_0
  6
CONTINUOUS
 62
    7
 10
-571.4464109999999
 20
776.87763949999999
 11
-571.45861800000011
 21
776.8865505
  0
LINE
  8
_0-0_0
  6
CONTINUOUS
 62
    7
 10
-571.45861800000011
 20
776.8865505
 11
-571.47076399999992
 21
776.89277649999997
  0
LINE
  8
_0-0_0
  6
CONTINUOUS
 62
    7
 10
-571.47076399999992
 20
776.89277649999997
 11
-571.481628
 21
776.89604150000002
  0
LINE
  8
_0-0_0
  6
CONTINUOUS
 62
    7
 10
-571.481628
 20
776.89604150000002
 11
-571.49237099999982
 21
776.89710950000006
  0
LINE
  8
_0-0_0
  6
CONTINUOUS
 62
    7
 10
-571.49237099999982
 20
776.89710950000006
 11
-571.4948730000001
 21
776.89701850000006
  0
LINE
  8
_0-0_0
  6
CONTINUOUS
 62
    7
 10
-573.68682899999999
 20
758.69993550000004
 11
-573.78680399999985
 21
758.69993550000004
  0
LINE
  8
_0-0_0
  6
CONTINUOUS
 62
    7
 10
-573.78680399999985
 20
758.69993550000004
 11
-573.78680399999985
 21
761.69993550000004
  0
LINE
  8
_0-0_0
  6
CONTINUOUS
 62
    7
 10
-573.78680399999985
 20
761.69993550000004
 11
-573.78680399999985
 21
775.29994150000005
  0
LINE
  8
_0-0_0
  6
CONTINUOUS
 62
    7
 10
-573.68682899999999
 20
778.29994150000005
 11
-573.78680399999985
 21
778.29994150000005
  0
LINE
  8
_0-0_0
  6
CONTINUOUS
 62
    7
 10
-573.78680399999985
 20
775.29994150000005
 11
-573.78680399999985
 21
778.29994150000005
  0
ARC
  8
_0-0_0
  6
CONTINUOUS
 62
    7
 10
-567.386841
 20
755.79994150000005
 40
0.5
 50
180.00000900000003
 51
269.99999700000001
  0
ARC
  8
_0-0_0
  6
CONTINUOUS
 62
    7
 10
-570.68682899999999
 20
780.80000250000001
 40
1.5
 50
269.99999700000001
 51
0
  0
ARC
  8
_0-0_0
  6
CONTINUOUS
 62
    7
 10
-572.18682899999999
 20
779.80000250000001
 40
0.5
 50
90.000003000000007
 51
180.00000900000001
  0
LINE
  8
_0-0_0
  6
CONTINUOUS
 62
    7
 10
-572.18682899999999
 20
780.30000250000001
 11
-570.68682899999999
 21
780.30000250000001
  0
ARC
  8
_0-0_0
  6
CONTINUOUS
 62
    7
 10
-570.68682899999999
 20
781.30000250000001
 40
1
 50
269.99999700000001
 51
0
  0
LINE
  8
_0-0_0
  6
CONTINUOUS
 62
    7
 10
-569.68682899999999
 20
781.40003950000005
 11
-569.68682899999999
 21
781.30000250000001
  0
LINE
  8
_0-0_0
  6
CONTINUOUS
 62
    7
 10
-569.18682899999999
 20
781.40003950000005
 11
-569.18682899999999
 21
780.80000250000001
  0
LINE
  8
_0-0_0
  6
CONTINUOUS
 62
    7
 10
-572.68682899999999
 20
779.30000250000001
 11
-572.68682899999999
 21
779.80000250000001
  0
ARC
  8
_0-0_0
  6
CONTINUOUS
 62
    7
 10
-562.386841
 20
776.39994750000005
 40
0.5
 50
0
 51
90.000003000000007
  0
LINE
  8
_0-0_0
  6
CONTINUOUS
 62
    7
 10
-561.886841
 20
776.32295250000004
 11
-561.886841
 21
776.39994750000005
  0
LINE
  8
_0-0_0
  6
CONTINUOUS
 62
    7
 10
-561.886841
 20
774.88145450000002
 11
-561.886841
 21
776.32295250000004
  0
LINE
  8
_0-0_0
  6
CONTINUOUS
 62
    7
 10
-561.886841
 20
774.39994750000005
 11
-561.886841
 21
774.88145450000002
  0
ARC
  8
_0-0_0
  6
CONTINUOUS
 62
    7
 10
-558.886841
 20
774.39994750000005
 40
3
 50
180.00000900000003
 51
269.99999700000001
  0
LINE
  8
_0-0_0
  6
CONTINUOUS
 62
    7
 10
-558.40533400000004
 20
771.39994750000005
 11
-558.886841
 21
771.39994750000005
  0
LINE
  8
_0-0_0
  6
CONTINUOUS
 62
    7
 10
-558.40533400000004
 20
771.39994750000005
 11
-556.96380599999998
 21
771.39994750000005
  0
LINE
  8
_0-0_0
  6
CONTINUOUS
 62
    7
 10
-556.886841
 20
771.39994750000005
 11
-556.96380599999998
 21
771.39994750000005
  0
LINE
  8
_0-0_0
  6
CONTINUOUS
 62
    7
 10
-572.80981399999996
 20
760.79994150000005
 11
-572.886841
 21
760.79994150000005
  0
LINE
  8
_0-0_0
  6
CONTINUOUS
 62
    7
 10
-570.886841
 20
760.79994150000005
 11
-571.3682859999999
 21
760.79994150000005
  0
LINE
  8
_0-0_0
  6
CONTINUOUS
 62
    7
 10
-571.3682859999999
 20
760.79994150000005
 11
-572.80981399999996
 21
760.79994150000005
  0
LINE
  8
_0-0_0
  6
CONTINUOUS
 62
    7
 10
-567.886841
 20
755.79994150000005
 11
-567.886841
 21
755.87690750000002
  0
LINE
  8
_0-0_0
  6
CONTINUOUS
 62
    7
 10
-567.886841
 20
757.31843549999996
 11
-567.886841
 21
755.87690750000002
  0
LINE
  8
_0-0_0
  6
CONTINUOUS
 62
    7
 10
-567.886841
 20
757.31843549999996
 11
-567.886841
 21
757.79994150000005
  0
ARC
  8
_0-0_0
  6
CONTINUOUS
 62
    7
 10
-570.886841
 20
757.79994150000005
 40
3
 50
0
 51
89.999995999999996
  0
LINE
  8
_0-0_0
  6
CONTINUOUS
 62
    7
 10
-556.386841
 20
778.41120850000004
 11
-556.386841
 21
776.52494750000005
  0
LINE
  8
_0-0_0
  6
CONTINUOUS
 62
    7
 10
-556.386841
 20
779.07493550000004
 11
-556.386841
 21
778.41120850000004
  0
ARC
  8
_0-0_0
  6
CONTINUOUS
 62
    7
 10
-561.65667699999995
 20
767.27317749999997
 40
3.063396
 50
19.82113
 51
25.289563000000001
  0
ARC
  8
_0-0_0
  6
CONTINUOUS
 62
    7
 10
-561.65637199999992
 20
764.92655950000005
 40
3.0630519999999999
 50
334.71006
 51
340.17869200000001
  0
ARC
  8
_0-0_0
  6
CONTINUOUS
 62
    7
 10
-568.11694299999999
 20
764.92671150000001
 40
3.063399
 50
199.82113599999997
 51
205.28948099999999
  0
ARC
  8
_0-0_0
  6
CONTINUOUS
 62
    7
 10
-568.11724800000002
 20
767.27333050000004
 40
3.0630549999999999
 50
154.710137
 51
160.17869999999999
  0
ARC
  8
_0-0_0
  6
CONTINUOUS
 62
    7
 10
-564.886841
 20
766.09992950000003
 40
6.5
 50
340.10416099999998
 51
19.895609999999952
  0
ARC
  8
_0-0_0
  6
CONTINUOUS
 62
    7
 10
-564.886841
 20
766.09992950000003
 40
6.5
 50
160.10415599999999
 51
199.895612
  0
LINE
  8
_0-0_0
  6
CONTINUOUS
 62
    7
 10
-573.386841
 20
777.18873550000001
 11
-573.386841
 21
777.59907550000003
  0
LINE
  8
_0-0_0
  6
CONTINUOUS
 62
    7
 10
-573.386841
 20
776.52986150000004
 11
-573.386841
 21
777.18873550000001
  0
LINE
  8
_0-0_0
  6
CONTINUOUS
 62
    7
 10
-565.62847899999997
 20
772.59992950000003
 11
-570.14514199999985
 21
769.9922335
  0
LINE
  8
_0-0_0
  6
CONTINUOUS
 62
    7
 10
-564.14514199999985
 20
772.59992950000003
 11
-565.62847899999997
 21
772.59992950000003
  0
LINE
  8
_0-0_0
  6
CONTINUOUS
 62
    7
 10
-559.62847899999997
 20
769.9922335
 11
-564.14514199999985
 21
772.59992950000003
  0
LINE
  8
_0-0_0
  6
CONTINUOUS
 62
    7
 10
-558.886841
 20
768.70762649999995
 11
-558.886841
 21
763.4922335
  0
LINE
  8
_0-0_0
  6
CONTINUOUS
 62
    7
 10
-559.62847899999997
 20
769.9922335
 11
-558.886841
 21
768.70762649999995
  0
LINE
  8
_0-0_0
  6
CONTINUOUS
 62
    7
 10
-564.14514199999985
 20
759.59992950000003
 11
-559.62847899999997
 21
762.20762649999995
  0
LINE
  8
_0-0_0
  6
CONTINUOUS
 62
    7
 10
-559.33435099999997
 20
762.71708650000005
 11
-558.886841
 21
763.4922335
  0
LINE
  8
_0-0_0
  6
CONTINUOUS
 62
    7
 10
-559.33435099999997
 20
762.71708650000005
 11
-559.62847899999997
 21
762.20762649999995
  0
LINE
  8
_0-0_0
  6
CONTINUOUS
 62
    7
 10
-565.62847899999997
 20
759.59992950000003
 11
-564.14514199999985
 21
759.59992950000003
  0
LINE
  8
_0-0_0
  6
CONTINUOUS
 62
    7
 10
-570.14514199999985
 20
762.20762649999995
 11
-565.62847899999997
 21
759.59992950000003
  0
LINE
  8
_0-0_0
  6
CONTINUOUS
 62
    7
 10
-570.886841
 20
768.70762649999995
 11
-570.886841
 21
763.4922335
  0
LINE
  8
_0-0_0
  6
CONTINUOUS
 62
    7
 10
-570.14514199999985
 20
762.20762649999995
 11
-570.886841
 21
763.4922335
  0
LINE
  8
_0-0_0
  6
CONTINUOUS
 62
    7
 10
-570.43926999999985
 20
769.48280350000005
 11
-570.886841
 21
768.70762649999995
  0
LINE
  8
_0-0_0
  6
CONTINUOUS
 62
    7
 10
-570.43926999999985
 20
769.48280350000005
 11
-570.14514199999985
 21
769.9922335
  0
LINE
  8
_0-0_0
  6
CONTINUOUS
 62
    7
 10
-556.99981699999989
 20
775.6253815
 11
-556.72174099999984
 21
775.64994750000005
  0
LINE
  8
_0-0_0
  6
CONTINUOUS
 62
    7
 10
-556.88207999999986
 20
775.42143250000004
 11
-556.72174099999984
 21
775.64994750000005
  0
LINE
  8
_0-0_0
  6
CONTINUOUS
 62
    7
 10
-557.1382450000001
 20
775.81590249999999
 11
-556.86425800000006
 21
775.86939949999999
  0
LINE
  8
_0-0_0
  6
CONTINUOUS
 62
    7
 10
-556.99981699999989
 20
775.6253815
 11
-556.86425800000006
 21
775.86939949999999
  0
LINE
  8
_0-0_0
  6
CONTINUOUS
 62
    7
 10
-557.29583700000012
 20
775.99092050000002
 11
-557.02893099999983
 21
776.07276950000005
  0
LINE
  8
_0-0_0
  6
CONTINUOUS
 62
    7
 10
-557.1382450000001
 20
775.81590249999999
 11
-557.02893099999983
 21
776.07276950000005
  0
LINE
  8
_0-0_0
  6
CONTINUOUS
 62
    7
 10
-557.47082499999988
 20
776.14851350000004
 11
-557.21398899999986
 21
776.25779750000004
  0
LINE
  8
_0-0_0
  6
CONTINUOUS
 62
    7
 10
-557.29583700000012
 20
775.99092050000002
 11
-557.21398899999986
 21
776.25779750000004
  0
LINE
  8
_0-0_0
  6
CONTINUOUS
 62
    7
 10
-557.6613769999999
 20
776.28694150000001
 11
-557.41735799999992
 21
776.42250049999996
  0
LINE
  8
_0-0_0
  6
CONTINUOUS
 62
    7
 10
-557.47082499999988
 20
776.14851350000004
 11
-557.41735799999992
 21
776.42250049999996
  0
LINE
  8
_0-0_0
  6
CONTINUOUS
 62
    7
 10
-557.86535600000002
 20
776.40470849999997
 11
-557.636841
 21
776.56501749999995
  0
LINE
  8
_0-0_0
  6
CONTINUOUS
 62
    7
 10
-557.6613769999999
 20
776.28694150000001
 11
-557.636841
 21
776.56501749999995
  0
LINE
  8
_0-0_0
  6
CONTINUOUS
 62
    7
 10
-558.0805049999999
 20
776.50050350000004
 11
-557.86999500000002
 21
776.68379149999998
  0
LINE
  8
_0-0_0
  6
CONTINUOUS
 62
    7
 10
-557.86535600000002
 20
776.40470849999997
 11
-557.86999500000002
 21
776.68379149999998
  0
LINE
  8
_0-0_0
  6
CONTINUOUS
 62
    7
 10
-558.30444299999999
 20
776.57328749999999
 11
-558.11425800000006
 21
776.77757250000002
  0
LINE
  8
_0-0_0
  6
CONTINUOUS
 62
    7
 10
-558.0805049999999
 20
776.50050350000004
 11
-558.11425800000006
 21
776.77757250000002
  0
LINE
  8
_0-0_0
  6
CONTINUOUS
 62
    7
 10
-558.53485099999989
 20
776.62223849999998
 11
-558.36706499999991
 21
776.84532149999995
  0
LINE
  8
_0-0_0
  6
CONTINUOUS
 62
    7
 10
-558.30444299999999
 20
776.57328749999999
 11
-558.36706499999991
 21
776.84532149999995
  0
LINE
  8
_0-0_0
  6
CONTINUOUS
 62
    7
 10
-558.76904300000001
 20
776.64686549999999
 11
-558.62548800000013
 21
776.88624549999997
  0
LINE
  8
_0-0_0
  6
CONTINUOUS
 62
    7
 10
-558.53485099999989
 20
776.62223849999998
 11
-558.62548800000013
 21
776.88624549999997
  0
LINE
  8
_0-0_0
  6
CONTINUOUS
 62
    7
 10
-559.00457800000004
 20
776.64686549999999
 11
-558.886841
 21
776.89994750000005
  0
LINE
  8
_0-0_0
  6
CONTINUOUS
 62
    7
 10
-558.76904300000001
 20
776.64686549999999
 11
-558.886841
 21
776.89994750000005
  0
LINE
  8
_0-0_0
  6
CONTINUOUS
 62
    7
 10
-559.23876900000005
 20
776.62223849999998
 11
-559.1481319999998
 21
776.88624549999997
  0
LINE
  8
_0-0_0
  6
CONTINUOUS
 62
    7
 10
-559.00457800000004
 20
776.64686549999999
 11
-559.1481319999998
 21
776.88624549999997
  0
LINE
  8
_0-0_0
  6
CONTINUOUS
 62
    7
 10
-559.46917699999995
 20
776.57328749999999
 11
-559.40661599999999
 21
776.84532149999995
  0
LINE
  8
_0-0_0
  6
CONTINUOUS
 62
    7
 10
-559.23876900000005
 20
776.62223849999998
 11
-559.40661599999999
 21
776.84532149999995
  0
LINE
  8
_0-0_0
  6
CONTINUOUS
 62
    7
 10
-559.69311500000003
 20
776.50050350000004
 11
-559.65936299999998
 21
776.77757250000002
  0
LINE
  8
_0-0_0
  6
CONTINUOUS
 62
    7
 10
-559.46917699999995
 20
776.57328749999999
 11
-559.65936299999998
 21
776.77757250000002
  0
LINE
  8
_0-0_0
  6
CONTINUOUS
 62
    7
 10
-559.90832499999988
 20
776.40470849999997
 11
-559.90368600000011
 21
776.68379149999998
  0
LINE
  8
_0-0_0
  6
CONTINUOUS
 62
    7
 10
-559.69311500000003
 20
776.50050350000004
 11
-559.90368600000011
 21
776.68379149999998
  0
LINE
  8
_0-0_0
  6
CONTINUOUS
 62
    7
 10
-560.02783199999999
 20
776.48857150000003
 11
-560.136841
 21
776.56501749999995
  0
LINE
  8
_0-0_0
  6
CONTINUOUS
 62
    7
 10
-559.90832499999988
 20
776.40470849999997
 11
-560.02783199999999
 21
776.48857150000003
  0
LINE
  8
_0-0_0
  6
CONTINUOUS
 62
    7
 10
-560.11224399999992
 20
776.28694150000001
 11
-560.136841
 21
776.56501749999995
  0
LINE
  8
_0-0_0
  6
CONTINUOUS
 62
    7
 10
-560.30279500000006
 20
776.14851350000004
 11
-560.35626200000002
 21
776.42250049999996
  0
LINE
  8
_0-0_0
  6
CONTINUOUS
 62
    7
 10
-560.11224399999992
 20
776.28694150000001
 11
-560.35626200000002
 21
776.42250049999996
  0
LINE
  8
_0-0_0
  6
CONTINUOUS
 62
    7
 10
-560.47778299999982
 20
775.99092050000002
 11
-560.55963100000008
 21
776.25779750000004
  0
LINE
  8
_0-0_0
  6
CONTINUOUS
 62
    7
 10
-560.30279500000006
 20
776.14851350000004
 11
-560.55963100000008
 21
776.25779750000004
  0
LINE
  8
_0-0_0
  6
CONTINUOUS
 62
    7
 10
-560.63537599999995
 20
775.81590249999999
 11
-560.74468999999999
 21
776.07276950000005
  0
LINE
  8
_0-0_0
  6
CONTINUOUS
 62
    7
 10
-560.47778299999982
 20
775.99092050000002
 11
-560.74468999999999
 21
776.07276950000005
  0
LINE
  8
_0-0_0
  6
CONTINUOUS
 62
    7
 10
-560.77380399999993
 20
775.6253815
 11
-560.90936299999998
 21
775.86939949999999
  0
LINE
  8
_0-0_0
  6
CONTINUOUS
 62
    7
 10
-560.63537599999995
 20
775.81590249999999
 11
-560.90936299999998
 21
775.86939949999999
  0
LINE
  8
_0-0_0
  6
CONTINUOUS
 62
    7
 10
-560.89160099999981
 20
775.42143250000004
 11
-561.05187999999998
 21
775.64994750000005
  0
LINE
  8
_0-0_0
  6
CONTINUOUS
 62
    7
 10
-560.77380399999993
 20
775.6253815
 11
-561.05187999999998
 21
775.64994750000005
  0
LINE
  8
_0-0_0
  6
CONTINUOUS
 62
    7
 10
-560.98736599999984
 20
775.20628350000004
 11
-561.17065400000001
 21
775.41679350000004
  0
LINE
  8
_0-0_0
  6
CONTINUOUS
 62
    7
 10
-560.89160099999981
 20
775.42143250000004
 11
-561.17065400000001
 21
775.41679350000004
  0
LINE
  8
_0-0_0
  6
CONTINUOUS
 62
    7
 10
-561.0601200000001
 20
774.98228449999999
 11
-561.26446499999997
 21
775.17250049999996
  0
LINE
  8
_0-0_0
  6
CONTINUOUS
 62
    7
 10
-560.98736599999984
 20
775.20628350000004
 11
-561.26446499999997
 21
775.17250049999996
  0
LINE
  8
_0-0_0
  6
CONTINUOUS
 62
    7
 10
-561.10913099999993
 20
774.75190750000002
 11
-561.33215299999983
 21
774.91972350000003
  0
LINE
  8
_0-0_0
  6
CONTINUOUS
 62
    7
 10
-561.0601200000001
 20
774.98228449999999
 11
-561.33215299999983
 21
774.91972350000003
  0
LINE
  8
_0-0_0
  6
CONTINUOUS
 62
    7
 10
-561.10913099999993
 20
774.75190750000002
 11
-561.373108
 21
774.6612705
  0
LINE
  8
_0-0_0
  6
CONTINUOUS
 62
    7
 10
-561.13372800000002
 20
774.51768449999997
 11
-561.373108
 21
774.6612705
  0
LINE
  8
_0-0_0
  6
CONTINUOUS
 62
    7
 10
-561.13372800000002
 20
774.28218049999998
 11
-561.386841
 21
774.39994750000005
  0
LINE
  8
_0-0_0
  6
CONTINUOUS
 62
    7
 10
-561.13372800000002
 20
774.51768449999997
 11
-561.386841
 21
774.39994750000005
  0
LINE
  8
_0-0_0
  6
CONTINUOUS
 62
    7
 10
-561.10913099999993
 20
774.04795850000005
 11
-561.373108
 21
774.13862549999999
  0
LINE
  8
_0-0_0
  6
CONTINUOUS
 62
    7
 10
-561.13372800000002
 20
774.28218049999998
 11
-561.373108
 21
774.13862549999999
  0
LINE
  8
_0-0_0
  6
CONTINUOUS
 62
    7
 10
-561.0601200000001
 20
773.8176115
 11
-561.33215299999983
 21
773.88017249999996
  0
LINE
  8
_0-0_0
  6
CONTINUOUS
 62
    7
 10
-561.10913099999993
 20
774.04795850000005
 11
-561.33215299999983
 21
773.88017249999996
  0
LINE
  8
_0-0_0
  6
CONTINUOUS
 62
    7
 10
-560.98736599999984
 20
773.59361249999995
 11
-561.26446499999997
 21
773.62739550000003
  0
LINE
  8
_0-0_0
  6
CONTINUOUS
 62
    7
 10
-561.0601200000001
 20
773.8176115
 11
-561.26446499999997
 21
773.62739550000003
  0
LINE
  8
_0-0_0
  6
CONTINUOUS
 62
    7
 10
-560.89160099999981
 20
773.37846349999995
 11
-561.17065400000001
 21
773.38310249999995
  0
LINE
  8
_0-0_0
  6
CONTINUOUS
 62
    7
 10
-560.98736599999984
 20
773.59361249999995
 11
-561.17065400000001
 21
773.38310249999995
  0
LINE
  8
_0-0_0
  6
CONTINUOUS
 62
    7
 10
-560.77380399999993
 20
773.17451449999999
 11
-561.05187999999998
 21
773.14994750000005
  0
LINE
  8
_0-0_0
  6
CONTINUOUS
 62
    7
 10
-560.89160099999981
 20
773.37846349999995
 11
-561.05187999999998
 21
773.14994750000005
  0
LINE
  8
_0-0_0
  6
CONTINUOUS
 62
    7
 10
-560.63537599999995
 20
772.98396249999996
 11
-560.90936299999998
 21
772.9304965
  0
LINE
  8
_0-0_0
  6
CONTINUOUS
 62
    7
 10
-560.77380399999993
 20
773.17451449999999
 11
-560.90936299999998
 21
772.9304965
  0
LINE
  8
_0-0_0
  6
CONTINUOUS
 62
    7
 10
-560.47778299999982
 20
772.80894450000005
 11
-560.74468999999999
 21
772.72712650000005
  0
LINE
  8
_0-0_0
  6
CONTINUOUS
 62
    7
 10
-560.63537599999995
 20
772.98396249999996
 11
-560.74468999999999
 21
772.72712650000005
  0
LINE
  8
_0-0_0
  6
CONTINUOUS
 62
    7
 10
-560.30279500000006
 20
772.65135150000003
 11
-560.55963100000008
 21
772.54206850000003
  0
LINE
  8
_0-0_0
  6
CONTINUOUS
 62
    7
 10
-560.47778299999982
 20
772.80894450000005
 11
-560.55963100000008
 21
772.54206850000003
  0
LINE
  8
_0-0_0
  6
CONTINUOUS
 62
    7
 10
-560.11224399999992
 20
772.51292450000005
 11
-560.35626200000002
 21
772.37739550000003
  0
LINE
  8
_0-0_0
  6
CONTINUOUS
 62
    7
 10
-560.30279500000006
 20
772.65135150000003
 11
-560.35626200000002
 21
772.37739550000003
  0
LINE
  8
_0-0_0
  6
CONTINUOUS
 62
    7
 10
-559.90832499999988
 20
772.39518750000002
 11
-560.136841
 21
772.23487850000004
  0
LINE
  8
_0-0_0
  6
CONTINUOUS
 62
    7
 10
-560.11224399999992
 20
772.51292450000005
 11
-560.136841
 21
772.23487850000004
  0
LINE
  8
_0-0_0
  6
CONTINUOUS
 62
    7
 10
-559.69311500000003
 20
772.29939249999995
 11
-559.90368600000011
 21
772.11607349999997
  0
LINE
  8
_0-0_0
  6
CONTINUOUS
 62
    7
 10
-559.90832499999988
 20
772.39518750000002
 11
-559.90368600000011
 21
772.11607349999997
  0
LINE
  8
_0-0_0
  6
CONTINUOUS
 62
    7
 10
-559.46917699999995
 20
772.2266085
 11
-559.65936299999998
 21
772.02229250000005
  0
LINE
  8
_0-0_0
  6
CONTINUOUS
 62
    7
 10
-559.69311500000003
 20
772.29939249999995
 11
-559.65936299999998
 21
772.02229250000005
  0
LINE
  8
_0-0_0
  6
CONTINUOUS
 62
    7
 10
-559.23876900000005
 20
772.17765750000001
 11
-559.40661599999999
 21
771.95457450000004
  0
LINE
  8
_0-0_0
  6
CONTINUOUS
 62
    7
 10
-559.46917699999995
 20
772.2266085
 11
-559.40661599999999
 21
771.95457450000004
  0
LINE
  8
_0-0_0
  6
CONTINUOUS
 62
    7
 10
-559.00457800000004
 20
772.1530305
 11
-559.1481319999998
 21
771.91365050000002
  0
LINE
  8
_0-0_0
  6
CONTINUOUS
 62
    7
 10
-559.23876900000005
 20
772.17765750000001
 11
-559.1481319999998
 21
771.91365050000002
  0
LINE
  8
_0-0_0
  6
CONTINUOUS
 62
    7
 10
-558.76904300000001
 20
772.1530305
 11
-558.886841
 21
771.89994750000005
  0
LINE
  8
_0-0_0
  6
CONTINUOUS
 62
    7
 10
-559.00457800000004
 20
772.1530305
 11
-558.886841
 21
771.89994750000005
  0
LINE
  8
_0-0_0
  6
CONTINUOUS
 62
    7
 10
-558.53485099999989
 20
772.17765750000001
 11
-558.62548800000013
 21
771.91365050000002
  0
LINE
  8
_0-0_0
  6
CONTINUOUS
 62
    7
 10
-558.76904300000001
 20
772.1530305
 11
-558.62548800000013
 21
771.91365050000002
  0
LINE
  8
_0-0_0
  6
CONTINUOUS
 62
    7
 10
-558.30444299999999
 20
772.2266085
 11
-558.36706499999991
 21
771.95457450000004
  0
LINE
  8
_0-0_0
  6
CONTINUOUS
 62
    7
 10
-558.53485099999989
 20
772.17765750000001
 11
-558.36706499999991
 21
771.95457450000004
  0
LINE
  8
_0-0_0
  6
CONTINUOUS
 62
    7
 10
-558.0805049999999
 20
772.29939249999995
 11
-558.11425800000006
 21
772.02229250000005
  0
LINE
  8
_0-0_0
  6
CONTINUOUS
 62
    7
 10
-558.30444299999999
 20
772.2266085
 11
-558.11425800000006
 21
772.02229250000005
  0
LINE
  8
_0-0_0
  6
CONTINUOUS
 62
    7
 10
-557.86535600000002
 20
772.39518750000002
 11
-557.86999500000002
 21
772.11607349999997
  0
LINE
  8
_0-0_0
  6
CONTINUOUS
 62
    7
 10
-558.0805049999999
 20
772.29939249999995
 11
-557.86999500000002
 21
772.11607349999997
  0
LINE
  8
_0-0_0
  6
CONTINUOUS
 62
    7
 10
-557.74578799999995
 20
772.31132449999996
 11
-557.636841
 21
772.23487850000004
  0
LINE
  8
_0-0_0
  6
CONTINUOUS
 62
    7
 10
-557.86535600000002
 20
772.39518750000002
 11
-557.74578799999995
 21
772.31132449999996
  0
LINE
  8
_0-0_0
  6
CONTINUOUS
 62
    7
 10
-557.6613769999999
 20
772.51292450000005
 11
-557.636841
 21
772.23487850000004
  0
LINE
  8
_0-0_0
  6
CONTINUOUS
 62
    7
 10
-557.47082499999988
 20
772.65135150000003
 11
-557.41735799999992
 21
772.37739550000003
  0
LINE
  8
_0-0_0
  6
CONTINUOUS
 62
    7
 10
-557.6613769999999
 20
772.51292450000005
 11
-557.41735799999992
 21
772.37739550000003
  0
LINE
  8
_0-0_0
  6
CONTINUOUS
 62
    7
 10
-557.29583700000012
 20
772.80894450000005
 11
-557.21398899999986
 21
772.54206850000003
  0
LINE
  8
_0-0_0
  6
CONTINUOUS
 62
    7
 10
-557.47082499999988
 20
772.65135150000003
 11
-557.21398899999986
 21
772.54206850000003
  0
LINE
  8
_0-0_0
  6
CONTINUOUS
 62
    7
 10
-557.1382450000001
 20
772.98396249999996
 11
-557.02893099999983
 21
772.72712650000005
  0
LINE
  8
_0-0_0
  6
CONTINUOUS
 62
    7
 10
-557.29583700000012
 20
772.80894450000005
 11
-557.02893099999983
 21
772.72712650000005
  0
LINE
  8
_0-0_0
  6
CONTINUOUS
 62
    7
 10
-556.99981699999989
 20
773.17451449999999
 11
-556.86425800000006
 21
772.9304965
  0
LINE
  8
_0-0_0
  6
CONTINUOUS
 62
    7
 10
-557.1382450000001
 20
772.98396249999996
 11
-556.86425800000006
 21
772.9304965
  0
LINE
  8
_0-0_0
  6
CONTINUOUS
 62
    7
 10
-556.88207999999986
 20
773.37846349999995
 11
-556.72174099999984
 21
773.14994750000005
  0
LINE
  8
_0-0_0
  6
CONTINUOUS
 62
    7
 10
-556.99981699999989
 20
773.17451449999999
 11
-556.72174099999984
 21
773.14994750000005
  0
LINE
  8
_0-0_0
  6
CONTINUOUS
 62
    7
 10
-556.78625499999998
 20
773.59361249999995
 11
-556.60296599999992
 21
773.38310249999995
  0
LINE
  8
_0-0_0
  6
CONTINUOUS
 62
    7
 10
-556.88207999999986
 20
773.37846349999995
 11
-556.60296599999992
 21
773.38310249999995
  0
LINE
  8
_0-0_0
  6
CONTINUOUS
 62
    7
 10
-556.71350099999995
 20
773.8176115
 11
-556.50915499999996
 21
773.62739550000003
  0
LINE
  8
_0-0_0
  6
CONTINUOUS
 62
    7
 10
-556.78625499999998
 20
773.59361249999995
 11
-556.50915499999996
 21
773.62739550000003
  0
LINE
  8
_0-0_0
  6
CONTINUOUS
 62
    7
 10
-556.66449000000011
 20
774.04795850000005
 11
-556.4414670000001
 21
773.88017249999996
  0
LINE
  8
_0-0_0
  6
CONTINUOUS
 62
    7
 10
-556.71350099999995
 20
773.8176115
 11
-556.4414670000001
 21
773.88017249999996
  0
LINE
  8
_0-0_0
  6
CONTINUOUS
 62
    7
 10
-556.63989300000003
 20
774.28218049999998
 11
-556.40051300000005
 21
774.13862549999999
  0
LINE
  8
_0-0_0
  6
CONTINUOUS
 62
    7
 10
-556.66449000000011
 20
774.04795850000005
 11
-556.40051300000005
 21
774.13862549999999
  0
LINE
  8
_0-0_0
  6
CONTINUOUS
 62
    7
 10
-556.63989300000003
 20
774.51768449999997
 11
-556.386841
 21
774.39994750000005
  0
LINE
  8
_0-0_0
  6
CONTINUOUS
 62
    7
 10
-556.63989300000003
 20
774.28218049999998
 11
-556.386841
 21
774.39994750000005
  0
LINE
  8
_0-0_0
  6
CONTINUOUS
 62
    7
 10
-556.66449000000011
 20
774.75190750000002
 11
-556.40051300000005
 21
774.6612705
  0
LINE
  8
_0-0_0
  6
CONTINUOUS
 62
    7
 10
-556.63989300000003
 20
774.51768449999997
 11
-556.40051300000005
 21
774.6612705
  0
LINE
  8
_0-0_0
  6
CONTINUOUS
 62
    7
 10
-556.71350099999995
 20
774.98228449999999
 11
-556.4414670000001
 21
774.91972350000003
  0
LINE
  8
_0-0_0
  6
CONTINUOUS
 62
    7
 10
-556.66449000000011
 20
774.75190750000002
 11
-556.4414670000001
 21
774.91972350000003
  0
LINE
  8
_0-0_0
  6
CONTINUOUS
 62
    7
 10
-556.78625499999998
 20
775.20628350000004
 11
-556.50915499999996
 21
775.17250049999996
  0
LINE
  8
_0-0_0
  6
CONTINUOUS
 62
    7
 10
-556.71350099999995
 20
774.98228449999999
 11
-556.50915499999996
 21
775.17250049999996
  0
LINE
  8
_0-0_0
  6
CONTINUOUS
 62
    7
 10
-556.88207999999986
 20
775.42143250000004
 11
-556.60296599999992
 21
775.41679350000004
  0
LINE
  8
_0-0_0
  6
CONTINUOUS
 62
    7
 10
-556.78625499999998
 20
775.20628350000004
 11
-556.60296599999992
 21
775.41679350000004
  0
CIRCLE
  8
_0-0_0
  6
CONTINUOUS
 62
    7
 10
-564.886841
 20
766.09992950000003
 40
5.25
  0
LINE
  8
_0-0_0
  6
CONTINUOUS
 62
    7
 10
-568.99981699999989
 20
759.0253755
 11
-568.72174099999984
 21
759.04994150000005
  0
LINE
  8
_0-0_0
  6
CONTINUOUS
 62
    7
 10
-568.88207999999986
 20
758.82142650000003
 11
-568.72174099999984
 21
759.04994150000005
  0
LINE
  8
_0-0_0
  6
CONTINUOUS
 62
    7
 10
-569.1382450000001
 20
759.21592650000002
 11
-568.86425800000006
 21
759.26939349999998
  0
LINE
  8
_0-0_0
  6
CONTINUOUS
 62
    7
 10
-568.99981699999989
 20
759.0253755
 11
-568.86425800000006
 21
759.26939349999998
  0
LINE
  8
_0-0_0
  6
CONTINUOUS
 62
    7
 10
-569.29583700000012
 20
759.39094550000004
 11
-569.02893099999983
 21
759.47276250000004
  0
LINE
  8
_0-0_0
  6
CONTINUOUS
 62
    7
 10
-569.1382450000001
 20
759.21592650000002
 11
-569.02893099999983
 21
759.47276250000004
  0
LINE
  8
_0-0_0
  6
CONTINUOUS
 62
    7
 10
-569.47082499999988
 20
759.54850750000003
 11
-569.21398899999986
 21
759.65779150000003
  0
LINE
  8
_0-0_0
  6
CONTINUOUS
 62
    7
 10
-569.29583700000012
 20
759.39094550000004
 11
-569.21398899999986
 21
759.65779150000003
  0
LINE
  8
_0-0_0
  6
CONTINUOUS
 62
    7
 10
-569.6613769999999
 20
759.68696550000004
 11
-569.41735799999992
 21
759.82249449999995
  0
LINE
  8
_0-0_0
  6
CONTINUOUS
 62
    7
 10
-569.47082499999988
 20
759.54850750000003
 11
-569.41735799999992
 21
759.82249449999995
  0
LINE
  8
_0-0_0
  6
CONTINUOUS
 62
    7
 10
-569.86535600000002
 20
759.80470249999996
 11
-569.636841
 21
759.96501150000006
  0
LINE
  8
_0-0_0
  6
CONTINUOUS
 62
    7
 10
-569.6613769999999
 20
759.68696550000004
 11
-569.636841
 21
759.96501150000006
  0
LINE
  8
_0-0_0
  6
CONTINUOUS
 62
    7
 10
-570.0805049999999
 20
759.90049750000003
 11
-569.86999500000002
 21
760.08381650000001
  0
LINE
  8
_0-0_0
  6
CONTINUOUS
 62
    7
 10
-569.86535600000002
 20
759.80470249999996
 11
-569.86999500000002
 21
760.08381650000001
  0
LINE
  8
_0-0_0
  6
CONTINUOUS
 62
    7
 10
-570.30444299999999
 20
759.97328149999998
 11
-570.11425800000006
 21
760.17759650000005
  0
LINE
  8
_0-0_0
  6
CONTINUOUS
 62
    7
 10
-570.0805049999999
 20
759.90049750000003
 11
-570.11425800000006
 21
760.17759650000005
  0
LINE
  8
_0-0_0
  6
CONTINUOUS
 62
    7
 10
-570.53485099999989
 20
760.02223149999998
 11
-570.36706499999991
 21
760.24531549999995
  0
LINE
  8
_0-0_0
  6
CONTINUOUS
 62
    7
 10
-570.30444299999999
 20
759.97328149999998
 11
-570.36706499999991
 21
760.24531549999995
  0
LINE
  8
_0-0_0
  6
CONTINUOUS
 62
    7
 10
-570.76904300000001
 20
760.04685949999998
 11
-570.62548800000013
 21
760.28623949999997
  0
LINE
  8
_0-0_0
  6
CONTINUOUS
 62
    7
 10
-570.53485099999989
 20
760.02223149999998
 11
-570.62548800000013
 21
760.28623949999997
  0
LINE
  8
_0-0_0
  6
CONTINUOUS
 62
    7
 10
-571.00457800000004
 20
760.04685949999998
 11
-570.886841
 21
760.29994150000005
  0
LINE
  8
_0-0_0
  6
CONTINUOUS
 62
    7
 10
-570.76904300000001
 20
760.04685949999998
 11
-570.886841
 21
760.29994150000005
  0
LINE
  8
_0-0_0
  6
CONTINUOUS
 62
    7
 10
-571.23876900000005
 20
760.02223149999998
 11
-571.1481319999998
 21
760.28623949999997
  0
LINE
  8
_0-0_0
  6
CONTINUOUS
 62
    7
 10
-571.00457800000004
 20
760.04685949999998
 11
-571.1481319999998
 21
760.28623949999997
  0
LINE
  8
_0-0_0
  6
CONTINUOUS
 62
    7
 10
-571.46917699999995
 20
759.97328149999998
 11
-571.40661599999999
 21
760.24531549999995
  0
LINE
  8
_0-0_0
  6
CONTINUOUS
 62
    7
 10
-571.23876900000005
 20
760.02223149999998
 11
-571.40661599999999
 21
760.24531549999995
  0
LINE
  8
_0-0_0
  6
CONTINUOUS
 62
    7
 10
-571.69311500000003
 20
759.90049750000003
 11
-571.65936299999998
 21
760.17759650000005
  0
LINE
  8
_0-0_0
  6
CONTINUOUS
 62
    7
 10
-571.46917699999995
 20
759.97328149999998
 11
-571.65936299999998
 21
760.17759650000005
  0
LINE
  8
_0-0_0
  6
CONTINUOUS
 62
    7
 10
-571.90826399999992
 20
759.80470249999996
 11
-571.90368600000011
 21
760.08381650000001
  0
LINE
  8
_0-0_0
  6
CONTINUOUS
 62
    7
 10
-571.69311500000003
 20
759.90049750000003
 11
-571.90368600000011
 21
760.08381650000001
  0
LINE
  8
_0-0_0
  6
CONTINUOUS
 62
    7
 10
-572.02783199999999
 20
759.88856450000003
 11
-572.136841
 21
759.96501150000006
  0
LINE
  8
_0-0_0
  6
CONTINUOUS
 62
    7
 10
-571.90826399999992
 20
759.80470249999996
 11
-572.02783199999999
 21
759.88856450000003
  0
LINE
  8
_0-0_0
  6
CONTINUOUS
 62
    7
 10
-572.11224399999992
 20
759.68696550000004
 11
-572.136841
 21
759.96501150000006
  0
LINE
  8
_0-0_0
  6
CONTINUOUS
 62
    7
 10
-572.30279500000006
 20
759.54850750000003
 11
-572.35626200000002
 21
759.82249449999995
  0
LINE
  8
_0-0_0
  6
CONTINUOUS
 62
    7
 10
-572.11224399999992
 20
759.68696550000004
 11
-572.35626200000002
 21
759.82249449999995
  0
LINE
  8
_0-0_0
  6
CONTINUOUS
 62
    7
 10
-572.47778299999982
 20
759.39094550000004
 11
-572.55963100000008
 21
759.65779150000003
  0
LINE
  8
_0-0_0
  6
CONTINUOUS
 62
    7
 10
-572.30279500000006
 20
759.54850750000003
 11
-572.55963100000008
 21
759.65779150000003
  0
LINE
  8
_0-0_0
  6
CONTINUOUS
 62
    7
 10
-572.63537599999995
 20
759.21592650000002
 11
-572.74468999999999
 21
759.47276250000004
  0
LINE
  8
_0-0_0
  6
CONTINUOUS
 62
    7
 10
-572.47778299999982
 20
759.39094550000004
 11
-572.74468999999999
 21
759.47276250000004
  0
LINE
  8
_0-0_0
  6
CONTINUOUS
 62
    7
 10
-572.77380399999993
 20
759.0253755
 11
-572.90936299999998
 21
759.26939349999998
  0
LINE
  8
_0-0_0
  6
CONTINUOUS
 62
    7
 10
-572.63537599999995
 20
759.21592650000002
 11
-572.90936299999998
 21
759.26939349999998
  0
LINE
  8
_0-0_0
  6
CONTINUOUS
 62
    7
 10
-572.89160099999981
 20
758.82142650000003
 11
-573.05187999999998
 21
759.04994150000005
  0
LINE
  8
_0-0_0
  6
CONTINUOUS
 62
    7
 10
-572.77380399999993
 20
759.0253755
 11
-573.05187999999998
 21
759.04994150000005
  0
LINE
  8
_0-0_0
  6
CONTINUOUS
 62
    7
 10
-572.98736599999984
 20
758.60627750000003
 11
-573.17065400000001
 21
758.81678750000003
  0
LINE
  8
_0-0_0
  6
CONTINUOUS
 62
    7
 10
-572.89160099999981
 20
758.82142650000003
 11
-573.17065400000001
 21
758.81678750000003
  0
LINE
  8
_0-0_0
  6
CONTINUOUS
 62
    7
 10
-573.0601200000001
 20
758.38227849999998
 11
-573.26446499999997
 21
758.57249449999995
  0
LINE
  8
_0-0_0
  6
CONTINUOUS
 62
    7
 10
-572.98736599999984
 20
758.60627750000003
 11
-573.26446499999997
 21
758.57249449999995
  0
LINE
  8
_0-0_0
  6
CONTINUOUS
 62
    7
 10
-573.10913099999993
 20
758.15193150000005
 11
-573.33221400000002
 21
758.31971750000002
  0
LINE
  8
_0-0_0
  6
CONTINUOUS
 62
    7
 10
-573.0601200000001
 20
758.38227849999998
 11
-573.33221400000002
 21
758.31971750000002
  0
LINE
  8
_0-0_0
  6
CONTINUOUS
 62
    7
 10
-573.10913099999993
 20
758.15193150000005
 11
-573.373108
 21
758.0612635
  0
LINE
  8
_0-0_0
  6
CONTINUOUS
 62
    7
 10
-573.13372800000002
 20
757.9177095
 11
-573.373108
 21
758.0612635
  0
LINE
  8
_0-0_0
  6
CONTINUOUS
 62
    7
 10
-573.13372800000002
 20
757.68217449999997
 11
-573.386841
 21
757.79994150000005
  0
LINE
  8
_0-0_0
  6
CONTINUOUS
 62
    7
 10
-573.13372800000002
 20
757.9177095
 11
-573.386841
 21
757.79994150000005
  0
LINE
  8
_0-0_0
  6
CONTINUOUS
 62
    7
 10
-573.10913099999993
 20
757.44795250000004
 11
-573.373108
 21
757.53861949999998
  0
LINE
  8
_0-0_0
  6
CONTINUOUS
 62
    7
 10
-573.13372800000002
 20
757.68217449999997
 11
-573.373108
 21
757.53861949999998
  0
LINE
  8
_0-0_0
  6
CONTINUOUS
 62
    7
 10
-573.0601200000001
 20
757.21760549999999
 11
-573.33221400000002
 21
757.28016649999995
  0
LINE
  8
_0-0_0
  6
CONTINUOUS
 62
    7
 10
-573.10913099999993
 20
757.44795250000004
 11
-573.33221400000002
 21
757.28016649999995
  0
LINE
  8
_0-0_0
  6
CONTINUOUS
 62
    7
 10
-572.98736599999984
 20
756.99360650000006
 11
-573.26446499999997
 21
757.02738950000003
  0
LINE
  8
_0-0_0
  6
CONTINUOUS
 62
    7
 10
-573.0601200000001
 20
757.21760549999999
 11
-573.26446499999997
 21
757.02738950000003
  0
LINE
  8
_0-0_0
  6
CONTINUOUS
 62
    7
 10
-572.89160099999981
 20
756.77845750000006
 11
-573.17065400000001
 21
756.78309650000006
  0
LINE
  8
_0-0_0
  6
CONTINUOUS
 62
    7
 10
-572.98736599999984
 20
756.99360650000006
 11
-573.17065400000001
 21
756.78309650000006
  0
LINE
  8
_0-0_0
  6
CONTINUOUS
 62
    7
 10
-572.77380399999993
 20
756.57450849999998
 11
-573.05187999999998
 21
756.54994150000005
  0
LINE
  8
_0-0_0
  6
CONTINUOUS
 62
    7
 10
-572.89160099999981
 20
756.77845750000006
 11
-573.05187999999998
 21
756.54994150000005
  0
LINE
  8
_0-0_0
  6
CONTINUOUS
 62
    7
 10
-572.63537599999995
 20
756.38398749999999
 11
-572.90936299999998
 21
756.3304895
  0
LINE
  8
_0-0_0
  6
CONTINUOUS
 62
    7
 10
-572.77380399999993
 20
756.57450849999998
 11
-572.90936299999998
 21
756.3304895
  0
LINE
  8
_0-0_0
  6
CONTINUOUS
 62
    7
 10
-572.47778299999982
 20
756.20896849999997
 11
-572.74468999999999
 21
756.12712050000005
  0
LINE
  8
_0-0_0
  6
CONTINUOUS
 62
    7
 10
-572.63537599999995
 20
756.38398749999999
 11
-572.74468999999999
 21
756.12712050000005
  0
LINE
  8
_0-0_0
  6
CONTINUOUS
 62
    7
 10
-572.30279500000006
 20
756.05137649999995
 11
-572.55963100000008
 21
755.94209250000006
  0
LINE
  8
_0-0_0
  6
CONTINUOUS
 62
    7
 10
-572.47778299999982
 20
756.20896849999997
 11
-572.55963100000008
 21
755.94209250000006
  0
LINE
  8
_0-0_0
  6
CONTINUOUS
 62
    7
 10
-572.11224399999992
 20
755.91291750000005
 11
-572.35626200000002
 21
755.77738950000003
  0
LINE
  8
_0-0_0
  6
CONTINUOUS
 62
    7
 10
-572.30279500000006
 20
756.05137649999995
 11
-572.35626200000002
 21
755.77738950000003
  0
LINE
  8
_0-0_0
  6
CONTINUOUS
 62
    7
 10
-571.90826399999992
 20
755.79518150000001
 11
-572.136841
 21
755.63487250000003
  0
LINE
  8
_0-0_0
  6
CONTINUOUS
 62
    7
 10
-572.11224399999992
 20
755.91291750000005
 11
-572.136841
 21
755.63487250000003
  0
LINE
  8
_0-0_0
  6
CONTINUOUS
 62
    7
 10
-571.69311500000003
 20
755.69938650000006
 11
-571.90368600000011
 21
755.51606749999996
  0
LINE
  8
_0-0_0
  6
CONTINUOUS
 62
    7
 10
-571.90826399999992
 20
755.79518150000001
 11
-571.90368600000011
 21
755.51606749999996
  0
LINE
  8
_0-0_0
  6
CONTINUOUS
 62
    7
 10
-571.46917699999995
 20
755.62660249999999
 11
-571.65936299999998
 21
755.42228650000004
  0
LINE
  8
_0-0_0
  6
CONTINUOUS
 62
    7
 10
-571.69311500000003
 20
755.69938650000006
 11
-571.65936299999998
 21
755.42228650000004
  0
LINE
  8
_0-0_0
  6
CONTINUOUS
 62
    7
 10
-571.23876900000005
 20
755.5776515
 11
-571.40661599999999
 21
755.35456850000003
  0
LINE
  8
_0-0_0
  6
CONTINUOUS
 62
    7
 10
-571.46917699999995
 20
755.62660249999999
 11
-571.40661599999999
 21
755.35456850000003
  0
LINE
  8
_0-0_0
  6
CONTINUOUS
 62
    7
 10
-571.00457800000004
 20
755.55302449999999
 11
-571.1481319999998
 21
755.31364450000001
  0
LINE
  8
_0-0_0
  6
CONTINUOUS
 62
    7
 10
-571.23876900000005
 20
755.5776515
 11
-571.1481319999998
 21
755.31364450000001
  0
LINE
  8
_0-0_0
  6
CONTINUOUS
 62
    7
 10
-570.76904300000001
 20
755.55302449999999
 11
-570.886841
 21
755.29994150000005
  0
LINE
  8
_0-0_0
  6
CONTINUOUS
 62
    7
 10
-571.00457800000004
 20
755.55302449999999
 11
-570.886841
 21
755.29994150000005
  0
LINE
  8
_0-0_0
  6
CONTINUOUS
 62
    7
 10
-570.53485099999989
 20
755.5776515
 11
-570.62548800000013
 21
755.31364450000001
  0
LINE
  8
_0-0_0
  6
CONTINUOUS
 62
    7
 10
-570.76904300000001
 20
755.55302449999999
 11
-570.62548800000013
 21
755.31364450000001
  0
LINE
  8
_0-0_0
  6
CONTINUOUS
 62
    7
 10
-570.30444299999999
 20
755.62660249999999
 11
-570.36706499999991
 21
755.35456850000003
  0
LINE
  8
_0-0_0
  6
CONTINUOUS
 62
    7
 10
-570.53485099999989
 20
755.5776515
 11
-570.36706499999991
 21
755.35456850000003
  0
LINE
  8
_0-0_0
  6
CONTINUOUS
 62
    7
 10
-570.0805049999999
 20
755.69938650000006
 11
-570.11425800000006
 21
755.42228650000004
  0
LINE
  8
_0-0_0
  6
CONTINUOUS
 62
    7
 10
-570.30444299999999
 20
755.62660249999999
 11
-570.11425800000006
 21
755.42228650000004
  0
LINE
  8
_0-0_0
  6
CONTINUOUS
 62
    7
 10
-569.86535600000002
 20
755.79518150000001
 11
-569.86999500000002
 21
755.51606749999996
  0
LINE
  8
_0-0_0
  6
CONTINUOUS
 62
    7
 10
-570.0805049999999
 20
755.69938650000006
 11
-569.86999500000002
 21
755.51606749999996
  0
LINE
  8
_0-0_0
  6
CONTINUOUS
 62
    7
 10
-569.74578799999995
 20
755.71131849999995
 11
-569.636841
 21
755.63487250000003
  0
LINE
  8
_0-0_0
  6
CONTINUOUS
 62
    7
 10
-569.86535600000002
 20
755.79518150000001
 11
-569.74578799999995
 21
755.71131849999995
  0
LINE
  8
_0-0_0
  6
CONTINUOUS
 62
    7
 10
-569.6613769999999
 20
755.91291750000005
 11
-569.636841
 21
755.63487250000003
  0
LINE
  8
_0-0_0
  6
CONTINUOUS
 62
    7
 10
-569.47082499999988
 20
756.05137649999995
 11
-569.41735799999992
 21
755.77738950000003
  0
LINE
  8
_0-0_0
  6
CONTINUOUS
 62
    7
 10
-569.6613769999999
 20
755.91291750000005
 11
-569.41735799999992
 21
755.77738950000003
  0
LINE
  8
_0-0_0
  6
CONTINUOUS
 62
    7
 10
-569.29583700000012
 20
756.20896849999997
 11
-569.21398899999986
 21
755.94209250000006
  0
LINE
  8
_0-0_0
  6
CONTINUOUS
 62
    7
 10
-569.47082499999988
 20
756.05137649999995
 11
-569.21398899999986
 21
755.94209250000006
  0
LINE
  8
_0-0_0
  6
CONTINUOUS
 62
    7
 10
-569.1382450000001
 20
756.38398749999999
 11
-569.02893099999983
 21
756.12712050000005
  0
LINE
  8
_0-0_0
  6
CONTINUOUS
 62
    7
 10
-569.29583700000012
 20
756.20896849999997
 11
-569.02893099999983
 21
756.12712050000005
  0
LINE
  8
_0-0_0
  6
CONTINUOUS
 62
    7
 10
-568.99981699999989
 20
756.57450849999998
 11
-568.86425800000006
 21
756.3304895
  0
LINE
  8
_0-0_0
  6
CONTINUOUS
 62
    7
 10
-569.1382450000001
 20
756.38398749999999
 11
-568.86425800000006
 21
756.3304895
  0
LINE
  8
_0-0_0
  6
CONTINUOUS
 62
    7
 10
-568.88207999999986
 20
756.77845750000006
 11
-568.72174099999984
 21
756.54994150000005
  0
LINE
  8
_0-0_0
  6
CONTINUOUS
 62
    7
 10
-568.99981699999989
 20
756.57450849999998
 11
-568.72174099999984
 21
756.54994150000005
  0
LINE
  8
_0-0_0
  6
CONTINUOUS
 62
    7
 10
-568.78625499999998
 20
756.99360650000006
 11
-568.60296599999992
 21
756.78309650000006
  0
LINE
  8
_0-0_0
  6
CONTINUOUS
 62
    7
 10
-568.88207999999986
 20
756.77845750000006
 11
-568.60296599999992
 21
756.78309650000006
  0
LINE
  8
_0-0_0
  6
CONTINUOUS
 62
    7
 10
-568.71350099999995
 20
757.21760549999999
 11
-568.50915499999996
 21
757.02738950000003
  0
LINE
  8
_0-0_0
  6
CONTINUOUS
 62
    7
 10
-568.78625499999998
 20
756.99360650000006
 11
-568.50915499999996
 21
757.02738950000003
  0
LINE
  8
_0-0_0
  6
CONTINUOUS
 62
    7
 10
-568.66449000000011
 20
757.44795250000004
 11
-568.4414670000001
 21
757.28016649999995
  0
LINE
  8
_0-0_0
  6
CONTINUOUS
 62
    7
 10
-568.71350099999995
 20
757.21760549999999
 11
-568.4414670000001
 21
757.28016649999995
  0
LINE
  8
_0-0_0
  6
CONTINUOUS
 62
    7
 10
-568.63989300000003
 20
757.68217449999997
 11
-568.40051300000005
 21
757.53861949999998
  0
LINE
  8
_0-0_0
  6
CONTINUOUS
 62
    7
 10
-568.66449000000011
 20
757.44795250000004
 11
-568.40051300000005
 21
757.53861949999998
  0
LINE
  8
_0-0_0
  6
CONTINUOUS
 62
    7
 10
-568.63989300000003
 20
757.9177095
 11
-568.386841
 21
757.79994150000005
  0
LINE
  8
_0-0_0
  6
CONTINUOUS
 62
    7
 10
-568.63989300000003
 20
757.68217449999997
 11
-568.386841
 21
757.79994150000005
  0
LINE
  8
_0-0_0
  6
CONTINUOUS
 62
    7
 10
-568.66449000000011
 20
758.15193150000005
 11
-568.40051300000005
 21
758.0612635
  0
LINE
  8
_0-0_0
  6
CONTINUOUS
 62
    7
 10
-568.63989300000003
 20
757.9177095
 11
-568.40051300000005
 21
758.0612635
  0
LINE
  8
_0-0_0
  6
CONTINUOUS
 62
    7
 10
-568.71350099999995
 20
758.38227849999998
 11
-568.4414670000001
 21
758.31971750000002
  0
LINE
  8
_0-0_0
  6
CONTINUOUS
 62
    7
 10
-568.66449000000011
 20
758.15193150000005
 11
-568.4414670000001
 21
758.31971750000002
  0
LINE
  8
_0-0_0
  6
CONTINUOUS
 62
    7
 10
-568.78625499999998
 20
758.60627750000003
 11
-568.50915499999996
 21
758.57249449999995
  0
LINE
  8
_0-0_0
  6
CONTINUOUS
 62
    7
 10
-568.71350099999995
 20
758.38227849999998
 11
-568.50915499999996
 21
758.57249449999995
  0
LINE
  8
_0-0_0
  6
CONTINUOUS
 62
    7
 10
-568.88207999999986
 20
758.82142650000003
 11
-568.60296599999992
 21
758.81678750000003
  0
LINE
  8
_0-0_0
  6
CONTINUOUS
 62
    7
 10
-568.78625499999998
 20
758.60627750000003
 11
-568.60296599999992
 21
758.81678750000003
  0
CIRCLE
  8
_0-0_0
  6
CONTINUOUS
 62
    7
 10
-558.886841
 20
774.39994750000005
 40
2
  0
CIRCLE
  8
_0-0_0
  6
CONTINUOUS
 62
    7
 10
-570.886841
 20
757.79994150000005
 40
2
  0
LINE
  8
_0-0_0
  6
CONTINUOUS
 62
    7
 10
-558.30468699999983
 20
773.39994750000005
 11
-559.46893300000011
 21
773.39994750000005
  0
LINE
  8
_0-0_0
  6
CONTINUOUS
 62
    7
 10
-559.46893300000011
 20
773.39994750000005
 11
-560.03680399999985
 21
774.39994750000005
  0
LINE
  8
_0-0_0
  6
CONTINUOUS
 62
    7
 10
-560.03680399999985
 20
774.39994750000005
 11
-559.46893300000011
 21
775.39994750000005
  0
LINE
  8
_0-0_0
  6
CONTINUOUS
 62
    7
 10
-559.46893300000011
 20
775.39994750000005
 11
-558.30468699999983
 21
775.39994750000005
  0
LINE
  8
_0-0_0
  6
CONTINUOUS
 62
    7
 10
-558.30468699999983
 20
775.39994750000005
 11
-557.73681600000009
 21
774.39994750000005
  0
LINE
  8
_0-0_0
  6
CONTINUOUS
 62
    7
 10
-557.73681600000009
 20
774.39994750000005
 11
-558.30468699999983
 21
773.39994750000005
  0
CIRCLE
  8
_0-0_0
  6
CONTINUOUS
 62
    7
 10
-564.886841
 20
766.09992950000003
 40
5
  0
LINE
  8
_0-0_0
  6
CONTINUOUS
 62
    7
 10
-570.30468699999983
 20
756.79994150000005
 11
-571.46893300000011
 21
756.79994150000005
  0
LINE
  8
_0-0_0
  6
CONTINUOUS
 62
    7
 10
-571.46893300000011
 20
756.79994150000005
 11
-572.03680399999985
 21
757.79994150000005
  0
LINE
  8
_0-0_0
  6
CONTINUOUS
 62
    7
 10
-572.03680399999985
 20
757.79994150000005
 11
-571.46893300000011
 21
758.79994150000005
  0
LINE
  8
_0-0_0
  6
CONTINUOUS
 62
    7
 10
-571.46893300000011
 20
758.79994150000005
 11
-570.30468699999983
 21
758.79994150000005
  0
LINE
  8
_0-0_0
  6
CONTINUOUS
 62
    7
 10
-570.30468699999983
 20
758.79994150000005
 11
-569.73681600000009
 21
757.79994150000005
  0
LINE
  8
_0-0_0
  6
CONTINUOUS
 62
    7
 10
-569.73681600000009
 20
757.79994150000005
 11
-570.30468699999983
 21
756.79994150000005
  0
CIRCLE
  8
_0-0_0
  6
CONTINUOUS
 62
    7
 10
-564.886841
 20
766.09992950000003
 40
4.5381200000000002
  0
CIRCLE
  8
_0-0_0
  6
CONTINUOUS
 62
    7
 10
-564.886841
 20
766.09992950000003
 40
4
  0
LINE
  8
_0-0_0
  6
CONTINUOUS
 62
    7
 10
-573.019409
 20
776.05525150000005
 11
-573.68682899999999
 21
776.05525150000005
  0
ARC
  8
_0-0_0
  6
CONTINUOUS
 62
    7
 10
-556.886841
 20
776.52494750000005
 40
0.2
 50
179.94055499999999
 51
269.99997000000002
  0
ARC
  8
_0-0_0
  6
CONTINUOUS
 62
    7
 10
-558.386841
 20
757.29994150000005
 40
2
 50
269.99999700000001
 51
273.84026499999999
  0
ARC
  8
_0-0_0
  6
CONTINUOUS
 62
    7
 10
-571.386841
 20
774.89994750000005
 40
2
 50
90.000003000000007
 51
93.840255999999997
  0
LINE
  8
_0-0_0
  6
CONTINUOUS
 62
    7
 10
-556.58679200000006
 20
776.32493550000004
 11
-556.886841
 21
776.32493550000004
  0
LINE
  8
_0-0_0
  6
CONTINUOUS
 62
    7
 10
-556.58679200000006
 20
779.27494750000005
 11
-556.886841
 21
779.27494750000005
  0
ARC
  8
_0-0_0
  6
CONTINUOUS
 62
    7
 10
-572.886841
 20
776.52500950000001
 40
0.2
 50
270.00002499999994
 51
0.0594439999999606
  0
ARC
  8
_0-0_0
  6
CONTINUOUS
 62
    7
 10
-556.58685300000002
 20
776.52497849999997
 40
0.200055
 50
270.00964199999999
 51
1.3705509999999435
  0
ARC
  8
_0-0_0
  6
CONTINUOUS
 62
    7
 10
-556.58679200000006
 20
779.07493550000004
 40
0.2
 50
359.91222800000003
 51
89.999948000000003
  0
LINE
  8
_0-0_0
  6
CONTINUOUS
 62
    7
 10
-573.18682899999999
 20
776.32502750000003
 11
-572.886841
 21
776.32502750000003
  0
ARC
  8
_0-0_0
  6
CONTINUOUS
 62
    7
 10
-573.18676800000003
 20
776.52507049999997
 40
0.200055
 50
178.629446
 51
269.99035300000003
  0
LINE
  8
_0-0_0
  6
CONTINUOUS
 62
    7
 10
-556.18682899999999
 20
781.80000250000001
 11
-556.18682899999999
 21
795.00001550000002
  0
ARC
  8
_0-0_0
  6
CONTINUOUS
 62
    7
 10
-556.68682899999999
 20
781.80000250000001
 40
0.5
 50
269.99999700000001
 51
0
  0
ARC
  8
_0-0_0
  6
CONTINUOUS
 62
    7
 10
-556.24542199999996
 20
795.20002750000003
 40
0.1
 50
135
 51
225
  0
LINE
  8
_0-0_0
  6
CONTINUOUS
 62
    7
 10
-556.31610099999989
 20
795.12931849999995
 11
-556.18682899999999
 21
795.00001550000002
  0
LINE
  8
_0-0_0
  6
CONTINUOUS
 62
    7
 10
-556.68682899999999
 20
781.30000250000001
 11
-558.58679200000006
 21
781.30000250000001
  0
ARC
  8
_0-0_0
  6
CONTINUOUS
 62
    7
 10
-558.58679200000006
 20
781.80000250000001
 40
0.5
 50
233.12990600000001
 51
269.99999700000001
  0
ARC
  8
_0-0_0
  6
CONTINUOUS
 62
    7
 10
-571.28680399999985
 20
781.80000250000001
 40
0.5
 50
269.99999700000001
 51
306.87009999999998
  0
LINE
  8
_0-0_0
  6
CONTINUOUS
 62
    7
 10
-571.28680399999985
 20
781.30000250000001
 11
-573.18682899999999
 21
781.30000250000001
  0
ARC
  8
_0-0_0
  6
CONTINUOUS
 62
    7
 10
-573.18682899999999
 20
781.80000250000001
 40
0.5
 50
180.00000900000003
 51
269.99999700000001
  0
LINE
  8
_0-0_0
  6
CONTINUOUS
 62
    7
 10
-573.68682899999999
 20
791.23500049999996
 11
-573.68682899999999
 21
781.80000250000001
  0
LINE
  8
_0-0_0
  6
CONTINUOUS
 62
    7
 10
-573.68682899999999
 20
791.23500049999996
 11
-572.98681600000009
 21
791.23500049999996
  0
LINE
  8
_0-0_0
  6
CONTINUOUS
 62
    7
 10
-556.98681600000009
 20
809.80000250000001
 11
-556.78076199999987
 21
809.80000250000001
  0
LINE
  8
_0-0_0
  6
CONTINUOUS
 62
    7
 10
-556.78076199999987
 20
809.80000250000001
 11
-556.18682899999999
 21
809.20603949999997
  0
LINE
  8
_0-0_0
  6
CONTINUOUS
 62
    7
 10
-556.18682899999999
 20
804.20002750000003
 11
-556.18682899999999
 21
809.20603949999997
  0
LINE
  8
_0-0_0
  6
CONTINUOUS
 62
    7
 10
-556.31610099999989
 20
804.07072449999998
 11
-556.18682899999999
 21
804.20002750000003
  0
ARC
  8
_0-0_0
  6
CONTINUOUS
 62
    7
 10
-556.24542199999996
 20
804.00001550000002
 40
0.1
 50
135
 51
225
  0
LINE
  8
_0-0_0
  6
CONTINUOUS
 62
    7
 10
-556.31610099999989
 20
803.92930550000005
 11
-556.18682899999999
 21
803.80000250000001
  0
LINE
  8
_0-0_0
  6
CONTINUOUS
 62
    7
 10
-556.18682899999999
 20
803.10002150000003
 11
-556.18682899999999
 21
803.80000250000001
  0
LINE
  8
_0-0_0
  6
CONTINUOUS
 62
    7
 10
-556.31610099999989
 20
802.97071849999998
 11
-556.18682899999999
 21
803.10002150000003
  0
ARC
  8
_0-0_0
  6
CONTINUOUS
 62
    7
 10
-556.24542199999996
 20
802.90000950000001
 40
0.1
 50
135
 51
225
  0
LINE
  8
_0-0_0
  6
CONTINUOUS
 62
    7
 10
-556.31610099999989
 20
802.82929950000005
 11
-556.18682899999999
 21
802.70002750000003
  0
LINE
  8
_0-0_0
  6
CONTINUOUS
 62
    7
 10
-556.18682899999999
 20
802.00001550000002
 11
-556.18682899999999
 21
802.70002750000003
  0
LINE
  8
_0-0_0
  6
CONTINUOUS
 62
    7
 10
-556.31610099999989
 20
801.87074250000001
 11
-556.18682899999999
 21
802.00001550000002
  0
ARC
  8
_0-0_0
  6
CONTINUOUS
 62
    7
 10
-556.24542199999996
 20
801.80000250000001
 40
0.1
 50
135
 51
225
  0
LINE
  8
_0-0_0
  6
CONTINUOUS
 62
    7
 10
-556.31610099999989
 20
801.72929350000004
 11
-556.18682899999999
 21
801.60002150000003
  0
LINE
  8
_0-0_0
  6
CONTINUOUS
 62
    7
 10
-556.18682899999999
 20
800.90000950000001
 11
-556.18682899999999
 21
801.60002150000003
  0
LINE
  8
_0-0_0
  6
CONTINUOUS
 62
    7
 10
-556.31610099999989
 20
800.7707365
 11
-556.18682899999999
 21
800.90000950000001
  0
ARC
  8
_0-0_0
  6
CONTINUOUS
 62
    7
 10
-556.24542199999996
 20
800.70002750000003
 40
0.1
 50
135
 51
225
  0
LINE
  8
_0-0_0
  6
CONTINUOUS
 62
    7
 10
-556.31610099999989
 20
800.62931849999995
 11
-556.18682899999999
 21
800.50001550000002
  0
LINE
  8
_0-0_0
  6
CONTINUOUS
 62
    7
 10
-556.18682899999999
 20
799.80000250000001
 11
-556.18682899999999
 21
800.50001550000002
  0
LINE
  8
_0-0_0
  6
CONTINUOUS
 62
    7
 10
-556.31610099999989
 20
799.67073049999999
 11
-556.18682899999999
 21
799.80000250000001
  0
ARC
  8
_0-0_0
  6
CONTINUOUS
 62
    7
 10
-556.24542199999996
 20
799.60002150000003
 40
0.1
 50
135
 51
225
  0
LINE
  8
_0-0_0
  6
CONTINUOUS
 62
    7
 10
-556.31610099999989
 20
799.52931149999995
 11
-556.18682899999999
 21
799.40000950000001
  0
LINE
  8
_0-0_0
  6
CONTINUOUS
 62
    7
 10
-556.18682899999999
 20
798.70002750000003
 11
-556.18682899999999
 21
799.40000950000001
  0
LINE
  8
_0-0_0
  6
CONTINUOUS
 62
    7
 10
-556.31610099999989
 20
798.57072449999998
 11
-556.18682899999999
 21
798.70002750000003
  0
ARC
  8
_0-0_0
  6
CONTINUOUS
 62
    7
 10
-556.24542199999996
 20
798.50001550000002
 40
0.1
 50
135
 51
225
  0
LINE
  8
_0-0_0
  6
CONTINUOUS
 62
    7
 10
-556.31610099999989
 20
798.42930550000005
 11
-556.18682899999999
 21
798.30000250000001
  0
LINE
  8
_0-0_0
  6
CONTINUOUS
 62
    7
 10
-556.18682899999999
 20
797.60002150000003
 11
-556.18682899999999
 21
798.30000250000001
  0
LINE
  8
_0-0_0
  6
CONTINUOUS
 62
    7
 10
-556.31610099999989
 20
797.47071849999998
 11
-556.18682899999999
 21
797.60002150000003
  0
ARC
  8
_0-0_0
  6
CONTINUOUS
 62
    7
 10
-556.24542199999996
 20
797.40000950000001
 40
0.1
 50
135
 51
225
  0
LINE
  8
_0-0_0
  6
CONTINUOUS
 62
    7
 10
-556.31610099999989
 20
797.32929950000005
 11
-556.18682899999999
 21
797.20002750000003
  0
LINE
  8
_0-0_0
  6
CONTINUOUS
 62
    7
 10
-556.18682899999999
 20
796.50001550000002
 11
-556.18682899999999
 21
797.20002750000003
  0
LINE
  8
_0-0_0
  6
CONTINUOUS
 62
    7
 10
-556.31610099999989
 20
796.37074250000001
 11
-556.18682899999999
 21
796.50001550000002
  0
ARC
  8
_0-0_0
  6
CONTINUOUS
 62
    7
 10
-556.24542199999996
 20
796.30000250000001
 40
0.1
 50
135
 51
225
  0
LINE
  8
_0-0_0
  6
CONTINUOUS
 62
    7
 10
-556.31610099999989
 20
796.22929350000004
 11
-556.18682899999999
 21
796.10002150000003
  0
LINE
  8
_0-0_0
  6
CONTINUOUS
 62
    7
 10
-556.18682899999999
 20
795.40000950000001
 11
-556.18682899999999
 21
796.10002150000003
  0
LINE
  8
_0-0_0
  6
CONTINUOUS
 62
    7
 10
-556.31610099999989
 20
795.2707365
 11
-556.18682899999999
 21
795.40000950000001
  0
LINE
  8
_0-0_0
  6
CONTINUOUS
 62
    7
 10
-556.18682899999999
 20
787.30000250000001
 11
-556.08679200000006
 21
787.30000250000001
  0
LINE
  8
_0-0_0
  6
CONTINUOUS
 62
    7
 10
-556.08679200000006
 20
786.80000250000001
 11
-556.08679200000006
 21
787.30000250000001
  0
LINE
  8
_0-0_0
  6
CONTINUOUS
 62
    7
 10
-556.08679200000006
 20
786.80000250000001
 11
-556.08679200000006
 21
782.80000250000001
  0
LINE
  8
_0-0_0
  6
CONTINUOUS
 62
    7
 10
-556.18682899999999
 20
782.30000250000001
 11
-556.08679200000006
 21
782.30000250000001
  0
LINE
  8
_0-0_0
  6
CONTINUOUS
 62
    7
 10
-556.08679200000006
 20
782.30000250000001
 11
-556.08679200000006
 21
782.80000250000001
  0
LINE
  8
_0-0_0
  6
CONTINUOUS
 62
    7
 10
-573.68682899999999
 20
791.30003350000004
 11
-573.68682899999999
 21
791.23500049999996
  0
LINE
  8
_0-0_0
  6
CONTINUOUS
 62
    7
 10
-557.18682899999999
 20
810.10002150000003
 11
-557.18682899999999
 21
810.00001550000002
  0
ARC
  8
_0-0_0
  6
CONTINUOUS
 62
    7
 10
-569.68682899999999
 20
810.10002150000003
 40
2.5
 50
90.000003000000007
 51
180.00000900000001
  0
LINE
  8
_0-0_0
  6
CONTINUOUS
 62
    7
 10
-573.78680399999985
 20
791.30000250000001
 11
-572.98681600000009
 21
791.30000250000001
  0
LINE
  8
_0-0_0
  6
CONTINUOUS
 62
    7
 10
-573.28680399999985
 20
813.10002150000003
 11
-573.28680399999985
 21
808.87849449999999
  0
LINE
  8
_0-0_0
  6
CONTINUOUS
 62
    7
 10
-572.18682899999999
 20
813.10002150000003
 11
-572.18682899999999
 21
810.10002150000003
  0
LINE
  8
_0-0_0
  6
CONTINUOUS
 62
    7
 10
-573.28680399999985
 20
808.87849449999999
 11
-572.98681600000009
 21
808.87849449999999
  0
LINE
  8
_0-0_0
  6
CONTINUOUS
 62
    7
 10
-573.28680399999985
 20
818.23991350000006
 11
-572.18682899999999
 21
818.23991350000006
  0
LINE
  8
_0-0_0
  6
CONTINUOUS
 62
    7
 10
-572.18682899999999
 20
813.10054049999997
 11
-572.18682899999999
 21
818.23991350000006
  0
LINE
  8
_0-0_0
  6
CONTINUOUS
 62
    7
 10
-573.78680399999985
 20
812.60102849999998
 11
-573.78680399999985
 21
817.67213449999997
  0
LINE
  8
_0-0_0
  6
CONTINUOUS
 62
    7
 10
-573.28680399999985
 20
818.23991350000006
 11
-573.78680399999985
 21
817.67213449999997
  0
ARC
  8
_0-0_0
  6
CONTINUOUS
 62
    7
 10
-559.68682899999999
 20
810.10002150000003
 40
2.5
 50
0
 51
90.000003000000007
  0
LINE
  8
_0-0_0
  6
CONTINUOUS
 62
    7
 10
-572.18682899999999
 20
810.00001550000002
 11
-572.18682899999999
 21
810.10002150000003
  0
LINE
  8
_0-0_0
  6
CONTINUOUS
 62
    7
 10
-559.68682899999999
 20
812.60002150000003
 11
-569.68682899999999
 21
812.60002150000003
  0
LINE
  8
_0-0_0
  6
CONTINUOUS
 62
    7
 10
-555.98681600000009
 20
782.80000250000001
 11
-555.98681600000009
 21
782.93037449999997
  0
LINE
  8
_0-0_0
  6
CONTINUOUS
 62
    7
 10
-555.98681600000009
 20
786.43037449999997
 11
-555.98681600000009
 21
782.93037449999997
  0
LINE
  8
_0-0_0
  6
CONTINUOUS
 62
    7
 10
-556.08679200000006
 20
786.70002750000003
 11
-555.98681600000009
 21
786.70002750000003
  0
LINE
  8
_0-0_0
  6
CONTINUOUS
 62
    7
 10
-555.98681600000009
 20
786.43037449999997
 11
-555.98681600000009
 21
786.70002750000003
  0
LINE
  8
_0-0_0
  6
CONTINUOUS
 62
    7
 10
-572.18682899999999
 20
820.60002150000003
 11
-572.18682899999999
 21
818.23991350000006
  0
LINE
  8
_0-0_0
  6
CONTINUOUS
 62
    7
 10
-556.386841
 20
809.20002750000003
 11
-557.386841
 21
810.20002750000003
  0
LINE
  8
_0-0_0
  6
CONTINUOUS
 62
    7
 10
-556.386841
 20
781.40000950000001
 11
-556.386841
 21
809.20002750000003
  0
LINE
  8
_0-0_0
  6
CONTINUOUS
 62
    7
 10
-572.98681600000009
 20
781.40000950000001
 11
-556.386841
 21
781.40000950000001
  0
LINE
  8
_0-0_0
  6
CONTINUOUS
 62
    7
 10
-572.98681600000009
 20
809.20002750000003
 11
-572.98681600000009
 21
781.40000950000001
  0
LINE
  8
_0-0_0
  6
CONTINUOUS
 62
    7
 10
-573.78680399999985
 20
791.30000250000001
 11
-573.78680399999985
 21
808.11283849999995
  0
LINE
  8
_0-0_0
  6
CONTINUOUS
 62
    7
 10
-573.78680399999985
 20
812.60002150000003
 11
-573.78680399999985
 21
808.11283849999995
  0
ARC
  8
_0-0_0
  6
CONTINUOUS
 62
    7
 10
-542.33508299999994
 20
788.11784350000005
 40
37.269466000000001
 50
146.14857699999999
 51
147.55443399999999
  0
LINE
  8
_0-0_0
  6
CONTINUOUS
 62
    7
 10
-573.28680399999985
 20
820.60002150000003
 11
-573.28680399999985
 21
818.23991350000006
  0
LINE
  8
_0-0_0
  6
CONTINUOUS
 62
    7
 10
-573.78680399999985
 20
820.10002150000003
 11
-573.78680399999985
 21
817.67213449999997
  0
ARC
  8
_0-0_0
  6
CONTINUOUS
 62
    7
 10
-559.955872
 20
809.80000250000001
 40
2.6000000000000001
 50
8.8498839999999994
 51
90.000002999999992
  0
LINE
  8
_0-0_0
  6
CONTINUOUS
 62
    7
 10
-559.955872
 20
812.40000950000001
 11
-569.41778599999998
 21
812.40000950000001
  0
ARC
  8
_0-0_0
  6
CONTINUOUS
 62
    7
 10
-569.41778599999998
 20
809.80000250000001
 40
2.6000000000000001
 50
90.000003000000007
 51
171.150115
  0
LINE
  8
_0-0_0
  6
CONTINUOUS
 62
    7
 10
-572.98681600000009
 20
809.20002750000003
 11
-571.98681600000009
 21
810.20002750000003
  0
LINE
  8
_0-0_0
  6
CONTINUOUS
 62
    7
 10
-557.386841
 20
808.78581250000002
 11
-556.386841
 21
809.20002750000003
  0
ARC
  8
_0-0_0
  6
CONTINUOUS
 62
    7
 10
-562.9293819999998
 20
820.98612949999995
 40
12.126564999999999
 50
292.155034
 51
297.19674500000002
  0
LINE
  8
_0-0_0
  6
CONTINUOUS
 62
    7
 10
-557.386841
 20
782.40000950000001
 11
-556.386841
 21
781.40000950000001
  0
LINE
  8
_0-0_0
  6
CONTINUOUS
 62
    7
 10
-571.98681600000009
 20
782.40000950000001
 11
-572.98681600000009
 21
781.40000950000001
  0
LINE
  8
_0-0_0
  6
CONTINUOUS
 62
    7
 10
-571.98681600000009
 20
808.78581250000002
 11
-572.98681600000009
 21
809.20002750000003
  0
ARC
  8
_0-0_0
  6
CONTINUOUS
 62
    7
 10
-566.44427499999983
 20
820.98612949999995
 40
12.126567
 50
242.80325699999997
 51
247.84494000000001
  0
CIRCLE
  8
_0-0_0
  6
CONTINUOUS
 62
    7
 10
-564.68682899999999
 20
789.60002150000003
 40
2.0670000000000002
  0
LINE
  8
_0-0_0
  6
CONTINUOUS
 62
    7
 10
-572.18682899999999
 20
813.10002150000003
 11
-573.28680399999985
 21
813.10002150000003
  0
LINE
  8
_0-0_0
  6
CONTINUOUS
 62
    7
 10
-556.08679200000006
 20
782.80000250000001
 11
-555.98681600000009
 21
782.80000250000001
  0
LINE
  8
_0-0_0
  6
CONTINUOUS
 62
    7
 10
-556.08679200000006
 20
782.80000250000001
 11
-555.98681600000009
 21
782.80000250000001
  0
LINE
  8
_0-0_0
  6
CONTINUOUS
 62
    7
 10
-573.78680399999985
 20
812.60002150000003
 11
-573.28680399999985
 21
813.10002150000003
  0
LINE
  8
_0-0_0
  6
CONTINUOUS
 62
    7
 10
-572.18682899999999
 20
820.60002150000003
 11
-573.28680399999985
 21
820.60002150000003
  0
LINE
  8
_0-0_0
  6
CONTINUOUS
 62
    7
 10
-573.78680399999985
 20
820.10002150000003
 11
-573.28680399999985
 21
820.60002150000003
  0
ENDSEC
  0
EOF
