  0
SECTION
  2
HEADER
  9
$ACADVER
  1
AC1009
  9
$INSBASE
 10
0
 20
0
 30
0
  9
$EXTMIN
 10
0
 20
0
  9
$EXTMAX
 10
1682
 20
1188
  9
$LIMMIN
 10
0
 20
0
  9
$LIMMAX
 10
1682
 20
1188
  9
$LTSCALE
 40
2
  0
ENDSEC
  0
SECTION
  2
TABLES
  0
TABLE
  2
LTYPE
 70
     9
  0
LTYPE
  2
CONTINUOUS
 70
    64
  3
実線
 72
    65
 73
     0
 40
0.0
  0
LTYPE
  2
DASHED1
 70
    64
  3
--  --  --  --  --  --  --  --  
 72
    65
 73
     2
 40
2.5
 49
1.25
 49
-1.25
  0
LTYPE
  2
DASHED2
 70
    64
  3
----    ----    ----    ----    
 72
    65
 73
     2
 40
5.0
 49
2.5
 49
-2.5
  0
LTYPE
  2
DASHED3
 70
    64
  3
------  ------  ------  ------  
 72
    65
 73
     2
 40
5.0
 49
3.75
 49
-1.25
  0
LTYPE
  2
CENTER1
 70
    64
  3
----- - ----- - ----- - ----- - 
 72
    65
 73
     4
 40
10.0
 49
6.25
 49
-1.25
 49
1.25
 49
-1.25
  0
LTYPE
  2
CENTER2
 70
    64
  3
----------  --  ----------  --  
 72
    65
 73
     4
 40
20.0
 49
12.5
 49
-2.5
 49
2.5
 49
-2.5
  0
LTYPE
  2
PHANTOM1
 70
    64
  3
--- - - --- - - --- - - --- - - 
 72
    65
 73
     6
 40
10.0
 49
3.25
 49
-1.25
 49
1.25
 49
-1.25
 49
1.25
 49
-1.25
  0
LTYPE
  2
PHANTOM2
 70
    64
  3
--------  -  -  --------  -  -  
 72
    65
 73
     6
 40
20.0
 49
10.0
 49
-2.5
 49
1.25
 49
-2.5
 49
1.25
 49
-2.5
  0
LTYPE
  2
DOT
 70
    64
  3
-   -   -   -   -   -   -   -   
 72
    65
 73
     2
 40
2.5
 49
0.625
 49
-1.875
  0
LTYPE
  2
DUMMY
 70
    64
  3
ダミー
 72
    65
 73
     0
 40
0.0
  0
LTYPE
  2
RAND1
 70
    64
  3
ランダム線1
 72
    65
 73
     4
 40
10.0
 49
1.0
 49
-2.0
 49
3.0
 49
-4.0
  0
LTYPE
  2
RAND2
 70
    64
  3
ランダム線2
 72
    65
 73
     4
 40
14.0
 49
2.0
 49
-3.0
 49
4.0
 49
-5.0
  0
LTYPE
  2
RAND3
 70
    64
  3
ランダム線3
 72
    65
 73
     4
 40
18.0
 49
3.0
 49
-4.0
 49
5.0
 49
-6.0
  0
LTYPE
  2
RAND4
 70
    64
  3
ランダム線4
 72
    65
 73
     4
 40
22.0
 49
4.0
 49
-5.0
 49
6.0
 49
-7.0
  0
LTYPE
  2
RAND5
 70
    64
  3
ランダム線5
 72
    65
 73
     4
 40
26.0
 49
5.0
 49
-6.0
 49
7.0
 49
-8.0
  0
LTYPE
  2
LONG1
 70
    64
  3
----------  --  ----------  --  
 72
    65
 73
     4
 40
40.0
 49
32.5
 49
-2.5
 49
2.5
 49
-2.5
  0
LTYPE
  2
LONG2
 70
    64
  3
--------  -  -  --------  -  -  
 72
    65
 73
     6
 40
40.0
 49
30.0
 49
-2.5
 49
1.25
 49
-2.5
 49
1.25
 49
-2.5
  0
LTYPE
  2
LONG3
 70
    64
  3
+++++++++++++++..+++++++++++++++
 72
    65
 73
     2
 40
40.0
 49
37.5
 49
-2.5
  0
LTYPE
  2
LONG4
 70
    64
  3
+++++++++++++++..+++++++++++++++
 72
    65
 73
     2
 40
80.0
 49
75.0
 49
-5.0
  0
LTYPE
  2
LONG5
 70
    64
  3
----------  --  ----------  --  
 72
    65
 73
     4
 40
60.0
 49
37.5
 49
-7.5
 49
7.5
 49
-7.5
  0
LTYPE
  2
dashed
 70
   64
  3
-------   -------------   ------
 72
   65
 73
    2
 40
7.5
 49
6
 49
-1.5
  0
LTYPE
  2
dashed_spaced
 70
   64
  3
----        --------        ----
 72
   65
 73
    2
 40
12
 49
6
 49
-6
  0
LTYPE
  2
long_dashed_dotted
 70
   64
  3
------------- --- --------------
 72
   65
 73
    4
 40
15.25
 49
12
 49
-1.5
 49
0.25
 49
-1.5
  0
LTYPE
  2
long_dashed_double-dotted
 70
   64
  3
----------- --- --- ------------
 72
   65
 73
    6
 40
17
 49
12
 49
-1.5
 49
0.25
 49
-1.5
 49
0.25
 49
-1.5
  0
LTYPE
  2
long_dashed_triplicate-dotted
 70
   64
  3
--------- --- --- --- ----------
 72
   65
 73
    8
 40
18.75
 49
12
 49
-1.5
 49
0.25
 49
-1.5
 49
0.25
 49
-1.5
 49
0.25
 49
-1.5
  0
LTYPE
  2
dotted
 70
   64
  3
   -       -       -       -    
 72
   65
 73
    2
 40
1.75
 49
0.25
 49
-1.5
  0
LTYPE
  2
chain
 70
   64
  3
-------------- -- --------------
 72
   65
 73
    4
 40
18.5
 49
12
 49
-1.5
 49
3.5
 49
-1.5
  0
LTYPE
  2
chain_double_dash
 70
   64
  3
------------ -- -- -------------
 72
   65
 73
    6
 40
23.5
 49
12
 49
-1.5
 49
3.5
 49
-1.5
 49
3.5
 49
-1.5
  0
LTYPE
  2
dashed_dotted
 70
   64
  3
-----------     -     ----------
 72
   65
 73
    4
 40
9.25
 49
6
 49
-1.5
 49
0.25
 49
-1.5
  0
LTYPE
  2
double-dashed_dotted
 70
   64
  3
------   -----------   -   -----
 72
   65
 73
    6
 40
16.75
 49
6
 49
-1.5
 49
6
 49
-1.5
 49
0.25
 49
-1.5
  0
LTYPE
  2
dashed_double-dotted
 70
   64
  3
---------    -    -    ---------
 72
   65
 73
    6
 40
11
 49
6
 49
-1.5
 49
0.25
 49
-1.5
 49
0.25
 49
-1.5
  0
LTYPE
  2
double-dashed_double-dotted
 70
   64
  3
-----   ---------   -   -   ----
 72
   65
 73
    8
 40
18.5
 49
6
 49
-1.5
 49
6
 49
-1.5
 49
0.25
 49
-1.5
 49
0.25
 49
-1.5
  0
LTYPE
  2
dashed_triplicate-dotted
 70
   64
  3
-------    -    -    -    ------
 72
   65
 73
    8
 40
12.75
 49
6
 49
-1.5
 49
0.25
 49
-1.5
 49
0.25
 49
-1.5
 49
0.25
 49
-1.5
  0
LTYPE
  2
double-dashed_triplicate-dotted
 70
   64
  3
-----  ---------  -  -  -  -----
 72
   65
 73
   10
 40
20.25
 49
6
 49
-1.5
 49
6
 49
-1.5
 49
0.25
 49
-1.5
 49
0.25
 49
-1.5
 49
0.25
 49
-1.5
  0
LTYPE
  2
undefined
 70
   64
  3
--------------------------------
 72
   65
 73
    0
 40
0
  0
ENDTAB
  0
TABLE
  2
STYLE
  5
3
100
AcDbSymbolTable
 70
     1
  0
STYLE
  5
10
100
AcDbSymbolTableRecord
100
AcDbTextStyleTableRecord
  2
STANDARD
 70
     0
 40
0.0
 41
1.0
 50
0.0
 71
     0
 42
0.2
  3
txt
  4
bigfont.shx
  0
STYLE
  5
26
100
AcDbSymbolTableRecord
100
AcDbTextStyleTableRecord
  2
TATEGAKI
 70
    68
 40
0.0
 41
1.0
 50
0.0
 71
     0
 42
1.0
  3
txt
  4
bigfont.shx
  0
ENDTAB
  0
TABLE
  2
LAYER
 70
    2
  0
LAYER
  2
_0-0_0
 70
   64
 62
    7
  6
CONTINUOUS
  0
LAYER
  2
ADD_LINE
 70
   64
 62
    7
  6
CONTINUOUS
  0
ENDTAB
  0
ENDSEC
  0
SECTION
  2
BLOCKS
  0
ENDSEC
  0
SECTION
  2
ENTITIES
  0
LINE
  8
_0-0_0
  6
CONTINUOUS
 62
    7
 10
-399.07116700000006
 20
813.90052749999995
 11
-399.07116700000006
 21
813.89952049999999
  0
LINE
  8
_0-0_0
  6
CONTINUOUS
 62
    7
 10
-246.25866700000006
 20
774.96958949999998
 11
-247.55865500000004
 21
771.46958949999998
  0
ARC
  8
_0-0_0
  6
CONTINUOUS
 62
    7
 10
-246.07116700000006
 20
774.89994750000005
 40
0.2
 50
20.376434999999997
 51
159.62357000000003
  0
ARC
  8
_0-0_0
  6
CONTINUOUS
 62
    7
 10
-208.07118199999991
 20
777.79994150000005
 40
2.2000000000000002
 50
180.00000900000003
 51
303.74900400000001
  0
LINE
  8
_0-0_0
  6
CONTINUOUS
 62
    7
 10
-210.27117899999985
 20
779.29994150000005
 11
-210.27117899999985
 21
777.79994150000005
  0
LINE
  8
_0-0_0
  6
CONTINUOUS
 62
    7
 10
-210.27117899999985
 20
779.29994150000005
 11
-284.87115500000004
 21
779.29994150000005
  0
LINE
  8
_0-0_0
  6
CONTINUOUS
 62
    7
 10
-284.87115500000004
 20
779.29994150000005
 11
-284.87115500000004
 21
777.79994150000005
  0
ARC
  8
_0-0_0
  6
CONTINUOUS
 62
    7
 10
-287.07116700000006
 20
777.79994150000005
 40
2.2000000000000002
 50
236.25102899999999
 51
0
  0
ARC
  8
_0-0_0
  6
CONTINUOUS
 62
    7
 10
-288.57116700000006
 20
775.55494650000003
 40
0.5
 50
56.251010000000008
 51
180.00000900000001
  0
LINE
  8
_0-0_0
  6
CONTINUOUS
 62
    7
 10
-289.07116700000006
 20
755.19993550000004
 11
-289.07116700000006
 21
755.97706549999998
  0
LINE
  8
_0-0_0
  6
CONTINUOUS
 62
    7
 10
-289.07116700000006
 20
755.19993550000004
 11
-279.27117899999985
 21
755.19993550000004
  0
ARC
  8
_0-0_0
  6
CONTINUOUS
 62
    7
 10
-279.27117899999985
 20
755.39994750000005
 40
0.2
 50
269.99999700000001
 51
0
  0
LINE
  8
_0-0_0
  6
CONTINUOUS
 62
    7
 10
-279.07116700000006
 20
757.09992950000003
 11
-279.07116700000006
 21
755.39994750000005
  0
ARC
  8
_0-0_0
  6
CONTINUOUS
 62
    7
 10
-278.87115500000004
 20
757.09992950000003
 40
0.2
 50
90.000003000000007
 51
180.00000900000001
  0
LINE
  8
_0-0_0
  6
CONTINUOUS
 62
    7
 10
-278.37115500000004
 20
757.29994150000005
 11
-278.87115500000004
 21
757.29994150000005
  0
ARC
  8
_0-0_0
  6
CONTINUOUS
 62
    7
 10
-278.37115500000004
 20
756.79994150000005
 40
0.5
 50
90.000003000000007
 51
180.00000900000001
  0
LINE
  8
_0-0_0
  6
CONTINUOUS
 62
    7
 10
-278.87115500000004
 20
755.29994150000005
 11
-278.87115500000004
 21
756.79994150000005
  0
LINE
  8
_0-0_0
  6
CONTINUOUS
 62
    7
 10
-209.27117899999985
 20
755.29994150000005
 11
-278.87115500000004
 21
755.29994150000005
  0
LINE
  8
_0-0_0
  6
CONTINUOUS
 62
    7
 10
-209.27117899999985
 20
755.29994150000005
 11
-209.27117899999985
 21
756.79994150000005
  0
ARC
  8
_0-0_0
  6
CONTINUOUS
 62
    7
 10
-209.77117899999985
 20
756.79994150000005
 40
0.5
 50
0
 51
90.000003000000007
  0
LINE
  8
_0-0_0
  6
CONTINUOUS
 62
    7
 10
-209.27117899999985
 20
757.29994150000005
 11
-209.77117899999985
 21
757.29994150000005
  0
ARC
  8
_0-0_0
  6
CONTINUOUS
 62
    7
 10
-209.27117899999985
 20
757.09992950000003
 40
0.2
 50
0
 51
90.000003000000007
  0
LINE
  8
_0-0_0
  6
CONTINUOUS
 62
    7
 10
-209.07118199999991
 20
755.39994750000005
 11
-209.07118199999991
 21
757.09992950000003
  0
ARC
  8
_0-0_0
  6
CONTINUOUS
 62
    7
 10
-208.87118499999997
 20
755.39994750000005
 40
0.2
 50
180.00000900000003
 51
269.99999700000001
  0
LINE
  8
_0-0_0
  6
CONTINUOUS
 62
    7
 10
-208.87118499999997
 20
755.19993550000004
 11
-208.07118199999991
 21
755.19993550000004
  0
ARC
  8
_0-0_0
  6
CONTINUOUS
 62
    7
 10
-208.07118199999991
 20
757.19993550000004
 40
2
 50
269.99999700000001
 51
0.0000099999999886
  0
LINE
  8
_0-0_0
  6
CONTINUOUS
 62
    7
 10
-206.07118199999991
 20
775.55494650000003
 11
-206.07118199999991
 21
757.19993550000004
  0
ARC
  8
_0-0_0
  6
CONTINUOUS
 62
    7
 10
-206.57118199999991
 20
775.55494650000003
 40
0.5
 50
0
 51
123.74898500000002
  0
LINE
  8
_0-0_0
  6
CONTINUOUS
 62
    7
 10
-277.57116700000006
 20
757.49995450000006
 11
-277.57116700000006
 21
757.69993550000004
  0
LINE
  8
_0-0_0
  6
CONTINUOUS
 62
    7
 10
-277.57116700000006
 20
757.69993550000004
 11
-210.57118199999991
 21
757.69993550000004
  0
LINE
  8
_0-0_0
  6
CONTINUOUS
 62
    7
 10
-210.57118199999991
 20
757.49995450000006
 11
-210.57118199999991
 21
757.69993550000004
  0
ARC
  8
_0-0_0
  6
CONTINUOUS
 62
    7
 10
-210.37118499999997
 20
757.49995450000006
 40
0.2
 50
180.00000900000003
 51
269.99999700000001
  0
LINE
  8
_0-0_0
  6
CONTINUOUS
 62
    7
 10
-210.37118499999997
 20
757.29994150000005
 11
-277.77117899999985
 21
757.29994150000005
  0
ARC
  8
_0-0_0
  6
CONTINUOUS
 62
    7
 10
-277.77117899999985
 20
757.49995450000006
 40
0.2
 50
269.99999700000001
 51
0
  0
ARC
  8
_0-0_0
  6
CONTINUOUS
 62
    7
 10
-247.37118499999997
 20
771.39994750000005
 40
0.2
 50
159.62357
 51
269.99999700000001
  0
LINE
  8
_0-0_0
  6
CONTINUOUS
 62
    7
 10
-247.37118499999997
 20
771.19993550000004
 11
-244.77117899999985
 21
771.19993550000004
  0
ARC
  8
_0-0_0
  6
CONTINUOUS
 62
    7
 10
-244.77117899999985
 20
771.39994750000005
 40
0.2
 50
269.99999700000001
 51
20.376435000000019
  0
LINE
  8
_0-0_0
  6
CONTINUOUS
 62
    7
 10
-244.58367899999985
 20
771.46958949999998
 11
-245.88369699999998
 21
774.96958949999998
  0
LINE
  8
_0-0_0
  6
CONTINUOUS
 62
    7
 10
-289.07116700000006
 20
774.89994750000005
 11
-289.07116700000006
 21
776.87730350000004
  0
LINE
  8
_0-0_0
  6
CONTINUOUS
 62
    7
 10
-289.07116700000006
 20
774.89994750000005
 11
-289.07116700000006
 21
757.29994150000005
  0
LINE
  8
_0-0_0
  6
CONTINUOUS
 62
    7
 10
-289.07116700000006
 20
755.97706549999998
 11
-289.07116700000006
 21
757.29994150000005
  0
LINE
  8
_0-0_0
  6
CONTINUOUS
 62
    7
 10
-206.07118199999991
 20
781.29994150000005
 11
-206.07118199999991
 21
780.29994150000005
  0
LINE
  8
_0-0_0
  6
CONTINUOUS
 62
    7
 10
-206.07118199999991
 20
780.29994150000005
 11
-206.07118199999991
 21
779.79994150000005
  0
LINE
  8
_0-0_0
  6
CONTINUOUS
 62
    7
 10
-206.07118199999991
 20
779.79994150000005
 11
-206.07118199999991
 21
777.79994150000005
  0
LINE
  8
_0-0_0
  6
CONTINUOUS
 62
    7
 10
-206.07118199999991
 20
777.79994150000005
 11
-206.07118199999991
 21
775.55494650000003
  0
LINE
  8
_0-0_0
  6
CONTINUOUS
 62
    7
 10
-228.07118199999991
 20
775.29994150000005
 11
-228.07118199999991
 21
761.69993550000004
  0
ARC
  8
_0-0_0
  6
CONTINUOUS
 62
    7
 10
-225.07118199999991
 20
775.29994150000005
 40
3
 50
90.000003000000007
 51
180.00000900000001
  0
LINE
  8
_0-0_0
  6
CONTINUOUS
 62
    7
 10
-211.73724399999992
 20
778.29994150000005
 11
-225.07118199999991
 21
778.29994150000005
  0
ARC
  8
_0-0_0
  6
CONTINUOUS
 62
    7
 10
-211.73724399999992
 20
777.29994150000005
 40
1
 50
7.7664340000000012
 51
90.000002999999992
  0
ARC
  8
_0-0_0
  6
CONTINUOUS
 62
    7
 10
-208.07118199999991
 20
777.79994150000005
 40
2.7000000000000002
 50
187.76643899999999
 51
254.31966600000001
  0
ARC
  8
_0-0_0
  6
CONTINUOUS
 62
    7
 10
-209.07118199999991
 20
774.23762450000004
 40
1
 50
0
 51
74.319649999999996
  0
LINE
  8
_0-0_0
  6
CONTINUOUS
 62
    7
 10
-208.07118199999991
 20
761.69993550000004
 11
-208.07118199999991
 21
774.23762450000004
  0
ARC
  8
_0-0_0
  6
CONTINUOUS
 62
    7
 10
-211.07118199999991
 20
761.69993550000004
 40
3
 50
269.99999700000001
 51
0.0000099999999886
  0
LINE
  8
_0-0_0
  6
CONTINUOUS
 62
    7
 10
-225.07118199999991
 20
758.69993550000004
 11
-211.07118199999991
 21
758.69993550000004
  0
ARC
  8
_0-0_0
  6
CONTINUOUS
 62
    7
 10
-225.07118199999991
 20
761.69993550000004
 40
3
 50
180.00000900000003
 51
269.99999700000001
  0
LINE
  8
_0-0_0
  6
CONTINUOUS
 62
    7
 10
-282.07116700000006
 20
758.69993550000004
 11
-267.07116700000006
 21
758.69993550000004
  0
ARC
  8
_0-0_0
  6
CONTINUOUS
 62
    7
 10
-282.07116700000006
 20
761.69993550000004
 40
3
 50
180.00000900000003
 51
269.99999700000001
  0
LINE
  8
_0-0_0
  6
CONTINUOUS
 62
    7
 10
-285.07116700000006
 20
775.29994150000005
 11
-285.07116700000006
 21
761.69993550000004
  0
ARC
  8
_0-0_0
  6
CONTINUOUS
 62
    7
 10
-282.07116700000006
 20
775.29994150000005
 40
3
 50
90.000003000000007
 51
180.00000900000001
  0
LINE
  8
_0-0_0
  6
CONTINUOUS
 62
    7
 10
-267.07116700000006
 20
778.29994150000005
 11
-282.07116700000006
 21
778.29994150000005
  0
ARC
  8
_0-0_0
  6
CONTINUOUS
 62
    7
 10
-267.07116700000006
 20
775.29994150000005
 40
3
 50
0
 51
90.000003000000007
  0
LINE
  8
_0-0_0
  6
CONTINUOUS
 62
    7
 10
-264.07116700000006
 20
761.69993550000004
 11
-264.07116700000006
 21
775.29994150000005
  0
ARC
  8
_0-0_0
  6
CONTINUOUS
 62
    7
 10
-267.07116700000006
 20
761.69993550000004
 40
3
 50
269.99999700000001
 51
0.0000099999999886
  0
LINE
  8
_0-0_0
  6
CONTINUOUS
 62
    7
 10
-210.07118199999991
 20
779.29994150000005
 11
-210.27117899999985
 21
779.29994150000005
  0
ARC
  8
_0-0_0
  6
CONTINUOUS
 62
    7
 10
-208.07118199999991
 20
777.79994150000005
 40
2
 50
180.00000900000003
 51
0.0000000000000254
  0
LINE
  8
_0-0_0
  6
CONTINUOUS
 62
    7
 10
-210.07118199999991
 20
779.29994150000005
 11
-210.07118199999991
 21
777.79994150000005
  0
LINE
  8
_0-0_0
  6
CONTINUOUS
 62
    7
 10
-284.87115500000004
 20
779.29994150000005
 11
-285.07116700000006
 21
779.29994150000005
  0
LINE
  8
_0-0_0
  6
CONTINUOUS
 62
    7
 10
-285.07116700000006
 20
779.29994150000005
 11
-285.07116700000006
 21
777.79994150000005
  0
ARC
  8
_0-0_0
  6
CONTINUOUS
 62
    7
 10
-287.07116700000006
 20
777.79994150000005
 40
2
 50
180.00000900000003
 51
0.0000000000000254
  0
LINE
  8
_0-0_0
  6
CONTINUOUS
 62
    7
 10
-302.57116700000006
 20
779.79994150000005
 11
-302.57116700000006
 21
779.29994150000005
  0
LINE
  8
_0-0_0
  6
CONTINUOUS
 62
    7
 10
-289.07116700000006
 20
776.88343750000001
 11
-289.07116700000006
 21
777.59992950000003
  0
LINE
  8
_0-0_0
  6
CONTINUOUS
 62
    7
 10
-289.07116700000006
 20
776.88343750000001
 11
-289.07116700000006
 21
776.87730350000004
  0
LINE
  8
_0-0_0
  6
CONTINUOUS
 62
    7
 10
-289.07116700000006
 20
775.66880749999996
 11
-289.07116700000006
 21
775.55494650000003
  0
LINE
  8
_0-0_0
  6
CONTINUOUS
 62
    7
 10
-301.07116700000006
 20
776.89994750000005
 11
-301.07116700000006
 21
774.89994750000005
  0
LINE
  8
_0-0_0
  6
CONTINUOUS
 62
    7
 10
-289.07116700000006
 20
776.89994750000005
 11
-301.07116700000006
 21
776.89994750000005
  0
LINE
  8
_0-0_0
  6
CONTINUOUS
 62
    7
 10
-301.07116700000006
 20
771.39994750000005
 11
-301.07116700000006
 21
774.39994750000005
  0
LINE
  8
_0-0_0
  6
CONTINUOUS
 62
    7
 10
-301.07116700000006
 20
774.39994750000005
 11
-301.07116700000006
 21
774.89994750000005
  0
LINE
  8
_0-0_0
  6
CONTINUOUS
 62
    7
 10
-301.07116700000006
 20
771.39994750000005
 11
-301.07116700000006
 21
770.89994750000005
  0
ARC
  8
_0-0_0
  6
CONTINUOUS
 62
    7
 10
-295.07116700000006
 20
771.59992950000003
 40
0.500016
 50
0.001164
 51
179.99560600000004
  0
LINE
  8
_0-0_0
  6
CONTINUOUS
 62
    7
 10
-295.57116700000006
 20
771.59992950000003
 11
-295.57116700000006
 21
759.59992950000003
  0
ARC
  8
_0-0_0
  6
CONTINUOUS
 62
    7
 10
-295.07116700000006
 20
759.59996049999995
 40
0.500016
 50
180.00117
 51
359.995611
  0
LINE
  8
_0-0_0
  6
CONTINUOUS
 62
    7
 10
-294.57116700000006
 20
771.59992950000003
 11
-294.57116700000006
 21
759.59992950000003
  0
ARC
  8
_0-0_0
  6
CONTINUOUS
 62
    7
 10
-296.57116700000006
 20
771.59992950000003
 40
0.500016
 50
0.001164
 51
179.99560600000004
  0
LINE
  8
_0-0_0
  6
CONTINUOUS
 62
    7
 10
-297.07116700000006
 20
771.59992950000003
 11
-297.07116700000006
 21
759.59992950000003
  0
ARC
  8
_0-0_0
  6
CONTINUOUS
 62
    7
 10
-296.57116700000006
 20
759.59996049999995
 40
0.500016
 50
180.00117
 51
359.995611
  0
LINE
  8
_0-0_0
  6
CONTINUOUS
 62
    7
 10
-296.07116700000006
 20
771.59992950000003
 11
-296.07116700000006
 21
759.59992950000003
  0
ARC
  8
_0-0_0
  6
CONTINUOUS
 62
    7
 10
-298.07116700000006
 20
771.59992950000003
 40
0.500016
 50
0.001164
 51
179.99560600000004
  0
LINE
  8
_0-0_0
  6
CONTINUOUS
 62
    7
 10
-298.57116700000006
 20
771.59992950000003
 11
-298.57116700000006
 21
759.59992950000003
  0
ARC
  8
_0-0_0
  6
CONTINUOUS
 62
    7
 10
-298.07116700000006
 20
759.59996049999995
 40
0.500016
 50
180.00117
 51
359.995611
  0
LINE
  8
_0-0_0
  6
CONTINUOUS
 62
    7
 10
-297.57116700000006
 20
771.59992950000003
 11
-297.57116700000006
 21
759.59992950000003
  0
ARC
  8
_0-0_0
  6
CONTINUOUS
 62
    7
 10
-299.57116700000006
 20
771.59992950000003
 40
0.500016
 50
0.001164
 51
179.99560600000004
  0
LINE
  8
_0-0_0
  6
CONTINUOUS
 62
    7
 10
-300.07116700000006
 20
771.59992950000003
 11
-300.07116700000006
 21
759.59992950000003
  0
ARC
  8
_0-0_0
  6
CONTINUOUS
 62
    7
 10
-299.57116700000006
 20
759.59996049999995
 40
0.500016
 50
180.00117
 51
359.995611
  0
LINE
  8
_0-0_0
  6
CONTINUOUS
 62
    7
 10
-299.07116700000006
 20
771.59992950000003
 11
-299.07116700000006
 21
759.59992950000003
  0
LINE
  8
_0-0_0
  6
CONTINUOUS
 62
    7
 10
-289.07116700000006
 20
755.29994150000005
 11
-305.74661199999991
 21
755.29994150000005
  0
LINE
  8
_0-0_0
  6
CONTINUOUS
 62
    7
 10
-278.52117899999985
 20
757.27690150000001
 11
-278.52117899999985
 21
757.29994150000005
  0
LINE
  8
_0-0_0
  6
CONTINUOUS
 62
    7
 10
-209.62118499999997
 20
757.27690150000001
 11
-209.62118499999997
 21
757.29994150000005
  0
LINE
  8
_0-0_0
  6
CONTINUOUS
 62
    7
 10
-302.57116700000006
 20
779.79994150000005
 11
-302.57116700000006
 21
780.29994150000005
  0
LINE
  8
_0-0_0
  6
CONTINUOUS
 62
    7
 10
-206.07118199999991
 20
780.29994150000005
 11
-302.57116700000006
 21
780.29994150000005
  0
LINE
  8
_0-0_0
  6
CONTINUOUS
 62
    7
 10
-302.57116700000006
 20
780.29994150000005
 11
-302.57116700000006
 21
781.29994150000005
  0
LINE
  8
_0-0_0
  6
CONTINUOUS
 62
    7
 10
-206.07104499999991
 20
781.30000250000001
 11
-206.07104499999991
 21
780.80000250000001
  0
LINE
  8
_0-0_0
  6
CONTINUOUS
 62
    7
 10
-206.07104499999991
 20
780.80000250000001
 11
-206.07104499999991
 21
779.30000250000001
  0
ARC
  8
_0-0_0
  6
CONTINUOUS
 62
    7
 10
-215.57118199999991
 20
770.89994750000005
 40
4.5
 50
269.99999700000001
 51
90.000002999999992
  0
LINE
  8
_0-0_0
  6
CONTINUOUS
 62
    7
 10
-215.57118199999991
 20
766.39994750000005
 11
-220.57118199999991
 21
766.39994750000005
  0
ARC
  8
_0-0_0
  6
CONTINUOUS
 62
    7
 10
-220.57118199999991
 20
770.89994750000005
 40
4.5
 50
90.000003000000007
 51
269.99999700000006
  0
LINE
  8
_0-0_0
  6
CONTINUOUS
 62
    7
 10
-220.57118199999991
 20
775.39994750000005
 11
-215.57118199999991
 21
775.39994750000005
  0
ARC
  8
_0-0_0
  6
CONTINUOUS
 62
    7
 10
-271.57116700000006
 20
770.89994750000005
 40
4.5
 50
269.99999700000001
 51
90.000002999999992
  0
LINE
  8
_0-0_0
  6
CONTINUOUS
 62
    7
 10
-271.57116700000006
 20
766.39994750000005
 11
-276.57116700000006
 21
766.39994750000005
  0
ARC
  8
_0-0_0
  6
CONTINUOUS
 62
    7
 10
-276.57116700000006
 20
770.89994750000005
 40
4.5
 50
90.000003000000007
 51
269.99999700000006
  0
LINE
  8
_0-0_0
  6
CONTINUOUS
 62
    7
 10
-276.57116700000006
 20
775.39994750000005
 11
-271.57116700000006
 21
775.39994750000005
  0
LINE
  8
_0-0_0
  6
CONTINUOUS
 62
    7
 10
-289.07116700000006
 20
777.59992950000003
 11
-289.07116700000006
 21
779.29994150000005
  0
LINE
  8
_0-0_0
  6
CONTINUOUS
 62
    7
 10
-289.07116700000006
 20
779.29994150000005
 11
-302.57116700000006
 21
779.29994150000005
  0
LINE
  8
_0-0_0
  6
CONTINUOUS
 62
    7
 10
-302.57116700000006
 20
777.59992950000003
 11
-302.57116700000006
 21
779.29994150000005
  0
LINE
  8
_0-0_0
  6
CONTINUOUS
 62
    7
 10
-301.07116700000006
 20
776.89994750000005
 11
-305.74661199999991
 21
776.89994750000005
  0
LINE
  8
_0-0_0
  6
CONTINUOUS
 62
    7
 10
-301.07116700000006
 20
771.39994750000005
 11
-305.74661199999991
 21
771.39994750000005
  0
LINE
  8
_0-0_0
  6
CONTINUOUS
 62
    7
 10
-306.37908900000002
 20
755.40257250000002
 11
-306.25958199999991
 21
755.36695850000001
  0
LINE
  8
_0-0_0
  6
CONTINUOUS
 62
    7
 10
-306.25958199999991
 20
755.36695850000001
 11
-306.13803099999996
 21
755.33906549999995
  0
LINE
  8
_0-0_0
  6
CONTINUOUS
 62
    7
 10
-306.13803099999996
 20
755.33906549999995
 11
-306.01489300000003
 21
755.31904550000002
  0
LINE
  8
_0-0_0
  6
CONTINUOUS
 62
    7
 10
-306.01489300000003
 20
755.31904550000002
 11
-305.89065499999992
 21
755.30693050000002
  0
LINE
  8
_0-0_0
  6
CONTINUOUS
 62
    7
 10
-305.89065499999992
 20
755.30693050000002
 11
-305.76583899999991
 21
755.30278050000004
  0
LINE
  8
_0-0_0
  6
CONTINUOUS
 62
    7
 10
-305.76583899999991
 20
755.30278050000004
 11
-305.74661199999991
 21
755.30287150000004
  0
ARC
  8
_0-0_0
  6
CONTINUOUS
 62
    7
 10
-305.74661199999991
 20
757.29994150000005
 40
2
 50
251.56498899999997
 51
269.99999700000001
  0
LINE
  8
_0-0_0
  6
CONTINUOUS
 62
    7
 10
-302.57116700000006
 20
777.59992950000003
 11
-289.07116700000006
 21
777.59992950000003
  0
CIRCLE
  8
_0-0_0
  6
CONTINUOUS
 62
    7
 10
-208.07118199999991
 20
777.79994150000005
 40
1.4750000000000001
  0
CIRCLE
  8
_0-0_0
  6
CONTINUOUS
 62
    7
 10
-287.07116700000006
 20
777.79994150000005
 40
1.4750000000000001
  0
ARC
  8
_0-0_0
  6
CONTINUOUS
 62
    7
 10
-305.74661199999991
 20
774.89994750000005
 40
2
 50
90.000003000000007
 51
108.434997
  0
LINE
  8
_0-0_0
  6
CONTINUOUS
 62
    7
 10
-310.54553200000009
 20
771.39994750000005
 11
-311.23889199999985
 21
771.39994750000005
  0
LINE
  8
_0-0_0
  6
CONTINUOUS
 62
    7
 10
-310.54553200000009
 20
771.39994750000005
 11
-306.22094700000002
 21
771.39994750000005
  0
LINE
  8
_0-0_0
  6
CONTINUOUS
 62
    7
 10
-305.74661199999991
 20
771.39994750000005
 11
-306.22094700000002
 21
771.39994750000005
  0
LINE
  8
_0-0_0
  6
CONTINUOUS
 62
    7
 10
-310.7036129999999
 20
756.84410049999997
 11
-306.37908900000002
 21
755.40257250000002
  0
LINE
  8
_0-0_0
  6
CONTINUOUS
 62
    7
 10
-211.52117899999985
 20
770.89994750000005
 11
-213.83058200000005
 21
766.89994750000005
  0
LINE
  8
_0-0_0
  6
CONTINUOUS
 62
    7
 10
-222.31178299999988
 20
766.89994750000005
 11
-213.83058200000005
 21
766.89994750000005
  0
LINE
  8
_0-0_0
  6
CONTINUOUS
 62
    7
 10
-222.31178299999988
 20
766.89994750000005
 11
-224.62118499999997
 21
770.89994750000005
  0
LINE
  8
_0-0_0
  6
CONTINUOUS
 62
    7
 10
-224.62118499999997
 20
770.89994750000005
 11
-222.31178299999988
 21
774.89994750000005
  0
LINE
  8
_0-0_0
  6
CONTINUOUS
 62
    7
 10
-213.83058200000005
 20
774.89994750000005
 11
-222.31178299999988
 21
774.89994750000005
  0
LINE
  8
_0-0_0
  6
CONTINUOUS
 62
    7
 10
-213.83058200000005
 20
774.89994750000005
 11
-211.52117899999985
 21
770.89994750000005
  0
LINE
  8
_0-0_0
  6
CONTINUOUS
 62
    7
 10
-278.31176800000003
 20
774.89994750000005
 11
-280.62115500000004
 21
770.89994750000005
  0
LINE
  8
_0-0_0
  6
CONTINUOUS
 62
    7
 10
-269.83056600000009
 20
774.89994750000005
 11
-278.31176800000003
 21
774.89994750000005
  0
LINE
  8
_0-0_0
  6
CONTINUOUS
 62
    7
 10
-267.52117899999985
 20
770.89994750000005
 11
-269.83056600000009
 21
774.89994750000005
  0
LINE
  8
_0-0_0
  6
CONTINUOUS
 62
    7
 10
-269.83056600000009
 20
766.89994750000005
 11
-267.52117899999985
 21
770.89994750000005
  0
LINE
  8
_0-0_0
  6
CONTINUOUS
 62
    7
 10
-278.31176800000003
 20
766.89994750000005
 11
-269.83056600000009
 21
766.89994750000005
  0
LINE
  8
_0-0_0
  6
CONTINUOUS
 62
    7
 10
-280.62115500000004
 20
770.89994750000005
 11
-278.31176800000003
 21
766.89994750000005
  0
LINE
  8
_0-0_0
  6
CONTINUOUS
 62
    7
 10
-306.82116700000006
 20
776.64994750000005
 11
-306.37908900000002
 21
776.79731749999996
  0
LINE
  8
_0-0_0
  6
CONTINUOUS
 62
    7
 10
-312.07116700000006
 20
772.14997849999997
 11
-312.07116700000006
 21
771.02894549999996
  0
LINE
  8
_0-0_0
  6
CONTINUOUS
 62
    7
 10
-312.07116700000006
 20
770.10762050000005
 11
-312.07116700000006
 21
771.02894549999996
  0
LINE
  8
_0-0_0
  6
CONTINUOUS
 62
    7
 10
-311.77117899999985
 20
768.3119355
 11
-311.82995600000004
 21
768.55876150000006
  0
LINE
  8
_0-0_0
  6
CONTINUOUS
 62
    7
 10
-311.82995600000004
 20
768.55876150000006
 11
-311.87973000000011
 21
768.75111349999997
  0
LINE
  8
_0-0_0
  6
CONTINUOUS
 62
    7
 10
-311.87973000000011
 20
768.75111349999997
 11
-311.95086700000002
 21
769.01692149999997
  0
LINE
  8
_0-0_0
  6
CONTINUOUS
 62
    7
 10
-311.95086700000002
 20
769.01692149999997
 11
-311.98382599999991
 21
769.14363049999997
  0
LINE
  8
_0-0_0
  6
CONTINUOUS
 62
    7
 10
-311.98382599999991
 20
769.14363049999997
 11
-312.009094
 21
769.24705449999999
  0
LINE
  8
_0-0_0
  6
CONTINUOUS
 62
    7
 10
-312.009094
 20
769.24705449999999
 11
-312.03112800000008
 21
769.3469695
  0
LINE
  8
_0-0_0
  6
CONTINUOUS
 62
    7
 10
-312.03112800000008
 20
769.3469695
 11
-312.05249000000003
 21
769.4646755
  0
LINE
  8
_0-0_0
  6
CONTINUOUS
 62
    7
 10
-312.05249000000003
 20
769.4646755
 11
-312.06106599999998
 21
769.52680950000001
  0
LINE
  8
_0-0_0
  6
CONTINUOUS
 62
    7
 10
-312.06106599999998
 20
769.52680950000001
 11
-312.067139
 21
769.58741750000002
  0
LINE
  8
_0-0_0
  6
CONTINUOUS
 62
    7
 10
-312.067139
 20
769.58741750000002
 11
-312.07015999999999
 21
769.63667250000003
  0
LINE
  8
_0-0_0
  6
CONTINUOUS
 62
    7
 10
-312.07015999999999
 20
769.63667250000003
 11
-312.07116700000006
 21
769.68489050000005
  0
LINE
  8
_0-0_0
  6
CONTINUOUS
 62
    7
 10
-311.77117899999985
 20
763.88792450000005
 11
-311.68771399999991
 21
764.26661650000005
  0
LINE
  8
_0-0_0
  6
CONTINUOUS
 62
    7
 10
-311.68771399999991
 20
764.26661650000005
 11
-311.64761300000009
 21
764.4581455
  0
LINE
  8
_0-0_0
  6
CONTINUOUS
 62
    7
 10
-311.64761300000009
 20
764.4581455
 11
-311.59155299999998
 21
764.74815350000006
  0
LINE
  8
_0-0_0
  6
CONTINUOUS
 62
    7
 10
-311.59155299999998
 20
764.74815350000006
 11
-311.55395499999986
 21
764.96772750000002
  0
LINE
  8
_0-0_0
  6
CONTINUOUS
 62
    7
 10
-311.55395499999986
 20
764.96772750000002
 11
-311.52130099999999
 21
765.18897949999996
  0
LINE
  8
_0-0_0
  6
CONTINUOUS
 62
    7
 10
-311.52130099999999
 20
765.18897949999996
 11
-311.4941409999999
 21
765.41578649999997
  0
LINE
  8
_0-0_0
  6
CONTINUOUS
 62
    7
 10
-311.4941409999999
 20
765.41578649999997
 11
-311.47406000000001
 21
765.64317349999999
  0
LINE
  8
_0-0_0
  6
CONTINUOUS
 62
    7
 10
-311.47406000000001
 20
765.64317349999999
 11
-311.46691899999996
 21
765.7569125
  0
LINE
  8
_0-0_0
  6
CONTINUOUS
 62
    7
 10
-311.46691899999996
 20
765.7569125
 11
-311.46176100000002
 21
765.87059050000005
  0
LINE
  8
_0-0_0
  6
CONTINUOUS
 62
    7
 10
-311.46176100000002
 20
765.87059050000005
 11
-311.45803799999999
 21
766.02201850000006
  0
LINE
  8
_0-0_0
  6
CONTINUOUS
 62
    7
 10
-311.45803799999999
 20
766.02201850000006
 11
-311.45797700000003
 21
766.1732935
  0
LINE
  8
_0-0_0
  6
CONTINUOUS
 62
    7
 10
-311.45797700000003
 20
766.1732935
 11
-311.46154799999999
 21
766.32435550000002
  0
LINE
  8
_0-0_0
  6
CONTINUOUS
 62
    7
 10
-311.46154799999999
 20
766.32435550000002
 11
-311.47106899999994
 21
766.51289350000002
  0
LINE
  8
_0-0_0
  6
CONTINUOUS
 62
    7
 10
-311.47106899999994
 20
766.51289350000002
 11
-311.48593099999994
 21
766.70112549999999
  0
LINE
  8
_0-0_0
  6
CONTINUOUS
 62
    7
 10
-311.48593099999994
 20
766.70112549999999
 11
-311.50585899999987
 21
766.88908349999997
  0
LINE
  8
_0-0_0
  6
CONTINUOUS
 62
    7
 10
-311.50585899999987
 20
766.88908349999997
 11
-311.52224699999988
 21
767.01795949999996
  0
LINE
  8
_0-0_0
  6
CONTINUOUS
 62
    7
 10
-311.52224699999988
 20
767.01795949999996
 11
-311.54064900000003
 21
767.1465915
  0
LINE
  8
_0-0_0
  6
CONTINUOUS
 62
    7
 10
-311.54064900000003
 20
767.1465915
 11
-311.56481899999994
 21
767.29853849999995
  0
LINE
  8
_0-0_0
  6
CONTINUOUS
 62
    7
 10
-311.56481899999994
 20
767.29853849999995
 11
-311.59121699999992
 21
767.44987449999996
  0
LINE
  8
_0-0_0
  6
CONTINUOUS
 62
    7
 10
-311.59121699999992
 20
767.44987449999996
 11
-311.64736900000003
 21
767.74049349999996
  0
LINE
  8
_0-0_0
  6
CONTINUOUS
 62
    7
 10
-311.64736900000003
 20
767.74049349999996
 11
-311.68752999999992
 21
767.93244949999996
  0
LINE
  8
_0-0_0
  6
CONTINUOUS
 62
    7
 10
-311.68752999999992
 20
767.93244949999996
 11
-311.77117899999985
 21
768.3119355
  0
LINE
  8
_0-0_0
  6
CONTINUOUS
 62
    7
 10
-311.77117899999985
 20
763.88792450000005
 11
-311.82998599999996
 21
763.64106749999996
  0
LINE
  8
_0-0_0
  6
CONTINUOUS
 62
    7
 10
-311.82998599999996
 20
763.64106749999996
 11
-311.87973000000011
 21
763.44874549999997
  0
LINE
  8
_0-0_0
  6
CONTINUOUS
 62
    7
 10
-311.87973000000011
 20
763.44874549999997
 11
-311.95086700000002
 21
763.18299850000005
  0
LINE
  8
_0-0_0
  6
CONTINUOUS
 62
    7
 10
-311.95086700000002
 20
763.18299850000005
 11
-311.98382599999991
 21
763.05632049999997
  0
LINE
  8
_0-0_0
  6
CONTINUOUS
 62
    7
 10
-311.98382599999991
 20
763.05632049999997
 11
-312.009094
 21
762.95286550000003
  0
LINE
  8
_0-0_0
  6
CONTINUOUS
 62
    7
 10
-312.009094
 20
762.95286550000003
 11
-312.03112800000008
 21
762.85288949999995
  0
LINE
  8
_0-0_0
  6
CONTINUOUS
 62
    7
 10
-312.03112800000008
 20
762.85288949999995
 11
-312.05249000000003
 21
762.73518349999995
  0
LINE
  8
_0-0_0
  6
CONTINUOUS
 62
    7
 10
-312.05249000000003
 20
762.73518349999995
 11
-312.06106599999998
 21
762.67304950000005
  0
LINE
  8
_0-0_0
  6
CONTINUOUS
 62
    7
 10
-312.06106599999998
 20
762.67304950000005
 11
-312.067139
 21
762.61244150000005
  0
LINE
  8
_0-0_0
  6
CONTINUOUS
 62
    7
 10
-312.067139
 20
762.61244150000005
 11
-312.07015999999999
 21
762.56321749999995
  0
LINE
  8
_0-0_0
  6
CONTINUOUS
 62
    7
 10
-312.07015999999999
 20
762.56321749999995
 11
-312.07116700000006
 21
762.51499950000004
  0
LINE
  8
_0-0_0
  6
CONTINUOUS
 62
    7
 10
-312.07116700000006
 20
758.74147049999999
 11
-312.07116700000006
 21
762.09223950000001
  0
ARC
  8
_0-0_0
  6
CONTINUOUS
 62
    7
 10
-310.07116700000006
 20
758.74147049999999
 40
2
 50
180.00000900000003
 51
251.56498900000003
  0
LINE
  8
_0-0_0
  6
CONTINUOUS
 62
    7
 10
-207.62118499999997
 20
777.59992950000003
 11
-206.97117600000001
 21
777.59992950000003
  0
ARC
  8
_0-0_0
  6
CONTINUOUS
 62
    7
 10
-207.62118499999997
 20
777.34992950000003
 40
0.25
 50
90.000003000000007
 51
180.00000900000001
  0
LINE
  8
_0-0_0
  6
CONTINUOUS
 62
    7
 10
-207.87118499999997
 20
777.34992950000003
 11
-207.87118499999997
 21
776.69993550000004
  0
LINE
  8
_0-0_0
  6
CONTINUOUS
 62
    7
 10
-208.27117899999985
 20
776.69993550000004
 11
-207.87118499999997
 21
776.69993550000004
  0
LINE
  8
_0-0_0
  6
CONTINUOUS
 62
    7
 10
-208.27117899999985
 20
776.69993550000004
 11
-208.27117899999985
 21
777.34992950000003
  0
ARC
  8
_0-0_0
  6
CONTINUOUS
 62
    7
 10
-208.52117899999985
 20
777.34992950000003
 40
0.25
 50
0
 51
90.000003000000007
  0
LINE
  8
_0-0_0
  6
CONTINUOUS
 62
    7
 10
-209.17117299999995
 20
777.59992950000003
 11
-208.52117899999985
 21
777.59992950000003
  0
LINE
  8
_0-0_0
  6
CONTINUOUS
 62
    7
 10
-209.17117299999995
 20
777.59992950000003
 11
-209.17117299999995
 21
777.99995450000006
  0
LINE
  8
_0-0_0
  6
CONTINUOUS
 62
    7
 10
-208.52117899999985
 20
777.99995450000006
 11
-209.17117299999995
 21
777.99995450000006
  0
ARC
  8
_0-0_0
  6
CONTINUOUS
 62
    7
 10
-208.52117899999985
 20
778.24995450000006
 40
0.25
 50
269.99999700000001
 51
0
  0
LINE
  8
_0-0_0
  6
CONTINUOUS
 62
    7
 10
-208.27117899999985
 20
778.24995450000006
 11
-208.27117899999985
 21
778.89994750000005
  0
LINE
  8
_0-0_0
  6
CONTINUOUS
 62
    7
 10
-207.87118499999997
 20
778.89994750000005
 11
-208.27117899999985
 21
778.89994750000005
  0
LINE
  8
_0-0_0
  6
CONTINUOUS
 62
    7
 10
-207.87118499999997
 20
778.89994750000005
 11
-207.87118499999997
 21
778.24995450000006
  0
ARC
  8
_0-0_0
  6
CONTINUOUS
 62
    7
 10
-207.62118499999997
 20
778.24995450000006
 40
0.25
 50
180.00000900000003
 51
269.99999700000001
  0
LINE
  8
_0-0_0
  6
CONTINUOUS
 62
    7
 10
-206.97117600000001
 20
777.99995450000006
 11
-207.62118499999997
 21
777.99995450000006
  0
LINE
  8
_0-0_0
  6
CONTINUOUS
 62
    7
 10
-206.97117600000001
 20
777.99995450000006
 11
-206.97117600000001
 21
777.59992950000003
  0
LINE
  8
_0-0_0
  6
CONTINUOUS
 62
    7
 10
-286.62115500000004
 20
777.59992950000003
 11
-285.97119100000009
 21
777.59992950000003
  0
ARC
  8
_0-0_0
  6
CONTINUOUS
 62
    7
 10
-286.62115500000004
 20
777.34992950000003
 40
0.25
 50
90.000003000000007
 51
180.00000900000001
  0
LINE
  8
_0-0_0
  6
CONTINUOUS
 62
    7
 10
-286.87115500000004
 20
777.34992950000003
 11
-286.87115500000004
 21
776.69993550000004
  0
LINE
  8
_0-0_0
  6
CONTINUOUS
 62
    7
 10
-287.27117899999985
 20
776.69993550000004
 11
-286.87115500000004
 21
776.69993550000004
  0
LINE
  8
_0-0_0
  6
CONTINUOUS
 62
    7
 10
-287.27117899999985
 20
776.69993550000004
 11
-287.27117899999985
 21
777.34992950000003
  0
ARC
  8
_0-0_0
  6
CONTINUOUS
 62
    7
 10
-287.52117899999985
 20
777.34992950000003
 40
0.25
 50
0
 51
90.000003000000007
  0
LINE
  8
_0-0_0
  6
CONTINUOUS
 62
    7
 10
-288.17117299999995
 20
777.59992950000003
 11
-287.52117899999985
 21
777.59992950000003
  0
LINE
  8
_0-0_0
  6
CONTINUOUS
 62
    7
 10
-288.17117299999995
 20
777.59992950000003
 11
-288.17117299999995
 21
777.99995450000006
  0
LINE
  8
_0-0_0
  6
CONTINUOUS
 62
    7
 10
-287.52117899999985
 20
777.99995450000006
 11
-288.17117299999995
 21
777.99995450000006
  0
ARC
  8
_0-0_0
  6
CONTINUOUS
 62
    7
 10
-287.52117899999985
 20
778.24995450000006
 40
0.25
 50
269.99999700000001
 51
0
  0
LINE
  8
_0-0_0
  6
CONTINUOUS
 62
    7
 10
-287.27117899999985
 20
778.24995450000006
 11
-287.27117899999985
 21
778.89994750000005
  0
LINE
  8
_0-0_0
  6
CONTINUOUS
 62
    7
 10
-286.87115500000004
 20
778.89994750000005
 11
-287.27117899999985
 21
778.89994750000005
  0
LINE
  8
_0-0_0
  6
CONTINUOUS
 62
    7
 10
-286.87115500000004
 20
778.89994750000005
 11
-286.87115500000004
 21
778.24995450000006
  0
ARC
  8
_0-0_0
  6
CONTINUOUS
 62
    7
 10
-286.62115500000004
 20
778.24995450000006
 40
0.25
 50
180.00000900000003
 51
269.99999700000001
  0
LINE
  8
_0-0_0
  6
CONTINUOUS
 62
    7
 10
-285.97119100000009
 20
777.99995450000006
 11
-286.62115500000004
 21
777.99995450000006
  0
LINE
  8
_0-0_0
  6
CONTINUOUS
 62
    7
 10
-285.97119100000009
 20
777.99995450000006
 11
-285.97119100000009
 21
777.59992950000003
  0
LINE
  8
_0-0_0
  6
CONTINUOUS
 62
    7
 10
-327.07116700000006
 20
775.6253815
 11
-327.07116700000006
 21
775.47865249999995
  0
LINE
  8
_0-0_0
  6
CONTINUOUS
 62
    7
 10
-327.07116700000006
 20
775.81590249999999
 11
-327.07116700000006
 21
775.6253815
  0
LINE
  8
_0-0_0
  6
CONTINUOUS
 62
    7
 10
-327.07116700000006
 20
775.99092050000002
 11
-327.07116700000006
 21
775.81590249999999
  0
LINE
  8
_0-0_0
  6
CONTINUOUS
 62
    7
 10
-327.07116700000006
 20
776.14851350000004
 11
-327.07116700000006
 21
775.99092050000002
  0
LINE
  8
_0-0_0
  6
CONTINUOUS
 62
    7
 10
-327.07116700000006
 20
776.28694150000001
 11
-327.07116700000006
 21
776.14851350000004
  0
LINE
  8
_0-0_0
  6
CONTINUOUS
 62
    7
 10
-327.07116700000006
 20
776.40470849999997
 11
-327.07116700000006
 21
776.28694150000001
  0
LINE
  8
_0-0_0
  6
CONTINUOUS
 62
    7
 10
-327.07116700000006
 20
776.50050350000004
 11
-327.07116700000006
 21
776.40470849999997
  0
LINE
  8
_0-0_0
  6
CONTINUOUS
 62
    7
 10
-327.07116700000006
 20
776.57328749999999
 11
-327.07116700000006
 21
776.50050350000004
  0
LINE
  8
_0-0_0
  6
CONTINUOUS
 62
    7
 10
-327.07116700000006
 20
776.62223849999998
 11
-327.07116700000006
 21
776.57328749999999
  0
LINE
  8
_0-0_0
  6
CONTINUOUS
 62
    7
 10
-327.07116700000006
 20
776.64994750000005
 11
-327.07116700000006
 21
776.62223849999998
  0
LINE
  8
_0-0_0
  6
CONTINUOUS
 62
    7
 10
-327.07116700000006
 20
776.64994750000005
 11
-327.07116700000006
 21
776.64686549999999
  0
LINE
  8
_0-0_0
  6
CONTINUOUS
 62
    7
 10
-327.07116700000006
 20
772.1530305
 11
-327.07116700000006
 21
772.14994750000005
  0
LINE
  8
_0-0_0
  6
CONTINUOUS
 62
    7
 10
-327.07116700000006
 20
772.17765750000001
 11
-327.07116700000006
 21
772.14994750000005
  0
LINE
  8
_0-0_0
  6
CONTINUOUS
 62
    7
 10
-327.07116700000006
 20
772.2266085
 11
-327.07116700000006
 21
772.17765750000001
  0
LINE
  8
_0-0_0
  6
CONTINUOUS
 62
    7
 10
-327.07116700000006
 20
772.29939249999995
 11
-327.07116700000006
 21
772.2266085
  0
LINE
  8
_0-0_0
  6
CONTINUOUS
 62
    7
 10
-327.07116700000006
 20
772.39518750000002
 11
-327.07116700000006
 21
772.29939249999995
  0
LINE
  8
_0-0_0
  6
CONTINUOUS
 62
    7
 10
-327.07116700000006
 20
772.42536949999999
 11
-327.07116700000006
 21
772.39518750000002
  0
LINE
  8
_0-0_0
  6
CONTINUOUS
 62
    7
 10
-327.07116700000006
 20
772.51292450000005
 11
-327.07116700000006
 21
772.42536949999999
  0
LINE
  8
_0-0_0
  6
CONTINUOUS
 62
    7
 10
-327.07116700000006
 20
772.65135150000003
 11
-327.07116700000006
 21
772.51292450000005
  0
LINE
  8
_0-0_0
  6
CONTINUOUS
 62
    7
 10
-327.07116700000006
 20
772.80894450000005
 11
-327.07116700000006
 21
772.65135150000003
  0
LINE
  8
_0-0_0
  6
CONTINUOUS
 62
    7
 10
-327.07116700000006
 20
772.98396249999996
 11
-327.07116700000006
 21
772.80894450000005
  0
LINE
  8
_0-0_0
  6
CONTINUOUS
 62
    7
 10
-327.07116700000006
 20
773.17451449999999
 11
-327.07116700000006
 21
772.98396249999996
  0
LINE
  8
_0-0_0
  6
CONTINUOUS
 62
    7
 10
-327.07116700000006
 20
773.37846349999995
 11
-327.07116700000006
 21
773.17451449999999
  0
LINE
  8
_0-0_0
  6
CONTINUOUS
 62
    7
 10
-327.07116700000006
 20
773.59361249999995
 11
-327.07116700000006
 21
773.37846349999995
  0
LINE
  8
_0-0_0
  6
CONTINUOUS
 62
    7
 10
-327.07116700000006
 20
773.8176115
 11
-327.07116700000006
 21
773.59361249999995
  0
LINE
  8
_0-0_0
  6
CONTINUOUS
 62
    7
 10
-327.07116700000006
 20
774.04795850000005
 11
-327.07116700000006
 21
773.8176115
  0
LINE
  8
_0-0_0
  6
CONTINUOUS
 62
    7
 10
-327.07116700000006
 20
774.28218049999998
 11
-327.07116700000006
 21
774.04795850000005
  0
LINE
  8
_0-0_0
  6
CONTINUOUS
 62
    7
 10
-327.07116700000006
 20
774.51771550000001
 11
-327.07116700000006
 21
774.28218049999998
  0
LINE
  8
_0-0_0
  6
CONTINUOUS
 62
    7
 10
-327.07116700000006
 20
774.75190750000002
 11
-327.07116700000006
 21
774.51771550000001
  0
LINE
  8
_0-0_0
  6
CONTINUOUS
 62
    7
 10
-327.07116700000006
 20
774.98228449999999
 11
-327.07116700000006
 21
774.75190750000002
  0
LINE
  8
_0-0_0
  6
CONTINUOUS
 62
    7
 10
-327.07116700000006
 20
775.20628350000004
 11
-327.07116700000006
 21
774.98228449999999
  0
LINE
  8
_0-0_0
  6
CONTINUOUS
 62
    7
 10
-327.07116700000006
 20
775.42143250000004
 11
-327.07116700000006
 21
775.20628350000004
  0
LINE
  8
_0-0_0
  6
CONTINUOUS
 62
    7
 10
-327.07116700000006
 20
775.47865249999995
 11
-327.07116700000006
 21
775.42143250000004
  0
LINE
  8
_0-0_0
  6
CONTINUOUS
 62
    7
 10
-312.07116700000006
 20
767.66200249999997
 11
-312.07116700000006
 21
768.70762649999995
  0
LINE
  8
_0-0_0
  6
CONTINUOUS
 62
    7
 10
-312.07116700000006
 20
769.9922335
 11
-312.07116700000006
 21
768.70762649999995
  0
LINE
  8
_0-0_0
  6
CONTINUOUS
 62
    7
 10
-312.07116700000006
 20
770.10762050000005
 11
-312.07116700000006
 21
769.9922335
  0
LINE
  8
_0-0_0
  6
CONTINUOUS
 62
    7
 10
-312.07116700000006
 20
767.66200249999997
 11
-312.07116700000006
 21
764.53788750000001
  0
LINE
  8
_0-0_0
  6
CONTINUOUS
 62
    7
 10
-312.07116700000006
 20
762.09223950000001
 11
-312.07116700000006
 21
762.20762649999995
  0
LINE
  8
_0-0_0
  6
CONTINUOUS
 62
    7
 10
-312.07116700000006
 20
763.4922335
 11
-312.07116700000006
 21
762.20762649999995
  0
LINE
  8
_0-0_0
  6
CONTINUOUS
 62
    7
 10
-312.07116700000006
 20
763.4922335
 11
-312.07116700000006
 21
764.53788750000001
  0
LINE
  8
_0-0_0
  6
CONTINUOUS
 62
    7
 10
-327.07116700000006
 20
759.0253755
 11
-327.07116700000006
 21
758.87864650000006
  0
LINE
  8
_0-0_0
  6
CONTINUOUS
 62
    7
 10
-327.07116700000006
 20
759.21592650000002
 11
-327.07116700000006
 21
759.0253755
  0
LINE
  8
_0-0_0
  6
CONTINUOUS
 62
    7
 10
-327.07116700000006
 20
759.39094550000004
 11
-327.07116700000006
 21
759.21592650000002
  0
LINE
  8
_0-0_0
  6
CONTINUOUS
 62
    7
 10
-327.07116700000006
 20
759.54850750000003
 11
-327.07116700000006
 21
759.39094550000004
  0
LINE
  8
_0-0_0
  6
CONTINUOUS
 62
    7
 10
-327.07116700000006
 20
759.68696550000004
 11
-327.07116700000006
 21
759.54850750000003
  0
LINE
  8
_0-0_0
  6
CONTINUOUS
 62
    7
 10
-327.07116700000006
 20
759.80470249999996
 11
-327.07116700000006
 21
759.68696550000004
  0
LINE
  8
_0-0_0
  6
CONTINUOUS
 62
    7
 10
-327.07116700000006
 20
759.90049750000003
 11
-327.07116700000006
 21
759.80470249999996
  0
LINE
  8
_0-0_0
  6
CONTINUOUS
 62
    7
 10
-327.07116700000006
 20
759.97328149999998
 11
-327.07116700000006
 21
759.90049750000003
  0
LINE
  8
_0-0_0
  6
CONTINUOUS
 62
    7
 10
-327.07116700000006
 20
760.02223149999998
 11
-327.07116700000006
 21
759.97328149999998
  0
LINE
  8
_0-0_0
  6
CONTINUOUS
 62
    7
 10
-327.07116700000006
 20
760.04994150000005
 11
-327.07116700000006
 21
760.02223149999998
  0
LINE
  8
_0-0_0
  6
CONTINUOUS
 62
    7
 10
-327.07116700000006
 20
760.04994150000005
 11
-327.07116700000006
 21
760.04685949999998
  0
LINE
  8
_0-0_0
  6
CONTINUOUS
 62
    7
 10
-327.07116700000006
 20
755.55302449999999
 11
-327.07116700000006
 21
755.54994150000005
  0
LINE
  8
_0-0_0
  6
CONTINUOUS
 62
    7
 10
-327.07116700000006
 20
755.5776515
 11
-327.07116700000006
 21
755.54994150000005
  0
LINE
  8
_0-0_0
  6
CONTINUOUS
 62
    7
 10
-327.07116700000006
 20
755.62660249999999
 11
-327.07116700000006
 21
755.5776515
  0
LINE
  8
_0-0_0
  6
CONTINUOUS
 62
    7
 10
-327.07116700000006
 20
755.69938650000006
 11
-327.07116700000006
 21
755.62660249999999
  0
LINE
  8
_0-0_0
  6
CONTINUOUS
 62
    7
 10
-327.07116700000006
 20
755.79518150000001
 11
-327.07116700000006
 21
755.69938650000006
  0
LINE
  8
_0-0_0
  6
CONTINUOUS
 62
    7
 10
-327.07116700000006
 20
755.82539350000002
 11
-327.07116700000006
 21
755.79518150000001
  0
LINE
  8
_0-0_0
  6
CONTINUOUS
 62
    7
 10
-327.07116700000006
 20
755.91291750000005
 11
-327.07116700000006
 21
755.82539350000002
  0
LINE
  8
_0-0_0
  6
CONTINUOUS
 62
    7
 10
-327.07116700000006
 20
756.05137649999995
 11
-327.07116700000006
 21
755.91291750000005
  0
LINE
  8
_0-0_0
  6
CONTINUOUS
 62
    7
 10
-327.07116700000006
 20
756.20896849999997
 11
-327.07116700000006
 21
756.05137649999995
  0
LINE
  8
_0-0_0
  6
CONTINUOUS
 62
    7
 10
-327.07116700000006
 20
756.38398749999999
 11
-327.07116700000006
 21
756.20896849999997
  0
LINE
  8
_0-0_0
  6
CONTINUOUS
 62
    7
 10
-327.07116700000006
 20
756.57450849999998
 11
-327.07116700000006
 21
756.38398749999999
  0
LINE
  8
_0-0_0
  6
CONTINUOUS
 62
    7
 10
-327.07116700000006
 20
756.77845750000006
 11
-327.07116700000006
 21
756.57450849999998
  0
LINE
  8
_0-0_0
  6
CONTINUOUS
 62
    7
 10
-327.07116700000006
 20
756.99360650000006
 11
-327.07116700000006
 21
756.77845750000006
  0
LINE
  8
_0-0_0
  6
CONTINUOUS
 62
    7
 10
-327.07116700000006
 20
757.21760549999999
 11
-327.07116700000006
 21
756.99360650000006
  0
LINE
  8
_0-0_0
  6
CONTINUOUS
 62
    7
 10
-327.07116700000006
 20
757.44795250000004
 11
-327.07116700000006
 21
757.21760549999999
  0
LINE
  8
_0-0_0
  6
CONTINUOUS
 62
    7
 10
-327.07116700000006
 20
757.68217449999997
 11
-327.07116700000006
 21
757.44795250000004
  0
LINE
  8
_0-0_0
  6
CONTINUOUS
 62
    7
 10
-327.07116700000006
 20
757.9177095
 11
-327.07116700000006
 21
757.68217449999997
  0
LINE
  8
_0-0_0
  6
CONTINUOUS
 62
    7
 10
-327.07116700000006
 20
758.15193150000005
 11
-327.07116700000006
 21
757.9177095
  0
LINE
  8
_0-0_0
  6
CONTINUOUS
 62
    7
 10
-327.07116700000006
 20
758.38227849999998
 11
-327.07116700000006
 21
758.15193150000005
  0
LINE
  8
_0-0_0
  6
CONTINUOUS
 62
    7
 10
-327.07116700000006
 20
758.60627750000003
 11
-327.07116700000006
 21
758.38227849999998
  0
LINE
  8
_0-0_0
  6
CONTINUOUS
 62
    7
 10
-327.07116700000006
 20
758.82142650000003
 11
-327.07116700000006
 21
758.60627750000003
  0
LINE
  8
_0-0_0
  6
CONTINUOUS
 62
    7
 10
-327.07116700000006
 20
758.87864650000006
 11
-327.07116700000006
 21
758.82142650000003
  0
LINE
  8
_0-0_0
  6
CONTINUOUS
 62
    7
 10
-216.07118199999991
 20
768.64994750000005
 11
-220.07118199999991
 21
768.64994750000005
  0
ARC
  8
_0-0_0
  6
CONTINUOUS
 62
    7
 10
-220.07118199999991
 20
770.89994750000005
 40
2.25
 50
90.000003000000007
 51
269.99999700000006
  0
LINE
  8
_0-0_0
  6
CONTINUOUS
 62
    7
 10
-220.07118199999991
 20
773.14994750000005
 11
-216.07118199999991
 21
773.14994750000005
  0
ARC
  8
_0-0_0
  6
CONTINUOUS
 62
    7
 10
-216.07118199999991
 20
770.89994750000005
 40
2.25
 50
269.99999700000001
 51
90.000002999999992
  0
ARC
  8
_0-0_0
  6
CONTINUOUS
 62
    7
 10
-276.07116700000006
 20
770.89994750000005
 40
2.25
 50
90.000003000000007
 51
269.99999700000006
  0
LINE
  8
_0-0_0
  6
CONTINUOUS
 62
    7
 10
-276.07116700000006
 20
773.14994750000005
 11
-272.07116700000006
 21
773.14994750000005
  0
ARC
  8
_0-0_0
  6
CONTINUOUS
 62
    7
 10
-272.07116700000006
 20
770.89994750000005
 40
2.25
 50
269.99999700000001
 51
90.000002999999992
  0
LINE
  8
_0-0_0
  6
CONTINUOUS
 62
    7
 10
-272.07116700000006
 20
768.64994750000005
 11
-276.07116700000006
 21
768.64994750000005
  0
LINE
  8
_0-0_0
  6
CONTINUOUS
 62
    7
 10
-327.07116700000006
 20
775.6253815
 11
-327.32116700000006
 21
775.64994750000005
  0
LINE
  8
_0-0_0
  6
CONTINUOUS
 62
    7
 10
-327.07116700000006
 20
775.42143250000004
 11
-327.32116700000006
 21
775.64994750000005
  0
LINE
  8
_0-0_0
  6
CONTINUOUS
 62
    7
 10
-327.07116700000006
 20
775.81590249999999
 11
-327.32116700000006
 21
775.86939949999999
  0
LINE
  8
_0-0_0
  6
CONTINUOUS
 62
    7
 10
-327.07116700000006
 20
775.6253815
 11
-327.32116700000006
 21
775.86939949999999
  0
LINE
  8
_0-0_0
  6
CONTINUOUS
 62
    7
 10
-327.07116700000006
 20
775.99092050000002
 11
-327.32116700000006
 21
776.07276950000005
  0
LINE
  8
_0-0_0
  6
CONTINUOUS
 62
    7
 10
-327.07116700000006
 20
775.81590249999999
 11
-327.32116700000006
 21
776.07276950000005
  0
LINE
  8
_0-0_0
  6
CONTINUOUS
 62
    7
 10
-327.07116700000006
 20
776.14851350000004
 11
-327.32116700000006
 21
776.25779750000004
  0
LINE
  8
_0-0_0
  6
CONTINUOUS
 62
    7
 10
-327.07116700000006
 20
775.99092050000002
 11
-327.32116700000006
 21
776.25779750000004
  0
LINE
  8
_0-0_0
  6
CONTINUOUS
 62
    7
 10
-327.07116700000006
 20
776.28694150000001
 11
-327.32116700000006
 21
776.42250049999996
  0
LINE
  8
_0-0_0
  6
CONTINUOUS
 62
    7
 10
-327.07116700000006
 20
776.14851350000004
 11
-327.32116700000006
 21
776.42250049999996
  0
LINE
  8
_0-0_0
  6
CONTINUOUS
 62
    7
 10
-327.07116700000006
 20
776.40470849999997
 11
-327.32116700000006
 21
776.56501749999995
  0
LINE
  8
_0-0_0
  6
CONTINUOUS
 62
    7
 10
-327.07116700000006
 20
776.28694150000001
 11
-327.32116700000006
 21
776.56501749999995
  0
LINE
  8
_0-0_0
  6
CONTINUOUS
 62
    7
 10
-327.07116700000006
 20
776.50050350000004
 11
-327.32116700000006
 21
776.68379149999998
  0
LINE
  8
_0-0_0
  6
CONTINUOUS
 62
    7
 10
-327.07116700000006
 20
776.40470849999997
 11
-327.32116700000006
 21
776.68379149999998
  0
LINE
  8
_0-0_0
  6
CONTINUOUS
 62
    7
 10
-327.07116700000006
 20
776.57328749999999
 11
-327.32116700000006
 21
776.77757250000002
  0
LINE
  8
_0-0_0
  6
CONTINUOUS
 62
    7
 10
-327.07116700000006
 20
776.50050350000004
 11
-327.32116700000006
 21
776.77757250000002
  0
LINE
  8
_0-0_0
  6
CONTINUOUS
 62
    7
 10
-327.07116700000006
 20
776.62223849999998
 11
-327.32116700000006
 21
776.84532149999995
  0
LINE
  8
_0-0_0
  6
CONTINUOUS
 62
    7
 10
-327.07116700000006
 20
776.57328749999999
 11
-327.32116700000006
 21
776.84532149999995
  0
LINE
  8
_0-0_0
  6
CONTINUOUS
 62
    7
 10
-327.07116700000006
 20
776.64686549999999
 11
-327.32116700000006
 21
776.88624549999997
  0
LINE
  8
_0-0_0
  6
CONTINUOUS
 62
    7
 10
-327.07116700000006
 20
776.62223849999998
 11
-327.32116700000006
 21
776.88624549999997
  0
LINE
  8
_0-0_0
  6
CONTINUOUS
 62
    7
 10
-327.07116700000006
 20
776.64686549999999
 11
-327.32116700000006
 21
776.89994750000005
  0
LINE
  8
_0-0_0
  6
CONTINUOUS
 62
    7
 10
-327.07116700000006
 20
772.1530305
 11
-327.32116700000006
 21
771.89994750000005
  0
LINE
  8
_0-0_0
  6
CONTINUOUS
 62
    7
 10
-327.07116700000006
 20
772.17765750000001
 11
-327.32116700000006
 21
771.91365050000002
  0
LINE
  8
_0-0_0
  6
CONTINUOUS
 62
    7
 10
-327.07116700000006
 20
772.1530305
 11
-327.32116700000006
 21
771.91365050000002
  0
LINE
  8
_0-0_0
  6
CONTINUOUS
 62
    7
 10
-327.07116700000006
 20
772.2266085
 11
-327.32116700000006
 21
771.95457450000004
  0
LINE
  8
_0-0_0
  6
CONTINUOUS
 62
    7
 10
-327.07116700000006
 20
772.17765750000001
 11
-327.32116700000006
 21
771.95457450000004
  0
LINE
  8
_0-0_0
  6
CONTINUOUS
 62
    7
 10
-327.07116700000006
 20
772.29939249999995
 11
-327.32116700000006
 21
772.02229250000005
  0
LINE
  8
_0-0_0
  6
CONTINUOUS
 62
    7
 10
-327.07116700000006
 20
772.2266085
 11
-327.32116700000006
 21
772.02229250000005
  0
LINE
  8
_0-0_0
  6
CONTINUOUS
 62
    7
 10
-327.07116700000006
 20
772.39518750000002
 11
-327.32116700000006
 21
772.11607349999997
  0
LINE
  8
_0-0_0
  6
CONTINUOUS
 62
    7
 10
-327.07116700000006
 20
772.29939249999995
 11
-327.32116700000006
 21
772.11607349999997
  0
LINE
  8
_0-0_0
  6
CONTINUOUS
 62
    7
 10
-327.07116700000006
 20
772.39518750000002
 11
-327.20114100000001
 21
772.31132449999996
  0
LINE
  8
_0-0_0
  6
CONTINUOUS
 62
    7
 10
-327.07116700000006
 20
772.51292450000005
 11
-327.32116700000006
 21
772.23487850000004
  0
LINE
  8
_0-0_0
  6
CONTINUOUS
 62
    7
 10
-327.20114100000001
 20
772.31132449999996
 11
-327.32116700000006
 21
772.23487850000004
  0
LINE
  8
_0-0_0
  6
CONTINUOUS
 62
    7
 10
-327.07116700000006
 20
772.65135150000003
 11
-327.32116700000006
 21
772.37739550000003
  0
LINE
  8
_0-0_0
  6
CONTINUOUS
 62
    7
 10
-327.07116700000006
 20
772.51292450000005
 11
-327.32116700000006
 21
772.37739550000003
  0
LINE
  8
_0-0_0
  6
CONTINUOUS
 62
    7
 10
-327.07116700000006
 20
772.80894450000005
 11
-327.32116700000006
 21
772.54206850000003
  0
LINE
  8
_0-0_0
  6
CONTINUOUS
 62
    7
 10
-327.07116700000006
 20
772.65135150000003
 11
-327.32116700000006
 21
772.54206850000003
  0
LINE
  8
_0-0_0
  6
CONTINUOUS
 62
    7
 10
-327.07116700000006
 20
772.98396249999996
 11
-327.32116700000006
 21
772.72712650000005
  0
LINE
  8
_0-0_0
  6
CONTINUOUS
 62
    7
 10
-327.07116700000006
 20
772.80894450000005
 11
-327.32116700000006
 21
772.72712650000005
  0
LINE
  8
_0-0_0
  6
CONTINUOUS
 62
    7
 10
-327.07116700000006
 20
773.17451449999999
 11
-327.32116700000006
 21
772.9304965
  0
LINE
  8
_0-0_0
  6
CONTINUOUS
 62
    7
 10
-327.07116700000006
 20
772.98396249999996
 11
-327.32116700000006
 21
772.9304965
  0
LINE
  8
_0-0_0
  6
CONTINUOUS
 62
    7
 10
-327.07116700000006
 20
773.37846349999995
 11
-327.32116700000006
 21
773.14994750000005
  0
LINE
  8
_0-0_0
  6
CONTINUOUS
 62
    7
 10
-327.07116700000006
 20
773.17451449999999
 11
-327.32116700000006
 21
773.14994750000005
  0
LINE
  8
_0-0_0
  6
CONTINUOUS
 62
    7
 10
-327.07116700000006
 20
773.59361249999995
 11
-327.32116700000006
 21
773.38310249999995
  0
LINE
  8
_0-0_0
  6
CONTINUOUS
 62
    7
 10
-327.07116700000006
 20
773.37846349999995
 11
-327.32116700000006
 21
773.38310249999995
  0
LINE
  8
_0-0_0
  6
CONTINUOUS
 62
    7
 10
-327.07116700000006
 20
773.8176115
 11
-327.32116700000006
 21
773.62739550000003
  0
LINE
  8
_0-0_0
  6
CONTINUOUS
 62
    7
 10
-327.07116700000006
 20
773.59361249999995
 11
-327.32116700000006
 21
773.62739550000003
  0
LINE
  8
_0-0_0
  6
CONTINUOUS
 62
    7
 10
-327.07116700000006
 20
774.04795850000005
 11
-327.32116700000006
 21
773.88017249999996
  0
LINE
  8
_0-0_0
  6
CONTINUOUS
 62
    7
 10
-327.07116700000006
 20
773.8176115
 11
-327.32116700000006
 21
773.88017249999996
  0
LINE
  8
_0-0_0
  6
CONTINUOUS
 62
    7
 10
-327.07116700000006
 20
774.28218049999998
 11
-327.32116700000006
 21
774.13862549999999
  0
LINE
  8
_0-0_0
  6
CONTINUOUS
 62
    7
 10
-327.07116700000006
 20
774.04795850000005
 11
-327.32116700000006
 21
774.13862549999999
  0
LINE
  8
_0-0_0
  6
CONTINUOUS
 62
    7
 10
-327.07116700000006
 20
774.51771550000001
 11
-327.32116700000006
 21
774.39994750000005
  0
LINE
  8
_0-0_0
  6
CONTINUOUS
 62
    7
 10
-327.07116700000006
 20
774.28218049999998
 11
-327.32116700000006
 21
774.39994750000005
  0
LINE
  8
_0-0_0
  6
CONTINUOUS
 62
    7
 10
-327.07116700000006
 20
774.75190750000002
 11
-327.32116700000006
 21
774.6612705
  0
LINE
  8
_0-0_0
  6
CONTINUOUS
 62
    7
 10
-327.07116700000006
 20
774.51771550000001
 11
-327.32116700000006
 21
774.6612705
  0
LINE
  8
_0-0_0
  6
CONTINUOUS
 62
    7
 10
-327.07116700000006
 20
774.98228449999999
 11
-327.32116700000006
 21
774.91972350000003
  0
LINE
  8
_0-0_0
  6
CONTINUOUS
 62
    7
 10
-327.07116700000006
 20
774.75190750000002
 11
-327.32116700000006
 21
774.91972350000003
  0
LINE
  8
_0-0_0
  6
CONTINUOUS
 62
    7
 10
-327.07116700000006
 20
775.20628350000004
 11
-327.32116700000006
 21
775.17250049999996
  0
LINE
  8
_0-0_0
  6
CONTINUOUS
 62
    7
 10
-327.07116700000006
 20
774.98228449999999
 11
-327.32116700000006
 21
775.17250049999996
  0
LINE
  8
_0-0_0
  6
CONTINUOUS
 62
    7
 10
-327.07116700000006
 20
775.42143250000004
 11
-327.32116700000006
 21
775.41679350000004
  0
LINE
  8
_0-0_0
  6
CONTINUOUS
 62
    7
 10
-327.07116700000006
 20
775.20628350000004
 11
-327.32116700000006
 21
775.41679350000004
  0
LINE
  8
_0-0_0
  6
CONTINUOUS
 62
    7
 10
-312.07116700000006
 20
769.9922335
 11
-321.77899200000002
 21
769.9922335
  0
LINE
  8
_0-0_0
  6
CONTINUOUS
 62
    7
 10
-321.77899200000002
 20
769.9922335
 11
-321.83349599999997
 21
770.06217949999996
  0
LINE
  8
_0-0_0
  6
CONTINUOUS
 62
    7
 10
-321.83349599999997
 20
770.06217949999996
 11
-321.88458199999991
 21
770.13099650000004
  0
LINE
  8
_0-0_0
  6
CONTINUOUS
 62
    7
 10
-321.88458199999991
 20
770.13099650000004
 11
-321.93221999999992
 21
770.19850150000002
  0
LINE
  8
_0-0_0
  6
CONTINUOUS
 62
    7
 10
-321.93221999999992
 20
770.19850150000002
 11
-321.97671500000001
 21
770.2650605
  0
LINE
  8
_0-0_0
  6
CONTINUOUS
 62
    7
 10
-321.97671500000001
 20
770.2650605
 11
-322.03143300000011
 21
770.35261549999996
  0
LINE
  8
_0-0_0
  6
CONTINUOUS
 62
    7
 10
-322.03143300000011
 20
770.35261549999996
 11
-322.08093299999996
 21
770.43870549999997
  0
LINE
  8
_0-0_0
  6
CONTINUOUS
 62
    7
 10
-322.08093299999996
 20
770.43870549999997
 11
-322.12542699999995
 21
770.52354449999996
  0
LINE
  8
_0-0_0
  6
CONTINUOUS
 62
    7
 10
-322.12542699999995
 20
770.52354449999996
 11
-322.17239399999994
 21
770.62385549999999
  0
LINE
  8
_0-0_0
  6
CONTINUOUS
 62
    7
 10
-322.17239399999994
 20
770.62385549999999
 11
-322.21258499999999
 21
770.72279349999997
  0
LINE
  8
_0-0_0
  6
CONTINUOUS
 62
    7
 10
-322.21258499999999
 20
770.72279349999997
 11
-322.24627699999996
 21
770.82054149999999
  0
LINE
  8
_0-0_0
  6
CONTINUOUS
 62
    7
 10
-322.24627699999996
 20
770.82054149999999
 11
-322.27355899999998
 21
770.91734350000002
  0
LINE
  8
_0-0_0
  6
CONTINUOUS
 62
    7
 10
-322.27355899999998
 20
770.91734350000002
 11
-322.29458599999998
 21
771.01338150000004
  0
LINE
  8
_0-0_0
  6
CONTINUOUS
 62
    7
 10
-322.29458599999998
 20
771.01338150000004
 11
-322.31051600000001
 21
771.11726350000004
  0
LINE
  8
_0-0_0
  6
CONTINUOUS
 62
    7
 10
-322.31051600000001
 20
771.11726350000004
 11
-322.31927499999983
 21
771.22068750000005
  0
LINE
  8
_0-0_0
  6
CONTINUOUS
 62
    7
 10
-322.31927499999983
 20
771.22068750000005
 11
-322.32092299999999
 21
771.32392849999997
  0
LINE
  8
_0-0_0
  6
CONTINUOUS
 62
    7
 10
-322.32092299999999
 20
771.32392849999997
 11
-322.31543000000011
 21
771.42720050000003
  0
LINE
  8
_0-0_0
  6
CONTINUOUS
 62
    7
 10
-322.31543000000011
 20
771.42720050000003
 11
-322.30285600000002
 21
771.53080750000004
  0
LINE
  8
_0-0_0
  6
CONTINUOUS
 62
    7
 10
-322.30285600000002
 20
771.53080750000004
 11
-322.28301999999985
 21
771.63493349999999
  0
LINE
  8
_0-0_0
  6
CONTINUOUS
 62
    7
 10
-322.28301999999985
 20
771.63493349999999
 11
-322.25585899999987
 21
771.73991350000006
  0
LINE
  8
_0-0_0
  6
CONTINUOUS
 62
    7
 10
-322.25585899999987
 20
771.73991350000006
 11
-322.2212219999999
 21
771.84593150000001
  0
LINE
  8
_0-0_0
  6
CONTINUOUS
 62
    7
 10
-322.2212219999999
 20
771.84593150000001
 11
-322.1788939999999
 21
771.95332350000001
  0
LINE
  8
_0-0_0
  6
CONTINUOUS
 62
    7
 10
-322.1788939999999
 20
771.95332350000001
 11
-322.12856999999985
 21
772.06233250000002
  0
LINE
  8
_0-0_0
  6
CONTINUOUS
 62
    7
 10
-322.12856999999985
 20
772.06233250000002
 11
-322.08288599999992
 21
772.14997849999997
  0
LINE
  8
_0-0_0
  6
CONTINUOUS
 62
    7
 10
-312.07116700000006
 20
768.70762649999995
 11
-321.77899200000002
 21
768.70762649999995
  0
LINE
  8
_0-0_0
  6
CONTINUOUS
 62
    7
 10
-321.77899200000002
 20
768.70762649999995
 11
-321.87335200000007
 21
768.46101350000004
  0
LINE
  8
_0-0_0
  6
CONTINUOUS
 62
    7
 10
-321.87335200000007
 20
768.46101350000004
 11
-321.95727499999998
 21
768.22105350000004
  0
LINE
  8
_0-0_0
  6
CONTINUOUS
 62
    7
 10
-321.95727499999998
 20
768.22105350000004
 11
-322.03143300000011
 21
767.98692349999999
  0
LINE
  8
_0-0_0
  6
CONTINUOUS
 62
    7
 10
-322.03143300000011
 20
767.98692349999999
 11
-322.09631300000001
 21
767.75788850000004
  0
LINE
  8
_0-0_0
  6
CONTINUOUS
 62
    7
 10
-322.09631300000001
 20
767.75788850000004
 11
-322.15234400000008
 21
767.53321849999998
  0
LINE
  8
_0-0_0
  6
CONTINUOUS
 62
    7
 10
-322.15234400000008
 20
767.53321849999998
 11
-322.1999209999999
 21
767.31224050000003
  0
LINE
  8
_0-0_0
  6
CONTINUOUS
 62
    7
 10
-322.1999209999999
 20
767.31224050000003
 11
-322.23931900000002
 21
767.0943145
  0
LINE
  8
_0-0_0
  6
CONTINUOUS
 62
    7
 10
-322.23931900000002
 20
767.0943145
 11
-322.27081300000009
 21
766.87886049999997
  0
LINE
  8
_0-0_0
  6
CONTINUOUS
 62
    7
 10
-322.27081300000009
 20
766.87886049999997
 11
-322.29458599999998
 21
766.66532849999999
  0
LINE
  8
_0-0_0
  6
CONTINUOUS
 62
    7
 10
-322.29458599999998
 20
766.66532849999999
 11
-322.31051600000001
 21
766.45762649999995
  0
LINE
  8
_0-0_0
  6
CONTINUOUS
 62
    7
 10
-322.31051600000001
 20
766.45762649999995
 11
-322.31927499999983
 21
766.25077850000002
  0
LINE
  8
_0-0_0
  6
CONTINUOUS
 62
    7
 10
-322.31927499999983
 20
766.25077850000002
 11
-322.32092299999999
 21
766.04429649999997
  0
LINE
  8
_0-0_0
  6
CONTINUOUS
 62
    7
 10
-322.32092299999999
 20
766.04429649999997
 11
-322.31543000000011
 21
765.83772250000004
  0
LINE
  8
_0-0_0
  6
CONTINUOUS
 62
    7
 10
-322.31543000000011
 20
765.83772250000004
 11
-322.30285600000002
 21
765.63053850000006
  0
LINE
  8
_0-0_0
  6
CONTINUOUS
 62
    7
 10
-322.30285600000002
 20
765.63053850000006
 11
-322.28301999999985
 21
765.4222565
  0
LINE
  8
_0-0_0
  6
CONTINUOUS
 62
    7
 10
-322.28301999999985
 20
765.4222565
 11
-322.25585899999987
 21
765.21232550000002
  0
LINE
  8
_0-0_0
  6
CONTINUOUS
 62
    7
 10
-322.25585899999987
 20
765.21232550000002
 11
-322.2212219999999
 21
765.00025949999997
  0
LINE
  8
_0-0_0
  6
CONTINUOUS
 62
    7
 10
-322.2212219999999
 20
765.00025949999997
 11
-322.1788939999999
 21
764.78550749999999
  0
LINE
  8
_0-0_0
  6
CONTINUOUS
 62
    7
 10
-322.1788939999999
 20
764.78550749999999
 11
-322.12856999999985
 21
764.56748949999997
  0
LINE
  8
_0-0_0
  6
CONTINUOUS
 62
    7
 10
-322.12856999999985
 20
764.56748949999997
 11
-322.07430999999997
 21
764.36122150000006
  0
LINE
  8
_0-0_0
  6
CONTINUOUS
 62
    7
 10
-322.07430999999997
 20
764.36122150000006
 11
-322.01260400000001
 21
764.15110749999997
  0
LINE
  8
_0-0_0
  6
CONTINUOUS
 62
    7
 10
-322.01260400000001
 20
764.15110749999997
 11
-321.94308499999988
 21
763.93663049999998
  0
LINE
  8
_0-0_0
  6
CONTINUOUS
 62
    7
 10
-321.94308499999988
 20
763.93663049999998
 11
-321.86538700000006
 21
763.71723950000001
  0
LINE
  8
_0-0_0
  6
CONTINUOUS
 62
    7
 10
-321.86538700000006
 20
763.71723950000001
 11
-321.77899200000002
 21
763.4922335
  0
LINE
  8
_0-0_0
  6
CONTINUOUS
 62
    7
 10
-312.07116700000006
 20
763.4922335
 11
-321.77899200000002
 21
763.4922335
  0
ARC
  8
_0-0_0
  6
CONTINUOUS
 62
    7
 10
-316.90743999999995
 20
769.34992950000003
 40
4.9136889999999998
 50
172.48898299999999
 51
187.51101699999998
  0
LINE
  8
_0-0_0
  6
CONTINUOUS
 62
    7
 10
-312.07116700000006
 20
762.20762649999995
 11
-321.77899200000002
 21
762.20762649999995
  0
LINE
  8
_0-0_0
  6
CONTINUOUS
 62
    7
 10
-321.77899200000002
 20
759.59992950000003
 11
-321.83349599999997
 21
759.66987549999999
  0
LINE
  8
_0-0_0
  6
CONTINUOUS
 62
    7
 10
-321.83349599999997
 20
759.66987549999999
 11
-321.88458199999991
 21
759.73869349999995
  0
LINE
  8
_0-0_0
  6
CONTINUOUS
 62
    7
 10
-321.88458199999991
 20
759.73869349999995
 11
-321.93221999999992
 21
759.80619750000005
  0
LINE
  8
_0-0_0
  6
CONTINUOUS
 62
    7
 10
-321.93221999999992
 20
759.80619750000005
 11
-321.97671500000001
 21
759.87275650000004
  0
LINE
  8
_0-0_0
  6
CONTINUOUS
 62
    7
 10
-321.97671500000001
 20
759.87275650000004
 11
-322.03143300000011
 21
759.96031149999999
  0
LINE
  8
_0-0_0
  6
CONTINUOUS
 62
    7
 10
-322.03143300000011
 20
759.96031149999999
 11
-322.08093299999996
 21
760.0464015
  0
LINE
  8
_0-0_0
  6
CONTINUOUS
 62
    7
 10
-322.08093299999996
 20
760.0464015
 11
-322.12542699999995
 21
760.13124049999999
  0
LINE
  8
_0-0_0
  6
CONTINUOUS
 62
    7
 10
-322.12542699999995
 20
760.13124049999999
 11
-322.17239399999994
 21
760.23155150000002
  0
LINE
  8
_0-0_0
  6
CONTINUOUS
 62
    7
 10
-322.17239399999994
 20
760.23155150000002
 11
-322.21258499999999
 21
760.3304895
  0
LINE
  8
_0-0_0
  6
CONTINUOUS
 62
    7
 10
-322.21258499999999
 20
760.3304895
 11
-322.24627699999996
 21
760.42823750000002
  0
LINE
  8
_0-0_0
  6
CONTINUOUS
 62
    7
 10
-322.24627699999996
 20
760.42823750000002
 11
-322.27355899999998
 21
760.52503950000005
  0
LINE
  8
_0-0_0
  6
CONTINUOUS
 62
    7
 10
-322.27355899999998
 20
760.52503950000005
 11
-322.29458599999998
 21
760.62107849999995
  0
LINE
  8
_0-0_0
  6
CONTINUOUS
 62
    7
 10
-322.29458599999998
 20
760.62107849999995
 11
-322.31051600000001
 21
760.72496049999995
  0
LINE
  8
_0-0_0
  6
CONTINUOUS
 62
    7
 10
-322.31051600000001
 20
760.72496049999995
 11
-322.31927499999983
 21
760.82838449999997
  0
LINE
  8
_0-0_0
  6
CONTINUOUS
 62
    7
 10
-322.31927499999983
 20
760.82838449999997
 11
-322.32092299999999
 21
760.93159449999996
  0
LINE
  8
_0-0_0
  6
CONTINUOUS
 62
    7
 10
-322.32092299999999
 20
760.93159449999996
 11
-322.31543000000011
 21
761.03489650000006
  0
LINE
  8
_0-0_0
  6
CONTINUOUS
 62
    7
 10
-322.31543000000011
 20
761.03489650000006
 11
-322.30285600000002
 21
761.13850349999996
  0
LINE
  8
_0-0_0
  6
CONTINUOUS
 62
    7
 10
-322.30285600000002
 20
761.13850349999996
 11
-322.28301999999985
 21
761.24262950000002
  0
LINE
  8
_0-0_0
  6
CONTINUOUS
 62
    7
 10
-322.28301999999985
 20
761.24262950000002
 11
-322.25585899999987
 21
761.34761049999997
  0
LINE
  8
_0-0_0
  6
CONTINUOUS
 62
    7
 10
-322.25585899999987
 20
761.34761049999997
 11
-322.2212219999999
 21
761.45362850000004
  0
LINE
  8
_0-0_0
  6
CONTINUOUS
 62
    7
 10
-322.2212219999999
 20
761.45362850000004
 11
-322.1788939999999
 21
761.56101950000004
  0
LINE
  8
_0-0_0
  6
CONTINUOUS
 62
    7
 10
-322.1788939999999
 20
761.56101950000004
 11
-322.12856999999985
 21
761.66999850000002
  0
LINE
  8
_0-0_0
  6
CONTINUOUS
 62
    7
 10
-322.12856999999985
 20
761.66999850000002
 11
-322.07430999999997
 21
761.77314750000005
  0
LINE
  8
_0-0_0
  6
CONTINUOUS
 62
    7
 10
-322.07430999999997
 20
761.77314750000005
 11
-322.01260400000001
 21
761.8782195
  0
LINE
  8
_0-0_0
  6
CONTINUOUS
 62
    7
 10
-322.01260400000001
 20
761.8782195
 11
-321.94308499999988
 21
761.98542750000001
  0
LINE
  8
_0-0_0
  6
CONTINUOUS
 62
    7
 10
-321.94308499999988
 20
761.98542750000001
 11
-321.86538700000006
 21
762.09513849999996
  0
LINE
  8
_0-0_0
  6
CONTINUOUS
 62
    7
 10
-321.86538700000006
 20
762.09513849999996
 11
-321.77899200000002
 21
762.20762649999995
  0
LINE
  8
_0-0_0
  6
CONTINUOUS
 62
    7
 10
-312.07116700000006
 20
759.59992950000003
 11
-321.77899200000002
 21
759.59992950000003
  0
ARC
  8
_0-0_0
  6
CONTINUOUS
 62
    7
 10
-316.89727799999991
 20
762.84904449999999
 40
4.9238749999999998
 50
172.49424200000001
 51
181.535968
  0
ARC
  8
_0-0_0
  6
CONTINUOUS
 62
    7
 10
-316.85925300000008
 20
762.85401950000005
 40
4.9620009999999999
 50
181.58130700000004
 51
187.48478900000003
  0
LINE
  8
_0-0_0
  6
CONTINUOUS
 62
    7
 10
-321.82116700000006
 20
759.59992950000003
 11
-321.77899200000002
 21
759.59992950000003
  0
LINE
  8
_0-0_0
  6
CONTINUOUS
 62
    7
 10
-327.07116700000006
 20
759.0253755
 11
-327.32116700000006
 21
759.04994150000005
  0
LINE
  8
_0-0_0
  6
CONTINUOUS
 62
    7
 10
-327.07116700000006
 20
758.82142650000003
 11
-327.32116700000006
 21
759.04994150000005
  0
LINE
  8
_0-0_0
  6
CONTINUOUS
 62
    7
 10
-327.07116700000006
 20
759.21592650000002
 11
-327.32116700000006
 21
759.26939349999998
  0
LINE
  8
_0-0_0
  6
CONTINUOUS
 62
    7
 10
-327.07116700000006
 20
759.0253755
 11
-327.32116700000006
 21
759.26939349999998
  0
LINE
  8
_0-0_0
  6
CONTINUOUS
 62
    7
 10
-327.07116700000006
 20
759.39094550000004
 11
-327.32116700000006
 21
759.47276250000004
  0
LINE
  8
_0-0_0
  6
CONTINUOUS
 62
    7
 10
-327.07116700000006
 20
759.21592650000002
 11
-327.32116700000006
 21
759.47276250000004
  0
LINE
  8
_0-0_0
  6
CONTINUOUS
 62
    7
 10
-327.07116700000006
 20
759.54850750000003
 11
-327.32116700000006
 21
759.65779150000003
  0
LINE
  8
_0-0_0
  6
CONTINUOUS
 62
    7
 10
-327.07116700000006
 20
759.39094550000004
 11
-327.32116700000006
 21
759.65779150000003
  0
LINE
  8
_0-0_0
  6
CONTINUOUS
 62
    7
 10
-327.07116700000006
 20
759.68696550000004
 11
-327.32116700000006
 21
759.82249449999995
  0
LINE
  8
_0-0_0
  6
CONTINUOUS
 62
    7
 10
-327.07116700000006
 20
759.54850750000003
 11
-327.32116700000006
 21
759.82249449999995
  0
LINE
  8
_0-0_0
  6
CONTINUOUS
 62
    7
 10
-327.07116700000006
 20
759.80470249999996
 11
-327.32116700000006
 21
759.96501150000006
  0
LINE
  8
_0-0_0
  6
CONTINUOUS
 62
    7
 10
-327.07116700000006
 20
759.68696550000004
 11
-327.32116700000006
 21
759.96501150000006
  0
LINE
  8
_0-0_0
  6
CONTINUOUS
 62
    7
 10
-327.07116700000006
 20
759.90049750000003
 11
-327.32116700000006
 21
760.08381650000001
  0
LINE
  8
_0-0_0
  6
CONTINUOUS
 62
    7
 10
-327.07116700000006
 20
759.80470249999996
 11
-327.32116700000006
 21
760.08381650000001
  0
LINE
  8
_0-0_0
  6
CONTINUOUS
 62
    7
 10
-327.07116700000006
 20
759.97328149999998
 11
-327.32116700000006
 21
760.17759650000005
  0
LINE
  8
_0-0_0
  6
CONTINUOUS
 62
    7
 10
-327.07116700000006
 20
759.90049750000003
 11
-327.32116700000006
 21
760.17759650000005
  0
LINE
  8
_0-0_0
  6
CONTINUOUS
 62
    7
 10
-327.07116700000006
 20
760.02223149999998
 11
-327.32116700000006
 21
760.24531549999995
  0
LINE
  8
_0-0_0
  6
CONTINUOUS
 62
    7
 10
-327.07116700000006
 20
759.97328149999998
 11
-327.32116700000006
 21
760.24531549999995
  0
LINE
  8
_0-0_0
  6
CONTINUOUS
 62
    7
 10
-327.07116700000006
 20
760.04685949999998
 11
-327.32116700000006
 21
760.28623949999997
  0
LINE
  8
_0-0_0
  6
CONTINUOUS
 62
    7
 10
-327.07116700000006
 20
760.02223149999998
 11
-327.32116700000006
 21
760.28623949999997
  0
LINE
  8
_0-0_0
  6
CONTINUOUS
 62
    7
 10
-327.07116700000006
 20
760.04685949999998
 11
-327.32116700000006
 21
760.29994150000005
  0
LINE
  8
_0-0_0
  6
CONTINUOUS
 62
    7
 10
-327.07116700000006
 20
755.55302449999999
 11
-327.32116700000006
 21
755.29994150000005
  0
LINE
  8
_0-0_0
  6
CONTINUOUS
 62
    7
 10
-327.07116700000006
 20
755.5776515
 11
-327.32116700000006
 21
755.31364450000001
  0
LINE
  8
_0-0_0
  6
CONTINUOUS
 62
    7
 10
-327.07116700000006
 20
755.55302449999999
 11
-327.32116700000006
 21
755.31364450000001
  0
LINE
  8
_0-0_0
  6
CONTINUOUS
 62
    7
 10
-327.07116700000006
 20
755.62660249999999
 11
-327.32116700000006
 21
755.35456850000003
  0
LINE
  8
_0-0_0
  6
CONTINUOUS
 62
    7
 10
-327.07116700000006
 20
755.5776515
 11
-327.32116700000006
 21
755.35456850000003
  0
LINE
  8
_0-0_0
  6
CONTINUOUS
 62
    7
 10
-327.07116700000006
 20
755.69938650000006
 11
-327.32116700000006
 21
755.42228650000004
  0
LINE
  8
_0-0_0
  6
CONTINUOUS
 62
    7
 10
-327.07116700000006
 20
755.62660249999999
 11
-327.32116700000006
 21
755.42228650000004
  0
LINE
  8
_0-0_0
  6
CONTINUOUS
 62
    7
 10
-327.07116700000006
 20
755.79518150000001
 11
-327.32116700000006
 21
755.51606749999996
  0
LINE
  8
_0-0_0
  6
CONTINUOUS
 62
    7
 10
-327.07116700000006
 20
755.69938650000006
 11
-327.32116700000006
 21
755.51606749999996
  0
LINE
  8
_0-0_0
  6
CONTINUOUS
 62
    7
 10
-327.07116700000006
 20
755.79518150000001
 11
-327.20114100000001
 21
755.71131849999995
  0
LINE
  8
_0-0_0
  6
CONTINUOUS
 62
    7
 10
-327.07116700000006
 20
755.91291750000005
 11
-327.32116700000006
 21
755.63487250000003
  0
LINE
  8
_0-0_0
  6
CONTINUOUS
 62
    7
 10
-327.20114100000001
 20
755.71131849999995
 11
-327.32116700000006
 21
755.63487250000003
  0
LINE
  8
_0-0_0
  6
CONTINUOUS
 62
    7
 10
-327.07116700000006
 20
756.05137649999995
 11
-327.32116700000006
 21
755.77738950000003
  0
LINE
  8
_0-0_0
  6
CONTINUOUS
 62
    7
 10
-327.07116700000006
 20
755.91291750000005
 11
-327.32116700000006
 21
755.77738950000003
  0
LINE
  8
_0-0_0
  6
CONTINUOUS
 62
    7
 10
-327.07116700000006
 20
756.20896849999997
 11
-327.32116700000006
 21
755.94209250000006
  0
LINE
  8
_0-0_0
  6
CONTINUOUS
 62
    7
 10
-327.07116700000006
 20
756.05137649999995
 11
-327.32116700000006
 21
755.94209250000006
  0
LINE
  8
_0-0_0
  6
CONTINUOUS
 62
    7
 10
-327.07116700000006
 20
756.38398749999999
 11
-327.32116700000006
 21
756.12712050000005
  0
LINE
  8
_0-0_0
  6
CONTINUOUS
 62
    7
 10
-327.07116700000006
 20
756.20896849999997
 11
-327.32116700000006
 21
756.12712050000005
  0
LINE
  8
_0-0_0
  6
CONTINUOUS
 62
    7
 10
-327.07116700000006
 20
756.57450849999998
 11
-327.32116700000006
 21
756.3304895
  0
LINE
  8
_0-0_0
  6
CONTINUOUS
 62
    7
 10
-327.07116700000006
 20
756.38398749999999
 11
-327.32116700000006
 21
756.3304895
  0
LINE
  8
_0-0_0
  6
CONTINUOUS
 62
    7
 10
-327.07116700000006
 20
756.77845750000006
 11
-327.32116700000006
 21
756.54994150000005
  0
LINE
  8
_0-0_0
  6
CONTINUOUS
 62
    7
 10
-327.07116700000006
 20
756.57450849999998
 11
-327.32116700000006
 21
756.54994150000005
  0
LINE
  8
_0-0_0
  6
CONTINUOUS
 62
    7
 10
-327.07116700000006
 20
756.99360650000006
 11
-327.32116700000006
 21
756.78309650000006
  0
LINE
  8
_0-0_0
  6
CONTINUOUS
 62
    7
 10
-327.07116700000006
 20
756.77845750000006
 11
-327.32116700000006
 21
756.78309650000006
  0
LINE
  8
_0-0_0
  6
CONTINUOUS
 62
    7
 10
-327.07116700000006
 20
757.21760549999999
 11
-327.32116700000006
 21
757.02738950000003
  0
LINE
  8
_0-0_0
  6
CONTINUOUS
 62
    7
 10
-327.07116700000006
 20
756.99360650000006
 11
-327.32116700000006
 21
757.02738950000003
  0
LINE
  8
_0-0_0
  6
CONTINUOUS
 62
    7
 10
-327.07116700000006
 20
757.44795250000004
 11
-327.32116700000006
 21
757.28016649999995
  0
LINE
  8
_0-0_0
  6
CONTINUOUS
 62
    7
 10
-327.07116700000006
 20
757.21760549999999
 11
-327.32116700000006
 21
757.28016649999995
  0
LINE
  8
_0-0_0
  6
CONTINUOUS
 62
    7
 10
-327.07116700000006
 20
757.68217449999997
 11
-327.32116700000006
 21
757.53861949999998
  0
LINE
  8
_0-0_0
  6
CONTINUOUS
 62
    7
 10
-327.07116700000006
 20
757.44795250000004
 11
-327.32116700000006
 21
757.53861949999998
  0
LINE
  8
_0-0_0
  6
CONTINUOUS
 62
    7
 10
-327.07116700000006
 20
757.9177095
 11
-327.32116700000006
 21
757.79994150000005
  0
LINE
  8
_0-0_0
  6
CONTINUOUS
 62
    7
 10
-327.07116700000006
 20
757.68217449999997
 11
-327.32116700000006
 21
757.79994150000005
  0
LINE
  8
_0-0_0
  6
CONTINUOUS
 62
    7
 10
-327.07116700000006
 20
758.15193150000005
 11
-327.32116700000006
 21
758.0612635
  0
LINE
  8
_0-0_0
  6
CONTINUOUS
 62
    7
 10
-327.07116700000006
 20
757.9177095
 11
-327.32116700000006
 21
758.0612635
  0
LINE
  8
_0-0_0
  6
CONTINUOUS
 62
    7
 10
-327.07116700000006
 20
758.38227849999998
 11
-327.32116700000006
 21
758.31971750000002
  0
LINE
  8
_0-0_0
  6
CONTINUOUS
 62
    7
 10
-327.07116700000006
 20
758.15193150000005
 11
-327.32116700000006
 21
758.31971750000002
  0
LINE
  8
_0-0_0
  6
CONTINUOUS
 62
    7
 10
-327.07116700000006
 20
758.60627750000003
 11
-327.32116700000006
 21
758.57249449999995
  0
LINE
  8
_0-0_0
  6
CONTINUOUS
 62
    7
 10
-327.07116700000006
 20
758.38227849999998
 11
-327.32116700000006
 21
758.57249449999995
  0
LINE
  8
_0-0_0
  6
CONTINUOUS
 62
    7
 10
-327.07116700000006
 20
758.82142650000003
 11
-327.32116700000006
 21
758.81678750000003
  0
LINE
  8
_0-0_0
  6
CONTINUOUS
 62
    7
 10
-327.07116700000006
 20
758.60627750000003
 11
-327.32116700000006
 21
758.81678750000003
  0
LINE
  8
_0-0_0
  6
CONTINUOUS
 62
    7
 10
-336.82116700000006
 20
775.6253815
 11
-336.57116700000006
 21
775.64994750000005
  0
LINE
  8
_0-0_0
  6
CONTINUOUS
 62
    7
 10
-336.57116700000006
 20
775.64994750000005
 11
-327.32116700000006
 21
775.64994750000005
  0
LINE
  8
_0-0_0
  6
CONTINUOUS
 62
    7
 10
-336.82116700000006
 20
775.42143250000004
 11
-336.57116700000006
 21
775.64994750000005
  0
LINE
  8
_0-0_0
  6
CONTINUOUS
 62
    7
 10
-336.82116700000006
 20
775.42143250000004
 11
-327.07116700000006
 21
775.42143250000004
  0
LINE
  8
_0-0_0
  6
CONTINUOUS
 62
    7
 10
-336.82116700000006
 20
775.81590249999999
 11
-336.57116700000006
 21
775.86939949999999
  0
LINE
  8
_0-0_0
  6
CONTINUOUS
 62
    7
 10
-336.57116700000006
 20
775.86939949999999
 11
-327.32116700000006
 21
775.86939949999999
  0
LINE
  8
_0-0_0
  6
CONTINUOUS
 62
    7
 10
-336.82116700000006
 20
775.6253815
 11
-336.57116700000006
 21
775.86939949999999
  0
LINE
  8
_0-0_0
  6
CONTINUOUS
 62
    7
 10
-336.82116700000006
 20
775.99092050000002
 11
-336.57116700000006
 21
776.07276950000005
  0
LINE
  8
_0-0_0
  6
CONTINUOUS
 62
    7
 10
-336.57116700000006
 20
776.07276950000005
 11
-327.32116700000006
 21
776.07276950000005
  0
LINE
  8
_0-0_0
  6
CONTINUOUS
 62
    7
 10
-336.82116700000006
 20
775.81590249999999
 11
-336.57116700000006
 21
776.07276950000005
  0
LINE
  8
_0-0_0
  6
CONTINUOUS
 62
    7
 10
-336.82116700000006
 20
776.14851350000004
 11
-336.57116700000006
 21
776.25779750000004
  0
LINE
  8
_0-0_0
  6
CONTINUOUS
 62
    7
 10
-336.57116700000006
 20
776.25779750000004
 11
-327.32116700000006
 21
776.25779750000004
  0
LINE
  8
_0-0_0
  6
CONTINUOUS
 62
    7
 10
-336.82116700000006
 20
775.99092050000002
 11
-336.57116700000006
 21
776.25779750000004
  0
LINE
  8
_0-0_0
  6
CONTINUOUS
 62
    7
 10
-336.82116700000006
 20
776.28694150000001
 11
-336.57116700000006
 21
776.42250049999996
  0
LINE
  8
_0-0_0
  6
CONTINUOUS
 62
    7
 10
-336.57116700000006
 20
776.42250049999996
 11
-327.32116700000006
 21
776.42250049999996
  0
LINE
  8
_0-0_0
  6
CONTINUOUS
 62
    7
 10
-336.82116700000006
 20
776.14851350000004
 11
-336.57116700000006
 21
776.42250049999996
  0
LINE
  8
_0-0_0
  6
CONTINUOUS
 62
    7
 10
-336.82116700000006
 20
776.40470849999997
 11
-336.57116700000006
 21
776.56501749999995
  0
LINE
  8
_0-0_0
  6
CONTINUOUS
 62
    7
 10
-336.57116700000006
 20
776.56501749999995
 11
-327.32116700000006
 21
776.56501749999995
  0
LINE
  8
_0-0_0
  6
CONTINUOUS
 62
    7
 10
-336.82116700000006
 20
776.28694150000001
 11
-336.57116700000006
 21
776.56501749999995
  0
LINE
  8
_0-0_0
  6
CONTINUOUS
 62
    7
 10
-336.82116700000006
 20
776.50050350000004
 11
-336.57116700000006
 21
776.68379149999998
  0
LINE
  8
_0-0_0
  6
CONTINUOUS
 62
    7
 10
-336.57116700000006
 20
776.68379149999998
 11
-327.32116700000006
 21
776.68379149999998
  0
LINE
  8
_0-0_0
  6
CONTINUOUS
 62
    7
 10
-336.82116700000006
 20
776.40470849999997
 11
-336.57116700000006
 21
776.68379149999998
  0
LINE
  8
_0-0_0
  6
CONTINUOUS
 62
    7
 10
-336.82116700000006
 20
776.57328749999999
 11
-336.57116700000006
 21
776.77757250000002
  0
LINE
  8
_0-0_0
  6
CONTINUOUS
 62
    7
 10
-336.57116700000006
 20
776.77757250000002
 11
-327.32116700000006
 21
776.77757250000002
  0
LINE
  8
_0-0_0
  6
CONTINUOUS
 62
    7
 10
-336.82116700000006
 20
776.50050350000004
 11
-336.57116700000006
 21
776.77757250000002
  0
LINE
  8
_0-0_0
  6
CONTINUOUS
 62
    7
 10
-336.82116700000006
 20
776.62223849999998
 11
-336.57116700000006
 21
776.84532149999995
  0
LINE
  8
_0-0_0
  6
CONTINUOUS
 62
    7
 10
-336.57116700000006
 20
776.84532149999995
 11
-327.32116700000006
 21
776.84532149999995
  0
LINE
  8
_0-0_0
  6
CONTINUOUS
 62
    7
 10
-336.82116700000006
 20
776.57328749999999
 11
-336.57116700000006
 21
776.84532149999995
  0
LINE
  8
_0-0_0
  6
CONTINUOUS
 62
    7
 10
-336.82116700000006
 20
776.64686549999999
 11
-336.57116700000006
 21
776.88624549999997
  0
LINE
  8
_0-0_0
  6
CONTINUOUS
 62
    7
 10
-336.57116700000006
 20
776.88624549999997
 11
-327.32116700000006
 21
776.88624549999997
  0
LINE
  8
_0-0_0
  6
CONTINUOUS
 62
    7
 10
-336.82116700000006
 20
776.62223849999998
 11
-336.57116700000006
 21
776.88624549999997
  0
LINE
  8
_0-0_0
  6
CONTINUOUS
 62
    7
 10
-336.57116700000006
 20
776.89994750000005
 11
-327.32116700000006
 21
776.89994750000005
  0
LINE
  8
_0-0_0
  6
CONTINUOUS
 62
    7
 10
-336.82116700000006
 20
776.64686549999999
 11
-336.57116700000006
 21
776.89994750000005
  0
LINE
  8
_0-0_0
  6
CONTINUOUS
 62
    7
 10
-336.82116700000006
 20
772.1530305
 11
-336.57116700000006
 21
771.89994750000005
  0
LINE
  8
_0-0_0
  6
CONTINUOUS
 62
    7
 10
-336.57116700000006
 20
771.89994750000005
 11
-327.32116700000006
 21
771.89994750000005
  0
LINE
  8
_0-0_0
  6
CONTINUOUS
 62
    7
 10
-336.82116700000006
 20
772.17765750000001
 11
-336.57116700000006
 21
771.91365050000002
  0
LINE
  8
_0-0_0
  6
CONTINUOUS
 62
    7
 10
-336.57116700000006
 20
771.91365050000002
 11
-327.32116700000006
 21
771.91365050000002
  0
LINE
  8
_0-0_0
  6
CONTINUOUS
 62
    7
 10
-336.82116700000006
 20
772.1530305
 11
-336.57116700000006
 21
771.91365050000002
  0
LINE
  8
_0-0_0
  6
CONTINUOUS
 62
    7
 10
-336.82116700000006
 20
772.2266085
 11
-336.57116700000006
 21
771.95457450000004
  0
LINE
  8
_0-0_0
  6
CONTINUOUS
 62
    7
 10
-336.57116700000006
 20
771.95457450000004
 11
-327.32116700000006
 21
771.95457450000004
  0
LINE
  8
_0-0_0
  6
CONTINUOUS
 62
    7
 10
-336.82116700000006
 20
772.17765750000001
 11
-336.57116700000006
 21
771.95457450000004
  0
LINE
  8
_0-0_0
  6
CONTINUOUS
 62
    7
 10
-336.82116700000006
 20
772.29939249999995
 11
-336.57116700000006
 21
772.02229250000005
  0
LINE
  8
_0-0_0
  6
CONTINUOUS
 62
    7
 10
-336.57116700000006
 20
772.02229250000005
 11
-327.32116700000006
 21
772.02229250000005
  0
LINE
  8
_0-0_0
  6
CONTINUOUS
 62
    7
 10
-336.82116700000006
 20
772.2266085
 11
-336.57116700000006
 21
772.02229250000005
  0
LINE
  8
_0-0_0
  6
CONTINUOUS
 62
    7
 10
-336.82116700000006
 20
772.39518750000002
 11
-336.57116700000006
 21
772.11607349999997
  0
LINE
  8
_0-0_0
  6
CONTINUOUS
 62
    7
 10
-336.57116700000006
 20
772.11607349999997
 11
-327.32116700000006
 21
772.11607349999997
  0
LINE
  8
_0-0_0
  6
CONTINUOUS
 62
    7
 10
-336.82116700000006
 20
772.29939249999995
 11
-336.57116700000006
 21
772.11607349999997
  0
LINE
  8
_0-0_0
  6
CONTINUOUS
 62
    7
 10
-336.57116700000006
 20
772.23487850000004
 11
-327.32116700000006
 21
772.23487850000004
  0
LINE
  8
_0-0_0
  6
CONTINUOUS
 62
    7
 10
-336.69122300000004
 20
772.31132449999996
 11
-336.57116700000006
 21
772.23487850000004
  0
LINE
  8
_0-0_0
  6
CONTINUOUS
 62
    7
 10
-336.82116700000006
 20
772.39518750000002
 11
-336.69122300000004
 21
772.31132449999996
  0
LINE
  8
_0-0_0
  6
CONTINUOUS
 62
    7
 10
-336.82116700000006
 20
772.51292450000005
 11
-336.57116700000006
 21
772.23487850000004
  0
LINE
  8
_0-0_0
  6
CONTINUOUS
 62
    7
 10
-336.82116700000006
 20
772.65135150000003
 11
-336.57116700000006
 21
772.37739550000003
  0
LINE
  8
_0-0_0
  6
CONTINUOUS
 62
    7
 10
-336.57116700000006
 20
772.37739550000003
 11
-327.32116700000006
 21
772.37739550000003
  0
LINE
  8
_0-0_0
  6
CONTINUOUS
 62
    7
 10
-336.82116700000006
 20
772.51292450000005
 11
-336.57116700000006
 21
772.37739550000003
  0
LINE
  8
_0-0_0
  6
CONTINUOUS
 62
    7
 10
-336.82116700000006
 20
772.80894450000005
 11
-336.57116700000006
 21
772.54206850000003
  0
LINE
  8
_0-0_0
  6
CONTINUOUS
 62
    7
 10
-336.57116700000006
 20
772.54206850000003
 11
-327.32116700000006
 21
772.54206850000003
  0
LINE
  8
_0-0_0
  6
CONTINUOUS
 62
    7
 10
-336.82116700000006
 20
772.65135150000003
 11
-336.57116700000006
 21
772.54206850000003
  0
LINE
  8
_0-0_0
  6
CONTINUOUS
 62
    7
 10
-336.82116700000006
 20
772.98396249999996
 11
-336.57116700000006
 21
772.72712650000005
  0
LINE
  8
_0-0_0
  6
CONTINUOUS
 62
    7
 10
-336.57116700000006
 20
772.72712650000005
 11
-327.32116700000006
 21
772.72712650000005
  0
LINE
  8
_0-0_0
  6
CONTINUOUS
 62
    7
 10
-336.82116700000006
 20
772.80894450000005
 11
-336.57116700000006
 21
772.72712650000005
  0
LINE
  8
_0-0_0
  6
CONTINUOUS
 62
    7
 10
-336.82116700000006
 20
773.17451449999999
 11
-336.57116700000006
 21
772.9304965
  0
LINE
  8
_0-0_0
  6
CONTINUOUS
 62
    7
 10
-336.57116700000006
 20
772.9304965
 11
-327.32116700000006
 21
772.9304965
  0
LINE
  8
_0-0_0
  6
CONTINUOUS
 62
    7
 10
-336.82116700000006
 20
772.98396249999996
 11
-336.57116700000006
 21
772.9304965
  0
LINE
  8
_0-0_0
  6
CONTINUOUS
 62
    7
 10
-336.82116700000006
 20
773.37846349999995
 11
-336.57116700000006
 21
773.14994750000005
  0
LINE
  8
_0-0_0
  6
CONTINUOUS
 62
    7
 10
-336.57116700000006
 20
773.14994750000005
 11
-327.32116700000006
 21
773.14994750000005
  0
LINE
  8
_0-0_0
  6
CONTINUOUS
 62
    7
 10
-336.82116700000006
 20
773.37846349999995
 11
-327.07116700000006
 21
773.37846349999995
  0
LINE
  8
_0-0_0
  6
CONTINUOUS
 62
    7
 10
-336.82116700000006
 20
773.17451449999999
 11
-336.57116700000006
 21
773.14994750000005
  0
LINE
  8
_0-0_0
  6
CONTINUOUS
 62
    7
 10
-336.82116700000006
 20
773.59361249999995
 11
-336.57116700000006
 21
773.38310249999995
  0
LINE
  8
_0-0_0
  6
CONTINUOUS
 62
    7
 10
-336.57116700000006
 20
773.38310249999995
 11
-327.32116700000006
 21
773.38310249999995
  0
LINE
  8
_0-0_0
  6
CONTINUOUS
 62
    7
 10
-336.82116700000006
 20
773.59361249999995
 11
-327.07116700000006
 21
773.59361249999995
  0
LINE
  8
_0-0_0
  6
CONTINUOUS
 62
    7
 10
-336.82116700000006
 20
773.37846349999995
 11
-336.57116700000006
 21
773.38310249999995
  0
LINE
  8
_0-0_0
  6
CONTINUOUS
 62
    7
 10
-336.82116700000006
 20
773.8176115
 11
-336.57116700000006
 21
773.62739550000003
  0
LINE
  8
_0-0_0
  6
CONTINUOUS
 62
    7
 10
-336.57116700000006
 20
773.62739550000003
 11
-327.32116700000006
 21
773.62739550000003
  0
LINE
  8
_0-0_0
  6
CONTINUOUS
 62
    7
 10
-336.82116700000006
 20
773.8176115
 11
-327.07116700000006
 21
773.8176115
  0
LINE
  8
_0-0_0
  6
CONTINUOUS
 62
    7
 10
-336.82116700000006
 20
773.59361249999995
 11
-336.57116700000006
 21
773.62739550000003
  0
LINE
  8
_0-0_0
  6
CONTINUOUS
 62
    7
 10
-336.82116700000006
 20
774.04795850000005
 11
-336.57116700000006
 21
773.88017249999996
  0
LINE
  8
_0-0_0
  6
CONTINUOUS
 62
    7
 10
-336.57116700000006
 20
773.88017249999996
 11
-327.32116700000006
 21
773.88017249999996
  0
LINE
  8
_0-0_0
  6
CONTINUOUS
 62
    7
 10
-336.82116700000006
 20
774.04795850000005
 11
-327.07116700000006
 21
774.04795850000005
  0
LINE
  8
_0-0_0
  6
CONTINUOUS
 62
    7
 10
-336.82116700000006
 20
773.8176115
 11
-336.57116700000006
 21
773.88017249999996
  0
LINE
  8
_0-0_0
  6
CONTINUOUS
 62
    7
 10
-336.82116700000006
 20
774.28218049999998
 11
-336.57116700000006
 21
774.13862549999999
  0
LINE
  8
_0-0_0
  6
CONTINUOUS
 62
    7
 10
-336.57116700000006
 20
774.13862549999999
 11
-327.32116700000006
 21
774.13862549999999
  0
LINE
  8
_0-0_0
  6
CONTINUOUS
 62
    7
 10
-336.82116700000006
 20
774.28218049999998
 11
-327.07116700000006
 21
774.28218049999998
  0
LINE
  8
_0-0_0
  6
CONTINUOUS
 62
    7
 10
-336.82116700000006
 20
774.04795850000005
 11
-336.57116700000006
 21
774.13862549999999
  0
LINE
  8
_0-0_0
  6
CONTINUOUS
 62
    7
 10
-336.82116700000006
 20
774.51771550000001
 11
-336.57116700000006
 21
774.39994750000005
  0
LINE
  8
_0-0_0
  6
CONTINUOUS
 62
    7
 10
-336.57116700000006
 20
774.39994750000005
 11
-327.32116700000006
 21
774.39994750000005
  0
LINE
  8
_0-0_0
  6
CONTINUOUS
 62
    7
 10
-336.82116700000006
 20
774.51771550000001
 11
-327.07116700000006
 21
774.51771550000001
  0
LINE
  8
_0-0_0
  6
CONTINUOUS
 62
    7
 10
-336.82116700000006
 20
774.28218049999998
 11
-336.57116700000006
 21
774.39994750000005
  0
LINE
  8
_0-0_0
  6
CONTINUOUS
 62
    7
 10
-336.82116700000006
 20
774.75190750000002
 11
-336.57116700000006
 21
774.6612705
  0
LINE
  8
_0-0_0
  6
CONTINUOUS
 62
    7
 10
-336.57116700000006
 20
774.6612705
 11
-327.32116700000006
 21
774.6612705
  0
LINE
  8
_0-0_0
  6
CONTINUOUS
 62
    7
 10
-336.82116700000006
 20
774.75190750000002
 11
-327.07116700000006
 21
774.75190750000002
  0
LINE
  8
_0-0_0
  6
CONTINUOUS
 62
    7
 10
-336.82116700000006
 20
774.51771550000001
 11
-336.57116700000006
 21
774.6612705
  0
LINE
  8
_0-0_0
  6
CONTINUOUS
 62
    7
 10
-336.82116700000006
 20
774.98228449999999
 11
-336.57116700000006
 21
774.91972350000003
  0
LINE
  8
_0-0_0
  6
CONTINUOUS
 62
    7
 10
-336.57116700000006
 20
774.91972350000003
 11
-327.32116700000006
 21
774.91972350000003
  0
LINE
  8
_0-0_0
  6
CONTINUOUS
 62
    7
 10
-336.82116700000006
 20
774.98228449999999
 11
-327.07116700000006
 21
774.98228449999999
  0
LINE
  8
_0-0_0
  6
CONTINUOUS
 62
    7
 10
-336.82116700000006
 20
774.75190750000002
 11
-336.57116700000006
 21
774.91972350000003
  0
LINE
  8
_0-0_0
  6
CONTINUOUS
 62
    7
 10
-336.82116700000006
 20
775.20628350000004
 11
-336.57116700000006
 21
775.17250049999996
  0
LINE
  8
_0-0_0
  6
CONTINUOUS
 62
    7
 10
-336.57116700000006
 20
775.17250049999996
 11
-327.32116700000006
 21
775.17250049999996
  0
LINE
  8
_0-0_0
  6
CONTINUOUS
 62
    7
 10
-336.82116700000006
 20
775.20628350000004
 11
-327.07116700000006
 21
775.20628350000004
  0
LINE
  8
_0-0_0
  6
CONTINUOUS
 62
    7
 10
-336.82116700000006
 20
774.98228449999999
 11
-336.57116700000006
 21
775.17250049999996
  0
LINE
  8
_0-0_0
  6
CONTINUOUS
 62
    7
 10
-336.82116700000006
 20
775.42143250000004
 11
-336.57116700000006
 21
775.41679350000004
  0
LINE
  8
_0-0_0
  6
CONTINUOUS
 62
    7
 10
-336.57116700000006
 20
775.41679350000004
 11
-327.32116700000006
 21
775.41679350000004
  0
LINE
  8
_0-0_0
  6
CONTINUOUS
 62
    7
 10
-336.82116700000006
 20
775.20628350000004
 11
-336.57116700000006
 21
775.41679350000004
  0
LINE
  8
_0-0_0
  6
CONTINUOUS
 62
    7
 10
-323.07116700000006
 20
771.34992950000003
 11
-323.07116700000006
 21
763.36839250000003
  0
LINE
  8
_0-0_0
  6
CONTINUOUS
 62
    7
 10
-323.07116700000006
 20
763.36839250000003
 11
-323.07116700000006
 21
760.84992950000003
  0
LINE
  8
_0-0_0
  6
CONTINUOUS
 62
    7
 10
-336.82116700000006
 20
759.0253755
 11
-336.57116700000006
 21
759.04994150000005
  0
LINE
  8
_0-0_0
  6
CONTINUOUS
 62
    7
 10
-336.57116700000006
 20
759.04994150000005
 11
-327.32116700000006
 21
759.04994150000005
  0
LINE
  8
_0-0_0
  6
CONTINUOUS
 62
    7
 10
-336.82116700000006
 20
758.82142650000003
 11
-336.57116700000006
 21
759.04994150000005
  0
LINE
  8
_0-0_0
  6
CONTINUOUS
 62
    7
 10
-336.82116700000006
 20
758.82142650000003
 11
-327.07116700000006
 21
758.82142650000003
  0
LINE
  8
_0-0_0
  6
CONTINUOUS
 62
    7
 10
-336.82116700000006
 20
759.21592650000002
 11
-336.57116700000006
 21
759.26939349999998
  0
LINE
  8
_0-0_0
  6
CONTINUOUS
 62
    7
 10
-336.57116700000006
 20
759.26939349999998
 11
-327.32116700000006
 21
759.26939349999998
  0
LINE
  8
_0-0_0
  6
CONTINUOUS
 62
    7
 10
-336.82116700000006
 20
759.0253755
 11
-336.57116700000006
 21
759.26939349999998
  0
LINE
  8
_0-0_0
  6
CONTINUOUS
 62
    7
 10
-336.82116700000006
 20
759.39094550000004
 11
-336.57116700000006
 21
759.47276250000004
  0
LINE
  8
_0-0_0
  6
CONTINUOUS
 62
    7
 10
-336.57116700000006
 20
759.47276250000004
 11
-327.32116700000006
 21
759.47276250000004
  0
LINE
  8
_0-0_0
  6
CONTINUOUS
 62
    7
 10
-336.82116700000006
 20
759.21592650000002
 11
-336.57116700000006
 21
759.47276250000004
  0
LINE
  8
_0-0_0
  6
CONTINUOUS
 62
    7
 10
-336.82116700000006
 20
759.54850750000003
 11
-336.57116700000006
 21
759.65779150000003
  0
LINE
  8
_0-0_0
  6
CONTINUOUS
 62
    7
 10
-336.57116700000006
 20
759.65779150000003
 11
-327.32116700000006
 21
759.65779150000003
  0
LINE
  8
_0-0_0
  6
CONTINUOUS
 62
    7
 10
-336.82116700000006
 20
759.39094550000004
 11
-336.57116700000006
 21
759.65779150000003
  0
LINE
  8
_0-0_0
  6
CONTINUOUS
 62
    7
 10
-336.82116700000006
 20
759.68696550000004
 11
-336.57116700000006
 21
759.82249449999995
  0
LINE
  8
_0-0_0
  6
CONTINUOUS
 62
    7
 10
-336.57116700000006
 20
759.82249449999995
 11
-327.32116700000006
 21
759.82249449999995
  0
LINE
  8
_0-0_0
  6
CONTINUOUS
 62
    7
 10
-336.82116700000006
 20
759.54850750000003
 11
-336.57116700000006
 21
759.82249449999995
  0
LINE
  8
_0-0_0
  6
CONTINUOUS
 62
    7
 10
-336.82116700000006
 20
759.80470249999996
 11
-336.57116700000006
 21
759.96501150000006
  0
LINE
  8
_0-0_0
  6
CONTINUOUS
 62
    7
 10
-336.57116700000006
 20
759.96501150000006
 11
-327.32116700000006
 21
759.96501150000006
  0
LINE
  8
_0-0_0
  6
CONTINUOUS
 62
    7
 10
-336.82116700000006
 20
759.68696550000004
 11
-336.57116700000006
 21
759.96501150000006
  0
LINE
  8
_0-0_0
  6
CONTINUOUS
 62
    7
 10
-336.82116700000006
 20
759.90049750000003
 11
-336.57116700000006
 21
760.08381650000001
  0
LINE
  8
_0-0_0
  6
CONTINUOUS
 62
    7
 10
-336.57116700000006
 20
760.08381650000001
 11
-327.32116700000006
 21
760.08381650000001
  0
LINE
  8
_0-0_0
  6
CONTINUOUS
 62
    7
 10
-336.82116700000006
 20
759.80470249999996
 11
-336.57116700000006
 21
760.08381650000001
  0
LINE
  8
_0-0_0
  6
CONTINUOUS
 62
    7
 10
-336.82116700000006
 20
759.97328149999998
 11
-336.57116700000006
 21
760.17759650000005
  0
LINE
  8
_0-0_0
  6
CONTINUOUS
 62
    7
 10
-336.57116700000006
 20
760.17759650000005
 11
-327.32116700000006
 21
760.17759650000005
  0
LINE
  8
_0-0_0
  6
CONTINUOUS
 62
    7
 10
-336.82116700000006
 20
759.90049750000003
 11
-336.57116700000006
 21
760.17759650000005
  0
LINE
  8
_0-0_0
  6
CONTINUOUS
 62
    7
 10
-336.82116700000006
 20
760.02223149999998
 11
-336.57116700000006
 21
760.24531549999995
  0
LINE
  8
_0-0_0
  6
CONTINUOUS
 62
    7
 10
-336.57116700000006
 20
760.24531549999995
 11
-327.32116700000006
 21
760.24531549999995
  0
LINE
  8
_0-0_0
  6
CONTINUOUS
 62
    7
 10
-336.82116700000006
 20
759.97328149999998
 11
-336.57116700000006
 21
760.24531549999995
  0
LINE
  8
_0-0_0
  6
CONTINUOUS
 62
    7
 10
-336.82116700000006
 20
760.04685949999998
 11
-336.57116700000006
 21
760.28623949999997
  0
LINE
  8
_0-0_0
  6
CONTINUOUS
 62
    7
 10
-336.57116700000006
 20
760.28623949999997
 11
-327.32116700000006
 21
760.28623949999997
  0
LINE
  8
_0-0_0
  6
CONTINUOUS
 62
    7
 10
-336.82116700000006
 20
760.02223149999998
 11
-336.57116700000006
 21
760.28623949999997
  0
LINE
  8
_0-0_0
  6
CONTINUOUS
 62
    7
 10
-336.57116700000006
 20
760.29994150000005
 11
-327.32116700000006
 21
760.29994150000005
  0
LINE
  8
_0-0_0
  6
CONTINUOUS
 62
    7
 10
-336.82116700000006
 20
760.04685949999998
 11
-336.57116700000006
 21
760.29994150000005
  0
LINE
  8
_0-0_0
  6
CONTINUOUS
 62
    7
 10
-336.82116700000006
 20
755.55302449999999
 11
-336.57116700000006
 21
755.29994150000005
  0
LINE
  8
_0-0_0
  6
CONTINUOUS
 62
    7
 10
-336.57116700000006
 20
755.29994150000005
 11
-327.32116700000006
 21
755.29994150000005
  0
LINE
  8
_0-0_0
  6
CONTINUOUS
 62
    7
 10
-336.82116700000006
 20
755.5776515
 11
-336.57116700000006
 21
755.31364450000001
  0
LINE
  8
_0-0_0
  6
CONTINUOUS
 62
    7
 10
-336.57116700000006
 20
755.31364450000001
 11
-327.32116700000006
 21
755.31364450000001
  0
LINE
  8
_0-0_0
  6
CONTINUOUS
 62
    7
 10
-336.82116700000006
 20
755.55302449999999
 11
-336.57116700000006
 21
755.31364450000001
  0
LINE
  8
_0-0_0
  6
CONTINUOUS
 62
    7
 10
-336.82116700000006
 20
755.62660249999999
 11
-336.57116700000006
 21
755.35456850000003
  0
LINE
  8
_0-0_0
  6
CONTINUOUS
 62
    7
 10
-336.57116700000006
 20
755.35456850000003
 11
-327.32116700000006
 21
755.35456850000003
  0
LINE
  8
_0-0_0
  6
CONTINUOUS
 62
    7
 10
-336.82116700000006
 20
755.5776515
 11
-336.57116700000006
 21
755.35456850000003
  0
LINE
  8
_0-0_0
  6
CONTINUOUS
 62
    7
 10
-336.82116700000006
 20
755.69938650000006
 11
-336.57116700000006
 21
755.42228650000004
  0
LINE
  8
_0-0_0
  6
CONTINUOUS
 62
    7
 10
-336.57116700000006
 20
755.42228650000004
 11
-327.32116700000006
 21
755.42228650000004
  0
LINE
  8
_0-0_0
  6
CONTINUOUS
 62
    7
 10
-336.82116700000006
 20
755.62660249999999
 11
-336.57116700000006
 21
755.42228650000004
  0
LINE
  8
_0-0_0
  6
CONTINUOUS
 62
    7
 10
-336.82116700000006
 20
755.79518150000001
 11
-336.57116700000006
 21
755.51606749999996
  0
LINE
  8
_0-0_0
  6
CONTINUOUS
 62
    7
 10
-336.57116700000006
 20
755.51606749999996
 11
-327.32116700000006
 21
755.51606749999996
  0
LINE
  8
_0-0_0
  6
CONTINUOUS
 62
    7
 10
-336.82116700000006
 20
755.69938650000006
 11
-336.57116700000006
 21
755.51606749999996
  0
LINE
  8
_0-0_0
  6
CONTINUOUS
 62
    7
 10
-336.57116700000006
 20
755.63487250000003
 11
-327.32116700000006
 21
755.63487250000003
  0
LINE
  8
_0-0_0
  6
CONTINUOUS
 62
    7
 10
-336.69122300000004
 20
755.71131849999995
 11
-336.57116700000006
 21
755.63487250000003
  0
LINE
  8
_0-0_0
  6
CONTINUOUS
 62
    7
 10
-336.82116700000006
 20
755.79518150000001
 11
-336.69122300000004
 21
755.71131849999995
  0
LINE
  8
_0-0_0
  6
CONTINUOUS
 62
    7
 10
-336.82116700000006
 20
755.91291750000005
 11
-336.57116700000006
 21
755.63487250000003
  0
LINE
  8
_0-0_0
  6
CONTINUOUS
 62
    7
 10
-336.82116700000006
 20
756.05137649999995
 11
-336.57116700000006
 21
755.77738950000003
  0
LINE
  8
_0-0_0
  6
CONTINUOUS
 62
    7
 10
-336.57116700000006
 20
755.77738950000003
 11
-327.32116700000006
 21
755.77738950000003
  0
LINE
  8
_0-0_0
  6
CONTINUOUS
 62
    7
 10
-336.82116700000006
 20
755.91291750000005
 11
-336.57116700000006
 21
755.77738950000003
  0
LINE
  8
_0-0_0
  6
CONTINUOUS
 62
    7
 10
-336.82116700000006
 20
756.20896849999997
 11
-336.57116700000006
 21
755.94209250000006
  0
LINE
  8
_0-0_0
  6
CONTINUOUS
 62
    7
 10
-336.57116700000006
 20
755.94209250000006
 11
-327.32116700000006
 21
755.94209250000006
  0
LINE
  8
_0-0_0
  6
CONTINUOUS
 62
    7
 10
-336.82116700000006
 20
756.05137649999995
 11
-336.57116700000006
 21
755.94209250000006
  0
LINE
  8
_0-0_0
  6
CONTINUOUS
 62
    7
 10
-336.82116700000006
 20
756.38398749999999
 11
-336.57116700000006
 21
756.12712050000005
  0
LINE
  8
_0-0_0
  6
CONTINUOUS
 62
    7
 10
-336.57116700000006
 20
756.12712050000005
 11
-327.32116700000006
 21
756.12712050000005
  0
LINE
  8
_0-0_0
  6
CONTINUOUS
 62
    7
 10
-336.82116700000006
 20
756.20896849999997
 11
-336.57116700000006
 21
756.12712050000005
  0
LINE
  8
_0-0_0
  6
CONTINUOUS
 62
    7
 10
-336.82116700000006
 20
756.57450849999998
 11
-336.57116700000006
 21
756.3304895
  0
LINE
  8
_0-0_0
  6
CONTINUOUS
 62
    7
 10
-336.57116700000006
 20
756.3304895
 11
-327.32116700000006
 21
756.3304895
  0
LINE
  8
_0-0_0
  6
CONTINUOUS
 62
    7
 10
-336.82116700000006
 20
756.38398749999999
 11
-336.57116700000006
 21
756.3304895
  0
LINE
  8
_0-0_0
  6
CONTINUOUS
 62
    7
 10
-336.82116700000006
 20
756.77845750000006
 11
-336.57116700000006
 21
756.54994150000005
  0
LINE
  8
_0-0_0
  6
CONTINUOUS
 62
    7
 10
-336.57116700000006
 20
756.54994150000005
 11
-327.32116700000006
 21
756.54994150000005
  0
LINE
  8
_0-0_0
  6
CONTINUOUS
 62
    7
 10
-336.82116700000006
 20
756.77845750000006
 11
-327.07116700000006
 21
756.77845750000006
  0
LINE
  8
_0-0_0
  6
CONTINUOUS
 62
    7
 10
-336.82116700000006
 20
756.57450849999998
 11
-336.57116700000006
 21
756.54994150000005
  0
LINE
  8
_0-0_0
  6
CONTINUOUS
 62
    7
 10
-336.82116700000006
 20
756.99360650000006
 11
-336.57116700000006
 21
756.78309650000006
  0
LINE
  8
_0-0_0
  6
CONTINUOUS
 62
    7
 10
-336.57116700000006
 20
756.78309650000006
 11
-327.32116700000006
 21
756.78309650000006
  0
LINE
  8
_0-0_0
  6
CONTINUOUS
 62
    7
 10
-336.82116700000006
 20
756.99360650000006
 11
-327.07116700000006
 21
756.99360650000006
  0
LINE
  8
_0-0_0
  6
CONTINUOUS
 62
    7
 10
-336.82116700000006
 20
756.77845750000006
 11
-336.57116700000006
 21
756.78309650000006
  0
LINE
  8
_0-0_0
  6
CONTINUOUS
 62
    7
 10
-336.82116700000006
 20
757.21760549999999
 11
-336.57116700000006
 21
757.02738950000003
  0
LINE
  8
_0-0_0
  6
CONTINUOUS
 62
    7
 10
-336.57116700000006
 20
757.02738950000003
 11
-327.32116700000006
 21
757.02738950000003
  0
LINE
  8
_0-0_0
  6
CONTINUOUS
 62
    7
 10
-336.82116700000006
 20
757.21760549999999
 11
-327.07116700000006
 21
757.21760549999999
  0
LINE
  8
_0-0_0
  6
CONTINUOUS
 62
    7
 10
-336.82116700000006
 20
756.99360650000006
 11
-336.57116700000006
 21
757.02738950000003
  0
LINE
  8
_0-0_0
  6
CONTINUOUS
 62
    7
 10
-336.82116700000006
 20
757.44795250000004
 11
-336.57116700000006
 21
757.28016649999995
  0
LINE
  8
_0-0_0
  6
CONTINUOUS
 62
    7
 10
-336.57116700000006
 20
757.28016649999995
 11
-327.32116700000006
 21
757.28016649999995
  0
LINE
  8
_0-0_0
  6
CONTINUOUS
 62
    7
 10
-336.82116700000006
 20
757.44795250000004
 11
-327.07116700000006
 21
757.44795250000004
  0
LINE
  8
_0-0_0
  6
CONTINUOUS
 62
    7
 10
-336.82116700000006
 20
757.21760549999999
 11
-336.57116700000006
 21
757.28016649999995
  0
LINE
  8
_0-0_0
  6
CONTINUOUS
 62
    7
 10
-336.82116700000006
 20
757.68217449999997
 11
-336.57116700000006
 21
757.53861949999998
  0
LINE
  8
_0-0_0
  6
CONTINUOUS
 62
    7
 10
-336.57116700000006
 20
757.53861949999998
 11
-327.32116700000006
 21
757.53861949999998
  0
LINE
  8
_0-0_0
  6
CONTINUOUS
 62
    7
 10
-336.82116700000006
 20
757.68217449999997
 11
-327.07116700000006
 21
757.68217449999997
  0
LINE
  8
_0-0_0
  6
CONTINUOUS
 62
    7
 10
-336.82116700000006
 20
757.44795250000004
 11
-336.57116700000006
 21
757.53861949999998
  0
LINE
  8
_0-0_0
  6
CONTINUOUS
 62
    7
 10
-336.82116700000006
 20
757.9177095
 11
-336.57116700000006
 21
757.79994150000005
  0
LINE
  8
_0-0_0
  6
CONTINUOUS
 62
    7
 10
-336.57116700000006
 20
757.79994150000005
 11
-327.32116700000006
 21
757.79994150000005
  0
LINE
  8
_0-0_0
  6
CONTINUOUS
 62
    7
 10
-336.82116700000006
 20
757.9177095
 11
-327.07116700000006
 21
757.9177095
  0
LINE
  8
_0-0_0
  6
CONTINUOUS
 62
    7
 10
-336.82116700000006
 20
757.68217449999997
 11
-336.57116700000006
 21
757.79994150000005
  0
LINE
  8
_0-0_0
  6
CONTINUOUS
 62
    7
 10
-336.82116700000006
 20
758.15193150000005
 11
-336.57116700000006
 21
758.0612635
  0
LINE
  8
_0-0_0
  6
CONTINUOUS
 62
    7
 10
-336.57116700000006
 20
758.0612635
 11
-327.32116700000006
 21
758.0612635
  0
LINE
  8
_0-0_0
  6
CONTINUOUS
 62
    7
 10
-336.82116700000006
 20
758.15193150000005
 11
-327.07116700000006
 21
758.15193150000005
  0
LINE
  8
_0-0_0
  6
CONTINUOUS
 62
    7
 10
-336.82116700000006
 20
757.9177095
 11
-336.57116700000006
 21
758.0612635
  0
LINE
  8
_0-0_0
  6
CONTINUOUS
 62
    7
 10
-336.82116700000006
 20
758.38227849999998
 11
-336.57116700000006
 21
758.31971750000002
  0
LINE
  8
_0-0_0
  6
CONTINUOUS
 62
    7
 10
-336.57116700000006
 20
758.31971750000002
 11
-327.32116700000006
 21
758.31971750000002
  0
LINE
  8
_0-0_0
  6
CONTINUOUS
 62
    7
 10
-336.82116700000006
 20
758.38227849999998
 11
-327.07116700000006
 21
758.38227849999998
  0
LINE
  8
_0-0_0
  6
CONTINUOUS
 62
    7
 10
-336.82116700000006
 20
758.15193150000005
 11
-336.57116700000006
 21
758.31971750000002
  0
LINE
  8
_0-0_0
  6
CONTINUOUS
 62
    7
 10
-336.82116700000006
 20
758.60627750000003
 11
-336.57116700000006
 21
758.57249449999995
  0
LINE
  8
_0-0_0
  6
CONTINUOUS
 62
    7
 10
-336.57116700000006
 20
758.57249449999995
 11
-327.32116700000006
 21
758.57249449999995
  0
LINE
  8
_0-0_0
  6
CONTINUOUS
 62
    7
 10
-336.82116700000006
 20
758.60627750000003
 11
-327.07116700000006
 21
758.60627750000003
  0
LINE
  8
_0-0_0
  6
CONTINUOUS
 62
    7
 10
-336.82116700000006
 20
758.38227849999998
 11
-336.57116700000006
 21
758.57249449999995
  0
LINE
  8
_0-0_0
  6
CONTINUOUS
 62
    7
 10
-336.82116700000006
 20
758.82142650000003
 11
-336.57116700000006
 21
758.81678750000003
  0
LINE
  8
_0-0_0
  6
CONTINUOUS
 62
    7
 10
-336.57116700000006
 20
758.81678750000003
 11
-327.32116700000006
 21
758.81678750000003
  0
LINE
  8
_0-0_0
  6
CONTINUOUS
 62
    7
 10
-336.82116700000006
 20
758.60627750000003
 11
-336.57116700000006
 21
758.81678750000003
  0
LINE
  8
_0-0_0
  6
CONTINUOUS
 62
    7
 10
-337.07116700000006
 20
776.39994750000005
 11
-337.07116700000006
 21
772.6447905
  0
LINE
  8
_0-0_0
  6
CONTINUOUS
 62
    7
 10
-337.07116700000006
 20
772.6447905
 11
-337.07116700000006
 21
772.39994750000005
  0
LINE
  8
_0-0_0
  6
CONTINUOUS
 62
    7
 10
-337.07116700000006
 20
759.79994150000005
 11
-337.07116700000006
 21
756.04478449999999
  0
LINE
  8
_0-0_0
  6
CONTINUOUS
 62
    7
 10
-337.07116700000006
 20
756.04478449999999
 11
-337.07116700000006
 21
755.79994150000005
  0
LINE
  8
_0-0_0
  6
CONTINUOUS
 62
    7
 10
-323.47119100000009
 20
771.09992950000003
 11
-323.47119100000009
 21
768.59992950000003
  0
LINE
  8
_0-0_0
  6
CONTINUOUS
 62
    7
 10
-323.47119100000009
 20
768.59992950000003
 11
-323.47119100000009
 21
761.09992950000003
  0
LINE
  8
_0-0_0
  6
CONTINUOUS
 62
    7
 10
-324.27117899999985
 20
770.63807650000001
 11
-324.27117899999985
 21
768.36900349999996
  0
LINE
  8
_0-0_0
  6
CONTINUOUS
 62
    7
 10
-324.27117899999985
 20
768.36900349999996
 11
-324.27117899999985
 21
761.56181349999997
  0
LINE
  8
_0-0_0
  6
CONTINUOUS
 62
    7
 10
-382.27117899999985
 20
770.09992950000003
 11
-382.27117899999985
 21
770.09858650000001
  0
LINE
  8
_0-0_0
  6
CONTINUOUS
 62
    7
 10
-382.27117899999985
 20
770.09858650000001
 11
-382.27117899999985
 21
762.09992950000003
  0
LINE
  8
_0-0_0
  6
CONTINUOUS
 62
    7
 10
-301.07116700000006
 20
776.64994750000005
 11
-327.07116700000006
 21
776.64994750000005
  0
LINE
  8
_0-0_0
  6
CONTINUOUS
 62
    7
 10
-301.07116700000006
 20
772.14994750000005
 11
-327.07116700000006
 21
772.14994750000005
  0
LINE
  8
_0-0_0
  6
CONTINUOUS
 62
    7
 10
-322.27117899999985
 20
760.04994150000005
 11
-327.07116700000006
 21
760.04994150000005
  0
LINE
  8
_0-0_0
  6
CONTINUOUS
 62
    7
 10
-306.82119699999998
 20
755.54994150000005
 11
-327.07116700000006
 21
755.54994150000005
  0
LINE
  8
_0-0_0
  6
CONTINUOUS
 62
    7
 10
-327.07116700000006
 20
776.64994750000005
 11
-327.32116700000006
 21
776.89994750000005
  0
LINE
  8
_0-0_0
  6
CONTINUOUS
 62
    7
 10
-327.07116700000006
 20
772.14994750000005
 11
-327.32116700000006
 21
771.89994750000005
  0
LINE
  8
_0-0_0
  6
CONTINUOUS
 62
    7
 10
-327.07116700000006
 20
760.04994150000005
 11
-327.32116700000006
 21
760.29994150000005
  0
LINE
  8
_0-0_0
  6
CONTINUOUS
 62
    7
 10
-327.07116700000006
 20
755.54994150000005
 11
-327.32116700000006
 21
755.29994150000005
  0
LINE
  8
_0-0_0
  6
CONTINUOUS
 62
    7
 10
-323.07116700000006
 20
771.34992950000003
 11
-322.27117899999985
 21
772.14994750000005
  0
LINE
  8
_0-0_0
  6
CONTINUOUS
 62
    7
 10
-323.07116700000006
 20
760.84992950000003
 11
-321.82116700000006
 21
759.59992950000003
  0
LINE
  8
_0-0_0
  6
CONTINUOUS
 62
    7
 10
-337.07116700000006
 20
776.39994750000005
 11
-336.57132000000001
 21
776.89979549999998
  0
LINE
  8
_0-0_0
  6
CONTINUOUS
 62
    7
 10
-337.07116700000006
 20
772.39994750000005
 11
-336.57132000000001
 21
771.90010050000001
  0
LINE
  8
_0-0_0
  6
CONTINUOUS
 62
    7
 10
-337.07116700000006
 20
759.79994150000005
 11
-336.57132000000001
 21
760.29978949999997
  0
LINE
  8
_0-0_0
  6
CONTINUOUS
 62
    7
 10
-337.07116700000006
 20
755.79994150000005
 11
-336.57132000000001
 21
755.3000945
  0
LINE
  8
_0-0_0
  6
CONTINUOUS
 62
    7
 10
-323.07116700000006
 20
771.09992950000003
 11
-323.47119100000009
 21
771.09992950000003
  0
LINE
  8
_0-0_0
  6
CONTINUOUS
 62
    7
 10
-323.07116700000006
 20
761.09992950000003
 11
-323.47119100000009
 21
761.09992950000003
  0
LINE
  8
_0-0_0
  6
CONTINUOUS
 62
    7
 10
-324.27117899999985
 20
770.63807650000001
 11
-323.47119100000009
 21
771.09992950000003
  0
LINE
  8
_0-0_0
  6
CONTINUOUS
 62
    7
 10
-324.27117899999985
 20
761.56181349999997
 11
-323.47119100000009
 21
761.09992950000003
  0
LINE
  8
_0-0_0
  6
CONTINUOUS
 62
    7
 10
-324.27117899999985
 20
770.09992950000003
 11
-382.27117899999985
 21
770.09992950000003
  0
LINE
  8
_0-0_0
  6
CONTINUOUS
 62
    7
 10
-324.27117899999985
 20
762.09992950000003
 11
-382.27117899999985
 21
762.09992950000003
  0
ARC
  8
_0-0_0
  6
CONTINUOUS
 62
    7
 10
-307.57116700000006
 20
799.60002150000003
 40
8
 50
215.099627
 51
324.90037799999999
  0
LINE
  8
_0-0_0
  6
CONTINUOUS
 62
    7
 10
-316.57116700000006
 20
795.00001550000002
 11
-314.1163939999999
 21
795.00001550000002
  0
LINE
  8
_0-0_0
  6
CONTINUOUS
 62
    7
 10
-316.57116700000006
 20
781.80000250000001
 11
-316.57116700000006
 21
795.00001550000002
  0
LINE
  8
_0-0_0
  6
CONTINUOUS
 62
    7
 10
1656.4289549999999
 20
781.80000250000001
 11
1656.4289549999999
 21
795.00001550000002
  0
LINE
  8
_0-0_0
  6
CONTINUOUS
 62
    7
 10
1653.9741210000002
 20
795.00001550000002
 11
1656.4289549999999
 21
795.00001550000002
  0
ARC
  8
_0-0_0
  6
CONTINUOUS
 62
    7
 10
1647.4289549999999
 20
799.60002150000003
 40
8
 50
215.099627
 51
324.90037799999999
  0
LINE
  8
_0-0_0
  6
CONTINUOUS
 62
    7
 10
-301.02593999999999
 20
795.00001550000002
 11
1640.8835450000001
 21
795.00001550000002
  0
LINE
  8
_0-0_0
  6
CONTINUOUS
 62
    7
 10
-301.02593999999999
 20
795.00001550000002
 11
-300.93695099999991
 21
795.12931849999995
  0
LINE
  8
_0-0_0
  6
CONTINUOUS
 62
    7
 10
1640.8835450000001
 20
795.00001550000002
 11
1640.7946780000002
 21
795.12931849999995
  0
LINE
  8
_0-0_0
  6
CONTINUOUS
 62
    7
 10
1654.15625
 20
795.2707365
 11
1654.2377930000002
 21
795.40000950000001
  0
ARC
  8
_0-0_0
  6
CONTINUOUS
 62
    7
 10
1647.4289549999999
 20
799.60002150000003
 40
8
 50
328.33175599999993
 51
334.05550899999992
  0
LINE
  8
_0-0_0
  6
CONTINUOUS
 62
    7
 10
1654.6225589999999
 20
796.10002150000003
 11
1654.7165530000002
 21
796.30000250000001
  0
LINE
  8
_0-0_0
  6
CONTINUOUS
 62
    7
 10
1654.7165530000002
 20
796.30000250000001
 11
1654.8039549999999
 21
796.50001550000002
  0
ARC
  8
_0-0_0
  6
CONTINUOUS
 62
    7
 10
1647.4289549999999
 20
799.60002150000003
 40
8
 50
337.20097500000003
 51
342.54240199999998
  0
LINE
  8
_0-0_0
  6
CONTINUOUS
 62
    7
 10
1655.0603030000002
 20
797.20002750000003
 11
1655.1203610000002
 21
797.40000950000001
  0
LINE
  8
_0-0_0
  6
CONTINUOUS
 62
    7
 10
1655.1203610000002
 20
797.40000950000001
 11
1655.1748050000001
 21
797.60002150000003
  0
ARC
  8
_0-0_0
  6
CONTINUOUS
 62
    7
 10
1647.4289549999999
 20
799.60002150000003
 40
8
 50
345.52249499999999
 51
350.64797900000002
  0
LINE
  8
_0-0_0
  6
CONTINUOUS
 62
    7
 10
1655.32251
 20
798.30000250000001
 11
1655.3530270000001
 21
798.50001550000002
  0
LINE
  8
_0-0_0
  6
CONTINUOUS
 62
    7
 10
1655.3530270000001
 20
798.50001550000002
 11
1655.3781739999999
 21
798.70002750000003
  0
ARC
  8
_0-0_0
  6
CONTINUOUS
 62
    7
 10
1647.4289549999999
 20
799.60002150000003
 40
8
 50
353.54056400000002
 51
358.56744600000002
  0
LINE
  8
_0-0_0
  6
CONTINUOUS
 62
    7
 10
1655.4265140000002
 20
799.40000950000001
 11
1655.4289549999999
 21
799.60002150000003
  0
LINE
  8
_0-0_0
  6
CONTINUOUS
 62
    7
 10
1639.4313969999998
 20
799.40000950000001
 11
1639.4289549999999
 21
799.60002150000003
  0
ARC
  8
_0-0_0
  6
CONTINUOUS
 62
    7
 10
1647.4289549999999
 20
799.60002150000003
 40
8
 50
181.432545
 51
186.45945499999999
  0
LINE
  8
_0-0_0
  6
CONTINUOUS
 62
    7
 10
1639.5048830000001
 20
798.50001550000002
 11
1639.4797360000002
 21
798.70002750000003
  0
LINE
  8
_0-0_0
  6
CONTINUOUS
 62
    7
 10
1639.5351559999999
 20
798.30000250000001
 11
1639.5048830000001
 21
798.50001550000002
  0
ARC
  8
_0-0_0
  6
CONTINUOUS
 62
    7
 10
1647.4289549999999
 20
799.60002150000003
 40
8
 50
189.35203999999999
 51
194.47751
  0
LINE
  8
_0-0_0
  6
CONTINUOUS
 62
    7
 10
1639.7373050000001
 20
797.40000950000001
 11
1639.6828610000002
 21
797.60002150000003
  0
LINE
  8
_0-0_0
  6
CONTINUOUS
 62
    7
 10
1639.7973630000001
 20
797.20002750000003
 11
1639.7373050000001
 21
797.40000950000001
  0
ARC
  8
_0-0_0
  6
CONTINUOUS
 62
    7
 10
1647.4289549999999
 20
799.60002150000003
 40
8
 50
197.45760300000001
 51
202.79902999999999
  0
LINE
  8
_0-0_0
  6
CONTINUOUS
 62
    7
 10
1640.1411130000001
 20
796.30000250000001
 11
1640.0539549999999
 21
796.50001550000002
  0
LINE
  8
_0-0_0
  6
CONTINUOUS
 62
    7
 10
1640.2351079999999
 20
796.10002150000003
 11
1640.1411130000001
 21
796.30000250000001
  0
ARC
  8
_0-0_0
  6
CONTINUOUS
 62
    7
 10
1647.4289549999999
 20
799.60002150000003
 40
8
 50
205.94448199999999
 51
211.66823500000001
  0
LINE
  8
_0-0_0
  6
CONTINUOUS
 62
    7
 10
1640.7016600000002
 20
795.2707365
 11
1640.6201169999999
 21
795.40000950000001
  0
LINE
  8
_0-0_0
  6
CONTINUOUS
 62
    7
 10
1640.7016600000002
 20
795.2707365
 11
1640.7946780000002
 21
795.12931849999995
  0
LINE
  8
_0-0_0
  6
CONTINUOUS
 62
    7
 10
1653.9741210000002
 20
795.00001550000002
 11
1654.0629880000001
 21
795.12931849999995
  0
LINE
  8
_0-0_0
  6
CONTINUOUS
 62
    7
 10
1654.15625
 20
795.2707365
 11
1654.0629880000001
 21
795.12931849999995
  0
LINE
  8
_0-0_0
  6
CONTINUOUS
 62
    7
 10
1656.4289549999999
 20
795.12931849999995
 11
1656.4289549999999
 21
795.00001550000002
  0
LINE
  8
_0-0_0
  6
CONTINUOUS
 62
    7
 10
1656.4289549999999
 20
803.92930550000005
 11
1656.4289549999999
 21
804.07072449999998
  0
LINE
  8
_0-0_0
  6
CONTINUOUS
 62
    7
 10
1656.4289549999999
 20
803.92930550000005
 11
1656.4289549999999
 21
803.80000250000001
  0
LINE
  8
_0-0_0
  6
CONTINUOUS
 62
    7
 10
1656.4289549999999
 20
803.10002150000003
 11
1656.4289549999999
 21
803.80000250000001
  0
LINE
  8
_0-0_0
  6
CONTINUOUS
 62
    7
 10
1656.4289549999999
 20
802.90000950000001
 11
1656.4289549999999
 21
803.10002150000003
  0
LINE
  8
_0-0_0
  6
CONTINUOUS
 62
    7
 10
1656.4289549999999
 20
802.90000950000001
 11
1656.4289549999999
 21
802.70002750000003
  0
LINE
  8
_0-0_0
  6
CONTINUOUS
 62
    7
 10
1656.4289549999999
 20
802.00001550000002
 11
1656.4289549999999
 21
802.70002750000003
  0
LINE
  8
_0-0_0
  6
CONTINUOUS
 62
    7
 10
1656.4289549999999
 20
801.80000250000001
 11
1656.4289549999999
 21
802.00001550000002
  0
LINE
  8
_0-0_0
  6
CONTINUOUS
 62
    7
 10
1656.4289549999999
 20
801.80000250000001
 11
1656.4289549999999
 21
801.60002150000003
  0
LINE
  8
_0-0_0
  6
CONTINUOUS
 62
    7
 10
1656.4289549999999
 20
800.90000950000001
 11
1656.4289549999999
 21
801.60002150000003
  0
LINE
  8
_0-0_0
  6
CONTINUOUS
 62
    7
 10
1656.4289549999999
 20
800.70002750000003
 11
1656.4289549999999
 21
800.90000950000001
  0
LINE
  8
_0-0_0
  6
CONTINUOUS
 62
    7
 10
1656.4289549999999
 20
800.70002750000003
 11
1656.4289549999999
 21
800.50001550000002
  0
LINE
  8
_0-0_0
  6
CONTINUOUS
 62
    7
 10
1656.4289549999999
 20
799.80000250000001
 11
1656.4289549999999
 21
800.50001550000002
  0
LINE
  8
_0-0_0
  6
CONTINUOUS
 62
    7
 10
1656.4289549999999
 20
799.60002150000003
 11
1656.4289549999999
 21
799.80000250000001
  0
LINE
  8
_0-0_0
  6
CONTINUOUS
 62
    7
 10
1656.4289549999999
 20
799.60002150000003
 11
1656.4289549999999
 21
799.40000950000001
  0
LINE
  8
_0-0_0
  6
CONTINUOUS
 62
    7
 10
1656.4289549999999
 20
798.70002750000003
 11
1656.4289549999999
 21
799.40000950000001
  0
LINE
  8
_0-0_0
  6
CONTINUOUS
 62
    7
 10
1656.4289549999999
 20
798.50001550000002
 11
1656.4289549999999
 21
798.70002750000003
  0
LINE
  8
_0-0_0
  6
CONTINUOUS
 62
    7
 10
1656.4289549999999
 20
798.50001550000002
 11
1656.4289549999999
 21
798.30000250000001
  0
LINE
  8
_0-0_0
  6
CONTINUOUS
 62
    7
 10
1656.4289549999999
 20
797.60002150000003
 11
1656.4289549999999
 21
798.30000250000001
  0
LINE
  8
_0-0_0
  6
CONTINUOUS
 62
    7
 10
1656.4289549999999
 20
797.40000950000001
 11
1656.4289549999999
 21
797.60002150000003
  0
LINE
  8
_0-0_0
  6
CONTINUOUS
 62
    7
 10
1656.4289549999999
 20
797.40000950000001
 11
1656.4289549999999
 21
797.20002750000003
  0
LINE
  8
_0-0_0
  6
CONTINUOUS
 62
    7
 10
1656.4289549999999
 20
796.50001550000002
 11
1656.4289549999999
 21
797.20002750000003
  0
LINE
  8
_0-0_0
  6
CONTINUOUS
 62
    7
 10
1656.4289549999999
 20
796.30000250000001
 11
1656.4289549999999
 21
796.50001550000002
  0
LINE
  8
_0-0_0
  6
CONTINUOUS
 62
    7
 10
1656.4289549999999
 20
796.30000250000001
 11
1656.4289549999999
 21
796.10002150000003
  0
LINE
  8
_0-0_0
  6
CONTINUOUS
 62
    7
 10
1656.4289549999999
 20
795.40000950000001
 11
1656.4289549999999
 21
796.10002150000003
  0
LINE
  8
_0-0_0
  6
CONTINUOUS
 62
    7
 10
1656.4289549999999
 20
795.2707365
 11
1656.4289549999999
 21
795.40000950000001
  0
LINE
  8
_0-0_0
  6
CONTINUOUS
 62
    7
 10
1656.4289549999999
 20
795.12931849999995
 11
1656.4289549999999
 21
795.2707365
  0
LINE
  8
_0-0_0
  6
CONTINUOUS
 62
    7
 10
1656.4289549999999
 20
781.30000250000001
 11
1656.4289549999999
 21
781.80000250000001
  0
LINE
  8
_0-0_0
  6
CONTINUOUS
 62
    7
 10
1656.4289549999999
 20
809.80000250000001
 11
1656.4289549999999
 21
809.20603949999997
  0
LINE
  8
_0-0_0
  6
CONTINUOUS
 62
    7
 10
1656.4289549999999
 20
804.20002750000003
 11
1656.4289549999999
 21
809.20603949999997
  0
LINE
  8
_0-0_0
  6
CONTINUOUS
 62
    7
 10
1656.4289549999999
 20
804.07072449999998
 11
1656.4289549999999
 21
804.20002750000003
  0
LINE
  8
_0-0_0
  6
CONTINUOUS
 62
    7
 10
-316.57116700000006
 20
781.30000250000001
 11
-316.57116700000006
 21
781.80000250000001
  0
LINE
  8
_0-0_0
  6
CONTINUOUS
 62
    7
 10
-316.57116700000006
 20
781.30000250000001
 11
1656.4289549999999
 21
781.30000250000001
  0
LINE
  8
_0-0_0
  6
CONTINUOUS
 62
    7
 10
-316.57116700000006
 20
795.12931849999995
 11
-316.57116700000006
 21
795.2707365
  0
LINE
  8
_0-0_0
  6
CONTINUOUS
 62
    7
 10
-316.57116700000006
 20
795.12931849999995
 11
-316.57116700000006
 21
795.00001550000002
  0
LINE
  8
_0-0_0
  6
CONTINUOUS
 62
    7
 10
-316.57116700000006
 20
809.80000250000001
 11
-316.57116700000006
 21
809.20603949999997
  0
LINE
  8
_0-0_0
  6
CONTINUOUS
 62
    7
 10
-316.57116700000006
 20
804.20002750000003
 11
-316.57116700000006
 21
809.20603949999997
  0
LINE
  8
_0-0_0
  6
CONTINUOUS
 62
    7
 10
-316.57116700000006
 20
804.07072449999998
 11
-316.57116700000006
 21
804.20002750000003
  0
LINE
  8
_0-0_0
  6
CONTINUOUS
 62
    7
 10
-316.57116700000006
 20
803.92930550000005
 11
-316.57116700000006
 21
804.07072449999998
  0
LINE
  8
_0-0_0
  6
CONTINUOUS
 62
    7
 10
-316.57116700000006
 20
803.92930550000005
 11
-316.57116700000006
 21
803.80000250000001
  0
LINE
  8
_0-0_0
  6
CONTINUOUS
 62
    7
 10
-316.57116700000006
 20
803.10002150000003
 11
-316.57116700000006
 21
803.80000250000001
  0
LINE
  8
_0-0_0
  6
CONTINUOUS
 62
    7
 10
-316.57116700000006
 20
802.97071849999998
 11
-316.57116700000006
 21
803.10002150000003
  0
LINE
  8
_0-0_0
  6
CONTINUOUS
 62
    7
 10
-316.57116700000006
 20
802.82929950000005
 11
-316.57116700000006
 21
802.97071849999998
  0
LINE
  8
_0-0_0
  6
CONTINUOUS
 62
    7
 10
-316.57116700000006
 20
802.82929950000005
 11
-316.57116700000006
 21
802.70002750000003
  0
LINE
  8
_0-0_0
  6
CONTINUOUS
 62
    7
 10
-316.57116700000006
 20
802.00001550000002
 11
-316.57116700000006
 21
802.70002750000003
  0
LINE
  8
_0-0_0
  6
CONTINUOUS
 62
    7
 10
-316.57116700000006
 20
801.87074250000001
 11
-316.57116700000006
 21
802.00001550000002
  0
LINE
  8
_0-0_0
  6
CONTINUOUS
 62
    7
 10
-316.57116700000006
 20
801.72929350000004
 11
-316.57116700000006
 21
801.87074250000001
  0
LINE
  8
_0-0_0
  6
CONTINUOUS
 62
    7
 10
-316.57116700000006
 20
801.72929350000004
 11
-316.57116700000006
 21
801.60002150000003
  0
LINE
  8
_0-0_0
  6
CONTINUOUS
 62
    7
 10
-316.57116700000006
 20
800.90000950000001
 11
-316.57116700000006
 21
801.60002150000003
  0
LINE
  8
_0-0_0
  6
CONTINUOUS
 62
    7
 10
-316.57116700000006
 20
800.7707365
 11
-316.57116700000006
 21
800.90000950000001
  0
LINE
  8
_0-0_0
  6
CONTINUOUS
 62
    7
 10
-316.57116700000006
 20
800.62931849999995
 11
-316.57116700000006
 21
800.7707365
  0
LINE
  8
_0-0_0
  6
CONTINUOUS
 62
    7
 10
-316.57116700000006
 20
800.62931849999995
 11
-316.57116700000006
 21
800.50001550000002
  0
LINE
  8
_0-0_0
  6
CONTINUOUS
 62
    7
 10
-316.57116700000006
 20
799.80000250000001
 11
-316.57116700000006
 21
800.50001550000002
  0
LINE
  8
_0-0_0
  6
CONTINUOUS
 62
    7
 10
-316.57116700000006
 20
799.67073049999999
 11
-316.57116700000006
 21
799.80000250000001
  0
LINE
  8
_0-0_0
  6
CONTINUOUS
 62
    7
 10
-316.57116700000006
 20
799.52931149999995
 11
-316.57116700000006
 21
799.67073049999999
  0
LINE
  8
_0-0_0
  6
CONTINUOUS
 62
    7
 10
-316.57116700000006
 20
799.52931149999995
 11
-316.57116700000006
 21
799.40000950000001
  0
LINE
  8
_0-0_0
  6
CONTINUOUS
 62
    7
 10
-316.57116700000006
 20
798.70002750000003
 11
-316.57116700000006
 21
799.40000950000001
  0
LINE
  8
_0-0_0
  6
CONTINUOUS
 62
    7
 10
-316.57116700000006
 20
798.57072449999998
 11
-316.57116700000006
 21
798.70002750000003
  0
LINE
  8
_0-0_0
  6
CONTINUOUS
 62
    7
 10
-316.57116700000006
 20
798.42930550000005
 11
-316.57116700000006
 21
798.57072449999998
  0
LINE
  8
_0-0_0
  6
CONTINUOUS
 62
    7
 10
-316.57116700000006
 20
798.42930550000005
 11
-316.57116700000006
 21
798.30000250000001
  0
LINE
  8
_0-0_0
  6
CONTINUOUS
 62
    7
 10
-316.57116700000006
 20
797.60002150000003
 11
-316.57116700000006
 21
798.30000250000001
  0
LINE
  8
_0-0_0
  6
CONTINUOUS
 62
    7
 10
-316.57116700000006
 20
797.47071849999998
 11
-316.57116700000006
 21
797.60002150000003
  0
LINE
  8
_0-0_0
  6
CONTINUOUS
 62
    7
 10
-316.57116700000006
 20
797.32929950000005
 11
-316.57116700000006
 21
797.47071849999998
  0
LINE
  8
_0-0_0
  6
CONTINUOUS
 62
    7
 10
-316.57116700000006
 20
797.32929950000005
 11
-316.57116700000006
 21
797.20002750000003
  0
LINE
  8
_0-0_0
  6
CONTINUOUS
 62
    7
 10
-316.57116700000006
 20
796.50001550000002
 11
-316.57116700000006
 21
797.20002750000003
  0
LINE
  8
_0-0_0
  6
CONTINUOUS
 62
    7
 10
-316.57116700000006
 20
796.37074250000001
 11
-316.57116700000006
 21
796.50001550000002
  0
LINE
  8
_0-0_0
  6
CONTINUOUS
 62
    7
 10
-316.57116700000006
 20
796.22929350000004
 11
-316.57116700000006
 21
796.37074250000001
  0
LINE
  8
_0-0_0
  6
CONTINUOUS
 62
    7
 10
-316.57116700000006
 20
796.22929350000004
 11
-316.57116700000006
 21
796.10002150000003
  0
LINE
  8
_0-0_0
  6
CONTINUOUS
 62
    7
 10
-316.57116700000006
 20
795.40000950000001
 11
-316.57116700000006
 21
796.10002150000003
  0
LINE
  8
_0-0_0
  6
CONTINUOUS
 62
    7
 10
-316.57116700000006
 20
795.2707365
 11
-316.57116700000006
 21
795.40000950000001
  0
LINE
  8
_0-0_0
  6
CONTINUOUS
 62
    7
 10
-314.1163939999999
 20
795.00001550000002
 11
-314.20538299999998
 21
795.12931849999995
  0
LINE
  8
_0-0_0
  6
CONTINUOUS
 62
    7
 10
-300.84381099999996
 20
795.2707365
 11
-300.93695099999991
 21
795.12931849999995
  0
LINE
  8
_0-0_0
  6
CONTINUOUS
 62
    7
 10
-300.84381099999996
 20
795.2707365
 11
-300.76235999999994
 21
795.40000950000001
  0
ARC
  8
_0-0_0
  6
CONTINUOUS
 62
    7
 10
-307.57116700000006
 20
799.60002150000003
 40
8
 50
328.33175599999993
 51
334.05550899999992
  0
LINE
  8
_0-0_0
  6
CONTINUOUS
 62
    7
 10
-300.37744100000009
 20
796.10002150000003
 11
-300.28350799999998
 21
796.30000250000001
  0
LINE
  8
_0-0_0
  6
CONTINUOUS
 62
    7
 10
-300.28350799999998
 20
796.30000250000001
 11
-300.19622800000002
 21
796.50001550000002
  0
ARC
  8
_0-0_0
  6
CONTINUOUS
 62
    7
 10
-307.57116700000006
 20
799.60002150000003
 40
8
 50
337.20097500000003
 51
342.54240199999998
  0
LINE
  8
_0-0_0
  6
CONTINUOUS
 62
    7
 10
-299.9396670000001
 20
797.20002750000003
 11
-299.879639
 21
797.40000950000001
  0
LINE
  8
_0-0_0
  6
CONTINUOUS
 62
    7
 10
-299.879639
 20
797.40000950000001
 11
-299.82519499999989
 21
797.60002150000003
  0
ARC
  8
_0-0_0
  6
CONTINUOUS
 62
    7
 10
-307.57116700000006
 20
799.60002150000003
 40
8
 50
345.52249499999999
 51
350.64797900000002
  0
LINE
  8
_0-0_0
  6
CONTINUOUS
 62
    7
 10
-299.67749000000003
 20
798.30000250000001
 11
-299.647156
 21
798.50001550000002
  0
LINE
  8
_0-0_0
  6
CONTINUOUS
 62
    7
 10
-299.647156
 20
798.50001550000002
 11
-299.62194799999997
 21
798.70002750000003
  0
ARC
  8
_0-0_0
  6
CONTINUOUS
 62
    7
 10
-307.57116700000006
 20
799.60002150000003
 40
8
 50
353.54056400000002
 51
358.56744600000002
  0
LINE
  8
_0-0_0
  6
CONTINUOUS
 62
    7
 10
-299.57366899999988
 20
799.40000950000001
 11
-299.57116700000006
 21
799.60002150000003
  0
LINE
  8
_0-0_0
  6
CONTINUOUS
 62
    7
 10
-315.57086200000003
 20
799.52931149999995
 11
-315.57116700000006
 21
799.60002150000003
  0
LINE
  8
_0-0_0
  6
CONTINUOUS
 62
    7
 10
-315.5686639999999
 20
799.40000950000001
 11
-315.57086200000003
 21
799.52931149999995
  0
ARC
  8
_0-0_0
  6
CONTINUOUS
 62
    7
 10
-307.57116700000006
 20
799.60002150000003
 40
8
 50
181.432545
 51
186.45945499999999
  0
LINE
  8
_0-0_0
  6
CONTINUOUS
 62
    7
 10
-315.50469999999996
 20
798.57072449999998
 11
-315.52038599999992
 21
798.70002750000003
  0
LINE
  8
_0-0_0
  6
CONTINUOUS
 62
    7
 10
-315.50469999999996
 20
798.57072449999998
 11
-315.48504600000001
 21
798.42930550000005
  0
LINE
  8
_0-0_0
  6
CONTINUOUS
 62
    7
 10
-315.46484400000008
 20
798.30000250000001
 11
-315.48504600000001
 21
798.42930550000005
  0
ARC
  8
_0-0_0
  6
CONTINUOUS
 62
    7
 10
-307.57116700000006
 20
799.60002150000003
 40
8
 50
189.35203999999999
 51
194.47751
  0
LINE
  8
_0-0_0
  6
CONTINUOUS
 62
    7
 10
-315.28259299999991
 20
797.47071849999998
 11
-315.317139
 21
797.60002150000003
  0
LINE
  8
_0-0_0
  6
CONTINUOUS
 62
    7
 10
-315.28259299999991
 20
797.47071849999998
 11
-315.24215699999991
 21
797.32929950000005
  0
LINE
  8
_0-0_0
  6
CONTINUOUS
 62
    7
 10
-315.20269800000005
 20
797.20002750000003
 11
-315.24215699999991
 21
797.32929950000005
  0
ARC
  8
_0-0_0
  6
CONTINUOUS
 62
    7
 10
-307.57116700000006
 20
799.60002150000003
 40
8
 50
197.45760300000001
 51
202.79902999999999
  0
LINE
  8
_0-0_0
  6
CONTINUOUS
 62
    7
 10
-314.89044199999989
 20
796.37074250000001
 11
-314.94613600000002
 21
796.50001550000002
  0
LINE
  8
_0-0_0
  6
CONTINUOUS
 62
    7
 10
-314.89044199999989
 20
796.37074250000001
 11
-314.82641599999988
 21
796.22929350000004
  0
LINE
  8
_0-0_0
  6
CONTINUOUS
 62
    7
 10
-314.76492299999995
 20
796.10002150000003
 11
-314.82641599999988
 21
796.22929350000004
  0
ARC
  8
_0-0_0
  6
CONTINUOUS
 62
    7
 10
-307.57116700000006
 20
799.60002150000003
 40
8
 50
205.94448199999999
 51
211.66823500000001
  0
LINE
  8
_0-0_0
  6
CONTINUOUS
 62
    7
 10
-314.29852299999993
 20
795.2707365
 11
-314.38000499999998
 21
795.40000950000001
  0
LINE
  8
_0-0_0
  6
CONTINUOUS
 62
    7
 10
-314.29852299999993
 20
795.2707365
 11
-314.20538299999998
 21
795.12931849999995
  0
LINE
  8
_0-0_0
  6
CONTINUOUS
 62
    7
 10
1590.4288329999999
 20
787.30000250000001
 11
1597.4288329999999
 21
787.30000250000001
  0
ARC
  8
_0-0_0
  6
CONTINUOUS
 62
    7
 10
1590.4288329999999
 20
786.80000250000001
 40
0.5
 50
90.000003000000007
 51
180.00000900000001
  0
LINE
  8
_0-0_0
  6
CONTINUOUS
 62
    7
 10
1589.9288329999999
 20
786.80000250000001
 11
1589.9288329999999
 21
782.80000250000001
  0
ARC
  8
_0-0_0
  6
CONTINUOUS
 62
    7
 10
1590.4288329999999
 20
782.80000250000001
 40
0.5
 50
180.00000900000003
 51
269.99999700000001
  0
LINE
  8
_0-0_0
  6
CONTINUOUS
 62
    7
 10
1597.4288329999999
 20
782.30000250000001
 11
1590.4288329999999
 21
782.30000250000001
  0
ARC
  8
_0-0_0
  6
CONTINUOUS
 62
    7
 10
1597.4288329999999
 20
782.80000250000001
 40
0.5
 50
269.99999700000001
 51
0
  0
LINE
  8
_0-0_0
  6
CONTINUOUS
 62
    7
 10
1597.9288329999999
 20
782.80000250000001
 11
1597.9288329999999
 21
786.80000250000001
  0
ARC
  8
_0-0_0
  6
CONTINUOUS
 62
    7
 10
1597.4288329999999
 20
786.80000250000001
 40
0.5
 50
0
 51
90.000003000000007
  0
ARC
  8
_0-0_0
  6
CONTINUOUS
 62
    7
 10
-249.57116700000006
 20
786.80000250000001
 40
0.5
 50
90.000003000000007
 51
180.00000900000001
  0
LINE
  8
_0-0_0
  6
CONTINUOUS
 62
    7
 10
-250.07116700000006
 20
786.80000250000001
 11
-250.07116700000006
 21
782.80000250000001
  0
ARC
  8
_0-0_0
  6
CONTINUOUS
 62
    7
 10
-249.57116700000006
 20
782.80000250000001
 40
0.5
 50
180.00000900000003
 51
269.99999700000001
  0
LINE
  8
_0-0_0
  6
CONTINUOUS
 62
    7
 10
-242.57116700000006
 20
782.30000250000001
 11
-249.57116700000006
 21
782.30000250000001
  0
ARC
  8
_0-0_0
  6
CONTINUOUS
 62
    7
 10
-242.57116700000006
 20
782.80000250000001
 40
0.5
 50
269.99999700000001
 51
0
  0
LINE
  8
_0-0_0
  6
CONTINUOUS
 62
    7
 10
-242.07116700000006
 20
782.80000250000001
 11
-242.07116700000006
 21
786.80000250000001
  0
ARC
  8
_0-0_0
  6
CONTINUOUS
 62
    7
 10
-242.57116700000006
 20
786.80000250000001
 40
0.5
 50
0
 51
90.000003000000007
  0
LINE
  8
_0-0_0
  6
CONTINUOUS
 62
    7
 10
-249.57116700000006
 20
787.30000250000001
 11
-242.57116700000006
 21
787.30000250000001
  0
LINE
  8
_0-0_0
  6
CONTINUOUS
 62
    7
 10
-300.76235999999994
 20
795.40000950000001
 11
1640.6201169999999
 21
795.40000950000001
  0
LINE
  8
_0-0_0
  6
CONTINUOUS
 62
    7
 10
-300.37744100000009
 20
796.10002150000003
 11
1640.2351079999999
 21
796.10002150000003
  0
LINE
  8
_0-0_0
  6
CONTINUOUS
 62
    7
 10
-300.28350799999998
 20
796.30000250000001
 11
1640.1411130000001
 21
796.30000250000001
  0
LINE
  8
_0-0_0
  6
CONTINUOUS
 62
    7
 10
-300.19622800000002
 20
796.50001550000002
 11
1640.0539549999999
 21
796.50001550000002
  0
LINE
  8
_0-0_0
  6
CONTINUOUS
 62
    7
 10
-299.9396670000001
 20
797.20002750000003
 11
1639.7973630000001
 21
797.20002750000003
  0
LINE
  8
_0-0_0
  6
CONTINUOUS
 62
    7
 10
-299.879639
 20
797.40000950000001
 11
1639.7373050000001
 21
797.40000950000001
  0
LINE
  8
_0-0_0
  6
CONTINUOUS
 62
    7
 10
-299.82519499999989
 20
797.60002150000003
 11
1639.6828610000002
 21
797.60002150000003
  0
LINE
  8
_0-0_0
  6
CONTINUOUS
 62
    7
 10
-299.67749000000003
 20
798.30000250000001
 11
1639.5351559999999
 21
798.30000250000001
  0
LINE
  8
_0-0_0
  6
CONTINUOUS
 62
    7
 10
-299.647156
 20
798.50001550000002
 11
1639.5048830000001
 21
798.50001550000002
  0
LINE
  8
_0-0_0
  6
CONTINUOUS
 62
    7
 10
-299.62194799999997
 20
798.70002750000003
 11
1639.4797360000002
 21
798.70002750000003
  0
LINE
  8
_0-0_0
  6
CONTINUOUS
 62
    7
 10
-299.57366899999988
 20
799.40000950000001
 11
1639.4313969999998
 21
799.40000950000001
  0
LINE
  8
_0-0_0
  6
CONTINUOUS
 62
    7
 10
-299.57116700000006
 20
799.60002150000003
 11
1639.4289549999999
 21
799.60002150000003
  0
LINE
  8
_0-0_0
  6
CONTINUOUS
 62
    7
 10
1653.9741210000002
 20
804.20002750000003
 11
1654.0629880000001
 21
804.07072449999998
  0
ARC
  8
_0-0_0
  6
CONTINUOUS
 62
    7
 10
1647.4289549999999
 20
799.60002150000003
 40
8
 50
35.099632
 51
144.900373
  0
LINE
  8
_0-0_0
  6
CONTINUOUS
 62
    7
 10
1640.8835450000001
 20
804.20002750000003
 11
1640.7946780000002
 21
804.07072449999998
  0
LINE
  8
_0-0_0
  6
CONTINUOUS
 62
    7
 10
1640.7016600000002
 20
803.92930550000005
 11
1640.7946780000002
 21
804.07072449999998
  0
LINE
  8
_0-0_0
  6
CONTINUOUS
 62
    7
 10
1640.7016600000002
 20
803.92930550000005
 11
1640.6201169999999
 21
803.80000250000001
  0
ARC
  8
_0-0_0
  6
CONTINUOUS
 62
    7
 10
1647.4289549999999
 20
799.60002150000003
 40
8
 50
148.33176499999999
 51
154.05551800000001
  0
LINE
  8
_0-0_0
  6
CONTINUOUS
 62
    7
 10
1640.2351079999999
 20
803.10002150000003
 11
1640.1411130000001
 21
802.90000950000001
  0
LINE
  8
_0-0_0
  6
CONTINUOUS
 62
    7
 10
1640.1411130000001
 20
802.90000950000001
 11
1640.0539549999999
 21
802.70002750000003
  0
ARC
  8
_0-0_0
  6
CONTINUOUS
 62
    7
 10
1647.4289549999999
 20
799.60002150000003
 40
8
 50
157.20097000000001
 51
162.54239699999999
  0
LINE
  8
_0-0_0
  6
CONTINUOUS
 62
    7
 10
1639.7973630000001
 20
802.00001550000002
 11
1639.7373050000001
 21
801.80000250000001
  0
LINE
  8
_0-0_0
  6
CONTINUOUS
 62
    7
 10
1639.7373050000001
 20
801.80000250000001
 11
1639.6828610000002
 21
801.60002150000003
  0
ARC
  8
_0-0_0
  6
CONTINUOUS
 62
    7
 10
1647.4289549999999
 20
799.60002150000003
 40
8
 50
165.52249
 51
170.64796000000001
  0
LINE
  8
_0-0_0
  6
CONTINUOUS
 62
    7
 10
1639.5351559999999
 20
800.90000950000001
 11
1639.5048830000001
 21
800.70002750000003
  0
LINE
  8
_0-0_0
  6
CONTINUOUS
 62
    7
 10
1639.5048830000001
 20
800.70002750000003
 11
1639.4797360000002
 21
800.50001550000002
  0
ARC
  8
_0-0_0
  6
CONTINUOUS
 62
    7
 10
1647.4289549999999
 20
799.60002150000003
 40
8
 50
173.54054500000001
 51
178.567455
  0
LINE
  8
_0-0_0
  6
CONTINUOUS
 62
    7
 10
1639.4313969999998
 20
799.80000250000001
 11
1639.4289549999999
 21
799.60002150000003
  0
LINE
  8
_0-0_0
  6
CONTINUOUS
 62
    7
 10
1655.4265140000002
 20
799.80000250000001
 11
1655.4289549999999
 21
799.60002150000003
  0
ARC
  8
_0-0_0
  6
CONTINUOUS
 62
    7
 10
1647.4289549999999
 20
799.60002150000003
 40
8
 50
1.432544
 51
6.4594489999999993
  0
LINE
  8
_0-0_0
  6
CONTINUOUS
 62
    7
 10
1655.3530270000001
 20
800.70002750000003
 11
1655.3781739999999
 21
800.50001550000002
  0
LINE
  8
_0-0_0
  6
CONTINUOUS
 62
    7
 10
1655.32251
 20
800.90000950000001
 11
1655.3530270000001
 21
800.70002750000003
  0
ARC
  8
_0-0_0
  6
CONTINUOUS
 62
    7
 10
1647.4289549999999
 20
799.60002150000003
 40
8
 50
9.3520350000000008
 51
14.477510999999998
  0
LINE
  8
_0-0_0
  6
CONTINUOUS
 62
    7
 10
1655.1203610000002
 20
801.80000250000001
 11
1655.1748050000001
 21
801.60002150000003
  0
LINE
  8
_0-0_0
  6
CONTINUOUS
 62
    7
 10
1655.0603030000002
 20
802.00001550000002
 11
1655.1203610000002
 21
801.80000250000001
  0
ARC
  8
_0-0_0
  6
CONTINUOUS
 62
    7
 10
1647.4289549999999
 20
799.60002150000003
 40
8
 50
17.457602999999999
 51
22.799030999999999
  0
LINE
  8
_0-0_0
  6
CONTINUOUS
 62
    7
 10
1654.7165530000002
 20
802.90000950000001
 11
1654.8039549999999
 21
802.70002750000003
  0
LINE
  8
_0-0_0
  6
CONTINUOUS
 62
    7
 10
1654.6225589999999
 20
803.10002150000003
 11
1654.7165530000002
 21
802.90000950000001
  0
ARC
  8
_0-0_0
  6
CONTINUOUS
 62
    7
 10
1647.4289549999999
 20
799.60002150000003
 40
8
 50
25.944476999999999
 51
31.668240000000001
  0
LINE
  8
_0-0_0
  6
CONTINUOUS
 62
    7
 10
1654.15625
 20
803.92930550000005
 11
1654.2377930000002
 21
803.80000250000001
  0
LINE
  8
_0-0_0
  6
CONTINUOUS
 62
    7
 10
1654.15625
 20
803.92930550000005
 11
1654.0629880000001
 21
804.07072449999998
  0
CIRCLE
  8
_0-0_0
  6
CONTINUOUS
 62
    7
 10
1647.4289549999999
 20
799.60002150000003
 40
7.5
  0
LINE
  8
_0-0_0
  6
CONTINUOUS
 62
    7
 10
1655.4265140000002
 20
799.40000950000001
 11
1656.4289549999999
 21
799.40000950000001
  0
LINE
  8
_0-0_0
  6
CONTINUOUS
 62
    7
 10
1655.4289549999999
 20
799.60002150000003
 11
1656.4289549999999
 21
799.60002150000003
  0
LINE
  8
_0-0_0
  6
CONTINUOUS
 62
    7
 10
1655.3781739999999
 20
798.70002750000003
 11
1656.4289549999999
 21
798.70002750000003
  0
LINE
  8
_0-0_0
  6
CONTINUOUS
 62
    7
 10
1655.3530270000001
 20
798.50001550000002
 11
1656.4289549999999
 21
798.50001550000002
  0
LINE
  8
_0-0_0
  6
CONTINUOUS
 62
    7
 10
1655.32251
 20
798.30000250000001
 11
1656.4289549999999
 21
798.30000250000001
  0
LINE
  8
_0-0_0
  6
CONTINUOUS
 62
    7
 10
1655.1748050000001
 20
797.60002150000003
 11
1656.4289549999999
 21
797.60002150000003
  0
LINE
  8
_0-0_0
  6
CONTINUOUS
 62
    7
 10
1655.1203610000002
 20
797.40000950000001
 11
1656.4289549999999
 21
797.40000950000001
  0
LINE
  8
_0-0_0
  6
CONTINUOUS
 62
    7
 10
1655.0603030000002
 20
797.20002750000003
 11
1656.4289549999999
 21
797.20002750000003
  0
LINE
  8
_0-0_0
  6
CONTINUOUS
 62
    7
 10
1654.8039549999999
 20
796.50001550000002
 11
1656.4289549999999
 21
796.50001550000002
  0
LINE
  8
_0-0_0
  6
CONTINUOUS
 62
    7
 10
1654.7165530000002
 20
796.30000250000001
 11
1656.4289549999999
 21
796.30000250000001
  0
LINE
  8
_0-0_0
  6
CONTINUOUS
 62
    7
 10
1654.6225589999999
 20
796.10002150000003
 11
1656.4289549999999
 21
796.10002150000003
  0
LINE
  8
_0-0_0
  6
CONTINUOUS
 62
    7
 10
1654.2377930000002
 20
795.40000950000001
 11
1656.4289549999999
 21
795.40000950000001
  0
LINE
  8
_0-0_0
  6
CONTINUOUS
 62
    7
 10
1654.2377930000002
 20
803.80000250000001
 11
1656.4289549999999
 21
803.80000250000001
  0
LINE
  8
_0-0_0
  6
CONTINUOUS
 62
    7
 10
1654.6225589999999
 20
803.10002150000003
 11
1656.4289549999999
 21
803.10002150000003
  0
LINE
  8
_0-0_0
  6
CONTINUOUS
 62
    7
 10
1654.7165530000002
 20
802.90000950000001
 11
1656.4289549999999
 21
802.90000950000001
  0
LINE
  8
_0-0_0
  6
CONTINUOUS
 62
    7
 10
1654.8039549999999
 20
802.70002750000003
 11
1656.4289549999999
 21
802.70002750000003
  0
LINE
  8
_0-0_0
  6
CONTINUOUS
 62
    7
 10
1655.0603030000002
 20
802.00001550000002
 11
1656.4289549999999
 21
802.00001550000002
  0
LINE
  8
_0-0_0
  6
CONTINUOUS
 62
    7
 10
1655.1203610000002
 20
801.80000250000001
 11
1656.4289549999999
 21
801.80000250000001
  0
LINE
  8
_0-0_0
  6
CONTINUOUS
 62
    7
 10
1655.1748050000001
 20
801.60002150000003
 11
1656.4289549999999
 21
801.60002150000003
  0
LINE
  8
_0-0_0
  6
CONTINUOUS
 62
    7
 10
1655.32251
 20
800.90000950000001
 11
1656.4289549999999
 21
800.90000950000001
  0
LINE
  8
_0-0_0
  6
CONTINUOUS
 62
    7
 10
1655.3530270000001
 20
800.70002750000003
 11
1656.4289549999999
 21
800.70002750000003
  0
LINE
  8
_0-0_0
  6
CONTINUOUS
 62
    7
 10
1655.3781739999999
 20
800.50001550000002
 11
1656.4289549999999
 21
800.50001550000002
  0
LINE
  8
_0-0_0
  6
CONTINUOUS
 62
    7
 10
1655.4265140000002
 20
799.80000250000001
 11
1656.4289549999999
 21
799.80000250000001
  0
LINE
  8
_0-0_0
  6
CONTINUOUS
 62
    7
 10
1656.9289549999999
 20
783.10002150000003
 11
1656.4289549999999
 21
783.10002150000003
  0
LINE
  8
_0-0_0
  6
CONTINUOUS
 62
    7
 10
1656.4289549999999
 20
785.30000250000001
 11
1656.9289549999999
 21
785.30000250000001
  0
LINE
  8
_0-0_0
  6
CONTINUOUS
 62
    7
 10
1656.9289549999999
 20
787.60002150000003
 11
1656.4289549999999
 21
787.60002150000003
  0
LINE
  8
_0-0_0
  6
CONTINUOUS
 62
    7
 10
-316.57116700000006
 20
787.60002150000003
 11
-317.07116700000006
 21
787.60002150000003
  0
LINE
  8
_0-0_0
  6
CONTINUOUS
 62
    7
 10
1656.4289549999999
 20
789.90000950000001
 11
1656.9289549999999
 21
789.90000950000001
  0
LINE
  8
_0-0_0
  6
CONTINUOUS
 62
    7
 10
1656.9289549999999
 20
810.10002150000003
 11
1656.9289549999999
 21
810.00001550000002
  0
LINE
  8
_0-0_0
  6
CONTINUOUS
 62
    7
 10
-317.07116700000006
 20
810.10002150000003
 11
-317.07116700000006
 21
810.00001550000002
  0
LINE
  8
_0-0_0
  6
CONTINUOUS
 62
    7
 10
-317.07116700000006
 20
789.90000950000001
 11
-316.57116700000006
 21
789.90000950000001
  0
LINE
  8
_0-0_0
  6
CONTINUOUS
 62
    7
 10
-316.57116700000006
 20
809.80000250000001
 11
1656.4289549999999
 21
809.80000250000001
  0
LINE
  8
_0-0_0
  6
CONTINUOUS
 62
    7
 10
-316.57116700000006
 20
809.20603949999997
 11
1656.4289549999999
 21
809.20603949999997
  0
LINE
  8
_0-0_0
  6
CONTINUOUS
 62
    7
 10
1653.9741210000002
 20
804.20002750000003
 11
1656.4289549999999
 21
804.20002750000003
  0
LINE
  8
_0-0_0
  6
CONTINUOUS
 62
    7
 10
-316.57116700000006
 20
804.20002750000003
 11
-314.1163939999999
 21
804.20002750000003
  0
ARC
  8
_0-0_0
  6
CONTINUOUS
 62
    7
 10
-307.57116700000006
 20
799.60002150000003
 40
8
 50
35.099632
 51
144.900373
  0
LINE
  8
_0-0_0
  6
CONTINUOUS
 62
    7
 10
-301.02593999999999
 20
804.20002750000003
 11
1640.8835450000001
 21
804.20002750000003
  0
LINE
  8
_0-0_0
  6
CONTINUOUS
 62
    7
 10
-317.07116700000006
 20
783.10002150000003
 11
-316.57116700000006
 21
783.10002150000003
  0
LINE
  8
_0-0_0
  6
CONTINUOUS
 62
    7
 10
-317.07116700000006
 20
785.30000250000001
 11
-316.57116700000006
 21
785.30000250000001
  0
LINE
  8
_0-0_0
  6
CONTINUOUS
 62
    7
 10
-314.1163939999999
 20
804.20002750000003
 11
-314.20538299999998
 21
804.07072449999998
  0
LINE
  8
_0-0_0
  6
CONTINUOUS
 62
    7
 10
-314.29852299999993
 20
803.92930550000005
 11
-314.20538299999998
 21
804.07072449999998
  0
LINE
  8
_0-0_0
  6
CONTINUOUS
 62
    7
 10
-316.57116700000006
 20
803.80000250000001
 11
-314.38000499999998
 21
803.80000250000001
  0
LINE
  8
_0-0_0
  6
CONTINUOUS
 62
    7
 10
-314.29852299999993
 20
803.92930550000005
 11
-314.38000499999998
 21
803.80000250000001
  0
ARC
  8
_0-0_0
  6
CONTINUOUS
 62
    7
 10
-307.57116700000006
 20
799.60002150000003
 40
8
 50
148.33176499999999
 51
154.05551800000001
  0
LINE
  8
_0-0_0
  6
CONTINUOUS
 62
    7
 10
-316.57116700000006
 20
803.10002150000003
 11
-314.76492299999995
 21
803.10002150000003
  0
LINE
  8
_0-0_0
  6
CONTINUOUS
 62
    7
 10
-314.76492299999995
 20
803.10002150000003
 11
-314.82641599999988
 21
802.97071849999998
  0
LINE
  8
_0-0_0
  6
CONTINUOUS
 62
    7
 10
-314.89044199999989
 20
802.82929950000005
 11
-314.82641599999988
 21
802.97071849999998
  0
LINE
  8
_0-0_0
  6
CONTINUOUS
 62
    7
 10
-316.57116700000006
 20
802.70002750000003
 11
-314.94613600000002
 21
802.70002750000003
  0
LINE
  8
_0-0_0
  6
CONTINUOUS
 62
    7
 10
-314.89044199999989
 20
802.82929950000005
 11
-314.94613600000002
 21
802.70002750000003
  0
ARC
  8
_0-0_0
  6
CONTINUOUS
 62
    7
 10
-307.57116700000006
 20
799.60002150000003
 40
8
 50
157.20097000000001
 51
162.54239699999999
  0
LINE
  8
_0-0_0
  6
CONTINUOUS
 62
    7
 10
-316.57116700000006
 20
802.00001550000002
 11
-315.20269800000005
 21
802.00001550000002
  0
LINE
  8
_0-0_0
  6
CONTINUOUS
 62
    7
 10
-315.20269800000005
 20
802.00001550000002
 11
-315.24215699999991
 21
801.87074250000001
  0
LINE
  8
_0-0_0
  6
CONTINUOUS
 62
    7
 10
-315.28259299999991
 20
801.72929350000004
 11
-315.24215699999991
 21
801.87074250000001
  0
LINE
  8
_0-0_0
  6
CONTINUOUS
 62
    7
 10
-316.57116700000006
 20
801.60002150000003
 11
-315.317139
 21
801.60002150000003
  0
LINE
  8
_0-0_0
  6
CONTINUOUS
 62
    7
 10
-315.28259299999991
 20
801.72929350000004
 11
-315.317139
 21
801.60002150000003
  0
ARC
  8
_0-0_0
  6
CONTINUOUS
 62
    7
 10
-307.57116700000006
 20
799.60002150000003
 40
8
 50
165.52249
 51
170.64796000000001
  0
LINE
  8
_0-0_0
  6
CONTINUOUS
 62
    7
 10
-316.57116700000006
 20
800.90000950000001
 11
-315.46484400000008
 21
800.90000950000001
  0
LINE
  8
_0-0_0
  6
CONTINUOUS
 62
    7
 10
-315.46484400000008
 20
800.90000950000001
 11
-315.48504600000001
 21
800.7707365
  0
LINE
  8
_0-0_0
  6
CONTINUOUS
 62
    7
 10
-315.50469999999996
 20
800.62931849999995
 11
-315.48504600000001
 21
800.7707365
  0
LINE
  8
_0-0_0
  6
CONTINUOUS
 62
    7
 10
-316.57116700000006
 20
800.50001550000002
 11
-315.52038599999992
 21
800.50001550000002
  0
LINE
  8
_0-0_0
  6
CONTINUOUS
 62
    7
 10
-315.50469999999996
 20
800.62931849999995
 11
-315.52038599999992
 21
800.50001550000002
  0
ARC
  8
_0-0_0
  6
CONTINUOUS
 62
    7
 10
-307.57116700000006
 20
799.60002150000003
 40
8
 50
173.54054500000001
 51
178.567455
  0
LINE
  8
_0-0_0
  6
CONTINUOUS
 62
    7
 10
-316.57116700000006
 20
799.80000250000001
 11
-315.5686639999999
 21
799.80000250000001
  0
LINE
  8
_0-0_0
  6
CONTINUOUS
 62
    7
 10
-315.5686639999999
 20
799.80000250000001
 11
-315.57086200000003
 21
799.67073049999999
  0
LINE
  8
_0-0_0
  6
CONTINUOUS
 62
    7
 10
-315.57116700000006
 20
799.60002150000003
 11
-315.57086200000003
 21
799.67073049999999
  0
LINE
  8
_0-0_0
  6
CONTINUOUS
 62
    7
 10
-316.57116700000006
 20
799.40000950000001
 11
-315.5686639999999
 21
799.40000950000001
  0
LINE
  8
_0-0_0
  6
CONTINUOUS
 62
    7
 10
-316.57116700000006
 20
798.70002750000003
 11
-315.52038599999992
 21
798.70002750000003
  0
LINE
  8
_0-0_0
  6
CONTINUOUS
 62
    7
 10
-316.57116700000006
 20
798.30000250000001
 11
-315.46484400000008
 21
798.30000250000001
  0
LINE
  8
_0-0_0
  6
CONTINUOUS
 62
    7
 10
-316.57116700000006
 20
797.60002150000003
 11
-315.317139
 21
797.60002150000003
  0
LINE
  8
_0-0_0
  6
CONTINUOUS
 62
    7
 10
-316.57116700000006
 20
797.20002750000003
 11
-315.20269800000005
 21
797.20002750000003
  0
LINE
  8
_0-0_0
  6
CONTINUOUS
 62
    7
 10
-316.57116700000006
 20
796.50001550000002
 11
-314.94613600000002
 21
796.50001550000002
  0
LINE
  8
_0-0_0
  6
CONTINUOUS
 62
    7
 10
-316.57116700000006
 20
796.10002150000003
 11
-314.76492299999995
 21
796.10002150000003
  0
LINE
  8
_0-0_0
  6
CONTINUOUS
 62
    7
 10
-316.57116700000006
 20
795.40000950000001
 11
-314.38000499999998
 21
795.40000950000001
  0
LINE
  8
_0-0_0
  6
CONTINUOUS
 62
    7
 10
-299.57366899999988
 20
799.80000250000001
 11
-299.57116700000006
 21
799.60002150000003
  0
ARC
  8
_0-0_0
  6
CONTINUOUS
 62
    7
 10
-307.57116700000006
 20
799.60002150000003
 40
8
 50
1.432544
 51
6.4594489999999993
  0
LINE
  8
_0-0_0
  6
CONTINUOUS
 62
    7
 10
-299.647156
 20
800.70002750000003
 11
-299.62194799999997
 21
800.50001550000002
  0
LINE
  8
_0-0_0
  6
CONTINUOUS
 62
    7
 10
-299.67749000000003
 20
800.90000950000001
 11
-299.647156
 21
800.70002750000003
  0
ARC
  8
_0-0_0
  6
CONTINUOUS
 62
    7
 10
-307.57116700000006
 20
799.60002150000003
 40
8
 50
9.3520350000000008
 51
14.477510999999998
  0
LINE
  8
_0-0_0
  6
CONTINUOUS
 62
    7
 10
-299.879639
 20
801.80000250000001
 11
-299.82519499999989
 21
801.60002150000003
  0
LINE
  8
_0-0_0
  6
CONTINUOUS
 62
    7
 10
-299.9396670000001
 20
802.00001550000002
 11
-299.879639
 21
801.80000250000001
  0
ARC
  8
_0-0_0
  6
CONTINUOUS
 62
    7
 10
-307.57116700000006
 20
799.60002150000003
 40
8
 50
17.457602999999999
 51
22.799030999999999
  0
LINE
  8
_0-0_0
  6
CONTINUOUS
 62
    7
 10
-300.28350799999998
 20
802.90000950000001
 11
-300.19622800000002
 21
802.70002750000003
  0
LINE
  8
_0-0_0
  6
CONTINUOUS
 62
    7
 10
-300.37744100000009
 20
803.10002150000003
 11
-300.28350799999998
 21
802.90000950000001
  0
ARC
  8
_0-0_0
  6
CONTINUOUS
 62
    7
 10
-307.57116700000006
 20
799.60002150000003
 40
8
 50
25.944476999999999
 51
31.668240000000001
  0
LINE
  8
_0-0_0
  6
CONTINUOUS
 62
    7
 10
-300.84381099999996
 20
803.92930550000005
 11
-300.76235999999994
 21
803.80000250000001
  0
LINE
  8
_0-0_0
  6
CONTINUOUS
 62
    7
 10
-300.84381099999996
 20
803.92930550000005
 11
-300.93695099999991
 21
804.07072449999998
  0
LINE
  8
_0-0_0
  6
CONTINUOUS
 62
    7
 10
-301.02593999999999
 20
804.20002750000003
 11
-300.93695099999991
 21
804.07072449999998
  0
CIRCLE
  8
_0-0_0
  6
CONTINUOUS
 62
    7
 10
-307.57116700000006
 20
799.60002150000003
 40
7.5
  0
LINE
  8
_0-0_0
  6
CONTINUOUS
 62
    7
 10
-299.57366899999988
 20
799.80000250000001
 11
1639.4313969999998
 21
799.80000250000001
  0
LINE
  8
_0-0_0
  6
CONTINUOUS
 62
    7
 10
-299.62194799999997
 20
800.50001550000002
 11
1639.4797360000002
 21
800.50001550000002
  0
LINE
  8
_0-0_0
  6
CONTINUOUS
 62
    7
 10
-299.647156
 20
800.70002750000003
 11
1639.5048830000001
 21
800.70002750000003
  0
LINE
  8
_0-0_0
  6
CONTINUOUS
 62
    7
 10
-299.67749000000003
 20
800.90000950000001
 11
1639.5351559999999
 21
800.90000950000001
  0
LINE
  8
_0-0_0
  6
CONTINUOUS
 62
    7
 10
-299.82519499999989
 20
801.60002150000003
 11
1639.6828610000002
 21
801.60002150000003
  0
LINE
  8
_0-0_0
  6
CONTINUOUS
 62
    7
 10
-299.879639
 20
801.80000250000001
 11
1639.7373050000001
 21
801.80000250000001
  0
LINE
  8
_0-0_0
  6
CONTINUOUS
 62
    7
 10
-299.9396670000001
 20
802.00001550000002
 11
1639.7973630000001
 21
802.00001550000002
  0
LINE
  8
_0-0_0
  6
CONTINUOUS
 62
    7
 10
-300.19622800000002
 20
802.70002750000003
 11
1640.0539549999999
 21
802.70002750000003
  0
LINE
  8
_0-0_0
  6
CONTINUOUS
 62
    7
 10
-300.28350799999998
 20
802.90000950000001
 11
1640.1411130000001
 21
802.90000950000001
  0
LINE
  8
_0-0_0
  6
CONTINUOUS
 62
    7
 10
-300.37744100000009
 20
803.10002150000003
 11
1640.2351079999999
 21
803.10002150000003
  0
LINE
  8
_0-0_0
  6
CONTINUOUS
 62
    7
 10
-300.76235999999994
 20
803.80000250000001
 11
1640.6201169999999
 21
803.80000250000001
  0
LINE
  8
_0-0_0
  6
CONTINUOUS
 62
    7
 10
1656.9289549999999
 20
781.60002150000003
 11
1656.4289549999999
 21
781.60002150000003
  0
LINE
  8
_0-0_0
  6
CONTINUOUS
 62
    7
 10
1656.9289549999999
 20
809.20002750000003
 11
1656.9289549999999
 21
810.00001550000002
  0
LINE
  8
_0-0_0
  6
CONTINUOUS
 62
    7
 10
1656.9289549999999
 20
781.40000950000001
 11
1656.9289549999999
 21
809.20002750000003
  0
ARC
  8
_0-0_0
  6
CONTINUOUS
 62
    7
 10
1647.4289549999999
 20
800.30000250000001
 40
12.800000000000001
 50
73.932597000000001
 51
106.06740099999999
  0
LINE
  8
_0-0_0
  6
CONTINUOUS
 62
    7
 10
-317.07116700000006
 20
809.20002750000003
 11
-317.07116700000006
 21
810.00001550000002
  0
LINE
  8
_0-0_0
  6
CONTINUOUS
 62
    7
 10
-317.07116700000006
 20
781.40000950000001
 11
-317.07116700000006
 21
809.20002750000003
  0
ARC
  8
_0-0_0
  6
CONTINUOUS
 62
    7
 10
-307.57116700000006
 20
800.30000250000001
 40
12.800000000000001
 50
73.932597000000001
 51
106.06740099999999
  0
LINE
  8
_0-0_0
  6
CONTINUOUS
 62
    7
 10
332.92880300000002
 20
812.59999049999999
 11
332.92880300000002
 21
818.23991350000006
  0
LINE
  8
_0-0_0
  6
CONTINUOUS
 62
    7
 10
351.92880300000002
 20
818.23991350000006
 11
351.92880300000002
 21
812.59999049999999
  0
LINE
  8
_0-0_0
  6
CONTINUOUS
 62
    7
 10
982.92883300000005
 20
812.59999049999999
 11
982.92883300000005
 21
818.23991350000006
  0
LINE
  8
_0-0_0
  6
CONTINUOUS
 62
    7
 10
1001.9288330000001
 20
818.23991350000006
 11
1001.9288330000001
 21
812.59999049999999
  0
LINE
  8
_0-0_0
  6
CONTINUOUS
 62
    7
 10
1656.9289549999999
 20
810.10002150000003
 11
1656.9289549999999
 21
812.60002150000003
  0
LINE
  8
_0-0_0
  6
CONTINUOUS
 62
    7
 10
-317.07116700000006
 20
812.60002150000003
 11
1656.9289549999999
 21
812.60002150000003
  0
LINE
  8
_0-0_0
  6
CONTINUOUS
 62
    7
 10
-317.07116700000006
 20
810.10002150000003
 11
-317.07116700000006
 21
812.60002150000003
  0
LINE
  8
_0-0_0
  6
CONTINUOUS
 62
    7
 10
-317.07116700000006
 20
781.60002150000003
 11
-316.57116700000006
 21
781.60002150000003
  0
ARC
  8
_0-0_0
  6
CONTINUOUS
 62
    7
 10
1595.2288819999999
 20
786.50001550000002
 40
0.2
 50
339.62356199999999
 51
90.000002999999978
  0
LINE
  8
_0-0_0
  6
CONTINUOUS
 62
    7
 10
1595.41626
 20
786.43037449999997
 11
1594.1163329999999
 21
782.93037449999997
  0
ARC
  8
_0-0_0
  6
CONTINUOUS
 62
    7
 10
1593.9288329999999
 20
783.00001550000002
 40
0.2
 50
200.37643
 51
339.62356199999999
  0
LINE
  8
_0-0_0
  6
CONTINUOUS
 62
    7
 10
1592.4414059999999
 20
786.43037449999997
 11
1593.7413329999999
 21
782.93037449999997
  0
ARC
  8
_0-0_0
  6
CONTINUOUS
 62
    7
 10
1592.628784
 20
786.50001550000002
 40
0.2
 50
90.000003000000007
 51
200.37643
  0
LINE
  8
_0-0_0
  6
CONTINUOUS
 62
    7
 10
1592.628784
 20
786.70002750000003
 11
1595.2288819999999
 21
786.70002750000003
  0
ARC
  8
_0-0_0
  6
CONTINUOUS
 62
    7
 10
-244.77117899999985
 20
786.50001550000002
 40
0.2
 50
339.62356199999999
 51
90.000002999999978
  0
LINE
  8
_0-0_0
  6
CONTINUOUS
 62
    7
 10
-244.58367899999985
 20
786.43037449999997
 11
-245.88369699999998
 21
782.93037449999997
  0
ARC
  8
_0-0_0
  6
CONTINUOUS
 62
    7
 10
-246.07116700000006
 20
783.00001550000002
 40
0.2
 50
200.37643
 51
339.62356199999999
  0
LINE
  8
_0-0_0
  6
CONTINUOUS
 62
    7
 10
-247.55865500000004
 20
786.43037449999997
 11
-246.25866700000006
 21
782.93037449999997
  0
ARC
  8
_0-0_0
  6
CONTINUOUS
 62
    7
 10
-247.37118499999997
 20
786.50001550000002
 40
0.2
 50
90.000003000000007
 51
200.37643
  0
LINE
  8
_0-0_0
  6
CONTINUOUS
 62
    7
 10
-247.37118499999997
 20
786.70002750000003
 11
-244.77117899999985
 21
786.70002750000003
  0
LINE
  8
_0-0_0
  6
CONTINUOUS
 62
    7
 10
1657.9289549999999
 20
809.20002750000003
 11
1656.9289549999999
 21
809.20002750000003
  0
LINE
  8
_0-0_0
  6
CONTINUOUS
 62
    7
 10
1657.9289549999999
 20
810.23701449999999
 11
1656.9289549999999
 21
810.23701449999999
  0
LINE
  8
_0-0_0
  6
CONTINUOUS
 62
    7
 10
1657.9289549999999
 20
781.40000950000001
 11
1656.9289549999999
 21
781.40000950000001
  0
ARC
  8
_0-0_0
  6
CONTINUOUS
 62
    7
 10
992.42883300000005
 20
800.30000250000001
 40
20.299999
 50
62.096725999999997
 51
117.903272
  0
CIRCLE
  8
_0-0_0
  6
CONTINUOUS
 62
    7
 10
992.42883300000005
 20
816.60002150000003
 40
2.5
  0
ARC
  8
_0-0_0
  6
CONTINUOUS
 62
    7
 10
342.42880300000002
 20
800.30000250000001
 40
20.299999
 50
62.096725999999997
 51
117.903272
  0
CIRCLE
  8
_0-0_0
  6
CONTINUOUS
 62
    7
 10
342.42880300000002
 20
816.60002150000003
 40
2.5
  0
LINE
  8
_0-0_0
  6
CONTINUOUS
 62
    7
 10
-318.07116700000006
 20
809.20002750000003
 11
-317.07116700000006
 21
809.20002750000003
  0
LINE
  8
_0-0_0
  6
CONTINUOUS
 62
    7
 10
-318.07116700000006
 20
810.20002750000003
 11
-317.07116700000006
 21
810.20002750000003
  0
LINE
  8
_0-0_0
  6
CONTINUOUS
 62
    7
 10
-318.07116700000006
 20
781.40000950000001
 11
-317.07116700000006
 21
781.40000950000001
  0
LINE
  8
_0-0_0
  6
CONTINUOUS
 62
    7
 10
1657.9289549999999
 20
812.40000950000001
 11
1656.9289549999999
 21
812.40000950000001
  0
LINE
  8
_0-0_0
  6
CONTINUOUS
 62
    7
 10
-318.07116700000006
 20
812.40000950000001
 11
-317.07116700000006
 21
812.40000950000001
  0
LINE
  8
_0-0_0
  6
CONTINUOUS
 62
    7
 10
1658.9289549999999
 20
808.78581250000002
 11
1658.9279790000001
 21
808.80430550000005
  0
LINE
  8
_0-0_0
  6
CONTINUOUS
 62
    7
 10
1658.9279790000001
 20
808.80430550000005
 11
1658.9248050000001
 21
808.82273850000001
  0
LINE
  8
_0-0_0
  6
CONTINUOUS
 62
    7
 10
1658.9248050000001
 20
808.82273850000001
 11
1658.9196780000002
 21
808.84187350000002
  0
LINE
  8
_0-0_0
  6
CONTINUOUS
 62
    7
 10
1658.9196780000002
 20
808.84187350000002
 11
1658.9123540000001
 21
808.86091650000003
  0
LINE
  8
_0-0_0
  6
CONTINUOUS
 62
    7
 10
1658.9123540000001
 20
808.86091650000003
 11
1658.891846
 21
808.8976285
  0
LINE
  8
_0-0_0
  6
CONTINUOUS
 62
    7
 10
1658.891846
 20
808.8976285
 11
1658.8632809999999
 21
808.93330349999997
  0
LINE
  8
_0-0_0
  6
CONTINUOUS
 62
    7
 10
1658.8632809999999
 20
808.93330349999997
 11
1658.827393
 21
808.96757449999996
  0
LINE
  8
_0-0_0
  6
CONTINUOUS
 62
    7
 10
1658.827393
 20
808.96757449999996
 11
1658.7788089999999
 21
809.00404349999997
  0
LINE
  8
_0-0_0
  6
CONTINUOUS
 62
    7
 10
1658.7788089999999
 20
809.00404349999997
 11
1658.7221680000002
 21
809.0380705
  0
LINE
  8
_0-0_0
  6
CONTINUOUS
 62
    7
 10
1658.7221680000002
 20
809.0380705
 11
1658.6579590000001
 21
809.0693205
  0
LINE
  8
_0-0_0
  6
CONTINUOUS
 62
    7
 10
1658.6579590000001
 20
809.0693205
 11
1658.5871579999998
 21
809.09754950000001
  0
LINE
  8
_0-0_0
  6
CONTINUOUS
 62
    7
 10
1658.5871579999998
 20
809.09754950000001
 11
1658.5390630000002
 21
809.11390649999998
  0
LINE
  8
_0-0_0
  6
CONTINUOUS
 62
    7
 10
1658.5390630000002
 20
809.11390649999998
 11
1658.4890140000002
 21
809.12892150000005
  0
LINE
  8
_0-0_0
  6
CONTINUOUS
 62
    7
 10
1658.4890140000002
 20
809.12892150000005
 11
1658.4323730000001
 21
809.14369150000005
  0
LINE
  8
_0-0_0
  6
CONTINUOUS
 62
    7
 10
1658.4323730000001
 20
809.14369150000005
 11
1658.373779
 21
809.15678349999996
  0
LINE
  8
_0-0_0
  6
CONTINUOUS
 62
    7
 10
1658.373779
 20
809.15678349999996
 11
1658.256836
 21
809.17707849999999
  0
LINE
  8
_0-0_0
  6
CONTINUOUS
 62
    7
 10
1658.256836
 20
809.17707849999999
 11
1658.1496579999998
 21
809.18980350000004
  0
LINE
  8
_0-0_0
  6
CONTINUOUS
 62
    7
 10
1658.1496579999998
 20
809.18980350000004
 11
1658.0397950000001
 21
809.19746350000003
  0
LINE
  8
_0-0_0
  6
CONTINUOUS
 62
    7
 10
1658.0397950000001
 20
809.19746350000003
 11
1657.9289549999999
 21
809.20002750000003
  0
LINE
  8
_0-0_0
  6
CONTINUOUS
 62
    7
 10
1658.9289549999999
 20
808.78581250000002
 11
1658.9289549999999
 21
809.78587349999998
  0
LINE
  8
_0-0_0
  6
CONTINUOUS
 62
    7
 10
1658.9289549999999
 20
809.78587349999998
 11
1658.9260250000002
 21
809.81742850000001
  0
LINE
  8
_0-0_0
  6
CONTINUOUS
 62
    7
 10
1658.9260250000002
 20
809.81742850000001
 11
1658.9172360000002
 21
809.84950249999997
  0
LINE
  8
_0-0_0
  6
CONTINUOUS
 62
    7
 10
1658.9172360000002
 20
809.84950249999997
 11
1658.9028320000002
 21
809.88179049999997
  0
LINE
  8
_0-0_0
  6
CONTINUOUS
 62
    7
 10
1658.9028320000002
 20
809.88179049999997
 11
1658.882568
 21
809.91395550000004
  0
LINE
  8
_0-0_0
  6
CONTINUOUS
 62
    7
 10
1658.882568
 20
809.91395550000004
 11
1658.8659670000002
 21
809.93516550000004
  0
LINE
  8
_0-0_0
  6
CONTINUOUS
 62
    7
 10
1658.8659670000002
 20
809.93516550000004
 11
1658.8469239999999
 21
809.95613049999997
  0
LINE
  8
_0-0_0
  6
CONTINUOUS
 62
    7
 10
1658.8469239999999
 20
809.95613049999997
 11
1658.8022460000002
 21
809.99690250000003
  0
LINE
  8
_0-0_0
  6
CONTINUOUS
 62
    7
 10
1658.8022460000002
 20
809.99690250000003
 11
1658.7490240000002
 21
810.03565949999995
  0
LINE
  8
_0-0_0
  6
CONTINUOUS
 62
    7
 10
1658.7490240000002
 20
810.03565949999995
 11
1658.6989750000002
 21
810.06587249999995
  0
LINE
  8
_0-0_0
  6
CONTINUOUS
 62
    7
 10
1658.6989750000002
 20
810.06587249999995
 11
1658.6442870000001
 21
810.09407050000004
  0
LINE
  8
_0-0_0
  6
CONTINUOUS
 62
    7
 10
1658.6442870000001
 20
810.09407050000004
 11
1658.5854490000002
 21
810.12013249999995
  0
LINE
  8
_0-0_0
  6
CONTINUOUS
 62
    7
 10
1658.5854490000002
 20
810.12013249999995
 11
1658.5385740000002
 21
810.13810750000005
  0
LINE
  8
_0-0_0
  6
CONTINUOUS
 62
    7
 10
1658.5385740000002
 20
810.13810750000005
 11
1658.48999
 21
810.15470849999997
  0
LINE
  8
_0-0_0
  6
CONTINUOUS
 62
    7
 10
1658.48999
 20
810.15470849999997
 11
1658.3874510000001
 21
810.18360849999999
  0
LINE
  8
_0-0_0
  6
CONTINUOUS
 62
    7
 10
1658.3874510000001
 20
810.18360849999999
 11
1658.2797850000002
 21
810.2064365
  0
LINE
  8
_0-0_0
  6
CONTINUOUS
 62
    7
 10
1658.2797850000002
 20
810.2064365
 11
1658.1682129999999
 21
810.22300749999999
  0
LINE
  8
_0-0_0
  6
CONTINUOUS
 62
    7
 10
1658.1682129999999
 20
810.22300749999999
 11
1658.0541990000002
 21
810.23319949999996
  0
LINE
  8
_0-0_0
  6
CONTINUOUS
 62
    7
 10
1658.0541990000002
 20
810.23319949999996
 11
1657.9289549999999
 21
810.23701449999999
  0
ARC
  8
_0-0_0
  6
CONTINUOUS
 62
    7
 10
1657.9289549999999
 20
782.40000950000001
 40
1
 50
269.99999700000001
 51
0
  0
LINE
  8
_0-0_0
  6
CONTINUOUS
 62
    7
 10
1658.9289549999999
 20
782.40000950000001
 11
1658.9289549999999
 21
808.78581250000002
  0
LINE
  8
_0-0_0
  6
CONTINUOUS
 62
    7
 10
-319.07116700000006
 20
808.78581250000002
 11
-319.07018999999991
 21
808.80430550000005
  0
LINE
  8
_0-0_0
  6
CONTINUOUS
 62
    7
 10
-319.07018999999991
 20
808.80430550000005
 11
-319.06716899999992
 21
808.82273850000001
  0
LINE
  8
_0-0_0
  6
CONTINUOUS
 62
    7
 10
-319.06716899999992
 20
808.82273850000001
 11
-319.06195099999991
 21
808.84187350000002
  0
LINE
  8
_0-0_0
  6
CONTINUOUS
 62
    7
 10
-319.06195099999991
 20
808.84187350000002
 11
-319.05456499999991
 21
808.86091650000003
  0
LINE
  8
_0-0_0
  6
CONTINUOUS
 62
    7
 10
-319.05456499999991
 20
808.86091650000003
 11
-319.033997
 21
808.8976285
  0
LINE
  8
_0-0_0
  6
CONTINUOUS
 62
    7
 10
-319.033997
 20
808.8976285
 11
-319.00561500000003
 21
808.93330349999997
  0
LINE
  8
_0-0_0
  6
CONTINUOUS
 62
    7
 10
-319.00561500000003
 20
808.93330349999997
 11
-318.96972600000004
 21
808.96757449999996
  0
LINE
  8
_0-0_0
  6
CONTINUOUS
 62
    7
 10
-318.96972600000004
 20
808.96757449999996
 11
-318.92111199999999
 21
809.00404349999997
  0
LINE
  8
_0-0_0
  6
CONTINUOUS
 62
    7
 10
-318.92111199999999
 20
809.00404349999997
 11
-318.86431900000002
 21
809.0380705
  0
LINE
  8
_0-0_0
  6
CONTINUOUS
 62
    7
 10
-318.86431900000002
 20
809.0380705
 11
-318.80017099999986
 21
809.0693205
  0
LINE
  8
_0-0_0
  6
CONTINUOUS
 62
    7
 10
-318.80017099999986
 20
809.0693205
 11
-318.7295529999999
 21
809.09754950000001
  0
LINE
  8
_0-0_0
  6
CONTINUOUS
 62
    7
 10
-318.7295529999999
 20
809.09754950000001
 11
-318.68145699999991
 21
809.11390649999998
  0
LINE
  8
_0-0_0
  6
CONTINUOUS
 62
    7
 10
-318.68145699999991
 20
809.11390649999998
 11
-318.63131699999985
 21
809.12892150000005
  0
LINE
  8
_0-0_0
  6
CONTINUOUS
 62
    7
 10
-318.63131699999985
 20
809.12892150000005
 11
-318.57461499999999
 21
809.14369150000005
  0
LINE
  8
_0-0_0
  6
CONTINUOUS
 62
    7
 10
-318.57461499999999
 20
809.14369150000005
 11
-318.51602200000002
 21
809.15678349999996
  0
LINE
  8
_0-0_0
  6
CONTINUOUS
 62
    7
 10
-318.51602200000002
 20
809.15678349999996
 11
-318.39923099999987
 21
809.17707849999999
  0
LINE
  8
_0-0_0
  6
CONTINUOUS
 62
    7
 10
-318.39923099999987
 20
809.17707849999999
 11
-318.29180900000006
 21
809.18980350000004
  0
LINE
  8
_0-0_0
  6
CONTINUOUS
 62
    7
 10
-318.29180900000006
 20
809.18980350000004
 11
-318.18206800000007
 21
809.19746350000003
  0
LINE
  8
_0-0_0
  6
CONTINUOUS
 62
    7
 10
-318.18206800000007
 20
809.19746350000003
 11
-318.07116700000006
 21
809.20002750000003
  0
LINE
  8
_0-0_0
  6
CONTINUOUS
 62
    7
 10
-319.07116700000006
 20
809.75547749999998
 11
-319.06829799999991
 21
809.7863615
  0
LINE
  8
_0-0_0
  6
CONTINUOUS
 62
    7
 10
-319.06829799999991
 20
809.7863615
 11
-319.05956999999989
 21
809.81782550000003
  0
LINE
  8
_0-0_0
  6
CONTINUOUS
 62
    7
 10
-319.05956999999989
 20
809.81782550000003
 11
-319.04510499999992
 21
809.84947150000005
  0
LINE
  8
_0-0_0
  6
CONTINUOUS
 62
    7
 10
-319.04510499999992
 20
809.84947150000005
 11
-319.02493299999992
 21
809.8810575
  0
LINE
  8
_0-0_0
  6
CONTINUOUS
 62
    7
 10
-319.02493299999992
 20
809.8810575
 11
-319.00842299999999
 21
809.90193150000005
  0
LINE
  8
_0-0_0
  6
CONTINUOUS
 62
    7
 10
-319.00842299999999
 20
809.90193150000005
 11
-318.9895019999999
 21
809.92256150000003
  0
LINE
  8
_0-0_0
  6
CONTINUOUS
 62
    7
 10
-318.9895019999999
 20
809.92256150000003
 11
-318.94488499999989
 21
809.96272250000004
  0
LINE
  8
_0-0_0
  6
CONTINUOUS
 62
    7
 10
-318.94488499999989
 20
809.96272250000004
 11
-318.89172400000007
 21
810.00090050000006
  0
LINE
  8
_0-0_0
  6
CONTINUOUS
 62
    7
 10
-318.89172400000007
 20
810.00090050000006
 11
-318.841858
 21
810.03071550000004
  0
LINE
  8
_0-0_0
  6
CONTINUOUS
 62
    7
 10
-318.841858
 20
810.03071550000004
 11
-318.78717000000006
 21
810.05860849999999
  0
LINE
  8
_0-0_0
  6
CONTINUOUS
 62
    7
 10
-318.78717000000006
 20
810.05860849999999
 11
-318.72820999999999
 21
810.08433549999995
  0
LINE
  8
_0-0_0
  6
CONTINUOUS
 62
    7
 10
-318.72820999999999
 20
810.08433549999995
 11
-318.68145699999991
 21
810.10212650000005
  0
LINE
  8
_0-0_0
  6
CONTINUOUS
 62
    7
 10
-318.68145699999991
 20
810.10212650000005
 11
-318.6327510000001
 21
810.11854549999998
  0
LINE
  8
_0-0_0
  6
CONTINUOUS
 62
    7
 10
-318.6327510000001
 20
810.11854549999998
 11
-318.53030399999989
 21
810.14714049999998
  0
LINE
  8
_0-0_0
  6
CONTINUOUS
 62
    7
 10
-318.53030399999989
 20
810.14714049999998
 11
-318.42248500000005
 21
810.16972350000003
  0
LINE
  8
_0-0_0
  6
CONTINUOUS
 62
    7
 10
-318.42248500000005
 20
810.16972350000003
 11
-318.31079099999988
 21
810.18614149999996
  0
LINE
  8
_0-0_0
  6
CONTINUOUS
 62
    7
 10
-318.31079099999988
 20
810.18614149999996
 11
-318.19665499999996
 21
810.19624350000004
  0
LINE
  8
_0-0_0
  6
CONTINUOUS
 62
    7
 10
-318.19665499999996
 20
810.19624350000004
 11
-318.07116700000006
 21
810.20002750000003
  0
LINE
  8
_0-0_0
  6
CONTINUOUS
 62
    7
 10
-319.07116700000006
 20
808.78581250000002
 11
-319.07116700000006
 21
809.75547749999998
  0
ARC
  8
_0-0_0
  6
CONTINUOUS
 62
    7
 10
-318.07116700000006
 20
782.40000950000001
 40
1
 50
180.00000900000003
 51
269.99999700000001
  0
LINE
  8
_0-0_0
  6
CONTINUOUS
 62
    7
 10
-319.07116700000006
 20
782.40000950000001
 11
-319.07116700000006
 21
808.78581250000002
  0
CIRCLE
  8
_0-0_0
  6
CONTINUOUS
 62
    7
 10
-307.57116700000006
 20
799.60002150000003
 40
5
  0
CIRCLE
  8
_0-0_0
  6
CONTINUOUS
 62
    7
 10
1647.4289549999999
 20
799.60002150000003
 40
5
  0
LINE
  8
_0-0_0
  6
CONTINUOUS
 62
    7
 10
1658.9289549999999
 20
809.78587349999998
 11
1658.9289549999999
 21
811.40000950000001
  0
ARC
  8
_0-0_0
  6
CONTINUOUS
 62
    7
 10
1657.9289549999999
 20
811.40000950000001
 40
1
 50
0
 51
90.000003000000007
  0
ARC
  8
_0-0_0
  6
CONTINUOUS
 62
    7
 10
-318.07116700000006
 20
811.40000950000001
 40
1
 50
90.000003000000007
 51
180.00000900000001
  0
LINE
  8
_0-0_0
  6
CONTINUOUS
 62
    7
 10
-319.07116700000006
 20
809.75547749999998
 11
-319.07116700000006
 21
811.40000950000001
  0
LINE
  8
_0-0_0
  6
CONTINUOUS
 62
    7
 10
-406.886841
 20
779.29994150000005
 11
-406.886841
 21
779.27494750000005
  0
LINE
  8
_0-0_0
  6
CONTINUOUS
 62
    7
 10
-406.886841
 20
776.2228235
 11
-406.886841
 21
776.32493550000004
  0
LINE
  8
_0-0_0
  6
CONTINUOUS
 62
    7
 10
-406.886841
 20
755.19993550000004
 11
-406.886841
 21
755.97706549999998
  0
LINE
  8
_0-0_0
  6
CONTINUOUS
 62
    7
 10
-423.68685899999991
 20
755.19993550000004
 11
-406.886841
 21
755.19993550000004
  0
LINE
  8
_0-0_0
  6
CONTINUOUS
 62
    7
 10
-423.68685899999991
 20
763.09992950000003
 11
-423.68685899999991
 21
755.19993550000004
  0
LINE
  8
_0-0_0
  6
CONTINUOUS
 62
    7
 10
-423.68685899999991
 20
775.55525150000005
 11
-423.68685899999991
 21
769.09992950000003
  0
LINE
  8
_0-0_0
  6
CONTINUOUS
 62
    7
 10
-406.38687099999993
 20
758.69993550000004
 11
-406.18685899999991
 21
758.69993550000004
  0
LINE
  8
_0-0_0
  6
CONTINUOUS
 62
    7
 10
-406.18685899999991
 20
758.69993550000004
 11
-406.18685899999991
 21
761.69993550000004
  0
LINE
  8
_0-0_0
  6
CONTINUOUS
 62
    7
 10
-406.18685899999991
 20
775.29994150000005
 11
-406.18685899999991
 21
761.69993550000004
  0
LINE
  8
_0-0_0
  6
CONTINUOUS
 62
    7
 10
-406.386841
 20
778.29994150000005
 11
-406.18685899999991
 21
778.29994150000005
  0
LINE
  8
_0-0_0
  6
CONTINUOUS
 62
    7
 10
-406.18685899999991
 20
775.29994150000005
 11
-406.18685899999991
 21
778.29994150000005
  0
LINE
  8
_0-0_0
  6
CONTINUOUS
 62
    7
 10
-407.08685300000002
 20
777.59901449999995
 11
-407.08685300000002
 21
776.41981450000003
  0
LINE
  8
_0-0_0
  6
CONTINUOUS
 62
    7
 10
-407.08685300000002
 20
779.79994150000005
 11
-407.08685300000002
 21
779.29994150000005
  0
LINE
  8
_0-0_0
  6
CONTINUOUS
 62
    7
 10
-408.08685300000002
 20
776.88343750000001
 11
-408.08685300000002
 21
777.59992950000003
  0
ARC
  8
_0-0_0
  6
CONTINUOUS
 62
    7
 10
-408.386841
 20
774.89994750000005
 40
2
 50
0
 51
90.000003000000007
  0
LINE
  8
_0-0_0
  6
CONTINUOUS
 62
    7
 10
-406.386841
 20
771.39994750000005
 11
-406.386841
 21
774.39994750000005
  0
LINE
  8
_0-0_0
  6
CONTINUOUS
 62
    7
 10
-406.386841
 20
774.39994750000005
 11
-406.386841
 21
774.89994750000005
  0
LINE
  8
_0-0_0
  6
CONTINUOUS
 62
    7
 10
-406.386841
 20
757.29994150000005
 11
-406.386841
 21
770.89994750000005
  0
LINE
  8
_0-0_0
  6
CONTINUOUS
 62
    7
 10
-406.386841
 20
771.39994750000005
 11
-406.386841
 21
770.89994750000005
  0
ARC
  8
_0-0_0
  6
CONTINUOUS
 62
    7
 10
-408.386841
 20
757.29994150000005
 40
2
 50
273.84026500000004
 51
0.000010000000014
  0
LINE
  8
_0-0_0
  6
CONTINUOUS
 62
    7
 10
-421.68685899999991
 20
776.88343750000001
 11
-421.68685899999991
 21
777.59992950000003
  0
LINE
  8
_0-0_0
  6
CONTINUOUS
 62
    7
 10
-421.68685899999991
 20
776.88343750000001
 11
-421.68685899999991
 21
776.87730350000004
  0
LINE
  8
_0-0_0
  6
CONTINUOUS
 62
    7
 10
-423.68685899999991
 20
775.55525150000005
 11
-423.68685899999991
 21
776.05525150000005
  0
LINE
  8
_0-0_0
  6
CONTINUOUS
 62
    7
 10
-423.386841
 20
774.89994750000005
 11
-423.386841
 21
761.29994150000005
  0
LINE
  8
_0-0_0
  6
CONTINUOUS
 62
    7
 10
-423.386841
 20
760.79994150000005
 11
-423.386841
 21
761.29994150000005
  0
LINE
  8
_0-0_0
  6
CONTINUOUS
 62
    7
 10
-423.386841
 20
757.79994150000005
 11
-423.386841
 21
760.79994150000005
  0
LINE
  8
_0-0_0
  6
CONTINUOUS
 62
    7
 10
-423.386841
 20
757.29994150000005
 11
-423.386841
 21
757.79994150000005
  0
ARC
  8
_0-0_0
  6
CONTINUOUS
 62
    7
 10
-421.386841
 20
774.89994750000005
 40
2
 50
93.840255999999997
 51
180.00000900000001
  0
LINE
  8
_0-0_0
  6
CONTINUOUS
 62
    7
 10
-423.68685899999991
 20
763.09992950000003
 11
-423.68685899999991
 21
769.09992950000003
  0
LINE
  8
_0-0_0
  6
CONTINUOUS
 62
    7
 10
-423.68685899999991
 20
777.59992950000003
 11
-423.68685899999991
 21
776.05525150000005
  0
LINE
  8
_0-0_0
  6
CONTINUOUS
 62
    7
 10
-423.68685899999991
 20
769.09992950000003
 11
-423.386841
 21
769.09992950000003
  0
LINE
  8
_0-0_0
  6
CONTINUOUS
 62
    7
 10
-423.68685899999991
 20
763.09992950000003
 11
-423.386841
 21
763.09992950000003
  0
LINE
  8
_0-0_0
  6
CONTINUOUS
 62
    7
 10
-408.386841
 20
755.29994150000005
 11
-417.386841
 21
755.29994150000005
  0
LINE
  8
_0-0_0
  6
CONTINUOUS
 62
    7
 10
-420.886841
 20
755.29994150000005
 11
-421.386841
 21
755.29994150000005
  0
LINE
  8
_0-0_0
  6
CONTINUOUS
 62
    7
 10
-417.886841
 20
755.29994150000005
 11
-420.886841
 21
755.29994150000005
  0
LINE
  8
_0-0_0
  6
CONTINUOUS
 62
    7
 10
-417.386841
 20
755.29994150000005
 11
-417.886841
 21
755.29994150000005
  0
ARC
  8
_0-0_0
  6
CONTINUOUS
 62
    7
 10
-421.386841
 20
757.29994150000005
 40
2
 50
180.00000900000003
 51
269.99999700000001
  0
ARC
  8
_0-0_0
  6
CONTINUOUS
 62
    7
 10
-407.58685300000002
 20
779.79994150000005
 40
0.5
 50
0
 51
90.000003000000007
  0
LINE
  8
_0-0_0
  6
CONTINUOUS
 62
    7
 10
-409.08685300000002
 20
780.29994150000005
 11
-407.58685300000002
 21
780.29994150000005
  0
ARC
  8
_0-0_0
  6
CONTINUOUS
 62
    7
 10
-409.08685300000002
 20
781.29994150000005
 40
1
 50
180.00000900000003
 51
269.99999700000001
  0
LINE
  8
_0-0_0
  6
CONTINUOUS
 62
    7
 10
-410.08685300000002
 20
781.29994150000005
 11
-410.08685300000002
 21
781.40003950000005
  0
LINE
  8
_0-0_0
  6
CONTINUOUS
 62
    7
 10
-410.58685300000002
 20
780.29994150000005
 11
-410.58685300000002
 21
781.40003950000005
  0
ARC
  8
_0-0_0
  6
CONTINUOUS
 62
    7
 10
-409.58685300000002
 20
780.29994150000005
 40
1
 50
180.00000900000003
 51
269.99999700000001
  0
LINE
  8
_0-0_0
  6
CONTINUOUS
 62
    7
 10
-409.58685300000002
 20
779.29994150000005
 11
-409.78683499999988
 21
779.29994150000005
  0
ARC
  8
_0-0_0
  6
CONTINUOUS
 62
    7
 10
-409.78683499999988
 20
780.29994150000005
 40
1
 50
180.00000900000003
 51
269.99999700000001
  0
ARC
  8
_0-0_0
  6
CONTINUOUS
 62
    7
 10
-419.9868469999999
 20
780.29994150000005
 40
1
 50
269.99999700000001
 51
0
  0
LINE
  8
_0-0_0
  6
CONTINUOUS
 62
    7
 10
-419.9868469999999
 20
779.29994150000005
 11
-420.68685899999991
 21
779.29994150000005
  0
LINE
  8
_0-0_0
  6
CONTINUOUS
 62
    7
 10
-406.886841
 20
779.29994150000005
 11
-407.08685300000002
 21
779.29994150000005
  0
LINE
  8
_0-0_0
  6
CONTINUOUS
 62
    7
 10
-423.68685899999991
 20
777.59992950000003
 11
-406.886841
 21
777.59992950000003
  0
LINE
  8
_0-0_0
  6
CONTINUOUS
 62
    7
 10
-406.886841
 20
777.59992950000003
 11
-406.886841
 21
779.29994150000005
  0
LINE
  8
_0-0_0
  6
CONTINUOUS
 62
    7
 10
-410.78683499999988
 20
781.40003950000005
 11
-410.78683499999988
 21
780.29994150000005
  0
LINE
  8
_0-0_0
  6
CONTINUOUS
 62
    7
 10
-418.9868469999999
 20
780.29994150000005
 11
-418.9868469999999
 21
781.40003950000005
  0
LINE
  8
_0-0_0
  6
CONTINUOUS
 62
    7
 10
-422.68685899999991
 20
779.29994150000005
 11
-423.68685899999991
 21
779.29994150000005
  0
LINE
  8
_0-0_0
  6
CONTINUOUS
 62
    7
 10
-423.68685899999991
 20
777.59992950000003
 11
-423.68685899999991
 21
779.29994150000005
  0
LINE
  8
_0-0_0
  6
CONTINUOUS
 62
    7
 10
-408.386841
 20
776.89994750000005
 11
-408.886841
 21
776.89994750000005
  0
CIRCLE
  8
_0-0_0
  6
CONTINUOUS
 62
    7
 10
-408.886841
 20
774.39994750000005
 40
2.5
  0
LINE
  8
_0-0_0
  6
CONTINUOUS
 62
    7
 10
-421.386841
 20
776.89994750000005
 11
-412.386841
 21
776.89994750000005
  0
LINE
  8
_0-0_0
  6
CONTINUOUS
 62
    7
 10
-408.886841
 20
776.89994750000005
 11
-411.886841
 21
776.89994750000005
  0
LINE
  8
_0-0_0
  6
CONTINUOUS
 62
    7
 10
-412.386841
 20
776.89994750000005
 11
-411.886841
 21
776.89994750000005
  0
ARC
  8
_0-0_0
  6
CONTINUOUS
 62
    7
 10
-406.886841
 20
770.89994750000005
 40
0.5
 50
0
 51
90.000003000000007
  0
LINE
  8
_0-0_0
  6
CONTINUOUS
 62
    7
 10
-408.386841
 20
755.40257250000002
 11
-408.37097199999994
 21
755.37532050000004
  0
LINE
  8
_0-0_0
  6
CONTINUOUS
 62
    7
 10
-408.37097199999994
 20
755.37532050000004
 11
-408.35513300000002
 21
755.35234049999997
  0
LINE
  8
_0-0_0
  6
CONTINUOUS
 62
    7
 10
-408.35513300000002
 20
755.35234049999997
 11
-408.34112499999992
 21
755.33558649999998
  0
LINE
  8
_0-0_0
  6
CONTINUOUS
 62
    7
 10
-408.34112499999992
 20
755.33558649999998
 11
-408.32724000000007
 21
755.3222505
  0
LINE
  8
_0-0_0
  6
CONTINUOUS
 62
    7
 10
-408.32724000000007
 20
755.3222505
 11
-408.31503299999986
 21
755.31333949999998
  0
LINE
  8
_0-0_0
  6
CONTINUOUS
 62
    7
 10
-408.31503299999986
 20
755.31333949999998
 11
-408.30291699999998
 21
755.30711350000001
  0
LINE
  8
_0-0_0
  6
CONTINUOUS
 62
    7
 10
-408.30291699999998
 20
755.30711350000001
 11
-408.2920529999999
 21
755.30384849999996
  0
LINE
  8
_0-0_0
  6
CONTINUOUS
 62
    7
 10
-408.2920529999999
 20
755.30384849999996
 11
-408.28127999999992
 21
755.30278050000004
  0
LINE
  8
_0-0_0
  6
CONTINUOUS
 62
    7
 10
-408.28127999999992
 20
755.30278050000004
 11
-408.27880899999991
 21
755.30287150000004
  0
LINE
  8
_0-0_0
  6
CONTINUOUS
 62
    7
 10
-422.68685899999991
 20
776.41981450000003
 11
-422.68685899999991
 21
777.59901449999995
  0
ARC
  8
_0-0_0
  6
CONTINUOUS
 62
    7
 10
-422.886841
 20
761.29994150000005
 40
0.5
 50
180.00000900000003
 51
269.99999700000001
  0
CIRCLE
  8
_0-0_0
  6
CONTINUOUS
 62
    7
 10
-420.886841
 20
757.79994150000005
 40
2.5
  0
LINE
  8
_0-0_0
  6
CONTINUOUS
 62
    7
 10
-421.386841
 20
776.79731749999996
 11
-421.40273999999999
 21
776.82456950000005
  0
LINE
  8
_0-0_0
  6
CONTINUOUS
 62
    7
 10
-421.40273999999999
 20
776.82456950000005
 11
-421.41857899999991
 21
776.84754950000001
  0
LINE
  8
_0-0_0
  6
CONTINUOUS
 62
    7
 10
-421.41857899999991
 20
776.84754950000001
 11
-421.43255599999998
 21
776.86430350000001
  0
LINE
  8
_0-0_0
  6
CONTINUOUS
 62
    7
 10
-421.43255599999998
 20
776.86430350000001
 11
-421.44644199999993
 21
776.87763949999999
  0
LINE
  8
_0-0_0
  6
CONTINUOUS
 62
    7
 10
-421.44644199999993
 20
776.87763949999999
 11
-421.45867899999985
 21
776.8865505
  0
LINE
  8
_0-0_0
  6
CONTINUOUS
 62
    7
 10
-421.45867899999985
 20
776.8865505
 11
-421.47079499999995
 21
776.89277649999997
  0
LINE
  8
_0-0_0
  6
CONTINUOUS
 62
    7
 10
-421.47079499999995
 20
776.89277649999997
 11
-421.48165900000004
 21
776.89604150000002
  0
LINE
  8
_0-0_0
  6
CONTINUOUS
 62
    7
 10
-421.48165900000004
 20
776.89604150000002
 11
-421.49240099999997
 21
776.89710950000006
  0
LINE
  8
_0-0_0
  6
CONTINUOUS
 62
    7
 10
-421.49240099999997
 20
776.89710950000006
 11
-421.4948730000001
 21
776.89701850000006
  0
LINE
  8
_0-0_0
  6
CONTINUOUS
 62
    7
 10
-423.68685899999991
 20
758.69993550000004
 11
-423.78683499999988
 21
758.69993550000004
  0
LINE
  8
_0-0_0
  6
CONTINUOUS
 62
    7
 10
-423.78683499999988
 20
758.69993550000004
 11
-423.78683499999988
 21
761.69993550000004
  0
LINE
  8
_0-0_0
  6
CONTINUOUS
 62
    7
 10
-423.78683499999988
 20
761.69993550000004
 11
-423.78683499999988
 21
775.29994150000005
  0
LINE
  8
_0-0_0
  6
CONTINUOUS
 62
    7
 10
-423.68685899999991
 20
778.29994150000005
 11
-423.78683499999988
 21
778.29994150000005
  0
LINE
  8
_0-0_0
  6
CONTINUOUS
 62
    7
 10
-423.78683499999988
 20
775.29994150000005
 11
-423.78683499999988
 21
778.29994150000005
  0
ARC
  8
_0-0_0
  6
CONTINUOUS
 62
    7
 10
-417.386841
 20
755.79994150000005
 40
0.5
 50
180.00000900000003
 51
269.99999700000001
  0
ARC
  8
_0-0_0
  6
CONTINUOUS
 62
    7
 10
-420.68685899999991
 20
780.80000250000001
 40
1.5
 50
269.99999700000001
 51
0
  0
ARC
  8
_0-0_0
  6
CONTINUOUS
 62
    7
 10
-422.18685899999991
 20
779.80000250000001
 40
0.5
 50
90.000003000000007
 51
180.00000900000001
  0
LINE
  8
_0-0_0
  6
CONTINUOUS
 62
    7
 10
-422.18685899999991
 20
780.30000250000001
 11
-420.68685899999991
 21
780.30000250000001
  0
ARC
  8
_0-0_0
  6
CONTINUOUS
 62
    7
 10
-420.68685899999991
 20
781.30000250000001
 40
1
 50
269.99999700000001
 51
0
  0
LINE
  8
_0-0_0
  6
CONTINUOUS
 62
    7
 10
-419.68685899999991
 20
781.40003950000005
 11
-419.68685899999991
 21
781.30000250000001
  0
LINE
  8
_0-0_0
  6
CONTINUOUS
 62
    7
 10
-419.18685899999991
 20
781.40003950000005
 11
-419.18685899999991
 21
780.80000250000001
  0
LINE
  8
_0-0_0
  6
CONTINUOUS
 62
    7
 10
-422.68685899999991
 20
779.30000250000001
 11
-422.68685899999991
 21
779.80000250000001
  0
ARC
  8
_0-0_0
  6
CONTINUOUS
 62
    7
 10
-412.386841
 20
776.39994750000005
 40
0.5
 50
0
 51
90.000003000000007
  0
LINE
  8
_0-0_0
  6
CONTINUOUS
 62
    7
 10
-411.886841
 20
776.32295250000004
 11
-411.886841
 21
776.39994750000005
  0
LINE
  8
_0-0_0
  6
CONTINUOUS
 62
    7
 10
-411.886841
 20
774.88145450000002
 11
-411.886841
 21
776.32295250000004
  0
LINE
  8
_0-0_0
  6
CONTINUOUS
 62
    7
 10
-411.886841
 20
774.39994750000005
 11
-411.886841
 21
774.88145450000002
  0
ARC
  8
_0-0_0
  6
CONTINUOUS
 62
    7
 10
-408.886841
 20
774.39994750000005
 40
3
 50
180.00000900000003
 51
269.99999700000001
  0
LINE
  8
_0-0_0
  6
CONTINUOUS
 62
    7
 10
-408.40533400000004
 20
771.39994750000005
 11
-408.886841
 21
771.39994750000005
  0
LINE
  8
_0-0_0
  6
CONTINUOUS
 62
    7
 10
-408.40533400000004
 20
771.39994750000005
 11
-406.96380599999998
 21
771.39994750000005
  0
LINE
  8
_0-0_0
  6
CONTINUOUS
 62
    7
 10
-406.886841
 20
771.39994750000005
 11
-406.96380599999998
 21
771.39994750000005
  0
LINE
  8
_0-0_0
  6
CONTINUOUS
 62
    7
 10
-422.80987499999992
 20
760.79994150000005
 11
-422.886841
 21
760.79994150000005
  0
LINE
  8
_0-0_0
  6
CONTINUOUS
 62
    7
 10
-420.886841
 20
760.79994150000005
 11
-421.36834700000009
 21
760.79994150000005
  0
LINE
  8
_0-0_0
  6
CONTINUOUS
 62
    7
 10
-421.36834700000009
 20
760.79994150000005
 11
-422.80987499999992
 21
760.79994150000005
  0
LINE
  8
_0-0_0
  6
CONTINUOUS
 62
    7
 10
-417.886841
 20
755.79994150000005
 11
-417.886841
 21
755.87690750000002
  0
LINE
  8
_0-0_0
  6
CONTINUOUS
 62
    7
 10
-417.886841
 20
757.31843549999996
 11
-417.886841
 21
755.87690750000002
  0
LINE
  8
_0-0_0
  6
CONTINUOUS
 62
    7
 10
-417.886841
 20
757.31843549999996
 11
-417.886841
 21
757.79994150000005
  0
ARC
  8
_0-0_0
  6
CONTINUOUS
 62
    7
 10
-420.886841
 20
757.79994150000005
 40
3
 50
0
 51
89.999995999999996
  0
LINE
  8
_0-0_0
  6
CONTINUOUS
 62
    7
 10
-406.386841
 20
778.41120850000004
 11
-406.386841
 21
776.52494750000005
  0
LINE
  8
_0-0_0
  6
CONTINUOUS
 62
    7
 10
-406.386841
 20
779.07493550000004
 11
-406.386841
 21
778.41120850000004
  0
ARC
  8
_0-0_0
  6
CONTINUOUS
 62
    7
 10
-411.6567379999999
 20
767.27317749999997
 40
3.063396
 50
19.82113
 51
25.289563000000001
  0
ARC
  8
_0-0_0
  6
CONTINUOUS
 62
    7
 10
-411.65640299999995
 20
764.92655950000005
 40
3.0630519999999999
 50
334.71006
 51
340.17869200000001
  0
ARC
  8
_0-0_0
  6
CONTINUOUS
 62
    7
 10
-418.11697400000003
 20
764.92671150000001
 40
3.063399
 50
199.82113599999997
 51
205.28948099999999
  0
ARC
  8
_0-0_0
  6
CONTINUOUS
 62
    7
 10
-418.11727900000005
 20
767.27333050000004
 40
3.0630549999999999
 50
154.710137
 51
160.17869999999999
  0
ARC
  8
_0-0_0
  6
CONTINUOUS
 62
    7
 10
-414.886841
 20
766.09992950000003
 40
6.5
 50
340.10416099999998
 51
19.895609999999952
  0
ARC
  8
_0-0_0
  6
CONTINUOUS
 62
    7
 10
-414.886841
 20
766.09992950000003
 40
6.5
 50
160.10415599999999
 51
199.895612
  0
LINE
  8
_0-0_0
  6
CONTINUOUS
 62
    7
 10
-423.386841
 20
777.18873550000001
 11
-423.386841
 21
777.59907550000003
  0
LINE
  8
_0-0_0
  6
CONTINUOUS
 62
    7
 10
-423.386841
 20
776.52986150000004
 11
-423.386841
 21
777.18873550000001
  0
LINE
  8
_0-0_0
  6
CONTINUOUS
 62
    7
 10
-415.62850899999989
 20
772.59992950000003
 11
-420.145172
 21
769.9922335
  0
LINE
  8
_0-0_0
  6
CONTINUOUS
 62
    7
 10
-414.145172
 20
772.59992950000003
 11
-415.62850899999989
 21
772.59992950000003
  0
LINE
  8
_0-0_0
  6
CONTINUOUS
 62
    7
 10
-409.62850899999989
 20
769.9922335
 11
-414.145172
 21
772.59992950000003
  0
LINE
  8
_0-0_0
  6
CONTINUOUS
 62
    7
 10
-408.886841
 20
768.70762649999995
 11
-408.886841
 21
763.4922335
  0
LINE
  8
_0-0_0
  6
CONTINUOUS
 62
    7
 10
-409.62850899999989
 20
769.9922335
 11
-408.886841
 21
768.70762649999995
  0
LINE
  8
_0-0_0
  6
CONTINUOUS
 62
    7
 10
-414.145172
 20
759.59992950000003
 11
-409.62850899999989
 21
762.20762649999995
  0
LINE
  8
_0-0_0
  6
CONTINUOUS
 62
    7
 10
-409.33438099999989
 20
762.71708650000005
 11
-408.886841
 21
763.4922335
  0
LINE
  8
_0-0_0
  6
CONTINUOUS
 62
    7
 10
-409.33438099999989
 20
762.71708650000005
 11
-409.62850899999989
 21
762.20762649999995
  0
LINE
  8
_0-0_0
  6
CONTINUOUS
 62
    7
 10
-415.62850899999989
 20
759.59992950000003
 11
-414.145172
 21
759.59992950000003
  0
LINE
  8
_0-0_0
  6
CONTINUOUS
 62
    7
 10
-420.145172
 20
762.20762649999995
 11
-415.62850899999989
 21
759.59992950000003
  0
LINE
  8
_0-0_0
  6
CONTINUOUS
 62
    7
 10
-420.886841
 20
768.70762649999995
 11
-420.886841
 21
763.4922335
  0
LINE
  8
_0-0_0
  6
CONTINUOUS
 62
    7
 10
-420.145172
 20
762.20762649999995
 11
-420.886841
 21
763.4922335
  0
LINE
  8
_0-0_0
  6
CONTINUOUS
 62
    7
 10
-420.4393
 20
769.48280350000005
 11
-420.886841
 21
768.70762649999995
  0
LINE
  8
_0-0_0
  6
CONTINUOUS
 62
    7
 10
-420.4393
 20
769.48280350000005
 11
-420.145172
 21
769.9922335
  0
LINE
  8
_0-0_0
  6
CONTINUOUS
 62
    7
 10
-406.99984700000005
 20
775.6253815
 11
-406.72177099999999
 21
775.64994750000005
  0
LINE
  8
_0-0_0
  6
CONTINUOUS
 62
    7
 10
-406.88207999999986
 20
775.42143250000004
 11
-406.72177099999999
 21
775.64994750000005
  0
LINE
  8
_0-0_0
  6
CONTINUOUS
 62
    7
 10
-407.13827500000002
 20
775.81590249999999
 11
-406.86431900000002
 21
775.86939949999999
  0
LINE
  8
_0-0_0
  6
CONTINUOUS
 62
    7
 10
-406.99984700000005
 20
775.6253815
 11
-406.86431900000002
 21
775.86939949999999
  0
LINE
  8
_0-0_0
  6
CONTINUOUS
 62
    7
 10
-407.29586799999993
 20
775.99092050000002
 11
-407.02899200000002
 21
776.07276950000005
  0
LINE
  8
_0-0_0
  6
CONTINUOUS
 62
    7
 10
-407.13827500000002
 20
775.81590249999999
 11
-407.02899200000002
 21
776.07276950000005
  0
LINE
  8
_0-0_0
  6
CONTINUOUS
 62
    7
 10
-407.47088600000006
 20
776.14851350000004
 11
-407.21401999999989
 21
776.25779750000004
  0
LINE
  8
_0-0_0
  6
CONTINUOUS
 62
    7
 10
-407.29586799999993
 20
775.99092050000002
 11
-407.21401999999989
 21
776.25779750000004
  0
LINE
  8
_0-0_0
  6
CONTINUOUS
 62
    7
 10
-407.66140700000005
 20
776.28694150000001
 11
-407.41738899999996
 21
776.42250049999996
  0
LINE
  8
_0-0_0
  6
CONTINUOUS
 62
    7
 10
-407.47088600000006
 20
776.14851350000004
 11
-407.41738899999996
 21
776.42250049999996
  0
LINE
  8
_0-0_0
  6
CONTINUOUS
 62
    7
 10
-407.86535600000002
 20
776.40470849999997
 11
-407.636841
 21
776.56501749999995
  0
LINE
  8
_0-0_0
  6
CONTINUOUS
 62
    7
 10
-407.66140700000005
 20
776.28694150000001
 11
-407.636841
 21
776.56501749999995
  0
LINE
  8
_0-0_0
  6
CONTINUOUS
 62
    7
 10
-408.0805049999999
 20
776.50050350000004
 11
-407.86999500000002
 21
776.68379149999998
  0
LINE
  8
_0-0_0
  6
CONTINUOUS
 62
    7
 10
-407.86535600000002
 20
776.40470849999997
 11
-407.86999500000002
 21
776.68379149999998
  0
LINE
  8
_0-0_0
  6
CONTINUOUS
 62
    7
 10
-408.30450399999995
 20
776.57328749999999
 11
-408.11431900000002
 21
776.77757250000002
  0
LINE
  8
_0-0_0
  6
CONTINUOUS
 62
    7
 10
-408.0805049999999
 20
776.50050350000004
 11
-408.11431900000002
 21
776.77757250000002
  0
LINE
  8
_0-0_0
  6
CONTINUOUS
 62
    7
 10
-408.53488199999993
 20
776.62223849999998
 11
-408.36706499999991
 21
776.84532149999995
  0
LINE
  8
_0-0_0
  6
CONTINUOUS
 62
    7
 10
-408.30450399999995
 20
776.57328749999999
 11
-408.36706499999991
 21
776.84532149999995
  0
LINE
  8
_0-0_0
  6
CONTINUOUS
 62
    7
 10
-408.76910399999997
 20
776.64686549999999
 11
-408.62551899999994
 21
776.88624549999997
  0
LINE
  8
_0-0_0
  6
CONTINUOUS
 62
    7
 10
-408.53488199999993
 20
776.62223849999998
 11
-408.62551899999994
 21
776.88624549999997
  0
LINE
  8
_0-0_0
  6
CONTINUOUS
 62
    7
 10
-409.00460799999996
 20
776.64686549999999
 11
-408.886841
 21
776.89994750000005
  0
LINE
  8
_0-0_0
  6
CONTINUOUS
 62
    7
 10
-408.76910399999997
 20
776.64686549999999
 11
-408.886841
 21
776.89994750000005
  0
LINE
  8
_0-0_0
  6
CONTINUOUS
 62
    7
 10
-409.23883000000001
 20
776.62223849999998
 11
-409.14816299999984
 21
776.88624549999997
  0
LINE
  8
_0-0_0
  6
CONTINUOUS
 62
    7
 10
-409.00460799999996
 20
776.64686549999999
 11
-409.14816299999984
 21
776.88624549999997
  0
LINE
  8
_0-0_0
  6
CONTINUOUS
 62
    7
 10
-409.46917699999995
 20
776.57328749999999
 11
-409.40661599999999
 21
776.84532149999995
  0
LINE
  8
_0-0_0
  6
CONTINUOUS
 62
    7
 10
-409.23883000000001
 20
776.62223849999998
 11
-409.40661599999999
 21
776.84532149999995
  0
LINE
  8
_0-0_0
  6
CONTINUOUS
 62
    7
 10
-409.69317599999999
 20
776.50050350000004
 11
-409.65939299999991
 21
776.77757250000002
  0
LINE
  8
_0-0_0
  6
CONTINUOUS
 62
    7
 10
-409.46917699999995
 20
776.57328749999999
 11
-409.65939299999991
 21
776.77757250000002
  0
LINE
  8
_0-0_0
  6
CONTINUOUS
 62
    7
 10
-409.90832499999988
 20
776.40470849999997
 11
-409.90368600000011
 21
776.68379149999998
  0
LINE
  8
_0-0_0
  6
CONTINUOUS
 62
    7
 10
-409.69317599999999
 20
776.50050350000004
 11
-409.90368600000011
 21
776.68379149999998
  0
LINE
  8
_0-0_0
  6
CONTINUOUS
 62
    7
 10
-410.02786199999991
 20
776.48857150000003
 11
-410.136841
 21
776.56501749999995
  0
LINE
  8
_0-0_0
  6
CONTINUOUS
 62
    7
 10
-409.90832499999988
 20
776.40470849999997
 11
-410.02786199999991
 21
776.48857150000003
  0
LINE
  8
_0-0_0
  6
CONTINUOUS
 62
    7
 10
-410.11227400000007
 20
776.28694150000001
 11
-410.136841
 21
776.56501749999995
  0
LINE
  8
_0-0_0
  6
CONTINUOUS
 62
    7
 10
-410.3028260000001
 20
776.14851350000004
 11
-410.35632299999997
 21
776.42250049999996
  0
LINE
  8
_0-0_0
  6
CONTINUOUS
 62
    7
 10
-410.11227400000007
 20
776.28694150000001
 11
-410.35632299999997
 21
776.42250049999996
  0
LINE
  8
_0-0_0
  6
CONTINUOUS
 62
    7
 10
-410.477844
 20
775.99092050000002
 11
-410.55966199999989
 21
776.25779750000004
  0
LINE
  8
_0-0_0
  6
CONTINUOUS
 62
    7
 10
-410.3028260000001
 20
776.14851350000004
 11
-410.55966199999989
 21
776.25779750000004
  0
LINE
  8
_0-0_0
  6
CONTINUOUS
 62
    7
 10
-410.63543699999991
 20
775.81590249999999
 11
-410.74471999999992
 21
776.07276950000005
  0
LINE
  8
_0-0_0
  6
CONTINUOUS
 62
    7
 10
-410.477844
 20
775.99092050000002
 11
-410.74471999999992
 21
776.07276950000005
  0
LINE
  8
_0-0_0
  6
CONTINUOUS
 62
    7
 10
-410.77386500000011
 20
775.6253815
 11
-410.90939299999991
 21
775.86939949999999
  0
LINE
  8
_0-0_0
  6
CONTINUOUS
 62
    7
 10
-410.63543699999991
 20
775.81590249999999
 11
-410.90939299999991
 21
775.86939949999999
  0
LINE
  8
_0-0_0
  6
CONTINUOUS
 62
    7
 10
-410.89160100000004
 20
775.42143250000004
 11
-411.05190999999991
 21
775.64994750000005
  0
LINE
  8
_0-0_0
  6
CONTINUOUS
 62
    7
 10
-410.77386500000011
 20
775.6253815
 11
-411.05190999999991
 21
775.64994750000005
  0
LINE
  8
_0-0_0
  6
CONTINUOUS
 62
    7
 10
-410.98739599999999
 20
775.20628350000004
 11
-411.17071499999997
 21
775.41679350000004
  0
LINE
  8
_0-0_0
  6
CONTINUOUS
 62
    7
 10
-410.89160100000004
 20
775.42143250000004
 11
-411.17071499999997
 21
775.41679350000004
  0
LINE
  8
_0-0_0
  6
CONTINUOUS
 62
    7
 10
-411.06018100000006
 20
774.98228449999999
 11
-411.26449600000001
 21
775.17250049999996
  0
LINE
  8
_0-0_0
  6
CONTINUOUS
 62
    7
 10
-410.98739599999999
 20
775.20628350000004
 11
-411.26449600000001
 21
775.17250049999996
  0
LINE
  8
_0-0_0
  6
CONTINUOUS
 62
    7
 10
-411.10913099999993
 20
774.75190750000002
 11
-411.33221400000002
 21
774.91972350000003
  0
LINE
  8
_0-0_0
  6
CONTINUOUS
 62
    7
 10
-411.06018100000006
 20
774.98228449999999
 11
-411.33221400000002
 21
774.91972350000003
  0
LINE
  8
_0-0_0
  6
CONTINUOUS
 62
    7
 10
-411.10913099999993
 20
774.75190750000002
 11
-411.37313799999993
 21
774.6612705
  0
LINE
  8
_0-0_0
  6
CONTINUOUS
 62
    7
 10
-411.13375799999994
 20
774.51768449999997
 11
-411.37313799999993
 21
774.6612705
  0
LINE
  8
_0-0_0
  6
CONTINUOUS
 62
    7
 10
-411.13375799999994
 20
774.28218049999998
 11
-411.386841
 21
774.39994750000005
  0
LINE
  8
_0-0_0
  6
CONTINUOUS
 62
    7
 10
-411.13375799999994
 20
774.51768449999997
 11
-411.386841
 21
774.39994750000005
  0
LINE
  8
_0-0_0
  6
CONTINUOUS
 62
    7
 10
-411.10913099999993
 20
774.04795850000005
 11
-411.37313799999993
 21
774.13862549999999
  0
LINE
  8
_0-0_0
  6
CONTINUOUS
 62
    7
 10
-411.13375799999994
 20
774.28218049999998
 11
-411.37313799999993
 21
774.13862549999999
  0
LINE
  8
_0-0_0
  6
CONTINUOUS
 62
    7
 10
-411.06018100000006
 20
773.8176115
 11
-411.33221400000002
 21
773.88017249999996
  0
LINE
  8
_0-0_0
  6
CONTINUOUS
 62
    7
 10
-411.10913099999993
 20
774.04795850000005
 11
-411.33221400000002
 21
773.88017249999996
  0
LINE
  8
_0-0_0
  6
CONTINUOUS
 62
    7
 10
-410.98739599999999
 20
773.59361249999995
 11
-411.26449600000001
 21
773.62739550000003
  0
LINE
  8
_0-0_0
  6
CONTINUOUS
 62
    7
 10
-411.06018100000006
 20
773.8176115
 11
-411.26449600000001
 21
773.62739550000003
  0
LINE
  8
_0-0_0
  6
CONTINUOUS
 62
    7
 10
-410.89160100000004
 20
773.37846349999995
 11
-411.17071499999997
 21
773.38310249999995
  0
LINE
  8
_0-0_0
  6
CONTINUOUS
 62
    7
 10
-410.98739599999999
 20
773.59361249999995
 11
-411.17071499999997
 21
773.38310249999995
  0
LINE
  8
_0-0_0
  6
CONTINUOUS
 62
    7
 10
-410.77386500000011
 20
773.17451449999999
 11
-411.05190999999991
 21
773.14994750000005
  0
LINE
  8
_0-0_0
  6
CONTINUOUS
 62
    7
 10
-410.89160100000004
 20
773.37846349999995
 11
-411.05190999999991
 21
773.14994750000005
  0
LINE
  8
_0-0_0
  6
CONTINUOUS
 62
    7
 10
-410.63543699999991
 20
772.98396249999996
 11
-410.90939299999991
 21
772.9304965
  0
LINE
  8
_0-0_0
  6
CONTINUOUS
 62
    7
 10
-410.77386500000011
 20
773.17451449999999
 11
-410.90939299999991
 21
772.9304965
  0
LINE
  8
_0-0_0
  6
CONTINUOUS
 62
    7
 10
-410.477844
 20
772.80894450000005
 11
-410.74471999999992
 21
772.72712650000005
  0
LINE
  8
_0-0_0
  6
CONTINUOUS
 62
    7
 10
-410.63543699999991
 20
772.98396249999996
 11
-410.74471999999992
 21
772.72712650000005
  0
LINE
  8
_0-0_0
  6
CONTINUOUS
 62
    7
 10
-410.3028260000001
 20
772.65135150000003
 11
-410.55966199999989
 21
772.54206850000003
  0
LINE
  8
_0-0_0
  6
CONTINUOUS
 62
    7
 10
-410.477844
 20
772.80894450000005
 11
-410.55966199999989
 21
772.54206850000003
  0
LINE
  8
_0-0_0
  6
CONTINUOUS
 62
    7
 10
-410.11227400000007
 20
772.51292450000005
 11
-410.35632299999997
 21
772.37739550000003
  0
LINE
  8
_0-0_0
  6
CONTINUOUS
 62
    7
 10
-410.3028260000001
 20
772.65135150000003
 11
-410.35632299999997
 21
772.37739550000003
  0
LINE
  8
_0-0_0
  6
CONTINUOUS
 62
    7
 10
-409.90832499999988
 20
772.39518750000002
 11
-410.136841
 21
772.23487850000004
  0
LINE
  8
_0-0_0
  6
CONTINUOUS
 62
    7
 10
-410.11227400000007
 20
772.51292450000005
 11
-410.136841
 21
772.23487850000004
  0
LINE
  8
_0-0_0
  6
CONTINUOUS
 62
    7
 10
-409.69317599999999
 20
772.29939249999995
 11
-409.90368600000011
 21
772.11607349999997
  0
LINE
  8
_0-0_0
  6
CONTINUOUS
 62
    7
 10
-409.90832499999988
 20
772.39518750000002
 11
-409.90368600000011
 21
772.11607349999997
  0
LINE
  8
_0-0_0
  6
CONTINUOUS
 62
    7
 10
-409.46917699999995
 20
772.2266085
 11
-409.65939299999991
 21
772.02229250000005
  0
LINE
  8
_0-0_0
  6
CONTINUOUS
 62
    7
 10
-409.69317599999999
 20
772.29939249999995
 11
-409.65939299999991
 21
772.02229250000005
  0
LINE
  8
_0-0_0
  6
CONTINUOUS
 62
    7
 10
-409.23883000000001
 20
772.17765750000001
 11
-409.40661599999999
 21
771.95457450000004
  0
LINE
  8
_0-0_0
  6
CONTINUOUS
 62
    7
 10
-409.46917699999995
 20
772.2266085
 11
-409.40661599999999
 21
771.95457450000004
  0
LINE
  8
_0-0_0
  6
CONTINUOUS
 62
    7
 10
-409.00460799999996
 20
772.1530305
 11
-409.14816299999984
 21
771.91365050000002
  0
LINE
  8
_0-0_0
  6
CONTINUOUS
 62
    7
 10
-409.23883000000001
 20
772.17765750000001
 11
-409.14816299999984
 21
771.91365050000002
  0
LINE
  8
_0-0_0
  6
CONTINUOUS
 62
    7
 10
-408.76910399999997
 20
772.1530305
 11
-408.886841
 21
771.89994750000005
  0
LINE
  8
_0-0_0
  6
CONTINUOUS
 62
    7
 10
-409.00460799999996
 20
772.1530305
 11
-408.886841
 21
771.89994750000005
  0
LINE
  8
_0-0_0
  6
CONTINUOUS
 62
    7
 10
-408.53488199999993
 20
772.17765750000001
 11
-408.62551899999994
 21
771.91365050000002
  0
LINE
  8
_0-0_0
  6
CONTINUOUS
 62
    7
 10
-408.76910399999997
 20
772.1530305
 11
-408.62551899999994
 21
771.91365050000002
  0
LINE
  8
_0-0_0
  6
CONTINUOUS
 62
    7
 10
-408.30450399999995
 20
772.2266085
 11
-408.36706499999991
 21
771.95457450000004
  0
LINE
  8
_0-0_0
  6
CONTINUOUS
 62
    7
 10
-408.53488199999993
 20
772.17765750000001
 11
-408.36706499999991
 21
771.95457450000004
  0
LINE
  8
_0-0_0
  6
CONTINUOUS
 62
    7
 10
-408.0805049999999
 20
772.29939249999995
 11
-408.11431900000002
 21
772.02229250000005
  0
LINE
  8
_0-0_0
  6
CONTINUOUS
 62
    7
 10
-408.30450399999995
 20
772.2266085
 11
-408.11431900000002
 21
772.02229250000005
  0
LINE
  8
_0-0_0
  6
CONTINUOUS
 62
    7
 10
-407.86535600000002
 20
772.39518750000002
 11
-407.86999500000002
 21
772.11607349999997
  0
LINE
  8
_0-0_0
  6
CONTINUOUS
 62
    7
 10
-408.0805049999999
 20
772.29939249999995
 11
-407.86999500000002
 21
772.11607349999997
  0
LINE
  8
_0-0_0
  6
CONTINUOUS
 62
    7
 10
-407.74581899999998
 20
772.31132449999996
 11
-407.636841
 21
772.23487850000004
  0
LINE
  8
_0-0_0
  6
CONTINUOUS
 62
    7
 10
-407.86535600000002
 20
772.39518750000002
 11
-407.74581899999998
 21
772.31132449999996
  0
LINE
  8
_0-0_0
  6
CONTINUOUS
 62
    7
 10
-407.66140700000005
 20
772.51292450000005
 11
-407.636841
 21
772.23487850000004
  0
LINE
  8
_0-0_0
  6
CONTINUOUS
 62
    7
 10
-407.47088600000006
 20
772.65135150000003
 11
-407.41738899999996
 21
772.37739550000003
  0
LINE
  8
_0-0_0
  6
CONTINUOUS
 62
    7
 10
-407.66140700000005
 20
772.51292450000005
 11
-407.41738899999996
 21
772.37739550000003
  0
LINE
  8
_0-0_0
  6
CONTINUOUS
 62
    7
 10
-407.29586799999993
 20
772.80894450000005
 11
-407.21401999999989
 21
772.54206850000003
  0
LINE
  8
_0-0_0
  6
CONTINUOUS
 62
    7
 10
-407.47088600000006
 20
772.65135150000003
 11
-407.21401999999989
 21
772.54206850000003
  0
LINE
  8
_0-0_0
  6
CONTINUOUS
 62
    7
 10
-407.13827500000002
 20
772.98396249999996
 11
-407.02899200000002
 21
772.72712650000005
  0
LINE
  8
_0-0_0
  6
CONTINUOUS
 62
    7
 10
-407.29586799999993
 20
772.80894450000005
 11
-407.02899200000002
 21
772.72712650000005
  0
LINE
  8
_0-0_0
  6
CONTINUOUS
 62
    7
 10
-406.99984700000005
 20
773.17451449999999
 11
-406.86431900000002
 21
772.9304965
  0
LINE
  8
_0-0_0
  6
CONTINUOUS
 62
    7
 10
-407.13827500000002
 20
772.98396249999996
 11
-406.86431900000002
 21
772.9304965
  0
LINE
  8
_0-0_0
  6
CONTINUOUS
 62
    7
 10
-406.88207999999986
 20
773.37846349999995
 11
-406.72177099999999
 21
773.14994750000005
  0
LINE
  8
_0-0_0
  6
CONTINUOUS
 62
    7
 10
-406.99984700000005
 20
773.17451449999999
 11
-406.72177099999999
 21
773.14994750000005
  0
LINE
  8
_0-0_0
  6
CONTINUOUS
 62
    7
 10
-406.78628499999991
 20
773.59361249999995
 11
-406.60299699999996
 21
773.38310249999995
  0
LINE
  8
_0-0_0
  6
CONTINUOUS
 62
    7
 10
-406.88207999999986
 20
773.37846349999995
 11
-406.60299699999996
 21
773.38310249999995
  0
LINE
  8
_0-0_0
  6
CONTINUOUS
 62
    7
 10
-406.71350099999995
 20
773.8176115
 11
-406.50921599999992
 21
773.62739550000003
  0
LINE
  8
_0-0_0
  6
CONTINUOUS
 62
    7
 10
-406.78628499999991
 20
773.59361249999995
 11
-406.50921599999992
 21
773.62739550000003
  0
LINE
  8
_0-0_0
  6
CONTINUOUS
 62
    7
 10
-406.66455099999985
 20
774.04795850000005
 11
-406.4414670000001
 21
773.88017249999996
  0
LINE
  8
_0-0_0
  6
CONTINUOUS
 62
    7
 10
-406.71350099999995
 20
773.8176115
 11
-406.4414670000001
 21
773.88017249999996
  0
LINE
  8
_0-0_0
  6
CONTINUOUS
 62
    7
 10
-406.63992299999995
 20
774.28218049999998
 11
-406.40054299999997
 21
774.13862549999999
  0
LINE
  8
_0-0_0
  6
CONTINUOUS
 62
    7
 10
-406.66455099999985
 20
774.04795850000005
 11
-406.40054299999997
 21
774.13862549999999
  0
LINE
  8
_0-0_0
  6
CONTINUOUS
 62
    7
 10
-406.63992299999995
 20
774.51768449999997
 11
-406.386841
 21
774.39994750000005
  0
LINE
  8
_0-0_0
  6
CONTINUOUS
 62
    7
 10
-406.63992299999995
 20
774.28218049999998
 11
-406.386841
 21
774.39994750000005
  0
LINE
  8
_0-0_0
  6
CONTINUOUS
 62
    7
 10
-406.66455099999985
 20
774.75190750000002
 11
-406.40054299999997
 21
774.6612705
  0
LINE
  8
_0-0_0
  6
CONTINUOUS
 62
    7
 10
-406.63992299999995
 20
774.51768449999997
 11
-406.40054299999997
 21
774.6612705
  0
LINE
  8
_0-0_0
  6
CONTINUOUS
 62
    7
 10
-406.71350099999995
 20
774.98228449999999
 11
-406.4414670000001
 21
774.91972350000003
  0
LINE
  8
_0-0_0
  6
CONTINUOUS
 62
    7
 10
-406.66455099999985
 20
774.75190750000002
 11
-406.4414670000001
 21
774.91972350000003
  0
LINE
  8
_0-0_0
  6
CONTINUOUS
 62
    7
 10
-406.78628499999991
 20
775.20628350000004
 11
-406.50921599999992
 21
775.17250049999996
  0
LINE
  8
_0-0_0
  6
CONTINUOUS
 62
    7
 10
-406.71350099999995
 20
774.98228449999999
 11
-406.50921599999992
 21
775.17250049999996
  0
LINE
  8
_0-0_0
  6
CONTINUOUS
 62
    7
 10
-406.88207999999986
 20
775.42143250000004
 11
-406.60299699999996
 21
775.41679350000004
  0
LINE
  8
_0-0_0
  6
CONTINUOUS
 62
    7
 10
-406.78628499999991
 20
775.20628350000004
 11
-406.60299699999996
 21
775.41679350000004
  0
CIRCLE
  8
_0-0_0
  6
CONTINUOUS
 62
    7
 10
-414.886841
 20
766.09992950000003
 40
5.25
  0
LINE
  8
_0-0_0
  6
CONTINUOUS
 62
    7
 10
-418.99984700000005
 20
759.0253755
 11
-418.72177099999999
 21
759.04994150000005
  0
LINE
  8
_0-0_0
  6
CONTINUOUS
 62
    7
 10
-418.88207999999986
 20
758.82142650000003
 11
-418.72177099999999
 21
759.04994150000005
  0
LINE
  8
_0-0_0
  6
CONTINUOUS
 62
    7
 10
-419.13827500000002
 20
759.21592650000002
 11
-418.86431900000002
 21
759.26939349999998
  0
LINE
  8
_0-0_0
  6
CONTINUOUS
 62
    7
 10
-418.99984700000005
 20
759.0253755
 11
-418.86431900000002
 21
759.26939349999998
  0
LINE
  8
_0-0_0
  6
CONTINUOUS
 62
    7
 10
-419.29586799999993
 20
759.39094550000004
 11
-419.02899200000002
 21
759.47276250000004
  0
LINE
  8
_0-0_0
  6
CONTINUOUS
 62
    7
 10
-419.13827500000002
 20
759.21592650000002
 11
-419.02899200000002
 21
759.47276250000004
  0
LINE
  8
_0-0_0
  6
CONTINUOUS
 62
    7
 10
-419.47088600000006
 20
759.54850750000003
 11
-419.21401999999989
 21
759.65779150000003
  0
LINE
  8
_0-0_0
  6
CONTINUOUS
 62
    7
 10
-419.29586799999993
 20
759.39094550000004
 11
-419.21401999999989
 21
759.65779150000003
  0
LINE
  8
_0-0_0
  6
CONTINUOUS
 62
    7
 10
-419.66140700000005
 20
759.68696550000004
 11
-419.41738899999996
 21
759.82249449999995
  0
LINE
  8
_0-0_0
  6
CONTINUOUS
 62
    7
 10
-419.47088600000006
 20
759.54850750000003
 11
-419.41738899999996
 21
759.82249449999995
  0
LINE
  8
_0-0_0
  6
CONTINUOUS
 62
    7
 10
-419.86535600000002
 20
759.80470249999996
 11
-419.636841
 21
759.96501150000006
  0
LINE
  8
_0-0_0
  6
CONTINUOUS
 62
    7
 10
-419.66140700000005
 20
759.68696550000004
 11
-419.636841
 21
759.96501150000006
  0
LINE
  8
_0-0_0
  6
CONTINUOUS
 62
    7
 10
-420.0805049999999
 20
759.90049750000003
 11
-419.86999500000002
 21
760.08381650000001
  0
LINE
  8
_0-0_0
  6
CONTINUOUS
 62
    7
 10
-419.86535600000002
 20
759.80470249999996
 11
-419.86999500000002
 21
760.08381650000001
  0
LINE
  8
_0-0_0
  6
CONTINUOUS
 62
    7
 10
-420.30450399999995
 20
759.97328149999998
 11
-420.11428799999999
 21
760.17759650000005
  0
LINE
  8
_0-0_0
  6
CONTINUOUS
 62
    7
 10
-420.0805049999999
 20
759.90049750000003
 11
-420.11428799999999
 21
760.17759650000005
  0
LINE
  8
_0-0_0
  6
CONTINUOUS
 62
    7
 10
-420.53488199999993
 20
760.02223149999998
 11
-420.36706499999991
 21
760.24531549999995
  0
LINE
  8
_0-0_0
  6
CONTINUOUS
 62
    7
 10
-420.30450399999995
 20
759.97328149999998
 11
-420.36706499999991
 21
760.24531549999995
  0
LINE
  8
_0-0_0
  6
CONTINUOUS
 62
    7
 10
-420.76910399999997
 20
760.04685949999998
 11
-420.62551899999994
 21
760.28623949999997
  0
LINE
  8
_0-0_0
  6
CONTINUOUS
 62
    7
 10
-420.53488199999993
 20
760.02223149999998
 11
-420.62551899999994
 21
760.28623949999997
  0
LINE
  8
_0-0_0
  6
CONTINUOUS
 62
    7
 10
-421.00460799999996
 20
760.04685949999998
 11
-420.886841
 21
760.29994150000005
  0
LINE
  8
_0-0_0
  6
CONTINUOUS
 62
    7
 10
-420.76910399999997
 20
760.04685949999998
 11
-420.886841
 21
760.29994150000005
  0
LINE
  8
_0-0_0
  6
CONTINUOUS
 62
    7
 10
-421.23883000000001
 20
760.02223149999998
 11
-421.14816299999984
 21
760.28623949999997
  0
LINE
  8
_0-0_0
  6
CONTINUOUS
 62
    7
 10
-421.00460799999996
 20
760.04685949999998
 11
-421.14816299999984
 21
760.28623949999997
  0
LINE
  8
_0-0_0
  6
CONTINUOUS
 62
    7
 10
-421.46917699999995
 20
759.97328149999998
 11
-421.40661599999999
 21
760.24531549999995
  0
LINE
  8
_0-0_0
  6
CONTINUOUS
 62
    7
 10
-421.23883000000001
 20
760.02223149999998
 11
-421.40661599999999
 21
760.24531549999995
  0
LINE
  8
_0-0_0
  6
CONTINUOUS
 62
    7
 10
-421.69317599999999
 20
759.90049750000003
 11
-421.65939299999991
 21
760.17759650000005
  0
LINE
  8
_0-0_0
  6
CONTINUOUS
 62
    7
 10
-421.46917699999995
 20
759.97328149999998
 11
-421.65939299999991
 21
760.17759650000005
  0
LINE
  8
_0-0_0
  6
CONTINUOUS
 62
    7
 10
-421.90832499999988
 20
759.80470249999996
 11
-421.90368600000011
 21
760.08381650000001
  0
LINE
  8
_0-0_0
  6
CONTINUOUS
 62
    7
 10
-421.69317599999999
 20
759.90049750000003
 11
-421.90368600000011
 21
760.08381650000001
  0
LINE
  8
_0-0_0
  6
CONTINUOUS
 62
    7
 10
-422.02786199999991
 20
759.88856450000003
 11
-422.136841
 21
759.96501150000006
  0
LINE
  8
_0-0_0
  6
CONTINUOUS
 62
    7
 10
-421.90832499999988
 20
759.80470249999996
 11
-422.02786199999991
 21
759.88856450000003
  0
LINE
  8
_0-0_0
  6
CONTINUOUS
 62
    7
 10
-422.11227400000007
 20
759.68696550000004
 11
-422.136841
 21
759.96501150000006
  0
LINE
  8
_0-0_0
  6
CONTINUOUS
 62
    7
 10
-422.3028260000001
 20
759.54850750000003
 11
-422.35632299999997
 21
759.82249449999995
  0
LINE
  8
_0-0_0
  6
CONTINUOUS
 62
    7
 10
-422.11227400000007
 20
759.68696550000004
 11
-422.35632299999997
 21
759.82249449999995
  0
LINE
  8
_0-0_0
  6
CONTINUOUS
 62
    7
 10
-422.477844
 20
759.39094550000004
 11
-422.55966199999989
 21
759.65779150000003
  0
LINE
  8
_0-0_0
  6
CONTINUOUS
 62
    7
 10
-422.3028260000001
 20
759.54850750000003
 11
-422.55966199999989
 21
759.65779150000003
  0
LINE
  8
_0-0_0
  6
CONTINUOUS
 62
    7
 10
-422.63543699999991
 20
759.21592650000002
 11
-422.74471999999992
 21
759.47276250000004
  0
LINE
  8
_0-0_0
  6
CONTINUOUS
 62
    7
 10
-422.477844
 20
759.39094550000004
 11
-422.74471999999992
 21
759.47276250000004
  0
LINE
  8
_0-0_0
  6
CONTINUOUS
 62
    7
 10
-422.77386500000011
 20
759.0253755
 11
-422.90939299999991
 21
759.26939349999998
  0
LINE
  8
_0-0_0
  6
CONTINUOUS
 62
    7
 10
-422.63543699999991
 20
759.21592650000002
 11
-422.90939299999991
 21
759.26939349999998
  0
LINE
  8
_0-0_0
  6
CONTINUOUS
 62
    7
 10
-422.89160100000004
 20
758.82142650000003
 11
-423.05190999999991
 21
759.04994150000005
  0
LINE
  8
_0-0_0
  6
CONTINUOUS
 62
    7
 10
-422.77386500000011
 20
759.0253755
 11
-423.05190999999991
 21
759.04994150000005
  0
LINE
  8
_0-0_0
  6
CONTINUOUS
 62
    7
 10
-422.98739599999999
 20
758.60627750000003
 11
-423.17071499999997
 21
758.81678750000003
  0
LINE
  8
_0-0_0
  6
CONTINUOUS
 62
    7
 10
-422.89160100000004
 20
758.82142650000003
 11
-423.17071499999997
 21
758.81678750000003
  0
LINE
  8
_0-0_0
  6
CONTINUOUS
 62
    7
 10
-423.06018100000006
 20
758.38227849999998
 11
-423.26449600000001
 21
758.57249449999995
  0
LINE
  8
_0-0_0
  6
CONTINUOUS
 62
    7
 10
-422.98739599999999
 20
758.60627750000003
 11
-423.26449600000001
 21
758.57249449999995
  0
LINE
  8
_0-0_0
  6
CONTINUOUS
 62
    7
 10
-423.10913099999993
 20
758.15193150000005
 11
-423.33221400000002
 21
758.31971750000002
  0
LINE
  8
_0-0_0
  6
CONTINUOUS
 62
    7
 10
-423.06018100000006
 20
758.38227849999998
 11
-423.33221400000002
 21
758.31971750000002
  0
LINE
  8
_0-0_0
  6
CONTINUOUS
 62
    7
 10
-423.10913099999993
 20
758.15193150000005
 11
-423.37313799999993
 21
758.0612635
  0
LINE
  8
_0-0_0
  6
CONTINUOUS
 62
    7
 10
-423.13375799999994
 20
757.9177095
 11
-423.37313799999993
 21
758.0612635
  0
LINE
  8
_0-0_0
  6
CONTINUOUS
 62
    7
 10
-423.13375799999994
 20
757.68217449999997
 11
-423.386841
 21
757.79994150000005
  0
LINE
  8
_0-0_0
  6
CONTINUOUS
 62
    7
 10
-423.13375799999994
 20
757.9177095
 11
-423.386841
 21
757.79994150000005
  0
LINE
  8
_0-0_0
  6
CONTINUOUS
 62
    7
 10
-423.10913099999993
 20
757.44795250000004
 11
-423.37313799999993
 21
757.53861949999998
  0
LINE
  8
_0-0_0
  6
CONTINUOUS
 62
    7
 10
-423.13375799999994
 20
757.68217449999997
 11
-423.37313799999993
 21
757.53861949999998
  0
LINE
  8
_0-0_0
  6
CONTINUOUS
 62
    7
 10
-423.06018100000006
 20
757.21760549999999
 11
-423.33221400000002
 21
757.28016649999995
  0
LINE
  8
_0-0_0
  6
CONTINUOUS
 62
    7
 10
-423.10913099999993
 20
757.44795250000004
 11
-423.33221400000002
 21
757.28016649999995
  0
LINE
  8
_0-0_0
  6
CONTINUOUS
 62
    7
 10
-422.98739599999999
 20
756.99360650000006
 11
-423.26449600000001
 21
757.02738950000003
  0
LINE
  8
_0-0_0
  6
CONTINUOUS
 62
    7
 10
-423.06018100000006
 20
757.21760549999999
 11
-423.26449600000001
 21
757.02738950000003
  0
LINE
  8
_0-0_0
  6
CONTINUOUS
 62
    7
 10
-422.89160100000004
 20
756.77845750000006
 11
-423.17071499999997
 21
756.78309650000006
  0
LINE
  8
_0-0_0
  6
CONTINUOUS
 62
    7
 10
-422.98739599999999
 20
756.99360650000006
 11
-423.17071499999997
 21
756.78309650000006
  0
LINE
  8
_0-0_0
  6
CONTINUOUS
 62
    7
 10
-422.77386500000011
 20
756.57450849999998
 11
-423.05190999999991
 21
756.54994150000005
  0
LINE
  8
_0-0_0
  6
CONTINUOUS
 62
    7
 10
-422.89160100000004
 20
756.77845750000006
 11
-423.05190999999991
 21
756.54994150000005
  0
LINE
  8
_0-0_0
  6
CONTINUOUS
 62
    7
 10
-422.63543699999991
 20
756.38398749999999
 11
-422.90939299999991
 21
756.3304895
  0
LINE
  8
_0-0_0
  6
CONTINUOUS
 62
    7
 10
-422.77386500000011
 20
756.57450849999998
 11
-422.90939299999991
 21
756.3304895
  0
LINE
  8
_0-0_0
  6
CONTINUOUS
 62
    7
 10
-422.477844
 20
756.20896849999997
 11
-422.74471999999992
 21
756.12712050000005
  0
LINE
  8
_0-0_0
  6
CONTINUOUS
 62
    7
 10
-422.63543699999991
 20
756.38398749999999
 11
-422.74471999999992
 21
756.12712050000005
  0
LINE
  8
_0-0_0
  6
CONTINUOUS
 62
    7
 10
-422.3028260000001
 20
756.05137649999995
 11
-422.55966199999989
 21
755.94209250000006
  0
LINE
  8
_0-0_0
  6
CONTINUOUS
 62
    7
 10
-422.477844
 20
756.20896849999997
 11
-422.55966199999989
 21
755.94209250000006
  0
LINE
  8
_0-0_0
  6
CONTINUOUS
 62
    7
 10
-422.11227400000007
 20
755.91291750000005
 11
-422.35632299999997
 21
755.77738950000003
  0
LINE
  8
_0-0_0
  6
CONTINUOUS
 62
    7
 10
-422.3028260000001
 20
756.05137649999995
 11
-422.35632299999997
 21
755.77738950000003
  0
LINE
  8
_0-0_0
  6
CONTINUOUS
 62
    7
 10
-421.90832499999988
 20
755.79518150000001
 11
-422.136841
 21
755.63487250000003
  0
LINE
  8
_0-0_0
  6
CONTINUOUS
 62
    7
 10
-422.11227400000007
 20
755.91291750000005
 11
-422.136841
 21
755.63487250000003
  0
LINE
  8
_0-0_0
  6
CONTINUOUS
 62
    7
 10
-421.69317599999999
 20
755.69938650000006
 11
-421.90368600000011
 21
755.51606749999996
  0
LINE
  8
_0-0_0
  6
CONTINUOUS
 62
    7
 10
-421.90832499999988
 20
755.79518150000001
 11
-421.90368600000011
 21
755.51606749999996
  0
LINE
  8
_0-0_0
  6
CONTINUOUS
 62
    7
 10
-421.46917699999995
 20
755.62660249999999
 11
-421.65939299999991
 21
755.42228650000004
  0
LINE
  8
_0-0_0
  6
CONTINUOUS
 62
    7
 10
-421.69317599999999
 20
755.69938650000006
 11
-421.65939299999991
 21
755.42228650000004
  0
LINE
  8
_0-0_0
  6
CONTINUOUS
 62
    7
 10
-421.23883000000001
 20
755.5776515
 11
-421.40661599999999
 21
755.35456850000003
  0
LINE
  8
_0-0_0
  6
CONTINUOUS
 62
    7
 10
-421.46917699999995
 20
755.62660249999999
 11
-421.40661599999999
 21
755.35456850000003
  0
LINE
  8
_0-0_0
  6
CONTINUOUS
 62
    7
 10
-421.00460799999996
 20
755.55302449999999
 11
-421.14816299999984
 21
755.31364450000001
  0
LINE
  8
_0-0_0
  6
CONTINUOUS
 62
    7
 10
-421.23883000000001
 20
755.5776515
 11
-421.14816299999984
 21
755.31364450000001
  0
LINE
  8
_0-0_0
  6
CONTINUOUS
 62
    7
 10
-420.76910399999997
 20
755.55302449999999
 11
-420.886841
 21
755.29994150000005
  0
LINE
  8
_0-0_0
  6
CONTINUOUS
 62
    7
 10
-421.00460799999996
 20
755.55302449999999
 11
-420.886841
 21
755.29994150000005
  0
LINE
  8
_0-0_0
  6
CONTINUOUS
 62
    7
 10
-420.53488199999993
 20
755.5776515
 11
-420.62551899999994
 21
755.31364450000001
  0
LINE
  8
_0-0_0
  6
CONTINUOUS
 62
    7
 10
-420.76910399999997
 20
755.55302449999999
 11
-420.62551899999994
 21
755.31364450000001
  0
LINE
  8
_0-0_0
  6
CONTINUOUS
 62
    7
 10
-420.30450399999995
 20
755.62660249999999
 11
-420.36706499999991
 21
755.35456850000003
  0
LINE
  8
_0-0_0
  6
CONTINUOUS
 62
    7
 10
-420.53488199999993
 20
755.5776515
 11
-420.36706499999991
 21
755.35456850000003
  0
LINE
  8
_0-0_0
  6
CONTINUOUS
 62
    7
 10
-420.0805049999999
 20
755.69938650000006
 11
-420.11428799999999
 21
755.42228650000004
  0
LINE
  8
_0-0_0
  6
CONTINUOUS
 62
    7
 10
-420.30450399999995
 20
755.62660249999999
 11
-420.11428799999999
 21
755.42228650000004
  0
LINE
  8
_0-0_0
  6
CONTINUOUS
 62
    7
 10
-419.86535600000002
 20
755.79518150000001
 11
-419.86999500000002
 21
755.51606749999996
  0
LINE
  8
_0-0_0
  6
CONTINUOUS
 62
    7
 10
-420.0805049999999
 20
755.69938650000006
 11
-419.86999500000002
 21
755.51606749999996
  0
LINE
  8
_0-0_0
  6
CONTINUOUS
 62
    7
 10
-419.74581899999998
 20
755.71131849999995
 11
-419.636841
 21
755.63487250000003
  0
LINE
  8
_0-0_0
  6
CONTINUOUS
 62
    7
 10
-419.86535600000002
 20
755.79518150000001
 11
-419.74581899999998
 21
755.71131849999995
  0
LINE
  8
_0-0_0
  6
CONTINUOUS
 62
    7
 10
-419.66140700000005
 20
755.91291750000005
 11
-419.636841
 21
755.63487250000003
  0
LINE
  8
_0-0_0
  6
CONTINUOUS
 62
    7
 10
-419.47088600000006
 20
756.05137649999995
 11
-419.41738899999996
 21
755.77738950000003
  0
LINE
  8
_0-0_0
  6
CONTINUOUS
 62
    7
 10
-419.66140700000005
 20
755.91291750000005
 11
-419.41738899999996
 21
755.77738950000003
  0
LINE
  8
_0-0_0
  6
CONTINUOUS
 62
    7
 10
-419.29586799999993
 20
756.20896849999997
 11
-419.21401999999989
 21
755.94209250000006
  0
LINE
  8
_0-0_0
  6
CONTINUOUS
 62
    7
 10
-419.47088600000006
 20
756.05137649999995
 11
-419.21401999999989
 21
755.94209250000006
  0
LINE
  8
_0-0_0
  6
CONTINUOUS
 62
    7
 10
-419.13827500000002
 20
756.38398749999999
 11
-419.02899200000002
 21
756.12712050000005
  0
LINE
  8
_0-0_0
  6
CONTINUOUS
 62
    7
 10
-419.29586799999993
 20
756.20896849999997
 11
-419.02899200000002
 21
756.12712050000005
  0
LINE
  8
_0-0_0
  6
CONTINUOUS
 62
    7
 10
-418.99984700000005
 20
756.57450849999998
 11
-418.86431900000002
 21
756.3304895
  0
LINE
  8
_0-0_0
  6
CONTINUOUS
 62
    7
 10
-419.13827500000002
 20
756.38398749999999
 11
-418.86431900000002
 21
756.3304895
  0
LINE
  8
_0-0_0
  6
CONTINUOUS
 62
    7
 10
-418.88207999999986
 20
756.77845750000006
 11
-418.72177099999999
 21
756.54994150000005
  0
LINE
  8
_0-0_0
  6
CONTINUOUS
 62
    7
 10
-418.99984700000005
 20
756.57450849999998
 11
-418.72177099999999
 21
756.54994150000005
  0
LINE
  8
_0-0_0
  6
CONTINUOUS
 62
    7
 10
-418.78628499999991
 20
756.99360650000006
 11
-418.60299699999996
 21
756.78309650000006
  0
LINE
  8
_0-0_0
  6
CONTINUOUS
 62
    7
 10
-418.88207999999986
 20
756.77845750000006
 11
-418.60299699999996
 21
756.78309650000006
  0
LINE
  8
_0-0_0
  6
CONTINUOUS
 62
    7
 10
-418.71350099999995
 20
757.21760549999999
 11
-418.50921599999992
 21
757.02738950000003
  0
LINE
  8
_0-0_0
  6
CONTINUOUS
 62
    7
 10
-418.78628499999991
 20
756.99360650000006
 11
-418.50921599999992
 21
757.02738950000003
  0
LINE
  8
_0-0_0
  6
CONTINUOUS
 62
    7
 10
-418.66455099999985
 20
757.44795250000004
 11
-418.4414670000001
 21
757.28016649999995
  0
LINE
  8
_0-0_0
  6
CONTINUOUS
 62
    7
 10
-418.71350099999995
 20
757.21760549999999
 11
-418.4414670000001
 21
757.28016649999995
  0
LINE
  8
_0-0_0
  6
CONTINUOUS
 62
    7
 10
-418.63992299999995
 20
757.68217449999997
 11
-418.40054299999997
 21
757.53861949999998
  0
LINE
  8
_0-0_0
  6
CONTINUOUS
 62
    7
 10
-418.66455099999985
 20
757.44795250000004
 11
-418.40054299999997
 21
757.53861949999998
  0
LINE
  8
_0-0_0
  6
CONTINUOUS
 62
    7
 10
-418.63992299999995
 20
757.9177095
 11
-418.386841
 21
757.79994150000005
  0
LINE
  8
_0-0_0
  6
CONTINUOUS
 62
    7
 10
-418.63992299999995
 20
757.68217449999997
 11
-418.386841
 21
757.79994150000005
  0
LINE
  8
_0-0_0
  6
CONTINUOUS
 62
    7
 10
-418.66455099999985
 20
758.15193150000005
 11
-418.40054299999997
 21
758.0612635
  0
LINE
  8
_0-0_0
  6
CONTINUOUS
 62
    7
 10
-418.63992299999995
 20
757.9177095
 11
-418.40054299999997
 21
758.0612635
  0
LINE
  8
_0-0_0
  6
CONTINUOUS
 62
    7
 10
-418.71350099999995
 20
758.38227849999998
 11
-418.4414670000001
 21
758.31971750000002
  0
LINE
  8
_0-0_0
  6
CONTINUOUS
 62
    7
 10
-418.66455099999985
 20
758.15193150000005
 11
-418.4414670000001
 21
758.31971750000002
  0
LINE
  8
_0-0_0
  6
CONTINUOUS
 62
    7
 10
-418.78628499999991
 20
758.60627750000003
 11
-418.50921599999992
 21
758.57249449999995
  0
LINE
  8
_0-0_0
  6
CONTINUOUS
 62
    7
 10
-418.71350099999995
 20
758.38227849999998
 11
-418.50921599999992
 21
758.57249449999995
  0
LINE
  8
_0-0_0
  6
CONTINUOUS
 62
    7
 10
-418.88207999999986
 20
758.82142650000003
 11
-418.60299699999996
 21
758.81678750000003
  0
LINE
  8
_0-0_0
  6
CONTINUOUS
 62
    7
 10
-418.78628499999991
 20
758.60627750000003
 11
-418.60299699999996
 21
758.81678750000003
  0
CIRCLE
  8
_0-0_0
  6
CONTINUOUS
 62
    7
 10
-408.886841
 20
774.39994750000005
 40
2
  0
CIRCLE
  8
_0-0_0
  6
CONTINUOUS
 62
    7
 10
-420.886841
 20
757.79994150000005
 40
2
  0
LINE
  8
_0-0_0
  6
CONTINUOUS
 62
    7
 10
-408.30474800000002
 20
773.39994750000005
 11
-409.46896399999991
 21
773.39994750000005
  0
LINE
  8
_0-0_0
  6
CONTINUOUS
 62
    7
 10
-409.46896399999991
 20
773.39994750000005
 11
-410.03683499999988
 21
774.39994750000005
  0
LINE
  8
_0-0_0
  6
CONTINUOUS
 62
    7
 10
-410.03683499999988
 20
774.39994750000005
 11
-409.46896399999991
 21
775.39994750000005
  0
LINE
  8
_0-0_0
  6
CONTINUOUS
 62
    7
 10
-409.46896399999991
 20
775.39994750000005
 11
-408.30474800000002
 21
775.39994750000005
  0
LINE
  8
_0-0_0
  6
CONTINUOUS
 62
    7
 10
-408.30474800000002
 20
775.39994750000005
 11
-407.7368469999999
 21
774.39994750000005
  0
LINE
  8
_0-0_0
  6
CONTINUOUS
 62
    7
 10
-407.7368469999999
 20
774.39994750000005
 11
-408.30474800000002
 21
773.39994750000005
  0
CIRCLE
  8
_0-0_0
  6
CONTINUOUS
 62
    7
 10
-414.886841
 20
766.09992950000003
 40
5
  0
LINE
  8
_0-0_0
  6
CONTINUOUS
 62
    7
 10
-420.30474800000002
 20
756.79994150000005
 11
-421.46896399999991
 21
756.79994150000005
  0
LINE
  8
_0-0_0
  6
CONTINUOUS
 62
    7
 10
-421.46896399999991
 20
756.79994150000005
 11
-422.03683499999988
 21
757.79994150000005
  0
LINE
  8
_0-0_0
  6
CONTINUOUS
 62
    7
 10
-422.03683499999988
 20
757.79994150000005
 11
-421.46896399999991
 21
758.79994150000005
  0
LINE
  8
_0-0_0
  6
CONTINUOUS
 62
    7
 10
-421.46896399999991
 20
758.79994150000005
 11
-420.30474800000002
 21
758.79994150000005
  0
LINE
  8
_0-0_0
  6
CONTINUOUS
 62
    7
 10
-420.30474800000002
 20
758.79994150000005
 11
-419.7368469999999
 21
757.79994150000005
  0
LINE
  8
_0-0_0
  6
CONTINUOUS
 62
    7
 10
-419.7368469999999
 20
757.79994150000005
 11
-420.30474800000002
 21
756.79994150000005
  0
CIRCLE
  8
_0-0_0
  6
CONTINUOUS
 62
    7
 10
-414.886841
 20
766.09992950000003
 40
4.5381200000000002
  0
CIRCLE
  8
_0-0_0
  6
CONTINUOUS
 62
    7
 10
-414.886841
 20
766.09992950000003
 40
4
  0
LINE
  8
_0-0_0
  6
CONTINUOUS
 62
    7
 10
-423.019409
 20
776.05525150000005
 11
-423.68685899999991
 21
776.05525150000005
  0
ARC
  8
_0-0_0
  6
CONTINUOUS
 62
    7
 10
-406.886841
 20
776.52494750000005
 40
0.2
 50
179.94055499999999
 51
269.99997000000002
  0
ARC
  8
_0-0_0
  6
CONTINUOUS
 62
    7
 10
-408.386841
 20
757.29994150000005
 40
2
 50
269.99999700000001
 51
273.84026499999999
  0
ARC
  8
_0-0_0
  6
CONTINUOUS
 62
    7
 10
-421.386841
 20
774.89994750000005
 40
2
 50
90.000003000000007
 51
93.840255999999997
  0
LINE
  8
_0-0_0
  6
CONTINUOUS
 62
    7
 10
-406.58685300000002
 20
776.32493550000004
 11
-406.886841
 21
776.32493550000004
  0
LINE
  8
_0-0_0
  6
CONTINUOUS
 62
    7
 10
-406.58685300000002
 20
779.27494750000005
 11
-406.886841
 21
779.27494750000005
  0
ARC
  8
_0-0_0
  6
CONTINUOUS
 62
    7
 10
-422.886841
 20
776.52500950000001
 40
0.2
 50
270.00002499999994
 51
0.0594439999999606
  0
ARC
  8
_0-0_0
  6
CONTINUOUS
 62
    7
 10
-406.58688299999994
 20
776.52497849999997
 40
0.200055
 50
270.00964199999999
 51
1.3705509999999435
  0
ARC
  8
_0-0_0
  6
CONTINUOUS
 62
    7
 10
-406.58685300000002
 20
779.07493550000004
 40
0.2
 50
359.91222800000003
 51
89.999948000000003
  0
LINE
  8
_0-0_0
  6
CONTINUOUS
 62
    7
 10
-423.18685899999991
 20
776.32502750000003
 11
-422.886841
 21
776.32502750000003
  0
ARC
  8
_0-0_0
  6
CONTINUOUS
 62
    7
 10
-423.18679799999995
 20
776.52507049999997
 40
0.200055
 50
178.629446
 51
269.99035300000003
  0
LINE
  8
_0-0_0
  6
CONTINUOUS
 62
    7
 10
-406.18685899999991
 20
781.80000250000001
 11
-406.18685899999991
 21
795.00001550000002
  0
ARC
  8
_0-0_0
  6
CONTINUOUS
 62
    7
 10
-406.68685899999991
 20
781.80000250000001
 40
0.5
 50
269.99999700000001
 51
0
  0
ARC
  8
_0-0_0
  6
CONTINUOUS
 62
    7
 10
-406.24542199999996
 20
795.20002750000003
 40
0.1
 50
135
 51
225
  0
LINE
  8
_0-0_0
  6
CONTINUOUS
 62
    7
 10
-406.31613199999993
 20
795.12931849999995
 11
-406.18685899999991
 21
795.00001550000002
  0
LINE
  8
_0-0_0
  6
CONTINUOUS
 62
    7
 10
-406.68685899999991
 20
781.30000250000001
 11
-408.58685300000002
 21
781.30000250000001
  0
ARC
  8
_0-0_0
  6
CONTINUOUS
 62
    7
 10
-408.58685300000002
 20
781.80000250000001
 40
0.5
 50
233.12990600000001
 51
269.99999700000001
  0
ARC
  8
_0-0_0
  6
CONTINUOUS
 62
    7
 10
-421.28683499999988
 20
781.80000250000001
 40
0.5
 50
269.99999700000001
 51
306.87009999999998
  0
LINE
  8
_0-0_0
  6
CONTINUOUS
 62
    7
 10
-421.28683499999988
 20
781.30000250000001
 11
-423.18685899999991
 21
781.30000250000001
  0
ARC
  8
_0-0_0
  6
CONTINUOUS
 62
    7
 10
-423.18685899999991
 20
781.80000250000001
 40
0.5
 50
180.00000900000003
 51
269.99999700000001
  0
LINE
  8
_0-0_0
  6
CONTINUOUS
 62
    7
 10
-423.68685899999991
 20
791.23500049999996
 11
-423.68685899999991
 21
781.80000250000001
  0
LINE
  8
_0-0_0
  6
CONTINUOUS
 62
    7
 10
-423.68685899999991
 20
791.23500049999996
 11
-422.9868469999999
 21
791.23500049999996
  0
LINE
  8
_0-0_0
  6
CONTINUOUS
 62
    7
 10
-406.9868469999999
 20
809.80000250000001
 11
-406.78082300000005
 21
809.80000250000001
  0
LINE
  8
_0-0_0
  6
CONTINUOUS
 62
    7
 10
-406.78082300000005
 20
809.80000250000001
 11
-406.18685899999991
 21
809.20603949999997
  0
LINE
  8
_0-0_0
  6
CONTINUOUS
 62
    7
 10
-406.18685899999991
 20
804.20002750000003
 11
-406.18685899999991
 21
809.20603949999997
  0
LINE
  8
_0-0_0
  6
CONTINUOUS
 62
    7
 10
-406.31613199999993
 20
804.07072449999998
 11
-406.18685899999991
 21
804.20002750000003
  0
ARC
  8
_0-0_0
  6
CONTINUOUS
 62
    7
 10
-406.24542199999996
 20
804.00001550000002
 40
0.1
 50
135
 51
225
  0
LINE
  8
_0-0_0
  6
CONTINUOUS
 62
    7
 10
-406.31613199999993
 20
803.92930550000005
 11
-406.18685899999991
 21
803.80000250000001
  0
LINE
  8
_0-0_0
  6
CONTINUOUS
 62
    7
 10
-406.18685899999991
 20
803.10002150000003
 11
-406.18685899999991
 21
803.80000250000001
  0
LINE
  8
_0-0_0
  6
CONTINUOUS
 62
    7
 10
-406.31613199999993
 20
802.97071849999998
 11
-406.18685899999991
 21
803.10002150000003
  0
ARC
  8
_0-0_0
  6
CONTINUOUS
 62
    7
 10
-406.24542199999996
 20
802.90000950000001
 40
0.1
 50
135
 51
225
  0
LINE
  8
_0-0_0
  6
CONTINUOUS
 62
    7
 10
-406.31613199999993
 20
802.82929950000005
 11
-406.18685899999991
 21
802.70002750000003
  0
LINE
  8
_0-0_0
  6
CONTINUOUS
 62
    7
 10
-406.18685899999991
 20
802.00001550000002
 11
-406.18685899999991
 21
802.70002750000003
  0
LINE
  8
_0-0_0
  6
CONTINUOUS
 62
    7
 10
-406.31613199999993
 20
801.87074250000001
 11
-406.18685899999991
 21
802.00001550000002
  0
ARC
  8
_0-0_0
  6
CONTINUOUS
 62
    7
 10
-406.24542199999996
 20
801.80000250000001
 40
0.1
 50
135
 51
225
  0
LINE
  8
_0-0_0
  6
CONTINUOUS
 62
    7
 10
-406.31613199999993
 20
801.72929350000004
 11
-406.18685899999991
 21
801.60002150000003
  0
LINE
  8
_0-0_0
  6
CONTINUOUS
 62
    7
 10
-406.18685899999991
 20
800.90000950000001
 11
-406.18685899999991
 21
801.60002150000003
  0
LINE
  8
_0-0_0
  6
CONTINUOUS
 62
    7
 10
-406.31613199999993
 20
800.7707365
 11
-406.18685899999991
 21
800.90000950000001
  0
ARC
  8
_0-0_0
  6
CONTINUOUS
 62
    7
 10
-406.24542199999996
 20
800.70002750000003
 40
0.1
 50
135
 51
225
  0
LINE
  8
_0-0_0
  6
CONTINUOUS
 62
    7
 10
-406.31613199999993
 20
800.62931849999995
 11
-406.18685899999991
 21
800.50001550000002
  0
LINE
  8
_0-0_0
  6
CONTINUOUS
 62
    7
 10
-406.18685899999991
 20
799.80000250000001
 11
-406.18685899999991
 21
800.50001550000002
  0
LINE
  8
_0-0_0
  6
CONTINUOUS
 62
    7
 10
-406.31613199999993
 20
799.67073049999999
 11
-406.18685899999991
 21
799.80000250000001
  0
ARC
  8
_0-0_0
  6
CONTINUOUS
 62
    7
 10
-406.24542199999996
 20
799.60002150000003
 40
0.1
 50
135
 51
225
  0
LINE
  8
_0-0_0
  6
CONTINUOUS
 62
    7
 10
-406.31613199999993
 20
799.52931149999995
 11
-406.18685899999991
 21
799.40000950000001
  0
LINE
  8
_0-0_0
  6
CONTINUOUS
 62
    7
 10
-406.18685899999991
 20
798.70002750000003
 11
-406.18685899999991
 21
799.40000950000001
  0
LINE
  8
_0-0_0
  6
CONTINUOUS
 62
    7
 10
-406.31613199999993
 20
798.57072449999998
 11
-406.18685899999991
 21
798.70002750000003
  0
ARC
  8
_0-0_0
  6
CONTINUOUS
 62
    7
 10
-406.24542199999996
 20
798.50001550000002
 40
0.1
 50
135
 51
225
  0
LINE
  8
_0-0_0
  6
CONTINUOUS
 62
    7
 10
-406.31613199999993
 20
798.42930550000005
 11
-406.18685899999991
 21
798.30000250000001
  0
LINE
  8
_0-0_0
  6
CONTINUOUS
 62
    7
 10
-406.18685899999991
 20
797.60002150000003
 11
-406.18685899999991
 21
798.30000250000001
  0
LINE
  8
_0-0_0
  6
CONTINUOUS
 62
    7
 10
-406.31613199999993
 20
797.47071849999998
 11
-406.18685899999991
 21
797.60002150000003
  0
ARC
  8
_0-0_0
  6
CONTINUOUS
 62
    7
 10
-406.24542199999996
 20
797.40000950000001
 40
0.1
 50
135
 51
225
  0
LINE
  8
_0-0_0
  6
CONTINUOUS
 62
    7
 10
-406.31613199999993
 20
797.32929950000005
 11
-406.18685899999991
 21
797.20002750000003
  0
LINE
  8
_0-0_0
  6
CONTINUOUS
 62
    7
 10
-406.18685899999991
 20
796.50001550000002
 11
-406.18685899999991
 21
797.20002750000003
  0
LINE
  8
_0-0_0
  6
CONTINUOUS
 62
    7
 10
-406.31613199999993
 20
796.37074250000001
 11
-406.18685899999991
 21
796.50001550000002
  0
ARC
  8
_0-0_0
  6
CONTINUOUS
 62
    7
 10
-406.24542199999996
 20
796.30000250000001
 40
0.1
 50
135
 51
225
  0
LINE
  8
_0-0_0
  6
CONTINUOUS
 62
    7
 10
-406.31613199999993
 20
796.22929350000004
 11
-406.18685899999991
 21
796.10002150000003
  0
LINE
  8
_0-0_0
  6
CONTINUOUS
 62
    7
 10
-406.18685899999991
 20
795.40000950000001
 11
-406.18685899999991
 21
796.10002150000003
  0
LINE
  8
_0-0_0
  6
CONTINUOUS
 62
    7
 10
-406.31613199999993
 20
795.2707365
 11
-406.18685899999991
 21
795.40000950000001
  0
LINE
  8
_0-0_0
  6
CONTINUOUS
 62
    7
 10
-406.18685899999991
 20
787.30000250000001
 11
-406.08685300000002
 21
787.30000250000001
  0
LINE
  8
_0-0_0
  6
CONTINUOUS
 62
    7
 10
-406.08685300000002
 20
786.80000250000001
 11
-406.08685300000002
 21
787.30000250000001
  0
LINE
  8
_0-0_0
  6
CONTINUOUS
 62
    7
 10
-406.08685300000002
 20
786.80000250000001
 11
-406.08685300000002
 21
782.80000250000001
  0
LINE
  8
_0-0_0
  6
CONTINUOUS
 62
    7
 10
-406.18685899999991
 20
782.30000250000001
 11
-406.08685300000002
 21
782.30000250000001
  0
LINE
  8
_0-0_0
  6
CONTINUOUS
 62
    7
 10
-406.08685300000002
 20
782.30000250000001
 11
-406.08685300000002
 21
782.80000250000001
  0
LINE
  8
_0-0_0
  6
CONTINUOUS
 62
    7
 10
-423.68685899999991
 20
791.30003350000004
 11
-423.68685899999991
 21
791.23500049999996
  0
LINE
  8
_0-0_0
  6
CONTINUOUS
 62
    7
 10
-407.18685899999991
 20
810.10002150000003
 11
-407.18685899999991
 21
810.00001550000002
  0
ARC
  8
_0-0_0
  6
CONTINUOUS
 62
    7
 10
-419.68685899999991
 20
810.10002150000003
 40
2.5
 50
90.000003000000007
 51
180.00000900000001
  0
LINE
  8
_0-0_0
  6
CONTINUOUS
 62
    7
 10
-423.78683499999988
 20
791.30000250000001
 11
-422.9868469999999
 21
791.30000250000001
  0
LINE
  8
_0-0_0
  6
CONTINUOUS
 62
    7
 10
-423.28683499999988
 20
813.10002150000003
 11
-423.28683499999988
 21
808.87849449999999
  0
LINE
  8
_0-0_0
  6
CONTINUOUS
 62
    7
 10
-422.18685899999991
 20
813.10002150000003
 11
-422.18685899999991
 21
810.10002150000003
  0
LINE
  8
_0-0_0
  6
CONTINUOUS
 62
    7
 10
-423.28683499999988
 20
808.87849449999999
 11
-422.9868469999999
 21
808.87849449999999
  0
LINE
  8
_0-0_0
  6
CONTINUOUS
 62
    7
 10
-423.28683499999988
 20
818.23991350000006
 11
-422.18685899999991
 21
818.23991350000006
  0
LINE
  8
_0-0_0
  6
CONTINUOUS
 62
    7
 10
-422.18685899999991
 20
813.10047850000001
 11
-422.18685899999991
 21
818.23991350000006
  0
LINE
  8
_0-0_0
  6
CONTINUOUS
 62
    7
 10
-423.78683499999988
 20
812.60090649999995
 11
-423.78683499999988
 21
817.67213449999997
  0
LINE
  8
_0-0_0
  6
CONTINUOUS
 62
    7
 10
-423.28683499999988
 20
818.23991350000006
 11
-423.78683499999988
 21
817.67213449999997
  0
ARC
  8
_0-0_0
  6
CONTINUOUS
 62
    7
 10
-409.68685899999991
 20
810.10002150000003
 40
2.5
 50
0
 51
90.000003000000007
  0
LINE
  8
_0-0_0
  6
CONTINUOUS
 62
    7
 10
-422.18685899999991
 20
810.00001550000002
 11
-422.18685899999991
 21
810.10002150000003
  0
LINE
  8
_0-0_0
  6
CONTINUOUS
 62
    7
 10
-409.68685899999991
 20
812.60002150000003
 11
-419.68685899999991
 21
812.60002150000003
  0
LINE
  8
_0-0_0
  6
CONTINUOUS
 62
    7
 10
-405.9868469999999
 20
782.80000250000001
 11
-405.9868469999999
 21
782.93037449999997
  0
LINE
  8
_0-0_0
  6
CONTINUOUS
 62
    7
 10
-405.9868469999999
 20
786.43037449999997
 11
-405.9868469999999
 21
782.93037449999997
  0
LINE
  8
_0-0_0
  6
CONTINUOUS
 62
    7
 10
-406.08685300000002
 20
786.70002750000003
 11
-405.9868469999999
 21
786.70002750000003
  0
LINE
  8
_0-0_0
  6
CONTINUOUS
 62
    7
 10
-405.9868469999999
 20
786.43037449999997
 11
-405.9868469999999
 21
786.70002750000003
  0
LINE
  8
_0-0_0
  6
CONTINUOUS
 62
    7
 10
-422.18685899999991
 20
820.60002150000003
 11
-422.18685899999991
 21
818.23991350000006
  0
LINE
  8
_0-0_0
  6
CONTINUOUS
 62
    7
 10
-406.386841
 20
809.20002750000003
 11
-407.386841
 21
810.20002750000003
  0
LINE
  8
_0-0_0
  6
CONTINUOUS
 62
    7
 10
-406.386841
 20
781.40000950000001
 11
-406.386841
 21
809.20002750000003
  0
LINE
  8
_0-0_0
  6
CONTINUOUS
 62
    7
 10
-422.9868469999999
 20
781.40000950000001
 11
-406.386841
 21
781.40000950000001
  0
LINE
  8
_0-0_0
  6
CONTINUOUS
 62
    7
 10
-422.9868469999999
 20
809.20002750000003
 11
-422.9868469999999
 21
781.40000950000001
  0
LINE
  8
_0-0_0
  6
CONTINUOUS
 62
    7
 10
-423.78683499999988
 20
791.30000250000001
 11
-423.78683499999988
 21
808.11283849999995
  0
LINE
  8
_0-0_0
  6
CONTINUOUS
 62
    7
 10
-423.78683499999988
 20
812.60002150000003
 11
-423.78683499999988
 21
808.11283849999995
  0
ARC
  8
_0-0_0
  6
CONTINUOUS
 62
    7
 10
-392.33511300000009
 20
788.11784350000005
 40
37.269466000000001
 50
146.14857699999999
 51
147.55443399999999
  0
LINE
  8
_0-0_0
  6
CONTINUOUS
 62
    7
 10
-423.28683499999988
 20
820.60002150000003
 11
-423.28683499999988
 21
818.23991350000006
  0
LINE
  8
_0-0_0
  6
CONTINUOUS
 62
    7
 10
-423.78683499999988
 20
820.10002150000003
 11
-423.78683499999988
 21
817.67213449999997
  0
ARC
  8
_0-0_0
  6
CONTINUOUS
 62
    7
 10
-409.95590199999992
 20
809.80000250000001
 40
2.6000000000000001
 50
8.8498839999999994
 51
90.000002999999992
  0
LINE
  8
_0-0_0
  6
CONTINUOUS
 62
    7
 10
-409.95590199999992
 20
812.40000950000001
 11
-419.41778599999998
 21
812.40000950000001
  0
ARC
  8
_0-0_0
  6
CONTINUOUS
 62
    7
 10
-419.41778599999998
 20
809.80000250000001
 40
2.6000000000000001
 50
90.000003000000007
 51
171.150115
  0
LINE
  8
_0-0_0
  6
CONTINUOUS
 62
    7
 10
-422.9868469999999
 20
809.20002750000003
 11
-421.9868469999999
 21
810.20002750000003
  0
LINE
  8
_0-0_0
  6
CONTINUOUS
 62
    7
 10
-407.386841
 20
808.78581250000002
 11
-406.386841
 21
809.20002750000003
  0
ARC
  8
_0-0_0
  6
CONTINUOUS
 62
    7
 10
-412.92938200000003
 20
820.98612949999995
 40
12.126564999999999
 50
292.155034
 51
297.19674500000002
  0
LINE
  8
_0-0_0
  6
CONTINUOUS
 62
    7
 10
-407.386841
 20
782.40000950000001
 11
-406.386841
 21
781.40000950000001
  0
LINE
  8
_0-0_0
  6
CONTINUOUS
 62
    7
 10
-421.9868469999999
 20
782.40000950000001
 11
-422.9868469999999
 21
781.40000950000001
  0
LINE
  8
_0-0_0
  6
CONTINUOUS
 62
    7
 10
-421.9868469999999
 20
808.78581250000002
 11
-422.9868469999999
 21
809.20002750000003
  0
ARC
  8
_0-0_0
  6
CONTINUOUS
 62
    7
 10
-416.44430499999999
 20
820.98612949999995
 40
12.126567
 50
242.80325699999997
 51
247.84494000000001
  0
CIRCLE
  8
_0-0_0
  6
CONTINUOUS
 62
    7
 10
-414.68685899999991
 20
789.60002150000003
 40
2.0670000000000002
  0
LINE
  8
_0-0_0
  6
CONTINUOUS
 62
    7
 10
-422.18685899999991
 20
813.10002150000003
 11
-423.28683499999988
 21
813.10002150000003
  0
LINE
  8
_0-0_0
  6
CONTINUOUS
 62
    7
 10
-406.08685300000002
 20
782.80000250000001
 11
-405.9868469999999
 21
782.80000250000001
  0
LINE
  8
_0-0_0
  6
CONTINUOUS
 62
    7
 10
-406.08685300000002
 20
782.80000250000001
 11
-405.9868469999999
 21
782.80000250000001
  0
LINE
  8
_0-0_0
  6
CONTINUOUS
 62
    7
 10
-423.78683499999988
 20
812.60002150000003
 11
-423.28683499999988
 21
813.10002150000003
  0
LINE
  8
_0-0_0
  6
CONTINUOUS
 62
    7
 10
-422.18685899999991
 20
820.60002150000003
 11
-423.28683499999988
 21
820.60002150000003
  0
LINE
  8
_0-0_0
  6
CONTINUOUS
 62
    7
 10
-423.78683499999988
 20
820.10002150000003
 11
-423.28683499999988
 21
820.60002150000003
  0
ENDSEC
  0
EOF
