  0
SECTION
  2
HEADER
  9
$ACADVER
  1
AC1009
  9
$INSBASE
 10
0
 20
0
 30
0
  9
$EXTMIN
 10
0
 20
0
  9
$EXTMAX
 10
1682
 20
1188
  9
$LIMMIN
 10
0
 20
0
  9
$LIMMAX
 10
1682
 20
1188
  9
$LTSCALE
 40
2
  0
ENDSEC
  0
SECTION
  2
TABLES
  0
TABLE
  2
LTYPE
 70
     9
  0
LTYPE
  2
CONTINUOUS
 70
    64
  3
実線
 72
    65
 73
     0
 40
0.0
  0
LTYPE
  2
DASHED1
 70
    64
  3
--  --  --  --  --  --  --  --  
 72
    65
 73
     2
 40
2.5
 49
1.25
 49
-1.25
  0
LTYPE
  2
DASHED2
 70
    64
  3
----    ----    ----    ----    
 72
    65
 73
     2
 40
5.0
 49
2.5
 49
-2.5
  0
LTYPE
  2
DASHED3
 70
    64
  3
------  ------  ------  ------  
 72
    65
 73
     2
 40
5.0
 49
3.75
 49
-1.25
  0
LTYPE
  2
CENTER1
 70
    64
  3
----- - ----- - ----- - ----- - 
 72
    65
 73
     4
 40
10.0
 49
6.25
 49
-1.25
 49
1.25
 49
-1.25
  0
LTYPE
  2
CENTER2
 70
    64
  3
----------  --  ----------  --  
 72
    65
 73
     4
 40
20.0
 49
12.5
 49
-2.5
 49
2.5
 49
-2.5
  0
LTYPE
  2
PHANTOM1
 70
    64
  3
--- - - --- - - --- - - --- - - 
 72
    65
 73
     6
 40
10.0
 49
3.25
 49
-1.25
 49
1.25
 49
-1.25
 49
1.25
 49
-1.25
  0
LTYPE
  2
PHANTOM2
 70
    64
  3
--------  -  -  --------  -  -  
 72
    65
 73
     6
 40
20.0
 49
10.0
 49
-2.5
 49
1.25
 49
-2.5
 49
1.25
 49
-2.5
  0
LTYPE
  2
DOT
 70
    64
  3
-   -   -   -   -   -   -   -   
 72
    65
 73
     2
 40
2.5
 49
0.625
 49
-1.875
  0
LTYPE
  2
DUMMY
 70
    64
  3
ダミー
 72
    65
 73
     0
 40
0.0
  0
LTYPE
  2
RAND1
 70
    64
  3
ランダム線1
 72
    65
 73
     4
 40
10.0
 49
1.0
 49
-2.0
 49
3.0
 49
-4.0
  0
LTYPE
  2
RAND2
 70
    64
  3
ランダム線2
 72
    65
 73
     4
 40
14.0
 49
2.0
 49
-3.0
 49
4.0
 49
-5.0
  0
LTYPE
  2
RAND3
 70
    64
  3
ランダム線3
 72
    65
 73
     4
 40
18.0
 49
3.0
 49
-4.0
 49
5.0
 49
-6.0
  0
LTYPE
  2
RAND4
 70
    64
  3
ランダム線4
 72
    65
 73
     4
 40
22.0
 49
4.0
 49
-5.0
 49
6.0
 49
-7.0
  0
LTYPE
  2
RAND5
 70
    64
  3
ランダム線5
 72
    65
 73
     4
 40
26.0
 49
5.0
 49
-6.0
 49
7.0
 49
-8.0
  0
LTYPE
  2
LONG1
 70
    64
  3
----------  --  ----------  --  
 72
    65
 73
     4
 40
40.0
 49
32.5
 49
-2.5
 49
2.5
 49
-2.5
  0
LTYPE
  2
LONG2
 70
    64
  3
--------  -  -  --------  -  -  
 72
    65
 73
     6
 40
40.0
 49
30.0
 49
-2.5
 49
1.25
 49
-2.5
 49
1.25
 49
-2.5
  0
LTYPE
  2
LONG3
 70
    64
  3
+++++++++++++++..+++++++++++++++
 72
    65
 73
     2
 40
40.0
 49
37.5
 49
-2.5
  0
LTYPE
  2
LONG4
 70
    64
  3
+++++++++++++++..+++++++++++++++
 72
    65
 73
     2
 40
80.0
 49
75.0
 49
-5.0
  0
LTYPE
  2
LONG5
 70
    64
  3
----------  --  ----------  --  
 72
    65
 73
     4
 40
60.0
 49
37.5
 49
-7.5
 49
7.5
 49
-7.5
  0
LTYPE
  2
dashed
 70
   64
  3
-------   -------------   ------
 72
   65
 73
    2
 40
7.5
 49
6
 49
-1.5
  0
LTYPE
  2
dashed_spaced
 70
   64
  3
----        --------        ----
 72
   65
 73
    2
 40
12
 49
6
 49
-6
  0
LTYPE
  2
long_dashed_dotted
 70
   64
  3
------------- --- --------------
 72
   65
 73
    4
 40
15.25
 49
12
 49
-1.5
 49
0.25
 49
-1.5
  0
LTYPE
  2
long_dashed_double-dotted
 70
   64
  3
----------- --- --- ------------
 72
   65
 73
    6
 40
17
 49
12
 49
-1.5
 49
0.25
 49
-1.5
 49
0.25
 49
-1.5
  0
LTYPE
  2
long_dashed_triplicate-dotted
 70
   64
  3
--------- --- --- --- ----------
 72
   65
 73
    8
 40
18.75
 49
12
 49
-1.5
 49
0.25
 49
-1.5
 49
0.25
 49
-1.5
 49
0.25
 49
-1.5
  0
LTYPE
  2
dotted
 70
   64
  3
   -       -       -       -    
 72
   65
 73
    2
 40
1.75
 49
0.25
 49
-1.5
  0
LTYPE
  2
chain
 70
   64
  3
-------------- -- --------------
 72
   65
 73
    4
 40
18.5
 49
12
 49
-1.5
 49
3.5
 49
-1.5
  0
LTYPE
  2
chain_double_dash
 70
   64
  3
------------ -- -- -------------
 72
   65
 73
    6
 40
23.5
 49
12
 49
-1.5
 49
3.5
 49
-1.5
 49
3.5
 49
-1.5
  0
LTYPE
  2
dashed_dotted
 70
   64
  3
-----------     -     ----------
 72
   65
 73
    4
 40
9.25
 49
6
 49
-1.5
 49
0.25
 49
-1.5
  0
LTYPE
  2
double-dashed_dotted
 70
   64
  3
------   -----------   -   -----
 72
   65
 73
    6
 40
16.75
 49
6
 49
-1.5
 49
6
 49
-1.5
 49
0.25
 49
-1.5
  0
LTYPE
  2
dashed_double-dotted
 70
   64
  3
---------    -    -    ---------
 72
   65
 73
    6
 40
11
 49
6
 49
-1.5
 49
0.25
 49
-1.5
 49
0.25
 49
-1.5
  0
LTYPE
  2
double-dashed_double-dotted
 70
   64
  3
-----   ---------   -   -   ----
 72
   65
 73
    8
 40
18.5
 49
6
 49
-1.5
 49
6
 49
-1.5
 49
0.25
 49
-1.5
 49
0.25
 49
-1.5
  0
LTYPE
  2
dashed_triplicate-dotted
 70
   64
  3
-------    -    -    -    ------
 72
   65
 73
    8
 40
12.75
 49
6
 49
-1.5
 49
0.25
 49
-1.5
 49
0.25
 49
-1.5
 49
0.25
 49
-1.5
  0
LTYPE
  2
double-dashed_triplicate-dotted
 70
   64
  3
-----  ---------  -  -  -  -----
 72
   65
 73
   10
 40
20.25
 49
6
 49
-1.5
 49
6
 49
-1.5
 49
0.25
 49
-1.5
 49
0.25
 49
-1.5
 49
0.25
 49
-1.5
  0
LTYPE
  2
undefined
 70
   64
  3
--------------------------------
 72
   65
 73
    0
 40
0
  0
ENDTAB
  0
TABLE
  2
STYLE
  5
3
100
AcDbSymbolTable
 70
     1
  0
STYLE
  5
10
100
AcDbSymbolTableRecord
100
AcDbTextStyleTableRecord
  2
STANDARD
 70
     0
 40
0.0
 41
1.0
 50
0.0
 71
     0
 42
0.2
  3
txt
  4
bigfont.shx
  0
STYLE
  5
26
100
AcDbSymbolTableRecord
100
AcDbTextStyleTableRecord
  2
TATEGAKI
 70
    68
 40
0.0
 41
1.0
 50
0.0
 71
     0
 42
1.0
  3
txt
  4
bigfont.shx
  0
ENDTAB
  0
TABLE
  2
LAYER
 70
    2
  0
LAYER
  2
_0-0_0
 70
   64
 62
    7
  6
CONTINUOUS
  0
LAYER
  2
ADD_LINE
 70
   64
 62
    7
  6
CONTINUOUS
  0
ENDTAB
  0
ENDSEC
  0
SECTION
  2
BLOCKS
  0
ENDSEC
  0
SECTION
  2
ENTITIES
  0
LINE
  8
_0-0_0
  6
CONTINUOUS
 62
    7
 10
-324.07104500000014
 20
813.90052749999995
 11
-324.07104500000014
 21
813.89952049999999
  0
LINE
  8
_0-0_0
  6
CONTINUOUS
 62
    7
 10
-171.25854500000003
 20
774.96958949999998
 11
-172.55854799999997
 21
771.46958949999998
  0
ARC
  8
_0-0_0
  6
CONTINUOUS
 62
    7
 10
-171.07105999999999
 20
774.89994750000005
 40
0.2
 50
20.376434999999997
 51
159.62357000000003
  0
ARC
  8
_0-0_0
  6
CONTINUOUS
 62
    7
 10
-133.07105999999999
 20
777.79994150000005
 40
2.2000000000000002
 50
180.00000900000003
 51
303.74900400000001
  0
LINE
  8
_0-0_0
  6
CONTINUOUS
 62
    7
 10
-135.27105700000004
 20
779.29994150000005
 11
-135.27105700000004
 21
777.79994150000005
  0
LINE
  8
_0-0_0
  6
CONTINUOUS
 62
    7
 10
-135.27105700000004
 20
779.29994150000005
 11
-209.8710329999999
 21
779.29994150000005
  0
LINE
  8
_0-0_0
  6
CONTINUOUS
 62
    7
 10
-209.8710329999999
 20
779.29994150000005
 11
-209.8710329999999
 21
777.79994150000005
  0
ARC
  8
_0-0_0
  6
CONTINUOUS
 62
    7
 10
-212.07104500000014
 20
777.79994150000005
 40
2.2000000000000002
 50
236.25102899999999
 51
0
  0
ARC
  8
_0-0_0
  6
CONTINUOUS
 62
    7
 10
-213.57104500000014
 20
775.55494650000003
 40
0.5
 50
56.251010000000008
 51
180.00000900000001
  0
LINE
  8
_0-0_0
  6
CONTINUOUS
 62
    7
 10
-214.07104500000014
 20
755.19993550000004
 11
-214.07104500000014
 21
755.97706549999998
  0
LINE
  8
_0-0_0
  6
CONTINUOUS
 62
    7
 10
-214.07104500000014
 20
755.19993550000004
 11
-204.27105699999993
 21
755.19993550000004
  0
ARC
  8
_0-0_0
  6
CONTINUOUS
 62
    7
 10
-204.27105699999993
 20
755.39994750000005
 40
0.2
 50
269.99999700000001
 51
0
  0
LINE
  8
_0-0_0
  6
CONTINUOUS
 62
    7
 10
-204.07105999999999
 20
757.09992950000003
 11
-204.07105999999999
 21
755.39994750000005
  0
ARC
  8
_0-0_0
  6
CONTINUOUS
 62
    7
 10
-203.87104799999997
 20
757.09992950000003
 40
0.2
 50
90.000003000000007
 51
180.00000900000001
  0
LINE
  8
_0-0_0
  6
CONTINUOUS
 62
    7
 10
-203.37104799999997
 20
757.29994150000005
 11
-203.87104799999997
 21
757.29994150000005
  0
ARC
  8
_0-0_0
  6
CONTINUOUS
 62
    7
 10
-203.37104799999997
 20
756.79994150000005
 40
0.5
 50
90.000003000000007
 51
180.00000900000001
  0
LINE
  8
_0-0_0
  6
CONTINUOUS
 62
    7
 10
-203.87104799999997
 20
755.29994150000005
 11
-203.87104799999997
 21
756.79994150000005
  0
LINE
  8
_0-0_0
  6
CONTINUOUS
 62
    7
 10
-134.27105700000004
 20
755.29994150000005
 11
-203.87104799999997
 21
755.29994150000005
  0
LINE
  8
_0-0_0
  6
CONTINUOUS
 62
    7
 10
-134.27105700000004
 20
755.29994150000005
 11
-134.27105700000004
 21
756.79994150000005
  0
ARC
  8
_0-0_0
  6
CONTINUOUS
 62
    7
 10
-134.77105700000004
 20
756.79994150000005
 40
0.5
 50
0
 51
90.000003000000007
  0
LINE
  8
_0-0_0
  6
CONTINUOUS
 62
    7
 10
-134.27105700000004
 20
757.29994150000005
 11
-134.77105700000004
 21
757.29994150000005
  0
ARC
  8
_0-0_0
  6
CONTINUOUS
 62
    7
 10
-134.27105700000004
 20
757.09992950000003
 40
0.2
 50
0
 51
90.000003000000007
  0
LINE
  8
_0-0_0
  6
CONTINUOUS
 62
    7
 10
-134.07105999999999
 20
755.39994750000005
 11
-134.07105999999999
 21
757.09992950000003
  0
ARC
  8
_0-0_0
  6
CONTINUOUS
 62
    7
 10
-133.87106300000005
 20
755.39994750000005
 40
0.2
 50
180.00000900000003
 51
269.99999700000001
  0
LINE
  8
_0-0_0
  6
CONTINUOUS
 62
    7
 10
-133.87106300000005
 20
755.19993550000004
 11
-133.07105999999999
 21
755.19993550000004
  0
ARC
  8
_0-0_0
  6
CONTINUOUS
 62
    7
 10
-133.07105999999999
 20
757.19993550000004
 40
2
 50
269.99999700000001
 51
0.0000099999999886
  0
LINE
  8
_0-0_0
  6
CONTINUOUS
 62
    7
 10
-131.07105999999999
 20
775.55494650000003
 11
-131.07105999999999
 21
757.19993550000004
  0
ARC
  8
_0-0_0
  6
CONTINUOUS
 62
    7
 10
-131.57105999999999
 20
775.55494650000003
 40
0.5
 50
0
 51
123.74898500000002
  0
LINE
  8
_0-0_0
  6
CONTINUOUS
 62
    7
 10
-202.57105999999999
 20
757.49995450000006
 11
-202.57105999999999
 21
757.69993550000004
  0
LINE
  8
_0-0_0
  6
CONTINUOUS
 62
    7
 10
-202.57105999999999
 20
757.69993550000004
 11
-135.57105999999999
 21
757.69993550000004
  0
LINE
  8
_0-0_0
  6
CONTINUOUS
 62
    7
 10
-135.57105999999999
 20
757.49995450000006
 11
-135.57105999999999
 21
757.69993550000004
  0
ARC
  8
_0-0_0
  6
CONTINUOUS
 62
    7
 10
-135.37106300000005
 20
757.49995450000006
 40
0.2
 50
180.00000900000003
 51
269.99999700000001
  0
LINE
  8
_0-0_0
  6
CONTINUOUS
 62
    7
 10
-135.37106300000005
 20
757.29994150000005
 11
-202.77105699999993
 21
757.29994150000005
  0
ARC
  8
_0-0_0
  6
CONTINUOUS
 62
    7
 10
-202.77105699999993
 20
757.49995450000006
 40
0.2
 50
269.99999700000001
 51
0
  0
ARC
  8
_0-0_0
  6
CONTINUOUS
 62
    7
 10
-172.37106300000005
 20
771.39994750000005
 40
0.2
 50
159.62357
 51
269.99999700000001
  0
LINE
  8
_0-0_0
  6
CONTINUOUS
 62
    7
 10
-172.37106300000005
 20
771.19993550000004
 11
-169.77105700000004
 21
771.19993550000004
  0
ARC
  8
_0-0_0
  6
CONTINUOUS
 62
    7
 10
-169.77105700000004
 20
771.39994750000005
 40
0.2
 50
269.99999700000001
 51
20.376435000000019
  0
LINE
  8
_0-0_0
  6
CONTINUOUS
 62
    7
 10
-169.583572
 20
771.46958949999998
 11
-170.88357500000006
 21
774.96958949999998
  0
LINE
  8
_0-0_0
  6
CONTINUOUS
 62
    7
 10
-214.07104500000014
 20
774.89994750000005
 11
-214.07104500000014
 21
776.87730350000004
  0
LINE
  8
_0-0_0
  6
CONTINUOUS
 62
    7
 10
-214.07104500000014
 20
774.89994750000005
 11
-214.07104500000014
 21
757.29994150000005
  0
LINE
  8
_0-0_0
  6
CONTINUOUS
 62
    7
 10
-214.07104500000014
 20
755.97706549999998
 11
-214.07104500000014
 21
757.29994150000005
  0
LINE
  8
_0-0_0
  6
CONTINUOUS
 62
    7
 10
-131.07105999999999
 20
781.29994150000005
 11
-131.07105999999999
 21
780.29994150000005
  0
LINE
  8
_0-0_0
  6
CONTINUOUS
 62
    7
 10
-131.07105999999999
 20
780.29994150000005
 11
-131.07105999999999
 21
779.79994150000005
  0
LINE
  8
_0-0_0
  6
CONTINUOUS
 62
    7
 10
-131.07105999999999
 20
779.79994150000005
 11
-131.07105999999999
 21
777.79994150000005
  0
LINE
  8
_0-0_0
  6
CONTINUOUS
 62
    7
 10
-131.07105999999999
 20
777.79994150000005
 11
-131.07105999999999
 21
775.55494650000003
  0
LINE
  8
_0-0_0
  6
CONTINUOUS
 62
    7
 10
-153.07105999999999
 20
775.29994150000005
 11
-153.07105999999999
 21
761.69993550000004
  0
ARC
  8
_0-0_0
  6
CONTINUOUS
 62
    7
 10
-150.07105999999999
 20
775.29994150000005
 40
3
 50
90.000003000000007
 51
180.00000900000001
  0
LINE
  8
_0-0_0
  6
CONTINUOUS
 62
    7
 10
-136.737122
 20
778.29994150000005
 11
-150.07105999999999
 21
778.29994150000005
  0
ARC
  8
_0-0_0
  6
CONTINUOUS
 62
    7
 10
-136.737122
 20
777.29994150000005
 40
1
 50
7.7664340000000012
 51
90.000002999999992
  0
ARC
  8
_0-0_0
  6
CONTINUOUS
 62
    7
 10
-133.07105999999999
 20
777.79994150000005
 40
2.7000000000000002
 50
187.76643899999999
 51
254.31966600000001
  0
ARC
  8
_0-0_0
  6
CONTINUOUS
 62
    7
 10
-134.07105999999999
 20
774.23762450000004
 40
1
 50
0
 51
74.319649999999996
  0
LINE
  8
_0-0_0
  6
CONTINUOUS
 62
    7
 10
-133.07105999999999
 20
761.69993550000004
 11
-133.07105999999999
 21
774.23762450000004
  0
ARC
  8
_0-0_0
  6
CONTINUOUS
 62
    7
 10
-136.07105999999999
 20
761.69993550000004
 40
3
 50
269.99999700000001
 51
0.0000099999999886
  0
LINE
  8
_0-0_0
  6
CONTINUOUS
 62
    7
 10
-150.07105999999999
 20
758.69993550000004
 11
-136.07105999999999
 21
758.69993550000004
  0
ARC
  8
_0-0_0
  6
CONTINUOUS
 62
    7
 10
-150.07105999999999
 20
761.69993550000004
 40
3
 50
180.00000900000003
 51
269.99999700000001
  0
LINE
  8
_0-0_0
  6
CONTINUOUS
 62
    7
 10
-207.07105999999999
 20
758.69993550000004
 11
-192.07105999999999
 21
758.69993550000004
  0
ARC
  8
_0-0_0
  6
CONTINUOUS
 62
    7
 10
-207.07105999999999
 20
761.69993550000004
 40
3
 50
180.00000900000003
 51
269.99999700000001
  0
LINE
  8
_0-0_0
  6
CONTINUOUS
 62
    7
 10
-210.07104500000014
 20
775.29994150000005
 11
-210.07104500000014
 21
761.69993550000004
  0
ARC
  8
_0-0_0
  6
CONTINUOUS
 62
    7
 10
-207.07105999999999
 20
775.29994150000005
 40
3
 50
90.000003000000007
 51
180.00000900000001
  0
LINE
  8
_0-0_0
  6
CONTINUOUS
 62
    7
 10
-192.07105999999999
 20
778.29994150000005
 11
-207.07105999999999
 21
778.29994150000005
  0
ARC
  8
_0-0_0
  6
CONTINUOUS
 62
    7
 10
-192.07105999999999
 20
775.29994150000005
 40
3
 50
0
 51
90.000003000000007
  0
LINE
  8
_0-0_0
  6
CONTINUOUS
 62
    7
 10
-189.07105999999999
 20
761.69993550000004
 11
-189.07105999999999
 21
775.29994150000005
  0
ARC
  8
_0-0_0
  6
CONTINUOUS
 62
    7
 10
-192.07105999999999
 20
761.69993550000004
 40
3
 50
269.99999700000001
 51
0.0000099999999886
  0
LINE
  8
_0-0_0
  6
CONTINUOUS
 62
    7
 10
-135.07105999999999
 20
779.29994150000005
 11
-135.27105700000004
 21
779.29994150000005
  0
ARC
  8
_0-0_0
  6
CONTINUOUS
 62
    7
 10
-133.07105999999999
 20
777.79994150000005
 40
2
 50
180.00000900000003
 51
0.0000000000000254
  0
LINE
  8
_0-0_0
  6
CONTINUOUS
 62
    7
 10
-135.07105999999999
 20
779.29994150000005
 11
-135.07105999999999
 21
777.79994150000005
  0
LINE
  8
_0-0_0
  6
CONTINUOUS
 62
    7
 10
-209.8710329999999
 20
779.29994150000005
 11
-210.07104500000014
 21
779.29994150000005
  0
LINE
  8
_0-0_0
  6
CONTINUOUS
 62
    7
 10
-210.07104500000014
 20
779.29994150000005
 11
-210.07104500000014
 21
777.79994150000005
  0
ARC
  8
_0-0_0
  6
CONTINUOUS
 62
    7
 10
-212.07104500000014
 20
777.79994150000005
 40
2
 50
180.00000900000003
 51
0.0000000000000254
  0
LINE
  8
_0-0_0
  6
CONTINUOUS
 62
    7
 10
-227.57104500000014
 20
779.79994150000005
 11
-227.57104500000014
 21
779.29994150000005
  0
LINE
  8
_0-0_0
  6
CONTINUOUS
 62
    7
 10
-214.07104500000014
 20
776.88343750000001
 11
-214.07104500000014
 21
777.59992950000003
  0
LINE
  8
_0-0_0
  6
CONTINUOUS
 62
    7
 10
-214.07104500000014
 20
776.88343750000001
 11
-214.07104500000014
 21
776.87730350000004
  0
LINE
  8
_0-0_0
  6
CONTINUOUS
 62
    7
 10
-214.07104500000014
 20
775.66880749999996
 11
-214.07104500000014
 21
775.55494650000003
  0
LINE
  8
_0-0_0
  6
CONTINUOUS
 62
    7
 10
-226.07104500000014
 20
776.89994750000005
 11
-226.07104500000014
 21
774.89994750000005
  0
LINE
  8
_0-0_0
  6
CONTINUOUS
 62
    7
 10
-214.07104500000014
 20
776.89994750000005
 11
-226.07104500000014
 21
776.89994750000005
  0
LINE
  8
_0-0_0
  6
CONTINUOUS
 62
    7
 10
-226.07104500000014
 20
771.39994750000005
 11
-226.07104500000014
 21
774.39994750000005
  0
LINE
  8
_0-0_0
  6
CONTINUOUS
 62
    7
 10
-226.07104500000014
 20
774.39994750000005
 11
-226.07104500000014
 21
774.89994750000005
  0
LINE
  8
_0-0_0
  6
CONTINUOUS
 62
    7
 10
-226.07104500000014
 20
771.39994750000005
 11
-226.07104500000014
 21
770.89994750000005
  0
ARC
  8
_0-0_0
  6
CONTINUOUS
 62
    7
 10
-220.07104500000014
 20
771.59992950000003
 40
0.500016
 50
0.001164
 51
179.99560600000004
  0
LINE
  8
_0-0_0
  6
CONTINUOUS
 62
    7
 10
-220.57104500000014
 20
771.59992950000003
 11
-220.57104500000014
 21
759.59992950000003
  0
ARC
  8
_0-0_0
  6
CONTINUOUS
 62
    7
 10
-220.07104500000014
 20
759.59996049999995
 40
0.500016
 50
180.00117
 51
359.995611
  0
LINE
  8
_0-0_0
  6
CONTINUOUS
 62
    7
 10
-219.57104500000014
 20
771.59992950000003
 11
-219.57104500000014
 21
759.59992950000003
  0
ARC
  8
_0-0_0
  6
CONTINUOUS
 62
    7
 10
-221.57104500000014
 20
771.59992950000003
 40
0.500016
 50
0.001164
 51
179.99560600000004
  0
LINE
  8
_0-0_0
  6
CONTINUOUS
 62
    7
 10
-222.07104500000014
 20
771.59992950000003
 11
-222.07104500000014
 21
759.59992950000003
  0
ARC
  8
_0-0_0
  6
CONTINUOUS
 62
    7
 10
-221.57104500000014
 20
759.59996049999995
 40
0.500016
 50
180.00117
 51
359.995611
  0
LINE
  8
_0-0_0
  6
CONTINUOUS
 62
    7
 10
-221.07104500000014
 20
771.59992950000003
 11
-221.07104500000014
 21
759.59992950000003
  0
ARC
  8
_0-0_0
  6
CONTINUOUS
 62
    7
 10
-223.07104500000014
 20
771.59992950000003
 40
0.500016
 50
0.001164
 51
179.99560600000004
  0
LINE
  8
_0-0_0
  6
CONTINUOUS
 62
    7
 10
-223.57104500000014
 20
771.59992950000003
 11
-223.57104500000014
 21
759.59992950000003
  0
ARC
  8
_0-0_0
  6
CONTINUOUS
 62
    7
 10
-223.07104500000014
 20
759.59996049999995
 40
0.500016
 50
180.00117
 51
359.995611
  0
LINE
  8
_0-0_0
  6
CONTINUOUS
 62
    7
 10
-222.57104500000014
 20
771.59992950000003
 11
-222.57104500000014
 21
759.59992950000003
  0
ARC
  8
_0-0_0
  6
CONTINUOUS
 62
    7
 10
-224.57104500000014
 20
771.59992950000003
 40
0.500016
 50
0.001164
 51
179.99560600000004
  0
LINE
  8
_0-0_0
  6
CONTINUOUS
 62
    7
 10
-225.07104500000014
 20
771.59992950000003
 11
-225.07104500000014
 21
759.59992950000003
  0
ARC
  8
_0-0_0
  6
CONTINUOUS
 62
    7
 10
-224.57104500000014
 20
759.59996049999995
 40
0.500016
 50
180.00117
 51
359.995611
  0
LINE
  8
_0-0_0
  6
CONTINUOUS
 62
    7
 10
-224.07104500000014
 20
771.59992950000003
 11
-224.07104500000014
 21
759.59992950000003
  0
LINE
  8
_0-0_0
  6
CONTINUOUS
 62
    7
 10
-214.07104500000014
 20
755.29994150000005
 11
-230.74648999999999
 21
755.29994150000005
  0
LINE
  8
_0-0_0
  6
CONTINUOUS
 62
    7
 10
-203.52105699999993
 20
757.27690150000001
 11
-203.52105699999993
 21
757.29994150000005
  0
LINE
  8
_0-0_0
  6
CONTINUOUS
 62
    7
 10
-134.62106300000005
 20
757.27690150000001
 11
-134.62106300000005
 21
757.29994150000005
  0
LINE
  8
_0-0_0
  6
CONTINUOUS
 62
    7
 10
-227.57104500000014
 20
779.79994150000005
 11
-227.57104500000014
 21
780.29994150000005
  0
LINE
  8
_0-0_0
  6
CONTINUOUS
 62
    7
 10
-131.07105999999999
 20
780.29994150000005
 11
-227.57104500000014
 21
780.29994150000005
  0
LINE
  8
_0-0_0
  6
CONTINUOUS
 62
    7
 10
-227.57104500000014
 20
780.29994150000005
 11
-227.57104500000014
 21
781.29994150000005
  0
LINE
  8
_0-0_0
  6
CONTINUOUS
 62
    7
 10
-131.07092299999999
 20
781.30000250000001
 11
-131.07092299999999
 21
780.80000250000001
  0
LINE
  8
_0-0_0
  6
CONTINUOUS
 62
    7
 10
-131.07092299999999
 20
780.80000250000001
 11
-131.07092299999999
 21
779.30000250000001
  0
ARC
  8
_0-0_0
  6
CONTINUOUS
 62
    7
 10
-140.57105999999999
 20
770.89994750000005
 40
4.5
 50
269.99999700000001
 51
90.000002999999992
  0
LINE
  8
_0-0_0
  6
CONTINUOUS
 62
    7
 10
-140.57105999999999
 20
766.39994750000005
 11
-145.57105999999999
 21
766.39994750000005
  0
ARC
  8
_0-0_0
  6
CONTINUOUS
 62
    7
 10
-145.57105999999999
 20
770.89994750000005
 40
4.5
 50
90.000003000000007
 51
269.99999700000006
  0
LINE
  8
_0-0_0
  6
CONTINUOUS
 62
    7
 10
-145.57105999999999
 20
775.39994750000005
 11
-140.57105999999999
 21
775.39994750000005
  0
ARC
  8
_0-0_0
  6
CONTINUOUS
 62
    7
 10
-196.57105999999999
 20
770.89994750000005
 40
4.5
 50
269.99999700000001
 51
90.000002999999992
  0
LINE
  8
_0-0_0
  6
CONTINUOUS
 62
    7
 10
-196.57105999999999
 20
766.39994750000005
 11
-201.57105999999999
 21
766.39994750000005
  0
ARC
  8
_0-0_0
  6
CONTINUOUS
 62
    7
 10
-201.57105999999999
 20
770.89994750000005
 40
4.5
 50
90.000003000000007
 51
269.99999700000006
  0
LINE
  8
_0-0_0
  6
CONTINUOUS
 62
    7
 10
-201.57105999999999
 20
775.39994750000005
 11
-196.57105999999999
 21
775.39994750000005
  0
LINE
  8
_0-0_0
  6
CONTINUOUS
 62
    7
 10
-214.07104500000014
 20
777.59992950000003
 11
-214.07104500000014
 21
779.29994150000005
  0
LINE
  8
_0-0_0
  6
CONTINUOUS
 62
    7
 10
-214.07104500000014
 20
779.29994150000005
 11
-227.57104500000014
 21
779.29994150000005
  0
LINE
  8
_0-0_0
  6
CONTINUOUS
 62
    7
 10
-227.57104500000014
 20
777.59992950000003
 11
-227.57104500000014
 21
779.29994150000005
  0
LINE
  8
_0-0_0
  6
CONTINUOUS
 62
    7
 10
-226.07104500000014
 20
776.89994750000005
 11
-230.74648999999999
 21
776.89994750000005
  0
LINE
  8
_0-0_0
  6
CONTINUOUS
 62
    7
 10
-226.07104500000014
 20
771.39994750000005
 11
-230.74648999999999
 21
771.39994750000005
  0
LINE
  8
_0-0_0
  6
CONTINUOUS
 62
    7
 10
-231.3789670000001
 20
755.40257250000002
 11
-231.25945999999999
 21
755.36695850000001
  0
LINE
  8
_0-0_0
  6
CONTINUOUS
 62
    7
 10
-231.25945999999999
 20
755.36695850000001
 11
-231.13790900000004
 21
755.33906549999995
  0
LINE
  8
_0-0_0
  6
CONTINUOUS
 62
    7
 10
-231.13790900000004
 20
755.33906549999995
 11
-231.01477
 21
755.31904550000002
  0
LINE
  8
_0-0_0
  6
CONTINUOUS
 62
    7
 10
-231.01477
 20
755.31904550000002
 11
-230.890533
 21
755.30693050000002
  0
LINE
  8
_0-0_0
  6
CONTINUOUS
 62
    7
 10
-230.890533
 20
755.30693050000002
 11
-230.765717
 21
755.30278050000004
  0
LINE
  8
_0-0_0
  6
CONTINUOUS
 62
    7
 10
-230.765717
 20
755.30278050000004
 11
-230.74648999999999
 21
755.30287150000004
  0
ARC
  8
_0-0_0
  6
CONTINUOUS
 62
    7
 10
-230.74648999999999
 20
757.29994150000005
 40
2
 50
251.56498899999997
 51
269.99999700000001
  0
LINE
  8
_0-0_0
  6
CONTINUOUS
 62
    7
 10
-227.57104500000014
 20
777.59992950000003
 11
-214.07104500000014
 21
777.59992950000003
  0
CIRCLE
  8
_0-0_0
  6
CONTINUOUS
 62
    7
 10
-133.07105999999999
 20
777.79994150000005
 40
1.4750000000000001
  0
CIRCLE
  8
_0-0_0
  6
CONTINUOUS
 62
    7
 10
-212.07104500000014
 20
777.79994150000005
 40
1.4750000000000001
  0
ARC
  8
_0-0_0
  6
CONTINUOUS
 62
    7
 10
-230.74648999999999
 20
774.89994750000005
 40
2
 50
90.000003000000007
 51
108.434997
  0
LINE
  8
_0-0_0
  6
CONTINUOUS
 62
    7
 10
-235.54540999999995
 20
771.39994750000005
 11
-236.23876900000005
 21
771.39994750000005
  0
LINE
  8
_0-0_0
  6
CONTINUOUS
 62
    7
 10
-235.54540999999995
 20
771.39994750000005
 11
-231.22082499999988
 21
771.39994750000005
  0
LINE
  8
_0-0_0
  6
CONTINUOUS
 62
    7
 10
-230.74648999999999
 20
771.39994750000005
 11
-231.22082499999988
 21
771.39994750000005
  0
LINE
  8
_0-0_0
  6
CONTINUOUS
 62
    7
 10
-235.70349099999999
 20
756.84410049999997
 11
-231.3789670000001
 21
755.40257250000002
  0
LINE
  8
_0-0_0
  6
CONTINUOUS
 62
    7
 10
-136.52105700000004
 20
770.89994750000005
 11
-138.83046000000002
 21
766.89994750000005
  0
LINE
  8
_0-0_0
  6
CONTINUOUS
 62
    7
 10
-147.31166099999996
 20
766.89994750000005
 11
-138.83046000000002
 21
766.89994750000005
  0
LINE
  8
_0-0_0
  6
CONTINUOUS
 62
    7
 10
-147.31166099999996
 20
766.89994750000005
 11
-149.62106300000005
 21
770.89994750000005
  0
LINE
  8
_0-0_0
  6
CONTINUOUS
 62
    7
 10
-149.62106300000005
 20
770.89994750000005
 11
-147.31166099999996
 21
774.89994750000005
  0
LINE
  8
_0-0_0
  6
CONTINUOUS
 62
    7
 10
-138.83046000000002
 20
774.89994750000005
 11
-147.31166099999996
 21
774.89994750000005
  0
LINE
  8
_0-0_0
  6
CONTINUOUS
 62
    7
 10
-138.83046000000002
 20
774.89994750000005
 11
-136.52105700000004
 21
770.89994750000005
  0
LINE
  8
_0-0_0
  6
CONTINUOUS
 62
    7
 10
-203.31166099999996
 20
774.89994750000005
 11
-205.62104799999997
 21
770.89994750000005
  0
LINE
  8
_0-0_0
  6
CONTINUOUS
 62
    7
 10
-194.83046000000013
 20
774.89994750000005
 11
-203.31166099999996
 21
774.89994750000005
  0
LINE
  8
_0-0_0
  6
CONTINUOUS
 62
    7
 10
-192.52105699999993
 20
770.89994750000005
 11
-194.83046000000013
 21
774.89994750000005
  0
LINE
  8
_0-0_0
  6
CONTINUOUS
 62
    7
 10
-194.83046000000013
 20
766.89994750000005
 11
-192.52105699999993
 21
770.89994750000005
  0
LINE
  8
_0-0_0
  6
CONTINUOUS
 62
    7
 10
-203.31166099999996
 20
766.89994750000005
 11
-194.83046000000013
 21
766.89994750000005
  0
LINE
  8
_0-0_0
  6
CONTINUOUS
 62
    7
 10
-205.62104799999997
 20
770.89994750000005
 11
-203.31166099999996
 21
766.89994750000005
  0
LINE
  8
_0-0_0
  6
CONTINUOUS
 62
    7
 10
-231.82104500000014
 20
776.64994750000005
 11
-231.3789670000001
 21
776.79731749999996
  0
LINE
  8
_0-0_0
  6
CONTINUOUS
 62
    7
 10
-237.07104500000014
 20
772.14997849999997
 11
-237.07104500000014
 21
771.02894549999996
  0
LINE
  8
_0-0_0
  6
CONTINUOUS
 62
    7
 10
-237.07104500000014
 20
770.10762050000005
 11
-237.07104500000014
 21
771.02894549999996
  0
LINE
  8
_0-0_0
  6
CONTINUOUS
 62
    7
 10
-236.77105699999993
 20
768.3119355
 11
-236.82983400000012
 21
768.55876150000006
  0
LINE
  8
_0-0_0
  6
CONTINUOUS
 62
    7
 10
-236.82983400000012
 20
768.55876150000006
 11
-236.87960799999996
 21
768.75111349999997
  0
LINE
  8
_0-0_0
  6
CONTINUOUS
 62
    7
 10
-236.87960799999996
 20
768.75111349999997
 11
-236.9507450000001
 21
769.01692149999997
  0
LINE
  8
_0-0_0
  6
CONTINUOUS
 62
    7
 10
-236.9507450000001
 20
769.01692149999997
 11
-236.98370399999999
 21
769.14363049999997
  0
LINE
  8
_0-0_0
  6
CONTINUOUS
 62
    7
 10
-236.98370399999999
 20
769.14363049999997
 11
-237.00897200000009
 21
769.24705449999999
  0
LINE
  8
_0-0_0
  6
CONTINUOUS
 62
    7
 10
-237.00897200000009
 20
769.24705449999999
 11
-237.03100599999993
 21
769.3469695
  0
LINE
  8
_0-0_0
  6
CONTINUOUS
 62
    7
 10
-237.03100599999993
 20
769.3469695
 11
-237.05236800000011
 21
769.4646755
  0
LINE
  8
_0-0_0
  6
CONTINUOUS
 62
    7
 10
-237.05236800000011
 20
769.4646755
 11
-237.06094400000006
 21
769.52680950000001
  0
LINE
  8
_0-0_0
  6
CONTINUOUS
 62
    7
 10
-237.06094400000006
 20
769.52680950000001
 11
-237.06701700000008
 21
769.58741750000002
  0
LINE
  8
_0-0_0
  6
CONTINUOUS
 62
    7
 10
-237.06701700000008
 20
769.58741750000002
 11
-237.07003800000007
 21
769.63667250000003
  0
LINE
  8
_0-0_0
  6
CONTINUOUS
 62
    7
 10
-237.07003800000007
 20
769.63667250000003
 11
-237.07104500000014
 21
769.68489050000005
  0
LINE
  8
_0-0_0
  6
CONTINUOUS
 62
    7
 10
-236.77105699999993
 20
763.88792450000005
 11
-236.687592
 21
764.26661650000005
  0
LINE
  8
_0-0_0
  6
CONTINUOUS
 62
    7
 10
-236.687592
 20
764.26661650000005
 11
-236.64749099999995
 21
764.4581455
  0
LINE
  8
_0-0_0
  6
CONTINUOUS
 62
    7
 10
-236.64749099999995
 20
764.4581455
 11
-236.59143100000006
 21
764.74815350000006
  0
LINE
  8
_0-0_0
  6
CONTINUOUS
 62
    7
 10
-236.59143100000006
 20
764.74815350000006
 11
-236.55383299999994
 21
764.96772750000002
  0
LINE
  8
_0-0_0
  6
CONTINUOUS
 62
    7
 10
-236.55383299999994
 20
764.96772750000002
 11
-236.52117900000007
 21
765.18897949999996
  0
LINE
  8
_0-0_0
  6
CONTINUOUS
 62
    7
 10
-236.52117900000007
 20
765.18897949999996
 11
-236.49401899999998
 21
765.41578649999997
  0
LINE
  8
_0-0_0
  6
CONTINUOUS
 62
    7
 10
-236.49401899999998
 20
765.41578649999997
 11
-236.47393800000009
 21
765.64317349999999
  0
LINE
  8
_0-0_0
  6
CONTINUOUS
 62
    7
 10
-236.47393800000009
 20
765.64317349999999
 11
-236.46679700000004
 21
765.7569125
  0
LINE
  8
_0-0_0
  6
CONTINUOUS
 62
    7
 10
-236.46679700000004
 20
765.7569125
 11
-236.4616390000001
 21
765.87059050000005
  0
LINE
  8
_0-0_0
  6
CONTINUOUS
 62
    7
 10
-236.4616390000001
 20
765.87059050000005
 11
-236.45791600000007
 21
766.02201850000006
  0
LINE
  8
_0-0_0
  6
CONTINUOUS
 62
    7
 10
-236.45791600000007
 20
766.02201850000006
 11
-236.45785500000011
 21
766.1732935
  0
LINE
  8
_0-0_0
  6
CONTINUOUS
 62
    7
 10
-236.45785500000011
 20
766.1732935
 11
-236.46142600000007
 21
766.32435550000002
  0
LINE
  8
_0-0_0
  6
CONTINUOUS
 62
    7
 10
-236.46142600000007
 20
766.32435550000002
 11
-236.47094700000002
 21
766.51289350000002
  0
LINE
  8
_0-0_0
  6
CONTINUOUS
 62
    7
 10
-236.47094700000002
 20
766.51289350000002
 11
-236.48580900000002
 21
766.70112549999999
  0
LINE
  8
_0-0_0
  6
CONTINUOUS
 62
    7
 10
-236.48580900000002
 20
766.70112549999999
 11
-236.50573699999995
 21
766.88908349999997
  0
LINE
  8
_0-0_0
  6
CONTINUOUS
 62
    7
 10
-236.50573699999995
 20
766.88908349999997
 11
-236.52212499999996
 21
767.01795949999996
  0
LINE
  8
_0-0_0
  6
CONTINUOUS
 62
    7
 10
-236.52212499999996
 20
767.01795949999996
 11
-236.54052700000011
 21
767.1465915
  0
LINE
  8
_0-0_0
  6
CONTINUOUS
 62
    7
 10
-236.54052700000011
 20
767.1465915
 11
-236.56469700000002
 21
767.29853849999995
  0
LINE
  8
_0-0_0
  6
CONTINUOUS
 62
    7
 10
-236.56469700000002
 20
767.29853849999995
 11
-236.591095
 21
767.44987449999996
  0
LINE
  8
_0-0_0
  6
CONTINUOUS
 62
    7
 10
-236.591095
 20
767.44987449999996
 11
-236.64724699999988
 21
767.74049349999996
  0
LINE
  8
_0-0_0
  6
CONTINUOUS
 62
    7
 10
-236.64724699999988
 20
767.74049349999996
 11
-236.687408
 21
767.93244949999996
  0
LINE
  8
_0-0_0
  6
CONTINUOUS
 62
    7
 10
-236.687408
 20
767.93244949999996
 11
-236.77105699999993
 21
768.3119355
  0
LINE
  8
_0-0_0
  6
CONTINUOUS
 62
    7
 10
-236.77105699999993
 20
763.88792450000005
 11
-236.82986400000004
 21
763.64106749999996
  0
LINE
  8
_0-0_0
  6
CONTINUOUS
 62
    7
 10
-236.82986400000004
 20
763.64106749999996
 11
-236.87960799999996
 21
763.44874549999997
  0
LINE
  8
_0-0_0
  6
CONTINUOUS
 62
    7
 10
-236.87960799999996
 20
763.44874549999997
 11
-236.9507450000001
 21
763.18299850000005
  0
LINE
  8
_0-0_0
  6
CONTINUOUS
 62
    7
 10
-236.9507450000001
 20
763.18299850000005
 11
-236.98370399999999
 21
763.05632049999997
  0
LINE
  8
_0-0_0
  6
CONTINUOUS
 62
    7
 10
-236.98370399999999
 20
763.05632049999997
 11
-237.00897200000009
 21
762.95286550000003
  0
LINE
  8
_0-0_0
  6
CONTINUOUS
 62
    7
 10
-237.00897200000009
 20
762.95286550000003
 11
-237.03100599999993
 21
762.85288949999995
  0
LINE
  8
_0-0_0
  6
CONTINUOUS
 62
    7
 10
-237.03100599999993
 20
762.85288949999995
 11
-237.05236800000011
 21
762.73518349999995
  0
LINE
  8
_0-0_0
  6
CONTINUOUS
 62
    7
 10
-237.05236800000011
 20
762.73518349999995
 11
-237.06094400000006
 21
762.67304950000005
  0
LINE
  8
_0-0_0
  6
CONTINUOUS
 62
    7
 10
-237.06094400000006
 20
762.67304950000005
 11
-237.06701700000008
 21
762.61244150000005
  0
LINE
  8
_0-0_0
  6
CONTINUOUS
 62
    7
 10
-237.06701700000008
 20
762.61244150000005
 11
-237.07003800000007
 21
762.56321749999995
  0
LINE
  8
_0-0_0
  6
CONTINUOUS
 62
    7
 10
-237.07003800000007
 20
762.56321749999995
 11
-237.07104500000014
 21
762.51499950000004
  0
LINE
  8
_0-0_0
  6
CONTINUOUS
 62
    7
 10
-237.07104500000014
 20
758.74147049999999
 11
-237.07104500000014
 21
762.09223950000001
  0
ARC
  8
_0-0_0
  6
CONTINUOUS
 62
    7
 10
-235.07104500000014
 20
758.74147049999999
 40
2
 50
180.00000900000003
 51
251.56498900000003
  0
LINE
  8
_0-0_0
  6
CONTINUOUS
 62
    7
 10
-132.62106300000005
 20
777.59992950000003
 11
-131.97105399999998
 21
777.59992950000003
  0
ARC
  8
_0-0_0
  6
CONTINUOUS
 62
    7
 10
-132.62106300000005
 20
777.34992950000003
 40
0.25
 50
90.000003000000007
 51
180.00000900000001
  0
LINE
  8
_0-0_0
  6
CONTINUOUS
 62
    7
 10
-132.87106300000005
 20
777.34992950000003
 11
-132.87106300000005
 21
776.69993550000004
  0
LINE
  8
_0-0_0
  6
CONTINUOUS
 62
    7
 10
-133.27105700000004
 20
776.69993550000004
 11
-132.87106300000005
 21
776.69993550000004
  0
LINE
  8
_0-0_0
  6
CONTINUOUS
 62
    7
 10
-133.27105700000004
 20
776.69993550000004
 11
-133.27105700000004
 21
777.34992950000003
  0
ARC
  8
_0-0_0
  6
CONTINUOUS
 62
    7
 10
-133.52105700000004
 20
777.34992950000003
 40
0.25
 50
0
 51
90.000003000000007
  0
LINE
  8
_0-0_0
  6
CONTINUOUS
 62
    7
 10
-134.17105100000003
 20
777.59992950000003
 11
-133.52105700000004
 21
777.59992950000003
  0
LINE
  8
_0-0_0
  6
CONTINUOUS
 62
    7
 10
-134.17105100000003
 20
777.59992950000003
 11
-134.17105100000003
 21
777.99995450000006
  0
LINE
  8
_0-0_0
  6
CONTINUOUS
 62
    7
 10
-133.52105700000004
 20
777.99995450000006
 11
-134.17105100000003
 21
777.99995450000006
  0
ARC
  8
_0-0_0
  6
CONTINUOUS
 62
    7
 10
-133.52105700000004
 20
778.24995450000006
 40
0.25
 50
269.99999700000001
 51
0
  0
LINE
  8
_0-0_0
  6
CONTINUOUS
 62
    7
 10
-133.27105700000004
 20
778.24995450000006
 11
-133.27105700000004
 21
778.89994750000005
  0
LINE
  8
_0-0_0
  6
CONTINUOUS
 62
    7
 10
-132.87106300000005
 20
778.89994750000005
 11
-133.27105700000004
 21
778.89994750000005
  0
LINE
  8
_0-0_0
  6
CONTINUOUS
 62
    7
 10
-132.87106300000005
 20
778.89994750000005
 11
-132.87106300000005
 21
778.24995450000006
  0
ARC
  8
_0-0_0
  6
CONTINUOUS
 62
    7
 10
-132.62106300000005
 20
778.24995450000006
 40
0.25
 50
180.00000900000003
 51
269.99999700000001
  0
LINE
  8
_0-0_0
  6
CONTINUOUS
 62
    7
 10
-131.97105399999998
 20
777.99995450000006
 11
-132.62106300000005
 21
777.99995450000006
  0
LINE
  8
_0-0_0
  6
CONTINUOUS
 62
    7
 10
-131.97105399999998
 20
777.99995450000006
 11
-131.97105399999998
 21
777.59992950000003
  0
LINE
  8
_0-0_0
  6
CONTINUOUS
 62
    7
 10
-211.6210329999999
 20
777.59992950000003
 11
-210.97106899999994
 21
777.59992950000003
  0
ARC
  8
_0-0_0
  6
CONTINUOUS
 62
    7
 10
-211.6210329999999
 20
777.34992950000003
 40
0.25
 50
90.000003000000007
 51
180.00000900000001
  0
LINE
  8
_0-0_0
  6
CONTINUOUS
 62
    7
 10
-211.8710329999999
 20
777.34992950000003
 11
-211.8710329999999
 21
776.69993550000004
  0
LINE
  8
_0-0_0
  6
CONTINUOUS
 62
    7
 10
-212.27105699999993
 20
776.69993550000004
 11
-211.8710329999999
 21
776.69993550000004
  0
LINE
  8
_0-0_0
  6
CONTINUOUS
 62
    7
 10
-212.27105699999993
 20
776.69993550000004
 11
-212.27105699999993
 21
777.34992950000003
  0
ARC
  8
_0-0_0
  6
CONTINUOUS
 62
    7
 10
-212.52105699999993
 20
777.34992950000003
 40
0.25
 50
0
 51
90.000003000000007
  0
LINE
  8
_0-0_0
  6
CONTINUOUS
 62
    7
 10
-213.17105100000003
 20
777.59992950000003
 11
-212.52105699999993
 21
777.59992950000003
  0
LINE
  8
_0-0_0
  6
CONTINUOUS
 62
    7
 10
-213.17105100000003
 20
777.59992950000003
 11
-213.17105100000003
 21
777.99995450000006
  0
LINE
  8
_0-0_0
  6
CONTINUOUS
 62
    7
 10
-212.52105699999993
 20
777.99995450000006
 11
-213.17105100000003
 21
777.99995450000006
  0
ARC
  8
_0-0_0
  6
CONTINUOUS
 62
    7
 10
-212.52105699999993
 20
778.24995450000006
 40
0.25
 50
269.99999700000001
 51
0
  0
LINE
  8
_0-0_0
  6
CONTINUOUS
 62
    7
 10
-212.27105699999993
 20
778.24995450000006
 11
-212.27105699999993
 21
778.89994750000005
  0
LINE
  8
_0-0_0
  6
CONTINUOUS
 62
    7
 10
-211.8710329999999
 20
778.89994750000005
 11
-212.27105699999993
 21
778.89994750000005
  0
LINE
  8
_0-0_0
  6
CONTINUOUS
 62
    7
 10
-211.8710329999999
 20
778.89994750000005
 11
-211.8710329999999
 21
778.24995450000006
  0
ARC
  8
_0-0_0
  6
CONTINUOUS
 62
    7
 10
-211.6210329999999
 20
778.24995450000006
 40
0.25
 50
180.00000900000003
 51
269.99999700000001
  0
LINE
  8
_0-0_0
  6
CONTINUOUS
 62
    7
 10
-210.97106899999994
 20
777.99995450000006
 11
-211.6210329999999
 21
777.99995450000006
  0
LINE
  8
_0-0_0
  6
CONTINUOUS
 62
    7
 10
-210.97106899999994
 20
777.99995450000006
 11
-210.97106899999994
 21
777.59992950000003
  0
LINE
  8
_0-0_0
  6
CONTINUOUS
 62
    7
 10
-252.07104500000014
 20
775.6253815
 11
-252.07104500000014
 21
775.47865249999995
  0
LINE
  8
_0-0_0
  6
CONTINUOUS
 62
    7
 10
-252.07104500000014
 20
775.81590249999999
 11
-252.07104500000014
 21
775.6253815
  0
LINE
  8
_0-0_0
  6
CONTINUOUS
 62
    7
 10
-252.07104500000014
 20
775.99092050000002
 11
-252.07104500000014
 21
775.81590249999999
  0
LINE
  8
_0-0_0
  6
CONTINUOUS
 62
    7
 10
-252.07104500000014
 20
776.14851350000004
 11
-252.07104500000014
 21
775.99092050000002
  0
LINE
  8
_0-0_0
  6
CONTINUOUS
 62
    7
 10
-252.07104500000014
 20
776.28694150000001
 11
-252.07104500000014
 21
776.14851350000004
  0
LINE
  8
_0-0_0
  6
CONTINUOUS
 62
    7
 10
-252.07104500000014
 20
776.40470849999997
 11
-252.07104500000014
 21
776.28694150000001
  0
LINE
  8
_0-0_0
  6
CONTINUOUS
 62
    7
 10
-252.07104500000014
 20
776.50050350000004
 11
-252.07104500000014
 21
776.40470849999997
  0
LINE
  8
_0-0_0
  6
CONTINUOUS
 62
    7
 10
-252.07104500000014
 20
776.57328749999999
 11
-252.07104500000014
 21
776.50050350000004
  0
LINE
  8
_0-0_0
  6
CONTINUOUS
 62
    7
 10
-252.07104500000014
 20
776.62223849999998
 11
-252.07104500000014
 21
776.57328749999999
  0
LINE
  8
_0-0_0
  6
CONTINUOUS
 62
    7
 10
-252.07104500000014
 20
776.64994750000005
 11
-252.07104500000014
 21
776.62223849999998
  0
LINE
  8
_0-0_0
  6
CONTINUOUS
 62
    7
 10
-252.07104500000014
 20
776.64994750000005
 11
-252.07104500000014
 21
776.64686549999999
  0
LINE
  8
_0-0_0
  6
CONTINUOUS
 62
    7
 10
-252.07104500000014
 20
772.1530305
 11
-252.07104500000014
 21
772.14994750000005
  0
LINE
  8
_0-0_0
  6
CONTINUOUS
 62
    7
 10
-252.07104500000014
 20
772.17765750000001
 11
-252.07104500000014
 21
772.14994750000005
  0
LINE
  8
_0-0_0
  6
CONTINUOUS
 62
    7
 10
-252.07104500000014
 20
772.2266085
 11
-252.07104500000014
 21
772.17765750000001
  0
LINE
  8
_0-0_0
  6
CONTINUOUS
 62
    7
 10
-252.07104500000014
 20
772.29939249999995
 11
-252.07104500000014
 21
772.2266085
  0
LINE
  8
_0-0_0
  6
CONTINUOUS
 62
    7
 10
-252.07104500000014
 20
772.39518750000002
 11
-252.07104500000014
 21
772.29939249999995
  0
LINE
  8
_0-0_0
  6
CONTINUOUS
 62
    7
 10
-252.07104500000014
 20
772.42536949999999
 11
-252.07104500000014
 21
772.39518750000002
  0
LINE
  8
_0-0_0
  6
CONTINUOUS
 62
    7
 10
-252.07104500000014
 20
772.51292450000005
 11
-252.07104500000014
 21
772.42536949999999
  0
LINE
  8
_0-0_0
  6
CONTINUOUS
 62
    7
 10
-252.07104500000014
 20
772.65135150000003
 11
-252.07104500000014
 21
772.51292450000005
  0
LINE
  8
_0-0_0
  6
CONTINUOUS
 62
    7
 10
-252.07104500000014
 20
772.80894450000005
 11
-252.07104500000014
 21
772.65135150000003
  0
LINE
  8
_0-0_0
  6
CONTINUOUS
 62
    7
 10
-252.07104500000014
 20
772.98396249999996
 11
-252.07104500000014
 21
772.80894450000005
  0
LINE
  8
_0-0_0
  6
CONTINUOUS
 62
    7
 10
-252.07104500000014
 20
773.17451449999999
 11
-252.07104500000014
 21
772.98396249999996
  0
LINE
  8
_0-0_0
  6
CONTINUOUS
 62
    7
 10
-252.07104500000014
 20
773.37846349999995
 11
-252.07104500000014
 21
773.17451449999999
  0
LINE
  8
_0-0_0
  6
CONTINUOUS
 62
    7
 10
-252.07104500000014
 20
773.59361249999995
 11
-252.07104500000014
 21
773.37846349999995
  0
LINE
  8
_0-0_0
  6
CONTINUOUS
 62
    7
 10
-252.07104500000014
 20
773.8176115
 11
-252.07104500000014
 21
773.59361249999995
  0
LINE
  8
_0-0_0
  6
CONTINUOUS
 62
    7
 10
-252.07104500000014
 20
774.04795850000005
 11
-252.07104500000014
 21
773.8176115
  0
LINE
  8
_0-0_0
  6
CONTINUOUS
 62
    7
 10
-252.07104500000014
 20
774.28218049999998
 11
-252.07104500000014
 21
774.04795850000005
  0
LINE
  8
_0-0_0
  6
CONTINUOUS
 62
    7
 10
-252.07104500000014
 20
774.51771550000001
 11
-252.07104500000014
 21
774.28218049999998
  0
LINE
  8
_0-0_0
  6
CONTINUOUS
 62
    7
 10
-252.07104500000014
 20
774.75190750000002
 11
-252.07104500000014
 21
774.51771550000001
  0
LINE
  8
_0-0_0
  6
CONTINUOUS
 62
    7
 10
-252.07104500000014
 20
774.98228449999999
 11
-252.07104500000014
 21
774.75190750000002
  0
LINE
  8
_0-0_0
  6
CONTINUOUS
 62
    7
 10
-252.07104500000014
 20
775.20628350000004
 11
-252.07104500000014
 21
774.98228449999999
  0
LINE
  8
_0-0_0
  6
CONTINUOUS
 62
    7
 10
-252.07104500000014
 20
775.42143250000004
 11
-252.07104500000014
 21
775.20628350000004
  0
LINE
  8
_0-0_0
  6
CONTINUOUS
 62
    7
 10
-252.07104500000014
 20
775.47865249999995
 11
-252.07104500000014
 21
775.42143250000004
  0
LINE
  8
_0-0_0
  6
CONTINUOUS
 62
    7
 10
-237.07104500000014
 20
767.66200249999997
 11
-237.07104500000014
 21
768.70762649999995
  0
LINE
  8
_0-0_0
  6
CONTINUOUS
 62
    7
 10
-237.07104500000014
 20
769.9922335
 11
-237.07104500000014
 21
768.70762649999995
  0
LINE
  8
_0-0_0
  6
CONTINUOUS
 62
    7
 10
-237.07104500000014
 20
770.10762050000005
 11
-237.07104500000014
 21
769.9922335
  0
LINE
  8
_0-0_0
  6
CONTINUOUS
 62
    7
 10
-237.07104500000014
 20
767.66200249999997
 11
-237.07104500000014
 21
764.53788750000001
  0
LINE
  8
_0-0_0
  6
CONTINUOUS
 62
    7
 10
-237.07104500000014
 20
762.09223950000001
 11
-237.07104500000014
 21
762.20762649999995
  0
LINE
  8
_0-0_0
  6
CONTINUOUS
 62
    7
 10
-237.07104500000014
 20
763.4922335
 11
-237.07104500000014
 21
762.20762649999995
  0
LINE
  8
_0-0_0
  6
CONTINUOUS
 62
    7
 10
-237.07104500000014
 20
763.4922335
 11
-237.07104500000014
 21
764.53788750000001
  0
LINE
  8
_0-0_0
  6
CONTINUOUS
 62
    7
 10
-252.07104500000014
 20
759.0253755
 11
-252.07104500000014
 21
758.87864650000006
  0
LINE
  8
_0-0_0
  6
CONTINUOUS
 62
    7
 10
-252.07104500000014
 20
759.21592650000002
 11
-252.07104500000014
 21
759.0253755
  0
LINE
  8
_0-0_0
  6
CONTINUOUS
 62
    7
 10
-252.07104500000014
 20
759.39094550000004
 11
-252.07104500000014
 21
759.21592650000002
  0
LINE
  8
_0-0_0
  6
CONTINUOUS
 62
    7
 10
-252.07104500000014
 20
759.54850750000003
 11
-252.07104500000014
 21
759.39094550000004
  0
LINE
  8
_0-0_0
  6
CONTINUOUS
 62
    7
 10
-252.07104500000014
 20
759.68696550000004
 11
-252.07104500000014
 21
759.54850750000003
  0
LINE
  8
_0-0_0
  6
CONTINUOUS
 62
    7
 10
-252.07104500000014
 20
759.80470249999996
 11
-252.07104500000014
 21
759.68696550000004
  0
LINE
  8
_0-0_0
  6
CONTINUOUS
 62
    7
 10
-252.07104500000014
 20
759.90049750000003
 11
-252.07104500000014
 21
759.80470249999996
  0
LINE
  8
_0-0_0
  6
CONTINUOUS
 62
    7
 10
-252.07104500000014
 20
759.97328149999998
 11
-252.07104500000014
 21
759.90049750000003
  0
LINE
  8
_0-0_0
  6
CONTINUOUS
 62
    7
 10
-252.07104500000014
 20
760.02223149999998
 11
-252.07104500000014
 21
759.97328149999998
  0
LINE
  8
_0-0_0
  6
CONTINUOUS
 62
    7
 10
-252.07104500000014
 20
760.04994150000005
 11
-252.07104500000014
 21
760.02223149999998
  0
LINE
  8
_0-0_0
  6
CONTINUOUS
 62
    7
 10
-252.07104500000014
 20
760.04994150000005
 11
-252.07104500000014
 21
760.04685949999998
  0
LINE
  8
_0-0_0
  6
CONTINUOUS
 62
    7
 10
-252.07104500000014
 20
755.55302449999999
 11
-252.07104500000014
 21
755.54994150000005
  0
LINE
  8
_0-0_0
  6
CONTINUOUS
 62
    7
 10
-252.07104500000014
 20
755.5776515
 11
-252.07104500000014
 21
755.54994150000005
  0
LINE
  8
_0-0_0
  6
CONTINUOUS
 62
    7
 10
-252.07104500000014
 20
755.62660249999999
 11
-252.07104500000014
 21
755.5776515
  0
LINE
  8
_0-0_0
  6
CONTINUOUS
 62
    7
 10
-252.07104500000014
 20
755.69938650000006
 11
-252.07104500000014
 21
755.62660249999999
  0
LINE
  8
_0-0_0
  6
CONTINUOUS
 62
    7
 10
-252.07104500000014
 20
755.79518150000001
 11
-252.07104500000014
 21
755.69938650000006
  0
LINE
  8
_0-0_0
  6
CONTINUOUS
 62
    7
 10
-252.07104500000014
 20
755.82539350000002
 11
-252.07104500000014
 21
755.79518150000001
  0
LINE
  8
_0-0_0
  6
CONTINUOUS
 62
    7
 10
-252.07104500000014
 20
755.91291750000005
 11
-252.07104500000014
 21
755.82539350000002
  0
LINE
  8
_0-0_0
  6
CONTINUOUS
 62
    7
 10
-252.07104500000014
 20
756.05137649999995
 11
-252.07104500000014
 21
755.91291750000005
  0
LINE
  8
_0-0_0
  6
CONTINUOUS
 62
    7
 10
-252.07104500000014
 20
756.20896849999997
 11
-252.07104500000014
 21
756.05137649999995
  0
LINE
  8
_0-0_0
  6
CONTINUOUS
 62
    7
 10
-252.07104500000014
 20
756.38398749999999
 11
-252.07104500000014
 21
756.20896849999997
  0
LINE
  8
_0-0_0
  6
CONTINUOUS
 62
    7
 10
-252.07104500000014
 20
756.57450849999998
 11
-252.07104500000014
 21
756.38398749999999
  0
LINE
  8
_0-0_0
  6
CONTINUOUS
 62
    7
 10
-252.07104500000014
 20
756.77845750000006
 11
-252.07104500000014
 21
756.57450849999998
  0
LINE
  8
_0-0_0
  6
CONTINUOUS
 62
    7
 10
-252.07104500000014
 20
756.99360650000006
 11
-252.07104500000014
 21
756.77845750000006
  0
LINE
  8
_0-0_0
  6
CONTINUOUS
 62
    7
 10
-252.07104500000014
 20
757.21760549999999
 11
-252.07104500000014
 21
756.99360650000006
  0
LINE
  8
_0-0_0
  6
CONTINUOUS
 62
    7
 10
-252.07104500000014
 20
757.44795250000004
 11
-252.07104500000014
 21
757.21760549999999
  0
LINE
  8
_0-0_0
  6
CONTINUOUS
 62
    7
 10
-252.07104500000014
 20
757.68217449999997
 11
-252.07104500000014
 21
757.44795250000004
  0
LINE
  8
_0-0_0
  6
CONTINUOUS
 62
    7
 10
-252.07104500000014
 20
757.9177095
 11
-252.07104500000014
 21
757.68217449999997
  0
LINE
  8
_0-0_0
  6
CONTINUOUS
 62
    7
 10
-252.07104500000014
 20
758.15193150000005
 11
-252.07104500000014
 21
757.9177095
  0
LINE
  8
_0-0_0
  6
CONTINUOUS
 62
    7
 10
-252.07104500000014
 20
758.38227849999998
 11
-252.07104500000014
 21
758.15193150000005
  0
LINE
  8
_0-0_0
  6
CONTINUOUS
 62
    7
 10
-252.07104500000014
 20
758.60627750000003
 11
-252.07104500000014
 21
758.38227849999998
  0
LINE
  8
_0-0_0
  6
CONTINUOUS
 62
    7
 10
-252.07104500000014
 20
758.82142650000003
 11
-252.07104500000014
 21
758.60627750000003
  0
LINE
  8
_0-0_0
  6
CONTINUOUS
 62
    7
 10
-252.07104500000014
 20
758.87864650000006
 11
-252.07104500000014
 21
758.82142650000003
  0
LINE
  8
_0-0_0
  6
CONTINUOUS
 62
    7
 10
-141.07105999999999
 20
768.64994750000005
 11
-145.07105999999999
 21
768.64994750000005
  0
ARC
  8
_0-0_0
  6
CONTINUOUS
 62
    7
 10
-145.07105999999999
 20
770.89994750000005
 40
2.25
 50
90.000003000000007
 51
269.99999700000006
  0
LINE
  8
_0-0_0
  6
CONTINUOUS
 62
    7
 10
-145.07105999999999
 20
773.14994750000005
 11
-141.07105999999999
 21
773.14994750000005
  0
ARC
  8
_0-0_0
  6
CONTINUOUS
 62
    7
 10
-141.07105999999999
 20
770.89994750000005
 40
2.25
 50
269.99999700000001
 51
90.000002999999992
  0
ARC
  8
_0-0_0
  6
CONTINUOUS
 62
    7
 10
-201.07105999999999
 20
770.89994750000005
 40
2.25
 50
90.000003000000007
 51
269.99999700000006
  0
LINE
  8
_0-0_0
  6
CONTINUOUS
 62
    7
 10
-201.07105999999999
 20
773.14994750000005
 11
-197.07105999999999
 21
773.14994750000005
  0
ARC
  8
_0-0_0
  6
CONTINUOUS
 62
    7
 10
-197.07105999999999
 20
770.89994750000005
 40
2.25
 50
269.99999700000001
 51
90.000002999999992
  0
LINE
  8
_0-0_0
  6
CONTINUOUS
 62
    7
 10
-197.07105999999999
 20
768.64994750000005
 11
-201.07105999999999
 21
768.64994750000005
  0
LINE
  8
_0-0_0
  6
CONTINUOUS
 62
    7
 10
-252.07104500000014
 20
775.6253815
 11
-252.32104500000014
 21
775.64994750000005
  0
LINE
  8
_0-0_0
  6
CONTINUOUS
 62
    7
 10
-252.07104500000014
 20
775.42143250000004
 11
-252.32104500000014
 21
775.64994750000005
  0
LINE
  8
_0-0_0
  6
CONTINUOUS
 62
    7
 10
-252.07104500000014
 20
775.81590249999999
 11
-252.32104500000014
 21
775.86939949999999
  0
LINE
  8
_0-0_0
  6
CONTINUOUS
 62
    7
 10
-252.07104500000014
 20
775.6253815
 11
-252.32104500000014
 21
775.86939949999999
  0
LINE
  8
_0-0_0
  6
CONTINUOUS
 62
    7
 10
-252.07104500000014
 20
775.99092050000002
 11
-252.32104500000014
 21
776.07276950000005
  0
LINE
  8
_0-0_0
  6
CONTINUOUS
 62
    7
 10
-252.07104500000014
 20
775.81590249999999
 11
-252.32104500000014
 21
776.07276950000005
  0
LINE
  8
_0-0_0
  6
CONTINUOUS
 62
    7
 10
-252.07104500000014
 20
776.14851350000004
 11
-252.32104500000014
 21
776.25779750000004
  0
LINE
  8
_0-0_0
  6
CONTINUOUS
 62
    7
 10
-252.07104500000014
 20
775.99092050000002
 11
-252.32104500000014
 21
776.25779750000004
  0
LINE
  8
_0-0_0
  6
CONTINUOUS
 62
    7
 10
-252.07104500000014
 20
776.28694150000001
 11
-252.32104500000014
 21
776.42250049999996
  0
LINE
  8
_0-0_0
  6
CONTINUOUS
 62
    7
 10
-252.07104500000014
 20
776.14851350000004
 11
-252.32104500000014
 21
776.42250049999996
  0
LINE
  8
_0-0_0
  6
CONTINUOUS
 62
    7
 10
-252.07104500000014
 20
776.40470849999997
 11
-252.32104500000014
 21
776.56501749999995
  0
LINE
  8
_0-0_0
  6
CONTINUOUS
 62
    7
 10
-252.07104500000014
 20
776.28694150000001
 11
-252.32104500000014
 21
776.56501749999995
  0
LINE
  8
_0-0_0
  6
CONTINUOUS
 62
    7
 10
-252.07104500000014
 20
776.50050350000004
 11
-252.32104500000014
 21
776.68379149999998
  0
LINE
  8
_0-0_0
  6
CONTINUOUS
 62
    7
 10
-252.07104500000014
 20
776.40470849999997
 11
-252.32104500000014
 21
776.68379149999998
  0
LINE
  8
_0-0_0
  6
CONTINUOUS
 62
    7
 10
-252.07104500000014
 20
776.57328749999999
 11
-252.32104500000014
 21
776.77757250000002
  0
LINE
  8
_0-0_0
  6
CONTINUOUS
 62
    7
 10
-252.07104500000014
 20
776.50050350000004
 11
-252.32104500000014
 21
776.77757250000002
  0
LINE
  8
_0-0_0
  6
CONTINUOUS
 62
    7
 10
-252.07104500000014
 20
776.62223849999998
 11
-252.32104500000014
 21
776.84532149999995
  0
LINE
  8
_0-0_0
  6
CONTINUOUS
 62
    7
 10
-252.07104500000014
 20
776.57328749999999
 11
-252.32104500000014
 21
776.84532149999995
  0
LINE
  8
_0-0_0
  6
CONTINUOUS
 62
    7
 10
-252.07104500000014
 20
776.64686549999999
 11
-252.32104500000014
 21
776.88624549999997
  0
LINE
  8
_0-0_0
  6
CONTINUOUS
 62
    7
 10
-252.07104500000014
 20
776.62223849999998
 11
-252.32104500000014
 21
776.88624549999997
  0
LINE
  8
_0-0_0
  6
CONTINUOUS
 62
    7
 10
-252.07104500000014
 20
776.64686549999999
 11
-252.32104500000014
 21
776.89994750000005
  0
LINE
  8
_0-0_0
  6
CONTINUOUS
 62
    7
 10
-252.07104500000014
 20
772.1530305
 11
-252.32104500000014
 21
771.89994750000005
  0
LINE
  8
_0-0_0
  6
CONTINUOUS
 62
    7
 10
-252.07104500000014
 20
772.17765750000001
 11
-252.32104500000014
 21
771.91365050000002
  0
LINE
  8
_0-0_0
  6
CONTINUOUS
 62
    7
 10
-252.07104500000014
 20
772.1530305
 11
-252.32104500000014
 21
771.91365050000002
  0
LINE
  8
_0-0_0
  6
CONTINUOUS
 62
    7
 10
-252.07104500000014
 20
772.2266085
 11
-252.32104500000014
 21
771.95457450000004
  0
LINE
  8
_0-0_0
  6
CONTINUOUS
 62
    7
 10
-252.07104500000014
 20
772.17765750000001
 11
-252.32104500000014
 21
771.95457450000004
  0
LINE
  8
_0-0_0
  6
CONTINUOUS
 62
    7
 10
-252.07104500000014
 20
772.29939249999995
 11
-252.32104500000014
 21
772.02229250000005
  0
LINE
  8
_0-0_0
  6
CONTINUOUS
 62
    7
 10
-252.07104500000014
 20
772.2266085
 11
-252.32104500000014
 21
772.02229250000005
  0
LINE
  8
_0-0_0
  6
CONTINUOUS
 62
    7
 10
-252.07104500000014
 20
772.39518750000002
 11
-252.32104500000014
 21
772.11607349999997
  0
LINE
  8
_0-0_0
  6
CONTINUOUS
 62
    7
 10
-252.07104500000014
 20
772.29939249999995
 11
-252.32104500000014
 21
772.11607349999997
  0
LINE
  8
_0-0_0
  6
CONTINUOUS
 62
    7
 10
-252.07104500000014
 20
772.39518750000002
 11
-252.20101900000009
 21
772.31132449999996
  0
LINE
  8
_0-0_0
  6
CONTINUOUS
 62
    7
 10
-252.07104500000014
 20
772.51292450000005
 11
-252.32104500000014
 21
772.23487850000004
  0
LINE
  8
_0-0_0
  6
CONTINUOUS
 62
    7
 10
-252.20101900000009
 20
772.31132449999996
 11
-252.32104500000014
 21
772.23487850000004
  0
LINE
  8
_0-0_0
  6
CONTINUOUS
 62
    7
 10
-252.07104500000014
 20
772.65135150000003
 11
-252.32104500000014
 21
772.37739550000003
  0
LINE
  8
_0-0_0
  6
CONTINUOUS
 62
    7
 10
-252.07104500000014
 20
772.51292450000005
 11
-252.32104500000014
 21
772.37739550000003
  0
LINE
  8
_0-0_0
  6
CONTINUOUS
 62
    7
 10
-252.07104500000014
 20
772.80894450000005
 11
-252.32104500000014
 21
772.54206850000003
  0
LINE
  8
_0-0_0
  6
CONTINUOUS
 62
    7
 10
-252.07104500000014
 20
772.65135150000003
 11
-252.32104500000014
 21
772.54206850000003
  0
LINE
  8
_0-0_0
  6
CONTINUOUS
 62
    7
 10
-252.07104500000014
 20
772.98396249999996
 11
-252.32104500000014
 21
772.72712650000005
  0
LINE
  8
_0-0_0
  6
CONTINUOUS
 62
    7
 10
-252.07104500000014
 20
772.80894450000005
 11
-252.32104500000014
 21
772.72712650000005
  0
LINE
  8
_0-0_0
  6
CONTINUOUS
 62
    7
 10
-252.07104500000014
 20
773.17451449999999
 11
-252.32104500000014
 21
772.9304965
  0
LINE
  8
_0-0_0
  6
CONTINUOUS
 62
    7
 10
-252.07104500000014
 20
772.98396249999996
 11
-252.32104500000014
 21
772.9304965
  0
LINE
  8
_0-0_0
  6
CONTINUOUS
 62
    7
 10
-252.07104500000014
 20
773.37846349999995
 11
-252.32104500000014
 21
773.14994750000005
  0
LINE
  8
_0-0_0
  6
CONTINUOUS
 62
    7
 10
-252.07104500000014
 20
773.17451449999999
 11
-252.32104500000014
 21
773.14994750000005
  0
LINE
  8
_0-0_0
  6
CONTINUOUS
 62
    7
 10
-252.07104500000014
 20
773.59361249999995
 11
-252.32104500000014
 21
773.38310249999995
  0
LINE
  8
_0-0_0
  6
CONTINUOUS
 62
    7
 10
-252.07104500000014
 20
773.37846349999995
 11
-252.32104500000014
 21
773.38310249999995
  0
LINE
  8
_0-0_0
  6
CONTINUOUS
 62
    7
 10
-252.07104500000014
 20
773.8176115
 11
-252.32104500000014
 21
773.62739550000003
  0
LINE
  8
_0-0_0
  6
CONTINUOUS
 62
    7
 10
-252.07104500000014
 20
773.59361249999995
 11
-252.32104500000014
 21
773.62739550000003
  0
LINE
  8
_0-0_0
  6
CONTINUOUS
 62
    7
 10
-252.07104500000014
 20
774.04795850000005
 11
-252.32104500000014
 21
773.88017249999996
  0
LINE
  8
_0-0_0
  6
CONTINUOUS
 62
    7
 10
-252.07104500000014
 20
773.8176115
 11
-252.32104500000014
 21
773.88017249999996
  0
LINE
  8
_0-0_0
  6
CONTINUOUS
 62
    7
 10
-252.07104500000014
 20
774.28218049999998
 11
-252.32104500000014
 21
774.13862549999999
  0
LINE
  8
_0-0_0
  6
CONTINUOUS
 62
    7
 10
-252.07104500000014
 20
774.04795850000005
 11
-252.32104500000014
 21
774.13862549999999
  0
LINE
  8
_0-0_0
  6
CONTINUOUS
 62
    7
 10
-252.07104500000014
 20
774.51771550000001
 11
-252.32104500000014
 21
774.39994750000005
  0
LINE
  8
_0-0_0
  6
CONTINUOUS
 62
    7
 10
-252.07104500000014
 20
774.28218049999998
 11
-252.32104500000014
 21
774.39994750000005
  0
LINE
  8
_0-0_0
  6
CONTINUOUS
 62
    7
 10
-252.07104500000014
 20
774.75190750000002
 11
-252.32104500000014
 21
774.6612705
  0
LINE
  8
_0-0_0
  6
CONTINUOUS
 62
    7
 10
-252.07104500000014
 20
774.51771550000001
 11
-252.32104500000014
 21
774.6612705
  0
LINE
  8
_0-0_0
  6
CONTINUOUS
 62
    7
 10
-252.07104500000014
 20
774.98228449999999
 11
-252.32104500000014
 21
774.91972350000003
  0
LINE
  8
_0-0_0
  6
CONTINUOUS
 62
    7
 10
-252.07104500000014
 20
774.75190750000002
 11
-252.32104500000014
 21
774.91972350000003
  0
LINE
  8
_0-0_0
  6
CONTINUOUS
 62
    7
 10
-252.07104500000014
 20
775.20628350000004
 11
-252.32104500000014
 21
775.17250049999996
  0
LINE
  8
_0-0_0
  6
CONTINUOUS
 62
    7
 10
-252.07104500000014
 20
774.98228449999999
 11
-252.32104500000014
 21
775.17250049999996
  0
LINE
  8
_0-0_0
  6
CONTINUOUS
 62
    7
 10
-252.07104500000014
 20
775.42143250000004
 11
-252.32104500000014
 21
775.41679350000004
  0
LINE
  8
_0-0_0
  6
CONTINUOUS
 62
    7
 10
-252.07104500000014
 20
775.20628350000004
 11
-252.32104500000014
 21
775.41679350000004
  0
LINE
  8
_0-0_0
  6
CONTINUOUS
 62
    7
 10
-237.07104500000014
 20
769.9922335
 11
-246.7788700000001
 21
769.9922335
  0
LINE
  8
_0-0_0
  6
CONTINUOUS
 62
    7
 10
-246.7788700000001
 20
769.9922335
 11
-246.83337400000005
 21
770.06217949999996
  0
LINE
  8
_0-0_0
  6
CONTINUOUS
 62
    7
 10
-246.83337400000005
 20
770.06217949999996
 11
-246.88445999999999
 21
770.13099650000004
  0
LINE
  8
_0-0_0
  6
CONTINUOUS
 62
    7
 10
-246.88445999999999
 20
770.13099650000004
 11
-246.932098
 21
770.19850150000002
  0
LINE
  8
_0-0_0
  6
CONTINUOUS
 62
    7
 10
-246.932098
 20
770.19850150000002
 11
-246.97659300000009
 21
770.2650605
  0
LINE
  8
_0-0_0
  6
CONTINUOUS
 62
    7
 10
-246.97659300000009
 20
770.2650605
 11
-247.03131099999996
 21
770.35261549999996
  0
LINE
  8
_0-0_0
  6
CONTINUOUS
 62
    7
 10
-247.03131099999996
 20
770.35261549999996
 11
-247.08081100000004
 21
770.43870549999997
  0
LINE
  8
_0-0_0
  6
CONTINUOUS
 62
    7
 10
-247.08081100000004
 20
770.43870549999997
 11
-247.12530500000003
 21
770.52354449999996
  0
LINE
  8
_0-0_0
  6
CONTINUOUS
 62
    7
 10
-247.12530500000003
 20
770.52354449999996
 11
-247.17227200000002
 21
770.62385549999999
  0
LINE
  8
_0-0_0
  6
CONTINUOUS
 62
    7
 10
-247.17227200000002
 20
770.62385549999999
 11
-247.21246300000007
 21
770.72279349999997
  0
LINE
  8
_0-0_0
  6
CONTINUOUS
 62
    7
 10
-247.21246300000007
 20
770.72279349999997
 11
-247.24615500000004
 21
770.82054149999999
  0
LINE
  8
_0-0_0
  6
CONTINUOUS
 62
    7
 10
-247.24615500000004
 20
770.82054149999999
 11
-247.27343700000006
 21
770.91734350000002
  0
LINE
  8
_0-0_0
  6
CONTINUOUS
 62
    7
 10
-247.27343700000006
 20
770.91734350000002
 11
-247.29446400000006
 21
771.01338150000004
  0
LINE
  8
_0-0_0
  6
CONTINUOUS
 62
    7
 10
-247.29446400000006
 20
771.01338150000004
 11
-247.31039400000009
 21
771.11726350000004
  0
LINE
  8
_0-0_0
  6
CONTINUOUS
 62
    7
 10
-247.31039400000009
 20
771.11726350000004
 11
-247.31915299999991
 21
771.22068750000005
  0
LINE
  8
_0-0_0
  6
CONTINUOUS
 62
    7
 10
-247.31915299999991
 20
771.22068750000005
 11
-247.32080100000007
 21
771.32392849999997
  0
LINE
  8
_0-0_0
  6
CONTINUOUS
 62
    7
 10
-247.32080100000007
 20
771.32392849999997
 11
-247.31530799999996
 21
771.42720050000003
  0
LINE
  8
_0-0_0
  6
CONTINUOUS
 62
    7
 10
-247.31530799999996
 20
771.42720050000003
 11
-247.30273399999987
 21
771.53080750000004
  0
LINE
  8
_0-0_0
  6
CONTINUOUS
 62
    7
 10
-247.30273399999987
 20
771.53080750000004
 11
-247.28289799999993
 21
771.63493349999999
  0
LINE
  8
_0-0_0
  6
CONTINUOUS
 62
    7
 10
-247.28289799999993
 20
771.63493349999999
 11
-247.25573699999995
 21
771.73991350000006
  0
LINE
  8
_0-0_0
  6
CONTINUOUS
 62
    7
 10
-247.25573699999995
 20
771.73991350000006
 11
-247.22109999999998
 21
771.84593150000001
  0
LINE
  8
_0-0_0
  6
CONTINUOUS
 62
    7
 10
-247.22109999999998
 20
771.84593150000001
 11
-247.17877199999998
 21
771.95332350000001
  0
LINE
  8
_0-0_0
  6
CONTINUOUS
 62
    7
 10
-247.17877199999998
 20
771.95332350000001
 11
-247.12844799999993
 21
772.06233250000002
  0
LINE
  8
_0-0_0
  6
CONTINUOUS
 62
    7
 10
-247.12844799999993
 20
772.06233250000002
 11
-247.082764
 21
772.14997849999997
  0
LINE
  8
_0-0_0
  6
CONTINUOUS
 62
    7
 10
-237.07104500000014
 20
768.70762649999995
 11
-246.7788700000001
 21
768.70762649999995
  0
LINE
  8
_0-0_0
  6
CONTINUOUS
 62
    7
 10
-246.7788700000001
 20
768.70762649999995
 11
-246.87323000000015
 21
768.46101350000004
  0
LINE
  8
_0-0_0
  6
CONTINUOUS
 62
    7
 10
-246.87323000000015
 20
768.46101350000004
 11
-246.95715300000006
 21
768.22105350000004
  0
LINE
  8
_0-0_0
  6
CONTINUOUS
 62
    7
 10
-246.95715300000006
 20
768.22105350000004
 11
-247.03131099999996
 21
767.98692349999999
  0
LINE
  8
_0-0_0
  6
CONTINUOUS
 62
    7
 10
-247.03131099999996
 20
767.98692349999999
 11
-247.09619100000009
 21
767.75788850000004
  0
LINE
  8
_0-0_0
  6
CONTINUOUS
 62
    7
 10
-247.09619100000009
 20
767.75788850000004
 11
-247.15222199999994
 21
767.53321849999998
  0
LINE
  8
_0-0_0
  6
CONTINUOUS
 62
    7
 10
-247.15222199999994
 20
767.53321849999998
 11
-247.19979899999998
 21
767.31224050000003
  0
LINE
  8
_0-0_0
  6
CONTINUOUS
 62
    7
 10
-247.19979899999998
 20
767.31224050000003
 11
-247.23919699999988
 21
767.0943145
  0
LINE
  8
_0-0_0
  6
CONTINUOUS
 62
    7
 10
-247.23919699999988
 20
767.0943145
 11
-247.27069099999994
 21
766.87886049999997
  0
LINE
  8
_0-0_0
  6
CONTINUOUS
 62
    7
 10
-247.27069099999994
 20
766.87886049999997
 11
-247.29446400000006
 21
766.66532849999999
  0
LINE
  8
_0-0_0
  6
CONTINUOUS
 62
    7
 10
-247.29446400000006
 20
766.66532849999999
 11
-247.31039400000009
 21
766.45762649999995
  0
LINE
  8
_0-0_0
  6
CONTINUOUS
 62
    7
 10
-247.31039400000009
 20
766.45762649999995
 11
-247.31915299999991
 21
766.25077850000002
  0
LINE
  8
_0-0_0
  6
CONTINUOUS
 62
    7
 10
-247.31915299999991
 20
766.25077850000002
 11
-247.32080100000007
 21
766.04429649999997
  0
LINE
  8
_0-0_0
  6
CONTINUOUS
 62
    7
 10
-247.32080100000007
 20
766.04429649999997
 11
-247.31530799999996
 21
765.83772250000004
  0
LINE
  8
_0-0_0
  6
CONTINUOUS
 62
    7
 10
-247.31530799999996
 20
765.83772250000004
 11
-247.30273399999987
 21
765.63053850000006
  0
LINE
  8
_0-0_0
  6
CONTINUOUS
 62
    7
 10
-247.30273399999987
 20
765.63053850000006
 11
-247.28289799999993
 21
765.4222565
  0
LINE
  8
_0-0_0
  6
CONTINUOUS
 62
    7
 10
-247.28289799999993
 20
765.4222565
 11
-247.25573699999995
 21
765.21232550000002
  0
LINE
  8
_0-0_0
  6
CONTINUOUS
 62
    7
 10
-247.25573699999995
 20
765.21232550000002
 11
-247.22109999999998
 21
765.00025949999997
  0
LINE
  8
_0-0_0
  6
CONTINUOUS
 62
    7
 10
-247.22109999999998
 20
765.00025949999997
 11
-247.17877199999998
 21
764.78550749999999
  0
LINE
  8
_0-0_0
  6
CONTINUOUS
 62
    7
 10
-247.17877199999998
 20
764.78550749999999
 11
-247.12844799999993
 21
764.56748949999997
  0
LINE
  8
_0-0_0
  6
CONTINUOUS
 62
    7
 10
-247.12844799999993
 20
764.56748949999997
 11
-247.07418800000005
 21
764.36122150000006
  0
LINE
  8
_0-0_0
  6
CONTINUOUS
 62
    7
 10
-247.07418800000005
 20
764.36122150000006
 11
-247.01248200000009
 21
764.15110749999997
  0
LINE
  8
_0-0_0
  6
CONTINUOUS
 62
    7
 10
-247.01248200000009
 20
764.15110749999997
 11
-246.94296299999996
 21
763.93663049999998
  0
LINE
  8
_0-0_0
  6
CONTINUOUS
 62
    7
 10
-246.94296299999996
 20
763.93663049999998
 11
-246.86526499999991
 21
763.71723950000001
  0
LINE
  8
_0-0_0
  6
CONTINUOUS
 62
    7
 10
-246.86526499999991
 20
763.71723950000001
 11
-246.7788700000001
 21
763.4922335
  0
LINE
  8
_0-0_0
  6
CONTINUOUS
 62
    7
 10
-237.07104500000014
 20
763.4922335
 11
-246.7788700000001
 21
763.4922335
  0
ARC
  8
_0-0_0
  6
CONTINUOUS
 62
    7
 10
-241.90731800000003
 20
769.34992950000003
 40
4.9136889999999998
 50
172.48898299999999
 51
187.51101699999998
  0
LINE
  8
_0-0_0
  6
CONTINUOUS
 62
    7
 10
-237.07104500000014
 20
762.20762649999995
 11
-246.7788700000001
 21
762.20762649999995
  0
LINE
  8
_0-0_0
  6
CONTINUOUS
 62
    7
 10
-246.7788700000001
 20
759.59992950000003
 11
-246.83337400000005
 21
759.66987549999999
  0
LINE
  8
_0-0_0
  6
CONTINUOUS
 62
    7
 10
-246.83337400000005
 20
759.66987549999999
 11
-246.88445999999999
 21
759.73869349999995
  0
LINE
  8
_0-0_0
  6
CONTINUOUS
 62
    7
 10
-246.88445999999999
 20
759.73869349999995
 11
-246.932098
 21
759.80619750000005
  0
LINE
  8
_0-0_0
  6
CONTINUOUS
 62
    7
 10
-246.932098
 20
759.80619750000005
 11
-246.97659300000009
 21
759.87275650000004
  0
LINE
  8
_0-0_0
  6
CONTINUOUS
 62
    7
 10
-246.97659300000009
 20
759.87275650000004
 11
-247.03131099999996
 21
759.96031149999999
  0
LINE
  8
_0-0_0
  6
CONTINUOUS
 62
    7
 10
-247.03131099999996
 20
759.96031149999999
 11
-247.08081100000004
 21
760.0464015
  0
LINE
  8
_0-0_0
  6
CONTINUOUS
 62
    7
 10
-247.08081100000004
 20
760.0464015
 11
-247.12530500000003
 21
760.13124049999999
  0
LINE
  8
_0-0_0
  6
CONTINUOUS
 62
    7
 10
-247.12530500000003
 20
760.13124049999999
 11
-247.17227200000002
 21
760.23155150000002
  0
LINE
  8
_0-0_0
  6
CONTINUOUS
 62
    7
 10
-247.17227200000002
 20
760.23155150000002
 11
-247.21246300000007
 21
760.3304895
  0
LINE
  8
_0-0_0
  6
CONTINUOUS
 62
    7
 10
-247.21246300000007
 20
760.3304895
 11
-247.24615500000004
 21
760.42823750000002
  0
LINE
  8
_0-0_0
  6
CONTINUOUS
 62
    7
 10
-247.24615500000004
 20
760.42823750000002
 11
-247.27343700000006
 21
760.52503950000005
  0
LINE
  8
_0-0_0
  6
CONTINUOUS
 62
    7
 10
-247.27343700000006
 20
760.52503950000005
 11
-247.29446400000006
 21
760.62107849999995
  0
LINE
  8
_0-0_0
  6
CONTINUOUS
 62
    7
 10
-247.29446400000006
 20
760.62107849999995
 11
-247.31039400000009
 21
760.72496049999995
  0
LINE
  8
_0-0_0
  6
CONTINUOUS
 62
    7
 10
-247.31039400000009
 20
760.72496049999995
 11
-247.31915299999991
 21
760.82838449999997
  0
LINE
  8
_0-0_0
  6
CONTINUOUS
 62
    7
 10
-247.31915299999991
 20
760.82838449999997
 11
-247.32080100000007
 21
760.93159449999996
  0
LINE
  8
_0-0_0
  6
CONTINUOUS
 62
    7
 10
-247.32080100000007
 20
760.93159449999996
 11
-247.31530799999996
 21
761.03489650000006
  0
LINE
  8
_0-0_0
  6
CONTINUOUS
 62
    7
 10
-247.31530799999996
 20
761.03489650000006
 11
-247.30273399999987
 21
761.13850349999996
  0
LINE
  8
_0-0_0
  6
CONTINUOUS
 62
    7
 10
-247.30273399999987
 20
761.13850349999996
 11
-247.28289799999993
 21
761.24262950000002
  0
LINE
  8
_0-0_0
  6
CONTINUOUS
 62
    7
 10
-247.28289799999993
 20
761.24262950000002
 11
-247.25573699999995
 21
761.34761049999997
  0
LINE
  8
_0-0_0
  6
CONTINUOUS
 62
    7
 10
-247.25573699999995
 20
761.34761049999997
 11
-247.22109999999998
 21
761.45362850000004
  0
LINE
  8
_0-0_0
  6
CONTINUOUS
 62
    7
 10
-247.22109999999998
 20
761.45362850000004
 11
-247.17877199999998
 21
761.56101950000004
  0
LINE
  8
_0-0_0
  6
CONTINUOUS
 62
    7
 10
-247.17877199999998
 20
761.56101950000004
 11
-247.12844799999993
 21
761.66999850000002
  0
LINE
  8
_0-0_0
  6
CONTINUOUS
 62
    7
 10
-247.12844799999993
 20
761.66999850000002
 11
-247.07418800000005
 21
761.77314750000005
  0
LINE
  8
_0-0_0
  6
CONTINUOUS
 62
    7
 10
-247.07418800000005
 20
761.77314750000005
 11
-247.01248200000009
 21
761.8782195
  0
LINE
  8
_0-0_0
  6
CONTINUOUS
 62
    7
 10
-247.01248200000009
 20
761.8782195
 11
-246.94296299999996
 21
761.98542750000001
  0
LINE
  8
_0-0_0
  6
CONTINUOUS
 62
    7
 10
-246.94296299999996
 20
761.98542750000001
 11
-246.86526499999991
 21
762.09513849999996
  0
LINE
  8
_0-0_0
  6
CONTINUOUS
 62
    7
 10
-246.86526499999991
 20
762.09513849999996
 11
-246.7788700000001
 21
762.20762649999995
  0
LINE
  8
_0-0_0
  6
CONTINUOUS
 62
    7
 10
-237.07104500000014
 20
759.59992950000003
 11
-246.7788700000001
 21
759.59992950000003
  0
ARC
  8
_0-0_0
  6
CONTINUOUS
 62
    7
 10
-241.897156
 20
762.84904449999999
 40
4.9238749999999998
 50
172.49424200000001
 51
181.535968
  0
ARC
  8
_0-0_0
  6
CONTINUOUS
 62
    7
 10
-241.85913099999993
 20
762.85401950000005
 40
4.9620009999999999
 50
181.58130700000004
 51
187.48478900000003
  0
LINE
  8
_0-0_0
  6
CONTINUOUS
 62
    7
 10
-246.82104500000014
 20
759.59992950000003
 11
-246.7788700000001
 21
759.59992950000003
  0
LINE
  8
_0-0_0
  6
CONTINUOUS
 62
    7
 10
-252.07104500000014
 20
759.0253755
 11
-252.32104500000014
 21
759.04994150000005
  0
LINE
  8
_0-0_0
  6
CONTINUOUS
 62
    7
 10
-252.07104500000014
 20
758.82142650000003
 11
-252.32104500000014
 21
759.04994150000005
  0
LINE
  8
_0-0_0
  6
CONTINUOUS
 62
    7
 10
-252.07104500000014
 20
759.21592650000002
 11
-252.32104500000014
 21
759.26939349999998
  0
LINE
  8
_0-0_0
  6
CONTINUOUS
 62
    7
 10
-252.07104500000014
 20
759.0253755
 11
-252.32104500000014
 21
759.26939349999998
  0
LINE
  8
_0-0_0
  6
CONTINUOUS
 62
    7
 10
-252.07104500000014
 20
759.39094550000004
 11
-252.32104500000014
 21
759.47276250000004
  0
LINE
  8
_0-0_0
  6
CONTINUOUS
 62
    7
 10
-252.07104500000014
 20
759.21592650000002
 11
-252.32104500000014
 21
759.47276250000004
  0
LINE
  8
_0-0_0
  6
CONTINUOUS
 62
    7
 10
-252.07104500000014
 20
759.54850750000003
 11
-252.32104500000014
 21
759.65779150000003
  0
LINE
  8
_0-0_0
  6
CONTINUOUS
 62
    7
 10
-252.07104500000014
 20
759.39094550000004
 11
-252.32104500000014
 21
759.65779150000003
  0
LINE
  8
_0-0_0
  6
CONTINUOUS
 62
    7
 10
-252.07104500000014
 20
759.68696550000004
 11
-252.32104500000014
 21
759.82249449999995
  0
LINE
  8
_0-0_0
  6
CONTINUOUS
 62
    7
 10
-252.07104500000014
 20
759.54850750000003
 11
-252.32104500000014
 21
759.82249449999995
  0
LINE
  8
_0-0_0
  6
CONTINUOUS
 62
    7
 10
-252.07104500000014
 20
759.80470249999996
 11
-252.32104500000014
 21
759.96501150000006
  0
LINE
  8
_0-0_0
  6
CONTINUOUS
 62
    7
 10
-252.07104500000014
 20
759.68696550000004
 11
-252.32104500000014
 21
759.96501150000006
  0
LINE
  8
_0-0_0
  6
CONTINUOUS
 62
    7
 10
-252.07104500000014
 20
759.90049750000003
 11
-252.32104500000014
 21
760.08381650000001
  0
LINE
  8
_0-0_0
  6
CONTINUOUS
 62
    7
 10
-252.07104500000014
 20
759.80470249999996
 11
-252.32104500000014
 21
760.08381650000001
  0
LINE
  8
_0-0_0
  6
CONTINUOUS
 62
    7
 10
-252.07104500000014
 20
759.97328149999998
 11
-252.32104500000014
 21
760.17759650000005
  0
LINE
  8
_0-0_0
  6
CONTINUOUS
 62
    7
 10
-252.07104500000014
 20
759.90049750000003
 11
-252.32104500000014
 21
760.17759650000005
  0
LINE
  8
_0-0_0
  6
CONTINUOUS
 62
    7
 10
-252.07104500000014
 20
760.02223149999998
 11
-252.32104500000014
 21
760.24531549999995
  0
LINE
  8
_0-0_0
  6
CONTINUOUS
 62
    7
 10
-252.07104500000014
 20
759.97328149999998
 11
-252.32104500000014
 21
760.24531549999995
  0
LINE
  8
_0-0_0
  6
CONTINUOUS
 62
    7
 10
-252.07104500000014
 20
760.04685949999998
 11
-252.32104500000014
 21
760.28623949999997
  0
LINE
  8
_0-0_0
  6
CONTINUOUS
 62
    7
 10
-252.07104500000014
 20
760.02223149999998
 11
-252.32104500000014
 21
760.28623949999997
  0
LINE
  8
_0-0_0
  6
CONTINUOUS
 62
    7
 10
-252.07104500000014
 20
760.04685949999998
 11
-252.32104500000014
 21
760.29994150000005
  0
LINE
  8
_0-0_0
  6
CONTINUOUS
 62
    7
 10
-252.07104500000014
 20
755.55302449999999
 11
-252.32104500000014
 21
755.29994150000005
  0
LINE
  8
_0-0_0
  6
CONTINUOUS
 62
    7
 10
-252.07104500000014
 20
755.5776515
 11
-252.32104500000014
 21
755.31364450000001
  0
LINE
  8
_0-0_0
  6
CONTINUOUS
 62
    7
 10
-252.07104500000014
 20
755.55302449999999
 11
-252.07428000000004
 21
755.54994150000005
  0
LINE
  8
_0-0_0
  6
CONTINUOUS
 62
    7
 10
-252.07104500000014
 20
755.62660249999999
 11
-252.32104500000014
 21
755.35456850000003
  0
LINE
  8
_0-0_0
  6
CONTINUOUS
 62
    7
 10
-252.07104500000014
 20
755.5776515
 11
-252.32104500000014
 21
755.35456850000003
  0
LINE
  8
_0-0_0
  6
CONTINUOUS
 62
    7
 10
-252.07104500000014
 20
755.69938650000006
 11
-252.32104500000014
 21
755.42228650000004
  0
LINE
  8
_0-0_0
  6
CONTINUOUS
 62
    7
 10
-252.07104500000014
 20
755.62660249999999
 11
-252.32104500000014
 21
755.42228650000004
  0
LINE
  8
_0-0_0
  6
CONTINUOUS
 62
    7
 10
-252.07104500000014
 20
755.79518150000001
 11
-252.32104500000014
 21
755.51606749999996
  0
LINE
  8
_0-0_0
  6
CONTINUOUS
 62
    7
 10
-252.07104500000014
 20
755.69938650000006
 11
-252.32104500000014
 21
755.51606749999996
  0
LINE
  8
_0-0_0
  6
CONTINUOUS
 62
    7
 10
-252.07104500000014
 20
755.79518150000001
 11
-252.20101900000009
 21
755.71131849999995
  0
LINE
  8
_0-0_0
  6
CONTINUOUS
 62
    7
 10
-252.07104500000014
 20
755.91291750000005
 11
-252.32104500000014
 21
755.63487250000003
  0
LINE
  8
_0-0_0
  6
CONTINUOUS
 62
    7
 10
-252.20101900000009
 20
755.71131849999995
 11
-252.32104500000014
 21
755.63487250000003
  0
LINE
  8
_0-0_0
  6
CONTINUOUS
 62
    7
 10
-252.07104500000014
 20
756.05137649999995
 11
-252.32104500000014
 21
755.77738950000003
  0
LINE
  8
_0-0_0
  6
CONTINUOUS
 62
    7
 10
-252.07104500000014
 20
755.91291750000005
 11
-252.32104500000014
 21
755.77738950000003
  0
LINE
  8
_0-0_0
  6
CONTINUOUS
 62
    7
 10
-252.07104500000014
 20
756.20896849999997
 11
-252.32104500000014
 21
755.94209250000006
  0
LINE
  8
_0-0_0
  6
CONTINUOUS
 62
    7
 10
-252.07104500000014
 20
756.05137649999995
 11
-252.32104500000014
 21
755.94209250000006
  0
LINE
  8
_0-0_0
  6
CONTINUOUS
 62
    7
 10
-252.07104500000014
 20
756.38398749999999
 11
-252.32104500000014
 21
756.12712050000005
  0
LINE
  8
_0-0_0
  6
CONTINUOUS
 62
    7
 10
-252.07104500000014
 20
756.20896849999997
 11
-252.32104500000014
 21
756.12712050000005
  0
LINE
  8
_0-0_0
  6
CONTINUOUS
 62
    7
 10
-252.07104500000014
 20
756.57450849999998
 11
-252.32104500000014
 21
756.3304895
  0
LINE
  8
_0-0_0
  6
CONTINUOUS
 62
    7
 10
-252.07104500000014
 20
756.38398749999999
 11
-252.32104500000014
 21
756.3304895
  0
LINE
  8
_0-0_0
  6
CONTINUOUS
 62
    7
 10
-252.07104500000014
 20
756.77845750000006
 11
-252.32104500000014
 21
756.54994150000005
  0
LINE
  8
_0-0_0
  6
CONTINUOUS
 62
    7
 10
-252.07104500000014
 20
756.57450849999998
 11
-252.32104500000014
 21
756.54994150000005
  0
LINE
  8
_0-0_0
  6
CONTINUOUS
 62
    7
 10
-252.07104500000014
 20
756.99360650000006
 11
-252.32104500000014
 21
756.78309650000006
  0
LINE
  8
_0-0_0
  6
CONTINUOUS
 62
    7
 10
-252.07104500000014
 20
756.77845750000006
 11
-252.32104500000014
 21
756.78309650000006
  0
LINE
  8
_0-0_0
  6
CONTINUOUS
 62
    7
 10
-252.07104500000014
 20
757.21760549999999
 11
-252.32104500000014
 21
757.02738950000003
  0
LINE
  8
_0-0_0
  6
CONTINUOUS
 62
    7
 10
-252.07104500000014
 20
756.99360650000006
 11
-252.32104500000014
 21
757.02738950000003
  0
LINE
  8
_0-0_0
  6
CONTINUOUS
 62
    7
 10
-252.07104500000014
 20
757.44795250000004
 11
-252.32104500000014
 21
757.28016649999995
  0
LINE
  8
_0-0_0
  6
CONTINUOUS
 62
    7
 10
-252.07104500000014
 20
757.21760549999999
 11
-252.32104500000014
 21
757.28016649999995
  0
LINE
  8
_0-0_0
  6
CONTINUOUS
 62
    7
 10
-252.07104500000014
 20
757.68217449999997
 11
-252.32104500000014
 21
757.53861949999998
  0
LINE
  8
_0-0_0
  6
CONTINUOUS
 62
    7
 10
-252.07104500000014
 20
757.44795250000004
 11
-252.32104500000014
 21
757.53861949999998
  0
LINE
  8
_0-0_0
  6
CONTINUOUS
 62
    7
 10
-252.07104500000014
 20
757.9177095
 11
-252.32104500000014
 21
757.79994150000005
  0
LINE
  8
_0-0_0
  6
CONTINUOUS
 62
    7
 10
-252.07104500000014
 20
757.68217449999997
 11
-252.32104500000014
 21
757.79994150000005
  0
LINE
  8
_0-0_0
  6
CONTINUOUS
 62
    7
 10
-252.07104500000014
 20
758.15193150000005
 11
-252.32104500000014
 21
758.0612635
  0
LINE
  8
_0-0_0
  6
CONTINUOUS
 62
    7
 10
-252.07104500000014
 20
757.9177095
 11
-252.32104500000014
 21
758.0612635
  0
LINE
  8
_0-0_0
  6
CONTINUOUS
 62
    7
 10
-252.07104500000014
 20
758.38227849999998
 11
-252.32104500000014
 21
758.31971750000002
  0
LINE
  8
_0-0_0
  6
CONTINUOUS
 62
    7
 10
-252.07104500000014
 20
758.15193150000005
 11
-252.32104500000014
 21
758.31971750000002
  0
LINE
  8
_0-0_0
  6
CONTINUOUS
 62
    7
 10
-252.07104500000014
 20
758.60627750000003
 11
-252.32104500000014
 21
758.57249449999995
  0
LINE
  8
_0-0_0
  6
CONTINUOUS
 62
    7
 10
-252.07104500000014
 20
758.38227849999998
 11
-252.32104500000014
 21
758.57249449999995
  0
LINE
  8
_0-0_0
  6
CONTINUOUS
 62
    7
 10
-252.07104500000014
 20
758.82142650000003
 11
-252.32104500000014
 21
758.81678750000003
  0
LINE
  8
_0-0_0
  6
CONTINUOUS
 62
    7
 10
-252.07104500000014
 20
758.60627750000003
 11
-252.32104500000014
 21
758.81678750000003
  0
LINE
  8
_0-0_0
  6
CONTINUOUS
 62
    7
 10
-261.82104500000014
 20
775.6253815
 11
-261.57104500000014
 21
775.64994750000005
  0
LINE
  8
_0-0_0
  6
CONTINUOUS
 62
    7
 10
-261.57104500000014
 20
775.64994750000005
 11
-252.32104500000014
 21
775.64994750000005
  0
LINE
  8
_0-0_0
  6
CONTINUOUS
 62
    7
 10
-261.82104500000014
 20
775.42143250000004
 11
-261.57104500000014
 21
775.64994750000005
  0
LINE
  8
_0-0_0
  6
CONTINUOUS
 62
    7
 10
-261.82104500000014
 20
775.42143250000004
 11
-252.07104500000014
 21
775.42143250000004
  0
LINE
  8
_0-0_0
  6
CONTINUOUS
 62
    7
 10
-261.82104500000014
 20
775.81590249999999
 11
-261.57104500000014
 21
775.86939949999999
  0
LINE
  8
_0-0_0
  6
CONTINUOUS
 62
    7
 10
-261.57104500000014
 20
775.86939949999999
 11
-252.32104500000014
 21
775.86939949999999
  0
LINE
  8
_0-0_0
  6
CONTINUOUS
 62
    7
 10
-261.82104500000014
 20
775.6253815
 11
-261.57104500000014
 21
775.86939949999999
  0
LINE
  8
_0-0_0
  6
CONTINUOUS
 62
    7
 10
-261.82104500000014
 20
775.99092050000002
 11
-261.57104500000014
 21
776.07276950000005
  0
LINE
  8
_0-0_0
  6
CONTINUOUS
 62
    7
 10
-261.57104500000014
 20
776.07276950000005
 11
-252.32104500000014
 21
776.07276950000005
  0
LINE
  8
_0-0_0
  6
CONTINUOUS
 62
    7
 10
-261.82104500000014
 20
775.81590249999999
 11
-261.57104500000014
 21
776.07276950000005
  0
LINE
  8
_0-0_0
  6
CONTINUOUS
 62
    7
 10
-261.82104500000014
 20
776.14851350000004
 11
-261.57104500000014
 21
776.25779750000004
  0
LINE
  8
_0-0_0
  6
CONTINUOUS
 62
    7
 10
-261.57104500000014
 20
776.25779750000004
 11
-252.32104500000014
 21
776.25779750000004
  0
LINE
  8
_0-0_0
  6
CONTINUOUS
 62
    7
 10
-261.82104500000014
 20
775.99092050000002
 11
-261.57104500000014
 21
776.25779750000004
  0
LINE
  8
_0-0_0
  6
CONTINUOUS
 62
    7
 10
-261.82104500000014
 20
776.28694150000001
 11
-261.57104500000014
 21
776.42250049999996
  0
LINE
  8
_0-0_0
  6
CONTINUOUS
 62
    7
 10
-261.57104500000014
 20
776.42250049999996
 11
-252.32104500000014
 21
776.42250049999996
  0
LINE
  8
_0-0_0
  6
CONTINUOUS
 62
    7
 10
-261.82104500000014
 20
776.14851350000004
 11
-261.57104500000014
 21
776.42250049999996
  0
LINE
  8
_0-0_0
  6
CONTINUOUS
 62
    7
 10
-261.82104500000014
 20
776.40470849999997
 11
-261.57104500000014
 21
776.56501749999995
  0
LINE
  8
_0-0_0
  6
CONTINUOUS
 62
    7
 10
-261.57104500000014
 20
776.56501749999995
 11
-252.32104500000014
 21
776.56501749999995
  0
LINE
  8
_0-0_0
  6
CONTINUOUS
 62
    7
 10
-261.82104500000014
 20
776.28694150000001
 11
-261.57104500000014
 21
776.56501749999995
  0
LINE
  8
_0-0_0
  6
CONTINUOUS
 62
    7
 10
-261.82104500000014
 20
776.50050350000004
 11
-261.57104500000014
 21
776.68379149999998
  0
LINE
  8
_0-0_0
  6
CONTINUOUS
 62
    7
 10
-261.57104500000014
 20
776.68379149999998
 11
-252.32104500000014
 21
776.68379149999998
  0
LINE
  8
_0-0_0
  6
CONTINUOUS
 62
    7
 10
-261.82104500000014
 20
776.40470849999997
 11
-261.57104500000014
 21
776.68379149999998
  0
LINE
  8
_0-0_0
  6
CONTINUOUS
 62
    7
 10
-261.82104500000014
 20
776.57328749999999
 11
-261.57104500000014
 21
776.77757250000002
  0
LINE
  8
_0-0_0
  6
CONTINUOUS
 62
    7
 10
-261.57104500000014
 20
776.77757250000002
 11
-252.32104500000014
 21
776.77757250000002
  0
LINE
  8
_0-0_0
  6
CONTINUOUS
 62
    7
 10
-261.82104500000014
 20
776.50050350000004
 11
-261.57104500000014
 21
776.77757250000002
  0
LINE
  8
_0-0_0
  6
CONTINUOUS
 62
    7
 10
-261.82104500000014
 20
776.62223849999998
 11
-261.57104500000014
 21
776.84532149999995
  0
LINE
  8
_0-0_0
  6
CONTINUOUS
 62
    7
 10
-261.57104500000014
 20
776.84532149999995
 11
-252.32104500000014
 21
776.84532149999995
  0
LINE
  8
_0-0_0
  6
CONTINUOUS
 62
    7
 10
-261.82104500000014
 20
776.57328749999999
 11
-261.57104500000014
 21
776.84532149999995
  0
LINE
  8
_0-0_0
  6
CONTINUOUS
 62
    7
 10
-261.82104500000014
 20
776.64686549999999
 11
-261.57104500000014
 21
776.88624549999997
  0
LINE
  8
_0-0_0
  6
CONTINUOUS
 62
    7
 10
-261.57104500000014
 20
776.88624549999997
 11
-252.32104500000014
 21
776.88624549999997
  0
LINE
  8
_0-0_0
  6
CONTINUOUS
 62
    7
 10
-261.82104500000014
 20
776.62223849999998
 11
-261.57104500000014
 21
776.88624549999997
  0
LINE
  8
_0-0_0
  6
CONTINUOUS
 62
    7
 10
-261.57104500000014
 20
776.89994750000005
 11
-252.32104500000014
 21
776.89994750000005
  0
LINE
  8
_0-0_0
  6
CONTINUOUS
 62
    7
 10
-261.82104500000014
 20
776.64686549999999
 11
-261.57104500000014
 21
776.89994750000005
  0
LINE
  8
_0-0_0
  6
CONTINUOUS
 62
    7
 10
-261.82104500000014
 20
772.1530305
 11
-261.57104500000014
 21
771.89994750000005
  0
LINE
  8
_0-0_0
  6
CONTINUOUS
 62
    7
 10
-261.57104500000014
 20
771.89994750000005
 11
-252.32104500000014
 21
771.89994750000005
  0
LINE
  8
_0-0_0
  6
CONTINUOUS
 62
    7
 10
-261.82104500000014
 20
772.17765750000001
 11
-261.57104500000014
 21
771.91365050000002
  0
LINE
  8
_0-0_0
  6
CONTINUOUS
 62
    7
 10
-261.57104500000014
 20
771.91365050000002
 11
-252.32104500000014
 21
771.91365050000002
  0
LINE
  8
_0-0_0
  6
CONTINUOUS
 62
    7
 10
-261.82104500000014
 20
772.1530305
 11
-261.57104500000014
 21
771.91365050000002
  0
LINE
  8
_0-0_0
  6
CONTINUOUS
 62
    7
 10
-261.82104500000014
 20
772.2266085
 11
-261.57104500000014
 21
771.95457450000004
  0
LINE
  8
_0-0_0
  6
CONTINUOUS
 62
    7
 10
-261.57104500000014
 20
771.95457450000004
 11
-252.32104500000014
 21
771.95457450000004
  0
LINE
  8
_0-0_0
  6
CONTINUOUS
 62
    7
 10
-261.82104500000014
 20
772.17765750000001
 11
-261.57104500000014
 21
771.95457450000004
  0
LINE
  8
_0-0_0
  6
CONTINUOUS
 62
    7
 10
-261.82104500000014
 20
772.29939249999995
 11
-261.57104500000014
 21
772.02229250000005
  0
LINE
  8
_0-0_0
  6
CONTINUOUS
 62
    7
 10
-261.57104500000014
 20
772.02229250000005
 11
-252.32104500000014
 21
772.02229250000005
  0
LINE
  8
_0-0_0
  6
CONTINUOUS
 62
    7
 10
-261.82104500000014
 20
772.2266085
 11
-261.57104500000014
 21
772.02229250000005
  0
LINE
  8
_0-0_0
  6
CONTINUOUS
 62
    7
 10
-261.82104500000014
 20
772.39518750000002
 11
-261.57104500000014
 21
772.11607349999997
  0
LINE
  8
_0-0_0
  6
CONTINUOUS
 62
    7
 10
-261.57104500000014
 20
772.11607349999997
 11
-252.32104500000014
 21
772.11607349999997
  0
LINE
  8
_0-0_0
  6
CONTINUOUS
 62
    7
 10
-261.82104500000014
 20
772.29939249999995
 11
-261.57104500000014
 21
772.11607349999997
  0
LINE
  8
_0-0_0
  6
CONTINUOUS
 62
    7
 10
-261.57104500000014
 20
772.23487850000004
 11
-252.32104500000014
 21
772.23487850000004
  0
LINE
  8
_0-0_0
  6
CONTINUOUS
 62
    7
 10
-261.69110099999989
 20
772.31132449999996
 11
-261.57104500000014
 21
772.23487850000004
  0
LINE
  8
_0-0_0
  6
CONTINUOUS
 62
    7
 10
-261.82104500000014
 20
772.39518750000002
 11
-261.69110099999989
 21
772.31132449999996
  0
LINE
  8
_0-0_0
  6
CONTINUOUS
 62
    7
 10
-261.82104500000014
 20
772.51292450000005
 11
-261.57104500000014
 21
772.23487850000004
  0
LINE
  8
_0-0_0
  6
CONTINUOUS
 62
    7
 10
-261.82104500000014
 20
772.65135150000003
 11
-261.57104500000014
 21
772.37739550000003
  0
LINE
  8
_0-0_0
  6
CONTINUOUS
 62
    7
 10
-261.57104500000014
 20
772.37739550000003
 11
-252.32104500000014
 21
772.37739550000003
  0
LINE
  8
_0-0_0
  6
CONTINUOUS
 62
    7
 10
-261.82104500000014
 20
772.51292450000005
 11
-261.57104500000014
 21
772.37739550000003
  0
LINE
  8
_0-0_0
  6
CONTINUOUS
 62
    7
 10
-261.82104500000014
 20
772.80894450000005
 11
-261.57104500000014
 21
772.54206850000003
  0
LINE
  8
_0-0_0
  6
CONTINUOUS
 62
    7
 10
-261.57104500000014
 20
772.54206850000003
 11
-252.32104500000014
 21
772.54206850000003
  0
LINE
  8
_0-0_0
  6
CONTINUOUS
 62
    7
 10
-261.82104500000014
 20
772.65135150000003
 11
-261.57104500000014
 21
772.54206850000003
  0
LINE
  8
_0-0_0
  6
CONTINUOUS
 62
    7
 10
-261.82104500000014
 20
772.98396249999996
 11
-261.57104500000014
 21
772.72712650000005
  0
LINE
  8
_0-0_0
  6
CONTINUOUS
 62
    7
 10
-261.57104500000014
 20
772.72712650000005
 11
-252.32104500000014
 21
772.72712650000005
  0
LINE
  8
_0-0_0
  6
CONTINUOUS
 62
    7
 10
-261.82104500000014
 20
772.80894450000005
 11
-261.57104500000014
 21
772.72712650000005
  0
LINE
  8
_0-0_0
  6
CONTINUOUS
 62
    7
 10
-261.82104500000014
 20
773.17451449999999
 11
-261.57104500000014
 21
772.9304965
  0
LINE
  8
_0-0_0
  6
CONTINUOUS
 62
    7
 10
-261.57104500000014
 20
772.9304965
 11
-252.32104500000014
 21
772.9304965
  0
LINE
  8
_0-0_0
  6
CONTINUOUS
 62
    7
 10
-261.82104500000014
 20
772.98396249999996
 11
-261.57104500000014
 21
772.9304965
  0
LINE
  8
_0-0_0
  6
CONTINUOUS
 62
    7
 10
-261.82104500000014
 20
773.37846349999995
 11
-261.57104500000014
 21
773.14994750000005
  0
LINE
  8
_0-0_0
  6
CONTINUOUS
 62
    7
 10
-261.57104500000014
 20
773.14994750000005
 11
-252.32104500000014
 21
773.14994750000005
  0
LINE
  8
_0-0_0
  6
CONTINUOUS
 62
    7
 10
-261.82104500000014
 20
773.37846349999995
 11
-252.07104500000014
 21
773.37846349999995
  0
LINE
  8
_0-0_0
  6
CONTINUOUS
 62
    7
 10
-261.82104500000014
 20
773.17451449999999
 11
-261.57104500000014
 21
773.14994750000005
  0
LINE
  8
_0-0_0
  6
CONTINUOUS
 62
    7
 10
-261.82104500000014
 20
773.59361249999995
 11
-261.57104500000014
 21
773.38310249999995
  0
LINE
  8
_0-0_0
  6
CONTINUOUS
 62
    7
 10
-261.57104500000014
 20
773.38310249999995
 11
-252.32104500000014
 21
773.38310249999995
  0
LINE
  8
_0-0_0
  6
CONTINUOUS
 62
    7
 10
-261.82104500000014
 20
773.59361249999995
 11
-252.07104500000014
 21
773.59361249999995
  0
LINE
  8
_0-0_0
  6
CONTINUOUS
 62
    7
 10
-261.82104500000014
 20
773.37846349999995
 11
-261.57104500000014
 21
773.38310249999995
  0
LINE
  8
_0-0_0
  6
CONTINUOUS
 62
    7
 10
-261.82104500000014
 20
773.8176115
 11
-261.57104500000014
 21
773.62739550000003
  0
LINE
  8
_0-0_0
  6
CONTINUOUS
 62
    7
 10
-261.57104500000014
 20
773.62739550000003
 11
-252.32104500000014
 21
773.62739550000003
  0
LINE
  8
_0-0_0
  6
CONTINUOUS
 62
    7
 10
-261.82104500000014
 20
773.8176115
 11
-252.07104500000014
 21
773.8176115
  0
LINE
  8
_0-0_0
  6
CONTINUOUS
 62
    7
 10
-261.82104500000014
 20
773.59361249999995
 11
-261.57104500000014
 21
773.62739550000003
  0
LINE
  8
_0-0_0
  6
CONTINUOUS
 62
    7
 10
-261.82104500000014
 20
774.04795850000005
 11
-261.57104500000014
 21
773.88017249999996
  0
LINE
  8
_0-0_0
  6
CONTINUOUS
 62
    7
 10
-261.57104500000014
 20
773.88017249999996
 11
-252.32104500000014
 21
773.88017249999996
  0
LINE
  8
_0-0_0
  6
CONTINUOUS
 62
    7
 10
-261.82104500000014
 20
774.04795850000005
 11
-252.07104500000014
 21
774.04795850000005
  0
LINE
  8
_0-0_0
  6
CONTINUOUS
 62
    7
 10
-261.82104500000014
 20
773.8176115
 11
-261.57104500000014
 21
773.88017249999996
  0
LINE
  8
_0-0_0
  6
CONTINUOUS
 62
    7
 10
-261.82104500000014
 20
774.28218049999998
 11
-261.57104500000014
 21
774.13862549999999
  0
LINE
  8
_0-0_0
  6
CONTINUOUS
 62
    7
 10
-261.57104500000014
 20
774.13862549999999
 11
-252.32104500000014
 21
774.13862549999999
  0
LINE
  8
_0-0_0
  6
CONTINUOUS
 62
    7
 10
-261.82104500000014
 20
774.28218049999998
 11
-252.07104500000014
 21
774.28218049999998
  0
LINE
  8
_0-0_0
  6
CONTINUOUS
 62
    7
 10
-261.82104500000014
 20
774.04795850000005
 11
-261.57104500000014
 21
774.13862549999999
  0
LINE
  8
_0-0_0
  6
CONTINUOUS
 62
    7
 10
-261.82104500000014
 20
774.51771550000001
 11
-261.57104500000014
 21
774.39994750000005
  0
LINE
  8
_0-0_0
  6
CONTINUOUS
 62
    7
 10
-261.57104500000014
 20
774.39994750000005
 11
-252.32104500000014
 21
774.39994750000005
  0
LINE
  8
_0-0_0
  6
CONTINUOUS
 62
    7
 10
-261.82104500000014
 20
774.51771550000001
 11
-252.07104500000014
 21
774.51771550000001
  0
LINE
  8
_0-0_0
  6
CONTINUOUS
 62
    7
 10
-261.82104500000014
 20
774.28218049999998
 11
-261.57104500000014
 21
774.39994750000005
  0
LINE
  8
_0-0_0
  6
CONTINUOUS
 62
    7
 10
-261.82104500000014
 20
774.75190750000002
 11
-261.57104500000014
 21
774.6612705
  0
LINE
  8
_0-0_0
  6
CONTINUOUS
 62
    7
 10
-261.57104500000014
 20
774.6612705
 11
-252.32104500000014
 21
774.6612705
  0
LINE
  8
_0-0_0
  6
CONTINUOUS
 62
    7
 10
-261.82104500000014
 20
774.75190750000002
 11
-252.07104500000014
 21
774.75190750000002
  0
LINE
  8
_0-0_0
  6
CONTINUOUS
 62
    7
 10
-261.82104500000014
 20
774.51771550000001
 11
-261.57104500000014
 21
774.6612705
  0
LINE
  8
_0-0_0
  6
CONTINUOUS
 62
    7
 10
-261.82104500000014
 20
774.98228449999999
 11
-261.57104500000014
 21
774.91972350000003
  0
LINE
  8
_0-0_0
  6
CONTINUOUS
 62
    7
 10
-261.57104500000014
 20
774.91972350000003
 11
-252.32104500000014
 21
774.91972350000003
  0
LINE
  8
_0-0_0
  6
CONTINUOUS
 62
    7
 10
-261.82104500000014
 20
774.98228449999999
 11
-252.07104500000014
 21
774.98228449999999
  0
LINE
  8
_0-0_0
  6
CONTINUOUS
 62
    7
 10
-261.82104500000014
 20
774.75190750000002
 11
-261.57104500000014
 21
774.91972350000003
  0
LINE
  8
_0-0_0
  6
CONTINUOUS
 62
    7
 10
-261.82104500000014
 20
775.20628350000004
 11
-261.57104500000014
 21
775.17250049999996
  0
LINE
  8
_0-0_0
  6
CONTINUOUS
 62
    7
 10
-261.57104500000014
 20
775.17250049999996
 11
-252.32104500000014
 21
775.17250049999996
  0
LINE
  8
_0-0_0
  6
CONTINUOUS
 62
    7
 10
-261.82104500000014
 20
775.20628350000004
 11
-252.07104500000014
 21
775.20628350000004
  0
LINE
  8
_0-0_0
  6
CONTINUOUS
 62
    7
 10
-261.82104500000014
 20
774.98228449999999
 11
-261.57104500000014
 21
775.17250049999996
  0
LINE
  8
_0-0_0
  6
CONTINUOUS
 62
    7
 10
-261.82104500000014
 20
775.42143250000004
 11
-261.57104500000014
 21
775.41679350000004
  0
LINE
  8
_0-0_0
  6
CONTINUOUS
 62
    7
 10
-261.57104500000014
 20
775.41679350000004
 11
-252.32104500000014
 21
775.41679350000004
  0
LINE
  8
_0-0_0
  6
CONTINUOUS
 62
    7
 10
-261.82104500000014
 20
775.20628350000004
 11
-261.57104500000014
 21
775.41679350000004
  0
LINE
  8
_0-0_0
  6
CONTINUOUS
 62
    7
 10
-248.07104500000014
 20
771.34992950000003
 11
-248.07104500000014
 21
763.36839250000003
  0
LINE
  8
_0-0_0
  6
CONTINUOUS
 62
    7
 10
-248.07104500000014
 20
763.36839250000003
 11
-248.07104500000014
 21
760.84992950000003
  0
LINE
  8
_0-0_0
  6
CONTINUOUS
 62
    7
 10
-261.82104500000014
 20
759.0253755
 11
-261.57104500000014
 21
759.04994150000005
  0
LINE
  8
_0-0_0
  6
CONTINUOUS
 62
    7
 10
-261.57104500000014
 20
759.04994150000005
 11
-252.32104500000014
 21
759.04994150000005
  0
LINE
  8
_0-0_0
  6
CONTINUOUS
 62
    7
 10
-261.82104500000014
 20
758.82142650000003
 11
-261.57104500000014
 21
759.04994150000005
  0
LINE
  8
_0-0_0
  6
CONTINUOUS
 62
    7
 10
-261.82104500000014
 20
758.82142650000003
 11
-252.07104500000014
 21
758.82142650000003
  0
LINE
  8
_0-0_0
  6
CONTINUOUS
 62
    7
 10
-261.82104500000014
 20
759.21592650000002
 11
-261.57104500000014
 21
759.26939349999998
  0
LINE
  8
_0-0_0
  6
CONTINUOUS
 62
    7
 10
-261.57104500000014
 20
759.26939349999998
 11
-252.32104500000014
 21
759.26939349999998
  0
LINE
  8
_0-0_0
  6
CONTINUOUS
 62
    7
 10
-261.82104500000014
 20
759.0253755
 11
-261.57104500000014
 21
759.26939349999998
  0
LINE
  8
_0-0_0
  6
CONTINUOUS
 62
    7
 10
-261.82104500000014
 20
759.39094550000004
 11
-261.57104500000014
 21
759.47276250000004
  0
LINE
  8
_0-0_0
  6
CONTINUOUS
 62
    7
 10
-261.57104500000014
 20
759.47276250000004
 11
-252.32104500000014
 21
759.47276250000004
  0
LINE
  8
_0-0_0
  6
CONTINUOUS
 62
    7
 10
-261.82104500000014
 20
759.21592650000002
 11
-261.57104500000014
 21
759.47276250000004
  0
LINE
  8
_0-0_0
  6
CONTINUOUS
 62
    7
 10
-261.82104500000014
 20
759.54850750000003
 11
-261.57104500000014
 21
759.65779150000003
  0
LINE
  8
_0-0_0
  6
CONTINUOUS
 62
    7
 10
-261.57104500000014
 20
759.65779150000003
 11
-252.32104500000014
 21
759.65779150000003
  0
LINE
  8
_0-0_0
  6
CONTINUOUS
 62
    7
 10
-261.82104500000014
 20
759.39094550000004
 11
-261.57104500000014
 21
759.65779150000003
  0
LINE
  8
_0-0_0
  6
CONTINUOUS
 62
    7
 10
-261.82104500000014
 20
759.68696550000004
 11
-261.57104500000014
 21
759.82249449999995
  0
LINE
  8
_0-0_0
  6
CONTINUOUS
 62
    7
 10
-261.57104500000014
 20
759.82249449999995
 11
-252.32104500000014
 21
759.82249449999995
  0
LINE
  8
_0-0_0
  6
CONTINUOUS
 62
    7
 10
-261.82104500000014
 20
759.54850750000003
 11
-261.57104500000014
 21
759.82249449999995
  0
LINE
  8
_0-0_0
  6
CONTINUOUS
 62
    7
 10
-261.82104500000014
 20
759.80470249999996
 11
-261.57104500000014
 21
759.96501150000006
  0
LINE
  8
_0-0_0
  6
CONTINUOUS
 62
    7
 10
-261.57104500000014
 20
759.96501150000006
 11
-252.32104500000014
 21
759.96501150000006
  0
LINE
  8
_0-0_0
  6
CONTINUOUS
 62
    7
 10
-261.82104500000014
 20
759.68696550000004
 11
-261.57104500000014
 21
759.96501150000006
  0
LINE
  8
_0-0_0
  6
CONTINUOUS
 62
    7
 10
-261.82104500000014
 20
759.90049750000003
 11
-261.57104500000014
 21
760.08381650000001
  0
LINE
  8
_0-0_0
  6
CONTINUOUS
 62
    7
 10
-261.57104500000014
 20
760.08381650000001
 11
-252.32104500000014
 21
760.08381650000001
  0
LINE
  8
_0-0_0
  6
CONTINUOUS
 62
    7
 10
-261.82104500000014
 20
759.80470249999996
 11
-261.57104500000014
 21
760.08381650000001
  0
LINE
  8
_0-0_0
  6
CONTINUOUS
 62
    7
 10
-261.82104500000014
 20
759.97328149999998
 11
-261.57104500000014
 21
760.17759650000005
  0
LINE
  8
_0-0_0
  6
CONTINUOUS
 62
    7
 10
-261.57104500000014
 20
760.17759650000005
 11
-252.32104500000014
 21
760.17759650000005
  0
LINE
  8
_0-0_0
  6
CONTINUOUS
 62
    7
 10
-261.82104500000014
 20
759.90049750000003
 11
-261.57104500000014
 21
760.17759650000005
  0
LINE
  8
_0-0_0
  6
CONTINUOUS
 62
    7
 10
-261.82104500000014
 20
760.02223149999998
 11
-261.57104500000014
 21
760.24531549999995
  0
LINE
  8
_0-0_0
  6
CONTINUOUS
 62
    7
 10
-261.57104500000014
 20
760.24531549999995
 11
-252.32104500000014
 21
760.24531549999995
  0
LINE
  8
_0-0_0
  6
CONTINUOUS
 62
    7
 10
-261.82104500000014
 20
759.97328149999998
 11
-261.57104500000014
 21
760.24531549999995
  0
LINE
  8
_0-0_0
  6
CONTINUOUS
 62
    7
 10
-261.82104500000014
 20
760.04685949999998
 11
-261.57104500000014
 21
760.28623949999997
  0
LINE
  8
_0-0_0
  6
CONTINUOUS
 62
    7
 10
-261.57104500000014
 20
760.28623949999997
 11
-252.32104500000014
 21
760.28623949999997
  0
LINE
  8
_0-0_0
  6
CONTINUOUS
 62
    7
 10
-261.82104500000014
 20
760.02223149999998
 11
-261.57104500000014
 21
760.28623949999997
  0
LINE
  8
_0-0_0
  6
CONTINUOUS
 62
    7
 10
-261.57104500000014
 20
760.29994150000005
 11
-252.32104500000014
 21
760.29994150000005
  0
LINE
  8
_0-0_0
  6
CONTINUOUS
 62
    7
 10
-261.82104500000014
 20
760.04685949999998
 11
-261.57104500000014
 21
760.29994150000005
  0
LINE
  8
_0-0_0
  6
CONTINUOUS
 62
    7
 10
-261.82104500000014
 20
755.55302449999999
 11
-261.57104500000014
 21
755.29994150000005
  0
LINE
  8
_0-0_0
  6
CONTINUOUS
 62
    7
 10
-261.57104500000014
 20
755.29994150000005
 11
-252.32104500000014
 21
755.29994150000005
  0
LINE
  8
_0-0_0
  6
CONTINUOUS
 62
    7
 10
-261.82104500000014
 20
755.5776515
 11
-261.57104500000014
 21
755.31364450000001
  0
LINE
  8
_0-0_0
  6
CONTINUOUS
 62
    7
 10
-261.57104500000014
 20
755.31364450000001
 11
-252.32104500000014
 21
755.31364450000001
  0
LINE
  8
_0-0_0
  6
CONTINUOUS
 62
    7
 10
-261.82104500000014
 20
755.55302449999999
 11
-261.57104500000014
 21
755.31364450000001
  0
LINE
  8
_0-0_0
  6
CONTINUOUS
 62
    7
 10
-261.82104500000014
 20
755.62660249999999
 11
-261.57104500000014
 21
755.35456850000003
  0
LINE
  8
_0-0_0
  6
CONTINUOUS
 62
    7
 10
-261.57104500000014
 20
755.35456850000003
 11
-252.32104500000014
 21
755.35456850000003
  0
LINE
  8
_0-0_0
  6
CONTINUOUS
 62
    7
 10
-261.82104500000014
 20
755.5776515
 11
-261.57104500000014
 21
755.35456850000003
  0
LINE
  8
_0-0_0
  6
CONTINUOUS
 62
    7
 10
-261.82104500000014
 20
755.69938650000006
 11
-261.57104500000014
 21
755.42228650000004
  0
LINE
  8
_0-0_0
  6
CONTINUOUS
 62
    7
 10
-261.57104500000014
 20
755.42228650000004
 11
-252.32104500000014
 21
755.42228650000004
  0
LINE
  8
_0-0_0
  6
CONTINUOUS
 62
    7
 10
-261.82104500000014
 20
755.62660249999999
 11
-261.57104500000014
 21
755.42228650000004
  0
LINE
  8
_0-0_0
  6
CONTINUOUS
 62
    7
 10
-261.82104500000014
 20
755.79518150000001
 11
-261.57104500000014
 21
755.51606749999996
  0
LINE
  8
_0-0_0
  6
CONTINUOUS
 62
    7
 10
-261.57104500000014
 20
755.51606749999996
 11
-252.32104500000014
 21
755.51606749999996
  0
LINE
  8
_0-0_0
  6
CONTINUOUS
 62
    7
 10
-261.82104500000014
 20
755.69938650000006
 11
-261.57104500000014
 21
755.51606749999996
  0
LINE
  8
_0-0_0
  6
CONTINUOUS
 62
    7
 10
-261.57104500000014
 20
755.63487250000003
 11
-252.32104500000014
 21
755.63487250000003
  0
LINE
  8
_0-0_0
  6
CONTINUOUS
 62
    7
 10
-261.69110099999989
 20
755.71131849999995
 11
-261.57104500000014
 21
755.63487250000003
  0
LINE
  8
_0-0_0
  6
CONTINUOUS
 62
    7
 10
-261.82104500000014
 20
755.79518150000001
 11
-261.69110099999989
 21
755.71131849999995
  0
LINE
  8
_0-0_0
  6
CONTINUOUS
 62
    7
 10
-261.82104500000014
 20
755.91291750000005
 11
-261.57104500000014
 21
755.63487250000003
  0
LINE
  8
_0-0_0
  6
CONTINUOUS
 62
    7
 10
-261.82104500000014
 20
756.05137649999995
 11
-261.57104500000014
 21
755.77738950000003
  0
LINE
  8
_0-0_0
  6
CONTINUOUS
 62
    7
 10
-261.57104500000014
 20
755.77738950000003
 11
-252.32104500000014
 21
755.77738950000003
  0
LINE
  8
_0-0_0
  6
CONTINUOUS
 62
    7
 10
-261.82104500000014
 20
755.91291750000005
 11
-261.57104500000014
 21
755.77738950000003
  0
LINE
  8
_0-0_0
  6
CONTINUOUS
 62
    7
 10
-261.82104500000014
 20
756.20896849999997
 11
-261.57104500000014
 21
755.94209250000006
  0
LINE
  8
_0-0_0
  6
CONTINUOUS
 62
    7
 10
-261.57104500000014
 20
755.94209250000006
 11
-252.32104500000014
 21
755.94209250000006
  0
LINE
  8
_0-0_0
  6
CONTINUOUS
 62
    7
 10
-261.82104500000014
 20
756.05137649999995
 11
-261.57104500000014
 21
755.94209250000006
  0
LINE
  8
_0-0_0
  6
CONTINUOUS
 62
    7
 10
-261.82104500000014
 20
756.38398749999999
 11
-261.57104500000014
 21
756.12712050000005
  0
LINE
  8
_0-0_0
  6
CONTINUOUS
 62
    7
 10
-261.57104500000014
 20
756.12712050000005
 11
-252.32104500000014
 21
756.12712050000005
  0
LINE
  8
_0-0_0
  6
CONTINUOUS
 62
    7
 10
-261.82104500000014
 20
756.20896849999997
 11
-261.57104500000014
 21
756.12712050000005
  0
LINE
  8
_0-0_0
  6
CONTINUOUS
 62
    7
 10
-261.82104500000014
 20
756.57450849999998
 11
-261.57104500000014
 21
756.3304895
  0
LINE
  8
_0-0_0
  6
CONTINUOUS
 62
    7
 10
-261.57104500000014
 20
756.3304895
 11
-252.32104500000014
 21
756.3304895
  0
LINE
  8
_0-0_0
  6
CONTINUOUS
 62
    7
 10
-261.82104500000014
 20
756.38398749999999
 11
-261.57104500000014
 21
756.3304895
  0
LINE
  8
_0-0_0
  6
CONTINUOUS
 62
    7
 10
-261.82104500000014
 20
756.77845750000006
 11
-261.57104500000014
 21
756.54994150000005
  0
LINE
  8
_0-0_0
  6
CONTINUOUS
 62
    7
 10
-261.57104500000014
 20
756.54994150000005
 11
-252.32104500000014
 21
756.54994150000005
  0
LINE
  8
_0-0_0
  6
CONTINUOUS
 62
    7
 10
-261.82104500000014
 20
756.77845750000006
 11
-252.07104500000014
 21
756.77845750000006
  0
LINE
  8
_0-0_0
  6
CONTINUOUS
 62
    7
 10
-261.82104500000014
 20
756.57450849999998
 11
-261.57104500000014
 21
756.54994150000005
  0
LINE
  8
_0-0_0
  6
CONTINUOUS
 62
    7
 10
-261.82104500000014
 20
756.99360650000006
 11
-261.57104500000014
 21
756.78309650000006
  0
LINE
  8
_0-0_0
  6
CONTINUOUS
 62
    7
 10
-261.57104500000014
 20
756.78309650000006
 11
-252.32104500000014
 21
756.78309650000006
  0
LINE
  8
_0-0_0
  6
CONTINUOUS
 62
    7
 10
-261.82104500000014
 20
756.99360650000006
 11
-252.07104500000014
 21
756.99360650000006
  0
LINE
  8
_0-0_0
  6
CONTINUOUS
 62
    7
 10
-261.82104500000014
 20
756.77845750000006
 11
-261.57104500000014
 21
756.78309650000006
  0
LINE
  8
_0-0_0
  6
CONTINUOUS
 62
    7
 10
-261.82104500000014
 20
757.21760549999999
 11
-261.57104500000014
 21
757.02738950000003
  0
LINE
  8
_0-0_0
  6
CONTINUOUS
 62
    7
 10
-261.57104500000014
 20
757.02738950000003
 11
-252.32104500000014
 21
757.02738950000003
  0
LINE
  8
_0-0_0
  6
CONTINUOUS
 62
    7
 10
-261.82104500000014
 20
757.21760549999999
 11
-252.07104500000014
 21
757.21760549999999
  0
LINE
  8
_0-0_0
  6
CONTINUOUS
 62
    7
 10
-261.82104500000014
 20
756.99360650000006
 11
-261.57104500000014
 21
757.02738950000003
  0
LINE
  8
_0-0_0
  6
CONTINUOUS
 62
    7
 10
-261.82104500000014
 20
757.44795250000004
 11
-261.57104500000014
 21
757.28016649999995
  0
LINE
  8
_0-0_0
  6
CONTINUOUS
 62
    7
 10
-261.57104500000014
 20
757.28016649999995
 11
-252.32104500000014
 21
757.28016649999995
  0
LINE
  8
_0-0_0
  6
CONTINUOUS
 62
    7
 10
-261.82104500000014
 20
757.44795250000004
 11
-252.07104500000014
 21
757.44795250000004
  0
LINE
  8
_0-0_0
  6
CONTINUOUS
 62
    7
 10
-261.82104500000014
 20
757.21760549999999
 11
-261.57104500000014
 21
757.28016649999995
  0
LINE
  8
_0-0_0
  6
CONTINUOUS
 62
    7
 10
-261.82104500000014
 20
757.68217449999997
 11
-261.57104500000014
 21
757.53861949999998
  0
LINE
  8
_0-0_0
  6
CONTINUOUS
 62
    7
 10
-261.57104500000014
 20
757.53861949999998
 11
-252.32104500000014
 21
757.53861949999998
  0
LINE
  8
_0-0_0
  6
CONTINUOUS
 62
    7
 10
-261.82104500000014
 20
757.68217449999997
 11
-252.07104500000014
 21
757.68217449999997
  0
LINE
  8
_0-0_0
  6
CONTINUOUS
 62
    7
 10
-261.82104500000014
 20
757.44795250000004
 11
-261.57104500000014
 21
757.53861949999998
  0
LINE
  8
_0-0_0
  6
CONTINUOUS
 62
    7
 10
-261.82104500000014
 20
757.9177095
 11
-261.57104500000014
 21
757.79994150000005
  0
LINE
  8
_0-0_0
  6
CONTINUOUS
 62
    7
 10
-261.57104500000014
 20
757.79994150000005
 11
-252.32104500000014
 21
757.79994150000005
  0
LINE
  8
_0-0_0
  6
CONTINUOUS
 62
    7
 10
-261.82104500000014
 20
757.9177095
 11
-252.07104500000014
 21
757.9177095
  0
LINE
  8
_0-0_0
  6
CONTINUOUS
 62
    7
 10
-261.82104500000014
 20
757.68217449999997
 11
-261.57104500000014
 21
757.79994150000005
  0
LINE
  8
_0-0_0
  6
CONTINUOUS
 62
    7
 10
-261.82104500000014
 20
758.15193150000005
 11
-261.57104500000014
 21
758.0612635
  0
LINE
  8
_0-0_0
  6
CONTINUOUS
 62
    7
 10
-261.57104500000014
 20
758.0612635
 11
-252.32104500000014
 21
758.0612635
  0
LINE
  8
_0-0_0
  6
CONTINUOUS
 62
    7
 10
-261.82104500000014
 20
758.15193150000005
 11
-252.07104500000014
 21
758.15193150000005
  0
LINE
  8
_0-0_0
  6
CONTINUOUS
 62
    7
 10
-261.82104500000014
 20
757.9177095
 11
-261.57104500000014
 21
758.0612635
  0
LINE
  8
_0-0_0
  6
CONTINUOUS
 62
    7
 10
-261.82104500000014
 20
758.38227849999998
 11
-261.57104500000014
 21
758.31971750000002
  0
LINE
  8
_0-0_0
  6
CONTINUOUS
 62
    7
 10
-261.57104500000014
 20
758.31971750000002
 11
-252.32104500000014
 21
758.31971750000002
  0
LINE
  8
_0-0_0
  6
CONTINUOUS
 62
    7
 10
-261.82104500000014
 20
758.38227849999998
 11
-252.07104500000014
 21
758.38227849999998
  0
LINE
  8
_0-0_0
  6
CONTINUOUS
 62
    7
 10
-261.82104500000014
 20
758.15193150000005
 11
-261.57104500000014
 21
758.31971750000002
  0
LINE
  8
_0-0_0
  6
CONTINUOUS
 62
    7
 10
-261.82104500000014
 20
758.60627750000003
 11
-261.57104500000014
 21
758.57249449999995
  0
LINE
  8
_0-0_0
  6
CONTINUOUS
 62
    7
 10
-261.57104500000014
 20
758.57249449999995
 11
-252.32104500000014
 21
758.57249449999995
  0
LINE
  8
_0-0_0
  6
CONTINUOUS
 62
    7
 10
-261.82104500000014
 20
758.60627750000003
 11
-252.07104500000014
 21
758.60627750000003
  0
LINE
  8
_0-0_0
  6
CONTINUOUS
 62
    7
 10
-261.82104500000014
 20
758.38227849999998
 11
-261.57104500000014
 21
758.57249449999995
  0
LINE
  8
_0-0_0
  6
CONTINUOUS
 62
    7
 10
-261.82104500000014
 20
758.82142650000003
 11
-261.57104500000014
 21
758.81678750000003
  0
LINE
  8
_0-0_0
  6
CONTINUOUS
 62
    7
 10
-261.57104500000014
 20
758.81678750000003
 11
-252.32104500000014
 21
758.81678750000003
  0
LINE
  8
_0-0_0
  6
CONTINUOUS
 62
    7
 10
-261.82104500000014
 20
758.60627750000003
 11
-261.57104500000014
 21
758.81678750000003
  0
LINE
  8
_0-0_0
  6
CONTINUOUS
 62
    7
 10
-262.07104500000014
 20
776.39994750000005
 11
-262.07104500000014
 21
772.6447905
  0
LINE
  8
_0-0_0
  6
CONTINUOUS
 62
    7
 10
-262.07104500000014
 20
772.6447905
 11
-262.07104500000014
 21
772.39994750000005
  0
LINE
  8
_0-0_0
  6
CONTINUOUS
 62
    7
 10
-262.07104500000014
 20
759.79994150000005
 11
-262.07104500000014
 21
756.04478449999999
  0
LINE
  8
_0-0_0
  6
CONTINUOUS
 62
    7
 10
-262.07104500000014
 20
756.04478449999999
 11
-262.07104500000014
 21
755.79994150000005
  0
LINE
  8
_0-0_0
  6
CONTINUOUS
 62
    7
 10
-248.47106899999994
 20
771.09992950000003
 11
-248.47106899999994
 21
768.59992950000003
  0
LINE
  8
_0-0_0
  6
CONTINUOUS
 62
    7
 10
-248.47106899999994
 20
768.59992950000003
 11
-248.47106899999994
 21
761.09992950000003
  0
LINE
  8
_0-0_0
  6
CONTINUOUS
 62
    7
 10
-249.27105699999993
 20
770.63807650000001
 11
-249.27105699999993
 21
768.36900349999996
  0
LINE
  8
_0-0_0
  6
CONTINUOUS
 62
    7
 10
-249.27105699999993
 20
768.36900349999996
 11
-249.27105699999993
 21
761.56181349999997
  0
LINE
  8
_0-0_0
  6
CONTINUOUS
 62
    7
 10
-307.27105699999993
 20
770.09992950000003
 11
-307.27105699999993
 21
770.09858650000001
  0
LINE
  8
_0-0_0
  6
CONTINUOUS
 62
    7
 10
-307.27105699999993
 20
770.09858650000001
 11
-307.27105699999993
 21
762.09992950000003
  0
LINE
  8
_0-0_0
  6
CONTINUOUS
 62
    7
 10
-226.07104500000014
 20
776.64994750000005
 11
-252.07104500000014
 21
776.64994750000005
  0
LINE
  8
_0-0_0
  6
CONTINUOUS
 62
    7
 10
-226.07104500000014
 20
772.14994750000005
 11
-252.07104500000014
 21
772.14994750000005
  0
LINE
  8
_0-0_0
  6
CONTINUOUS
 62
    7
 10
-247.27105699999993
 20
760.04994150000005
 11
-252.07104500000014
 21
760.04994150000005
  0
LINE
  8
_0-0_0
  6
CONTINUOUS
 62
    7
 10
-231.82107500000006
 20
755.54994150000005
 11
-252.07104500000014
 21
755.54994150000005
  0
LINE
  8
_0-0_0
  6
CONTINUOUS
 62
    7
 10
-252.07104500000014
 20
776.64994750000005
 11
-252.32104500000014
 21
776.89994750000005
  0
LINE
  8
_0-0_0
  6
CONTINUOUS
 62
    7
 10
-252.07104500000014
 20
772.14994750000005
 11
-252.32104500000014
 21
771.89994750000005
  0
LINE
  8
_0-0_0
  6
CONTINUOUS
 62
    7
 10
-252.07104500000014
 20
760.04994150000005
 11
-252.32104500000014
 21
760.29994150000005
  0
LINE
  8
_0-0_0
  6
CONTINUOUS
 62
    7
 10
-252.07104500000014
 20
755.54994150000005
 11
-252.32104500000014
 21
755.29994150000005
  0
LINE
  8
_0-0_0
  6
CONTINUOUS
 62
    7
 10
-248.07104500000014
 20
771.34992950000003
 11
-247.27105699999993
 21
772.14994750000005
  0
LINE
  8
_0-0_0
  6
CONTINUOUS
 62
    7
 10
-248.07104500000014
 20
760.84992950000003
 11
-246.82104500000014
 21
759.59992950000003
  0
LINE
  8
_0-0_0
  6
CONTINUOUS
 62
    7
 10
-262.07104500000014
 20
776.39994750000005
 11
-261.57119699999998
 21
776.89979549999998
  0
LINE
  8
_0-0_0
  6
CONTINUOUS
 62
    7
 10
-262.07104500000014
 20
772.39994750000005
 11
-261.57119699999998
 21
771.90010050000001
  0
LINE
  8
_0-0_0
  6
CONTINUOUS
 62
    7
 10
-262.07104500000014
 20
759.79994150000005
 11
-261.57119699999998
 21
760.29978949999997
  0
LINE
  8
_0-0_0
  6
CONTINUOUS
 62
    7
 10
-262.07104500000014
 20
755.79994150000005
 11
-261.57119699999998
 21
755.3000945
  0
LINE
  8
_0-0_0
  6
CONTINUOUS
 62
    7
 10
-248.07104500000014
 20
771.09992950000003
 11
-248.47106899999994
 21
771.09992950000003
  0
LINE
  8
_0-0_0
  6
CONTINUOUS
 62
    7
 10
-248.07104500000014
 20
761.09992950000003
 11
-248.47106899999994
 21
761.09992950000003
  0
LINE
  8
_0-0_0
  6
CONTINUOUS
 62
    7
 10
-249.27105699999993
 20
770.63807650000001
 11
-248.47106899999994
 21
771.09992950000003
  0
LINE
  8
_0-0_0
  6
CONTINUOUS
 62
    7
 10
-249.27105699999993
 20
761.56181349999997
 11
-248.47106899999994
 21
761.09992950000003
  0
LINE
  8
_0-0_0
  6
CONTINUOUS
 62
    7
 10
-249.27105699999993
 20
770.09992950000003
 11
-307.27105699999993
 21
770.09992950000003
  0
LINE
  8
_0-0_0
  6
CONTINUOUS
 62
    7
 10
-249.27105699999993
 20
762.09992950000003
 11
-307.27105699999993
 21
762.09992950000003
  0
ARC
  8
_0-0_0
  6
CONTINUOUS
 62
    7
 10
-232.57104500000014
 20
799.60002150000003
 40
8
 50
215.099627
 51
324.90037799999999
  0
LINE
  8
_0-0_0
  6
CONTINUOUS
 62
    7
 10
-241.57104500000014
 20
795.00001550000002
 11
-239.11627199999998
 21
795.00001550000002
  0
LINE
  8
_0-0_0
  6
CONTINUOUS
 62
    7
 10
-241.57104500000014
 20
781.80000250000001
 11
-241.57104500000014
 21
795.00001550000002
  0
LINE
  8
_0-0_0
  6
CONTINUOUS
 62
    7
 10
1631.4288940000001
 20
781.80000250000001
 11
1631.4288940000001
 21
795.00001550000002
  0
LINE
  8
_0-0_0
  6
CONTINUOUS
 62
    7
 10
1628.9741819999999
 20
795.00001550000002
 11
1631.4288940000001
 21
795.00001550000002
  0
ARC
  8
_0-0_0
  6
CONTINUOUS
 62
    7
 10
1622.4288940000001
 20
799.60002150000003
 40
8
 50
215.099627
 51
324.90037799999999
  0
LINE
  8
_0-0_0
  6
CONTINUOUS
 62
    7
 10
-226.02581800000007
 20
795.00001550000002
 11
1615.8836059999999
 21
795.00001550000002
  0
LINE
  8
_0-0_0
  6
CONTINUOUS
 62
    7
 10
-226.02581800000007
 20
795.00001550000002
 11
-225.93682899999999
 21
795.12931849999995
  0
LINE
  8
_0-0_0
  6
CONTINUOUS
 62
    7
 10
1615.8836059999999
 20
795.00001550000002
 11
1615.7947389999999
 21
795.12931849999995
  0
LINE
  8
_0-0_0
  6
CONTINUOUS
 62
    7
 10
1629.1561889999998
 20
795.2707365
 11
1629.2377320000001
 21
795.40000950000001
  0
ARC
  8
_0-0_0
  6
CONTINUOUS
 62
    7
 10
1622.4288940000001
 20
799.60002150000003
 40
8
 50
328.33175599999993
 51
334.05550899999992
  0
LINE
  8
_0-0_0
  6
CONTINUOUS
 62
    7
 10
1629.6226200000001
 20
796.10002150000003
 11
1629.7166139999999
 21
796.30000250000001
  0
LINE
  8
_0-0_0
  6
CONTINUOUS
 62
    7
 10
1629.7166139999999
 20
796.30000250000001
 11
1629.8038940000001
 21
796.50001550000002
  0
ARC
  8
_0-0_0
  6
CONTINUOUS
 62
    7
 10
1622.4288940000001
 20
799.60002150000003
 40
8
 50
337.20097500000003
 51
342.54240199999998
  0
LINE
  8
_0-0_0
  6
CONTINUOUS
 62
    7
 10
1630.0603639999999
 20
797.20002750000003
 11
1630.120422
 21
797.40000950000001
  0
LINE
  8
_0-0_0
  6
CONTINUOUS
 62
    7
 10
1630.120422
 20
797.40000950000001
 11
1630.1748659999998
 21
797.60002150000003
  0
ARC
  8
_0-0_0
  6
CONTINUOUS
 62
    7
 10
1622.4288940000001
 20
799.60002150000003
 40
8
 50
345.52249499999999
 51
350.64797900000002
  0
LINE
  8
_0-0_0
  6
CONTINUOUS
 62
    7
 10
1630.3225710000002
 20
798.30000250000001
 11
1630.3529659999999
 21
798.50001550000002
  0
LINE
  8
_0-0_0
  6
CONTINUOUS
 62
    7
 10
1630.3529659999999
 20
798.50001550000002
 11
1630.3781130000002
 21
798.70002750000003
  0
ARC
  8
_0-0_0
  6
CONTINUOUS
 62
    7
 10
1622.4288940000001
 20
799.60002150000003
 40
8
 50
353.54056400000002
 51
358.56744600000002
  0
LINE
  8
_0-0_0
  6
CONTINUOUS
 62
    7
 10
1630.426453
 20
799.40000950000001
 11
1630.4288940000001
 21
799.60002150000003
  0
LINE
  8
_0-0_0
  6
CONTINUOUS
 62
    7
 10
1614.4313349999998
 20
799.40000950000001
 11
1614.4288940000001
 21
799.60002150000003
  0
ARC
  8
_0-0_0
  6
CONTINUOUS
 62
    7
 10
1622.4288940000001
 20
799.60002150000003
 40
8
 50
181.432545
 51
186.45945499999999
  0
LINE
  8
_0-0_0
  6
CONTINUOUS
 62
    7
 10
1614.5048219999999
 20
798.50001550000002
 11
1614.479675
 21
798.70002750000003
  0
LINE
  8
_0-0_0
  6
CONTINUOUS
 62
    7
 10
1614.5352170000001
 20
798.30000250000001
 11
1614.5048219999999
 21
798.50001550000002
  0
ARC
  8
_0-0_0
  6
CONTINUOUS
 62
    7
 10
1622.4288940000001
 20
799.60002150000003
 40
8
 50
189.35203999999999
 51
194.47751
  0
LINE
  8
_0-0_0
  6
CONTINUOUS
 62
    7
 10
1614.7373659999998
 20
797.40000950000001
 11
1614.682922
 21
797.60002150000003
  0
LINE
  8
_0-0_0
  6
CONTINUOUS
 62
    7
 10
1614.7974239999999
 20
797.20002750000003
 11
1614.7373659999998
 21
797.40000950000001
  0
ARC
  8
_0-0_0
  6
CONTINUOUS
 62
    7
 10
1622.4288940000001
 20
799.60002150000003
 40
8
 50
197.45760300000001
 51
202.79902999999999
  0
LINE
  8
_0-0_0
  6
CONTINUOUS
 62
    7
 10
1615.1411739999999
 20
796.30000250000001
 11
1615.0538940000001
 21
796.50001550000002
  0
LINE
  8
_0-0_0
  6
CONTINUOUS
 62
    7
 10
1615.235169
 20
796.10002150000003
 11
1615.1411739999999
 21
796.30000250000001
  0
ARC
  8
_0-0_0
  6
CONTINUOUS
 62
    7
 10
1622.4288940000001
 20
799.60002150000003
 40
8
 50
205.94448199999999
 51
211.66823500000001
  0
LINE
  8
_0-0_0
  6
CONTINUOUS
 62
    7
 10
1615.701599
 20
795.2707365
 11
1615.6200560000002
 21
795.40000950000001
  0
LINE
  8
_0-0_0
  6
CONTINUOUS
 62
    7
 10
1615.701599
 20
795.2707365
 11
1615.7947389999999
 21
795.12931849999995
  0
LINE
  8
_0-0_0
  6
CONTINUOUS
 62
    7
 10
1628.9741819999999
 20
795.00001550000002
 11
1629.0630489999999
 21
795.12931849999995
  0
LINE
  8
_0-0_0
  6
CONTINUOUS
 62
    7
 10
1629.1561889999998
 20
795.2707365
 11
1629.0630489999999
 21
795.12931849999995
  0
LINE
  8
_0-0_0
  6
CONTINUOUS
 62
    7
 10
1631.4288940000001
 20
795.12931849999995
 11
1631.4288940000001
 21
795.00001550000002
  0
LINE
  8
_0-0_0
  6
CONTINUOUS
 62
    7
 10
1631.4288940000001
 20
803.92930550000005
 11
1631.4288940000001
 21
804.07072449999998
  0
LINE
  8
_0-0_0
  6
CONTINUOUS
 62
    7
 10
1631.4288940000001
 20
803.92930550000005
 11
1631.4288940000001
 21
803.80000250000001
  0
LINE
  8
_0-0_0
  6
CONTINUOUS
 62
    7
 10
1631.4288940000001
 20
803.10002150000003
 11
1631.4288940000001
 21
803.80000250000001
  0
LINE
  8
_0-0_0
  6
CONTINUOUS
 62
    7
 10
1631.4288940000001
 20
802.90000950000001
 11
1631.4288940000001
 21
803.10002150000003
  0
LINE
  8
_0-0_0
  6
CONTINUOUS
 62
    7
 10
1631.4288940000001
 20
802.90000950000001
 11
1631.4288940000001
 21
802.70002750000003
  0
LINE
  8
_0-0_0
  6
CONTINUOUS
 62
    7
 10
1631.4288940000001
 20
802.00001550000002
 11
1631.4288940000001
 21
802.70002750000003
  0
LINE
  8
_0-0_0
  6
CONTINUOUS
 62
    7
 10
1631.4288940000001
 20
801.80000250000001
 11
1631.4288940000001
 21
802.00001550000002
  0
LINE
  8
_0-0_0
  6
CONTINUOUS
 62
    7
 10
1631.4288940000001
 20
801.80000250000001
 11
1631.4288940000001
 21
801.60002150000003
  0
LINE
  8
_0-0_0
  6
CONTINUOUS
 62
    7
 10
1631.4288940000001
 20
800.90000950000001
 11
1631.4288940000001
 21
801.60002150000003
  0
LINE
  8
_0-0_0
  6
CONTINUOUS
 62
    7
 10
1631.4288940000001
 20
800.70002750000003
 11
1631.4288940000001
 21
800.90000950000001
  0
LINE
  8
_0-0_0
  6
CONTINUOUS
 62
    7
 10
1631.4288940000001
 20
800.70002750000003
 11
1631.4288940000001
 21
800.50001550000002
  0
LINE
  8
_0-0_0
  6
CONTINUOUS
 62
    7
 10
1631.4288940000001
 20
799.80000250000001
 11
1631.4288940000001
 21
800.50001550000002
  0
LINE
  8
_0-0_0
  6
CONTINUOUS
 62
    7
 10
1631.4288940000001
 20
799.60002150000003
 11
1631.4288940000001
 21
799.80000250000001
  0
LINE
  8
_0-0_0
  6
CONTINUOUS
 62
    7
 10
1631.4288940000001
 20
799.60002150000003
 11
1631.4288940000001
 21
799.40000950000001
  0
LINE
  8
_0-0_0
  6
CONTINUOUS
 62
    7
 10
1631.4288940000001
 20
798.70002750000003
 11
1631.4288940000001
 21
799.40000950000001
  0
LINE
  8
_0-0_0
  6
CONTINUOUS
 62
    7
 10
1631.4288940000001
 20
798.50001550000002
 11
1631.4288940000001
 21
798.70002750000003
  0
LINE
  8
_0-0_0
  6
CONTINUOUS
 62
    7
 10
1631.4288940000001
 20
798.50001550000002
 11
1631.4288940000001
 21
798.30000250000001
  0
LINE
  8
_0-0_0
  6
CONTINUOUS
 62
    7
 10
1631.4288940000001
 20
797.60002150000003
 11
1631.4288940000001
 21
798.30000250000001
  0
LINE
  8
_0-0_0
  6
CONTINUOUS
 62
    7
 10
1631.4288940000001
 20
797.40000950000001
 11
1631.4288940000001
 21
797.60002150000003
  0
LINE
  8
_0-0_0
  6
CONTINUOUS
 62
    7
 10
1631.4288940000001
 20
797.40000950000001
 11
1631.4288940000001
 21
797.20002750000003
  0
LINE
  8
_0-0_0
  6
CONTINUOUS
 62
    7
 10
1631.4288940000001
 20
796.50001550000002
 11
1631.4288940000001
 21
797.20002750000003
  0
LINE
  8
_0-0_0
  6
CONTINUOUS
 62
    7
 10
1631.4288940000001
 20
796.30000250000001
 11
1631.4288940000001
 21
796.50001550000002
  0
LINE
  8
_0-0_0
  6
CONTINUOUS
 62
    7
 10
1631.4288940000001
 20
796.30000250000001
 11
1631.4288940000001
 21
796.10002150000003
  0
LINE
  8
_0-0_0
  6
CONTINUOUS
 62
    7
 10
1631.4288940000001
 20
795.40000950000001
 11
1631.4288940000001
 21
796.10002150000003
  0
LINE
  8
_0-0_0
  6
CONTINUOUS
 62
    7
 10
1631.4288940000001
 20
795.2707365
 11
1631.4288940000001
 21
795.40000950000001
  0
LINE
  8
_0-0_0
  6
CONTINUOUS
 62
    7
 10
1631.4288940000001
 20
795.12931849999995
 11
1631.4288940000001
 21
795.2707365
  0
LINE
  8
_0-0_0
  6
CONTINUOUS
 62
    7
 10
1631.4288940000001
 20
781.30000250000001
 11
1631.4288940000001
 21
781.80000250000001
  0
LINE
  8
_0-0_0
  6
CONTINUOUS
 62
    7
 10
1631.4288940000001
 20
809.80000250000001
 11
1631.4288940000001
 21
809.20603949999997
  0
LINE
  8
_0-0_0
  6
CONTINUOUS
 62
    7
 10
1631.4288940000001
 20
804.20002750000003
 11
1631.4288940000001
 21
809.20603949999997
  0
LINE
  8
_0-0_0
  6
CONTINUOUS
 62
    7
 10
1631.4288940000001
 20
804.07072449999998
 11
1631.4288940000001
 21
804.20002750000003
  0
LINE
  8
_0-0_0
  6
CONTINUOUS
 62
    7
 10
-241.57104500000014
 20
781.30000250000001
 11
-241.57104500000014
 21
781.80000250000001
  0
LINE
  8
_0-0_0
  6
CONTINUOUS
 62
    7
 10
-241.57104500000014
 20
781.30000250000001
 11
1631.4288940000001
 21
781.30000250000001
  0
LINE
  8
_0-0_0
  6
CONTINUOUS
 62
    7
 10
-241.57104500000014
 20
795.12931849999995
 11
-241.57104500000014
 21
795.2707365
  0
LINE
  8
_0-0_0
  6
CONTINUOUS
 62
    7
 10
-241.57104500000014
 20
795.12931849999995
 11
-241.57104500000014
 21
795.00001550000002
  0
LINE
  8
_0-0_0
  6
CONTINUOUS
 62
    7
 10
-241.57104500000014
 20
809.80000250000001
 11
-241.57104500000014
 21
809.20603949999997
  0
LINE
  8
_0-0_0
  6
CONTINUOUS
 62
    7
 10
-241.57104500000014
 20
804.20002750000003
 11
-241.57104500000014
 21
809.20603949999997
  0
LINE
  8
_0-0_0
  6
CONTINUOUS
 62
    7
 10
-241.57104500000014
 20
804.07072449999998
 11
-241.57104500000014
 21
804.20002750000003
  0
LINE
  8
_0-0_0
  6
CONTINUOUS
 62
    7
 10
-241.57104500000014
 20
803.92930550000005
 11
-241.57104500000014
 21
804.07072449999998
  0
LINE
  8
_0-0_0
  6
CONTINUOUS
 62
    7
 10
-241.57104500000014
 20
803.92930550000005
 11
-241.57104500000014
 21
803.80000250000001
  0
LINE
  8
_0-0_0
  6
CONTINUOUS
 62
    7
 10
-241.57104500000014
 20
803.10002150000003
 11
-241.57104500000014
 21
803.80000250000001
  0
LINE
  8
_0-0_0
  6
CONTINUOUS
 62
    7
 10
-241.57104500000014
 20
802.97071849999998
 11
-241.57104500000014
 21
803.10002150000003
  0
LINE
  8
_0-0_0
  6
CONTINUOUS
 62
    7
 10
-241.57104500000014
 20
802.82929950000005
 11
-241.57104500000014
 21
802.97071849999998
  0
LINE
  8
_0-0_0
  6
CONTINUOUS
 62
    7
 10
-241.57104500000014
 20
802.82929950000005
 11
-241.57104500000014
 21
802.70002750000003
  0
LINE
  8
_0-0_0
  6
CONTINUOUS
 62
    7
 10
-241.57104500000014
 20
802.00001550000002
 11
-241.57104500000014
 21
802.70002750000003
  0
LINE
  8
_0-0_0
  6
CONTINUOUS
 62
    7
 10
-241.57104500000014
 20
801.87074250000001
 11
-241.57104500000014
 21
802.00001550000002
  0
LINE
  8
_0-0_0
  6
CONTINUOUS
 62
    7
 10
-241.57104500000014
 20
801.72929350000004
 11
-241.57104500000014
 21
801.87074250000001
  0
LINE
  8
_0-0_0
  6
CONTINUOUS
 62
    7
 10
-241.57104500000014
 20
801.72929350000004
 11
-241.57104500000014
 21
801.60002150000003
  0
LINE
  8
_0-0_0
  6
CONTINUOUS
 62
    7
 10
-241.57104500000014
 20
800.90000950000001
 11
-241.57104500000014
 21
801.60002150000003
  0
LINE
  8
_0-0_0
  6
CONTINUOUS
 62
    7
 10
-241.57104500000014
 20
800.7707365
 11
-241.57104500000014
 21
800.90000950000001
  0
LINE
  8
_0-0_0
  6
CONTINUOUS
 62
    7
 10
-241.57104500000014
 20
800.62931849999995
 11
-241.57104500000014
 21
800.7707365
  0
LINE
  8
_0-0_0
  6
CONTINUOUS
 62
    7
 10
-241.57104500000014
 20
800.62931849999995
 11
-241.57104500000014
 21
800.50001550000002
  0
LINE
  8
_0-0_0
  6
CONTINUOUS
 62
    7
 10
-241.57104500000014
 20
799.80000250000001
 11
-241.57104500000014
 21
800.50001550000002
  0
LINE
  8
_0-0_0
  6
CONTINUOUS
 62
    7
 10
-241.57104500000014
 20
799.67073049999999
 11
-241.57104500000014
 21
799.80000250000001
  0
LINE
  8
_0-0_0
  6
CONTINUOUS
 62
    7
 10
-241.57104500000014
 20
799.52931149999995
 11
-241.57104500000014
 21
799.67073049999999
  0
LINE
  8
_0-0_0
  6
CONTINUOUS
 62
    7
 10
-241.57104500000014
 20
799.52931149999995
 11
-241.57104500000014
 21
799.40000950000001
  0
LINE
  8
_0-0_0
  6
CONTINUOUS
 62
    7
 10
-241.57104500000014
 20
798.70002750000003
 11
-241.57104500000014
 21
799.40000950000001
  0
LINE
  8
_0-0_0
  6
CONTINUOUS
 62
    7
 10
-241.57104500000014
 20
798.57072449999998
 11
-241.57104500000014
 21
798.70002750000003
  0
LINE
  8
_0-0_0
  6
CONTINUOUS
 62
    7
 10
-241.57104500000014
 20
798.42930550000005
 11
-241.57104500000014
 21
798.57072449999998
  0
LINE
  8
_0-0_0
  6
CONTINUOUS
 62
    7
 10
-241.57104500000014
 20
798.42930550000005
 11
-241.57104500000014
 21
798.30000250000001
  0
LINE
  8
_0-0_0
  6
CONTINUOUS
 62
    7
 10
-241.57104500000014
 20
797.60002150000003
 11
-241.57104500000014
 21
798.30000250000001
  0
LINE
  8
_0-0_0
  6
CONTINUOUS
 62
    7
 10
-241.57104500000014
 20
797.47071849999998
 11
-241.57104500000014
 21
797.60002150000003
  0
LINE
  8
_0-0_0
  6
CONTINUOUS
 62
    7
 10
-241.57104500000014
 20
797.32929950000005
 11
-241.57104500000014
 21
797.47071849999998
  0
LINE
  8
_0-0_0
  6
CONTINUOUS
 62
    7
 10
-241.57104500000014
 20
797.32929950000005
 11
-241.57104500000014
 21
797.20002750000003
  0
LINE
  8
_0-0_0
  6
CONTINUOUS
 62
    7
 10
-241.57104500000014
 20
796.50001550000002
 11
-241.57104500000014
 21
797.20002750000003
  0
LINE
  8
_0-0_0
  6
CONTINUOUS
 62
    7
 10
-241.57104500000014
 20
796.37074250000001
 11
-241.57104500000014
 21
796.50001550000002
  0
LINE
  8
_0-0_0
  6
CONTINUOUS
 62
    7
 10
-241.57104500000014
 20
796.22929350000004
 11
-241.57104500000014
 21
796.37074250000001
  0
LINE
  8
_0-0_0
  6
CONTINUOUS
 62
    7
 10
-241.57104500000014
 20
796.22929350000004
 11
-241.57104500000014
 21
796.10002150000003
  0
LINE
  8
_0-0_0
  6
CONTINUOUS
 62
    7
 10
-241.57104500000014
 20
795.40000950000001
 11
-241.57104500000014
 21
796.10002150000003
  0
LINE
  8
_0-0_0
  6
CONTINUOUS
 62
    7
 10
-241.57104500000014
 20
795.2707365
 11
-241.57104500000014
 21
795.40000950000001
  0
LINE
  8
_0-0_0
  6
CONTINUOUS
 62
    7
 10
-239.11627199999998
 20
795.00001550000002
 11
-239.20526100000006
 21
795.12931849999995
  0
LINE
  8
_0-0_0
  6
CONTINUOUS
 62
    7
 10
-225.84368900000004
 20
795.2707365
 11
-225.93682899999999
 21
795.12931849999995
  0
LINE
  8
_0-0_0
  6
CONTINUOUS
 62
    7
 10
-225.84368900000004
 20
795.2707365
 11
-225.76223800000002
 21
795.40000950000001
  0
ARC
  8
_0-0_0
  6
CONTINUOUS
 62
    7
 10
-232.57104500000014
 20
799.60002150000003
 40
8
 50
328.33175599999993
 51
334.05550899999992
  0
LINE
  8
_0-0_0
  6
CONTINUOUS
 62
    7
 10
-225.37731899999994
 20
796.10002150000003
 11
-225.28338600000006
 21
796.30000250000001
  0
LINE
  8
_0-0_0
  6
CONTINUOUS
 62
    7
 10
-225.28338600000006
 20
796.30000250000001
 11
-225.19610599999987
 21
796.50001550000002
  0
ARC
  8
_0-0_0
  6
CONTINUOUS
 62
    7
 10
-232.57104500000014
 20
799.60002150000003
 40
8
 50
337.20097500000003
 51
342.54240199999998
  0
LINE
  8
_0-0_0
  6
CONTINUOUS
 62
    7
 10
-224.93954499999995
 20
797.20002750000003
 11
-224.87951700000008
 21
797.40000950000001
  0
LINE
  8
_0-0_0
  6
CONTINUOUS
 62
    7
 10
-224.87951700000008
 20
797.40000950000001
 11
-224.82507299999997
 21
797.60002150000003
  0
ARC
  8
_0-0_0
  6
CONTINUOUS
 62
    7
 10
-232.57104500000014
 20
799.60002150000003
 40
8
 50
345.52249499999999
 51
350.64797900000002
  0
LINE
  8
_0-0_0
  6
CONTINUOUS
 62
    7
 10
-224.67736800000011
 20
798.30000250000001
 11
-224.64703400000008
 21
798.50001550000002
  0
LINE
  8
_0-0_0
  6
CONTINUOUS
 62
    7
 10
-224.64703400000008
 20
798.50001550000002
 11
-224.62182600000006
 21
798.70002750000003
  0
ARC
  8
_0-0_0
  6
CONTINUOUS
 62
    7
 10
-232.57104500000014
 20
799.60002150000003
 40
8
 50
353.54056400000002
 51
358.56744600000002
  0
LINE
  8
_0-0_0
  6
CONTINUOUS
 62
    7
 10
-224.57354699999996
 20
799.40000950000001
 11
-224.57104500000014
 21
799.60002150000003
  0
LINE
  8
_0-0_0
  6
CONTINUOUS
 62
    7
 10
-240.57074000000011
 20
799.52931149999995
 11
-240.57104500000014
 21
799.60002150000003
  0
LINE
  8
_0-0_0
  6
CONTINUOUS
 62
    7
 10
-240.56854199999998
 20
799.40000950000001
 11
-240.57074000000011
 21
799.52931149999995
  0
ARC
  8
_0-0_0
  6
CONTINUOUS
 62
    7
 10
-232.57104500000014
 20
799.60002150000003
 40
8
 50
181.432545
 51
186.45945499999999
  0
LINE
  8
_0-0_0
  6
CONTINUOUS
 62
    7
 10
-240.50457800000004
 20
798.57072449999998
 11
-240.520264
 21
798.70002750000003
  0
LINE
  8
_0-0_0
  6
CONTINUOUS
 62
    7
 10
-240.50457800000004
 20
798.57072449999998
 11
-240.48492400000009
 21
798.42930550000005
  0
LINE
  8
_0-0_0
  6
CONTINUOUS
 62
    7
 10
-240.46472199999994
 20
798.30000250000001
 11
-240.48492400000009
 21
798.42930550000005
  0
ARC
  8
_0-0_0
  6
CONTINUOUS
 62
    7
 10
-232.57104500000014
 20
799.60002150000003
 40
8
 50
189.35203999999999
 51
194.47751
  0
LINE
  8
_0-0_0
  6
CONTINUOUS
 62
    7
 10
-240.28247099999999
 20
797.47071849999998
 11
-240.31701700000008
 21
797.60002150000003
  0
LINE
  8
_0-0_0
  6
CONTINUOUS
 62
    7
 10
-240.28247099999999
 20
797.47071849999998
 11
-240.24203499999999
 21
797.32929950000005
  0
LINE
  8
_0-0_0
  6
CONTINUOUS
 62
    7
 10
-240.20257600000014
 20
797.20002750000003
 11
-240.24203499999999
 21
797.32929950000005
  0
ARC
  8
_0-0_0
  6
CONTINUOUS
 62
    7
 10
-232.57104500000014
 20
799.60002150000003
 40
8
 50
197.45760300000001
 51
202.79902999999999
  0
LINE
  8
_0-0_0
  6
CONTINUOUS
 62
    7
 10
-239.89031999999997
 20
796.37074250000001
 11
-239.9460140000001
 21
796.50001550000002
  0
LINE
  8
_0-0_0
  6
CONTINUOUS
 62
    7
 10
-239.89031999999997
 20
796.37074250000001
 11
-239.82629399999996
 21
796.22929350000004
  0
LINE
  8
_0-0_0
  6
CONTINUOUS
 62
    7
 10
-239.76480100000003
 20
796.10002150000003
 11
-239.82629399999996
 21
796.22929350000004
  0
ARC
  8
_0-0_0
  6
CONTINUOUS
 62
    7
 10
-232.57104500000014
 20
799.60002150000003
 40
8
 50
205.94448199999999
 51
211.66823500000001
  0
LINE
  8
_0-0_0
  6
CONTINUOUS
 62
    7
 10
-239.29840100000001
 20
795.2707365
 11
-239.37988300000006
 21
795.40000950000001
  0
LINE
  8
_0-0_0
  6
CONTINUOUS
 62
    7
 10
-239.29840100000001
 20
795.2707365
 11
-239.20526100000006
 21
795.12931849999995
  0
LINE
  8
_0-0_0
  6
CONTINUOUS
 62
    7
 10
1565.4288940000001
 20
787.30000250000001
 11
1572.4288940000001
 21
787.30000250000001
  0
ARC
  8
_0-0_0
  6
CONTINUOUS
 62
    7
 10
1565.4288940000001
 20
786.80000250000001
 40
0.5
 50
90.000003000000007
 51
180.00000900000001
  0
LINE
  8
_0-0_0
  6
CONTINUOUS
 62
    7
 10
1564.9288940000001
 20
786.80000250000001
 11
1564.9288940000001
 21
782.80000250000001
  0
ARC
  8
_0-0_0
  6
CONTINUOUS
 62
    7
 10
1565.4288940000001
 20
782.80000250000001
 40
0.5
 50
180.00000900000003
 51
269.99999700000001
  0
LINE
  8
_0-0_0
  6
CONTINUOUS
 62
    7
 10
1572.4288940000001
 20
782.30000250000001
 11
1565.4288940000001
 21
782.30000250000001
  0
ARC
  8
_0-0_0
  6
CONTINUOUS
 62
    7
 10
1572.4288940000001
 20
782.80000250000001
 40
0.5
 50
269.99999700000001
 51
0
  0
LINE
  8
_0-0_0
  6
CONTINUOUS
 62
    7
 10
1572.9288940000001
 20
782.80000250000001
 11
1572.9288940000001
 21
786.80000250000001
  0
ARC
  8
_0-0_0
  6
CONTINUOUS
 62
    7
 10
1572.4288940000001
 20
786.80000250000001
 40
0.5
 50
0
 51
90.000003000000007
  0
ARC
  8
_0-0_0
  6
CONTINUOUS
 62
    7
 10
-174.57105999999999
 20
786.80000250000001
 40
0.5
 50
90.000003000000007
 51
180.00000900000001
  0
LINE
  8
_0-0_0
  6
CONTINUOUS
 62
    7
 10
-175.07105999999999
 20
786.80000250000001
 11
-175.07105999999999
 21
782.80000250000001
  0
ARC
  8
_0-0_0
  6
CONTINUOUS
 62
    7
 10
-174.57105999999999
 20
782.80000250000001
 40
0.5
 50
180.00000900000003
 51
269.99999700000001
  0
LINE
  8
_0-0_0
  6
CONTINUOUS
 62
    7
 10
-167.57105999999999
 20
782.30000250000001
 11
-174.57105999999999
 21
782.30000250000001
  0
ARC
  8
_0-0_0
  6
CONTINUOUS
 62
    7
 10
-167.57105999999999
 20
782.80000250000001
 40
0.5
 50
269.99999700000001
 51
0
  0
LINE
  8
_0-0_0
  6
CONTINUOUS
 62
    7
 10
-167.07105999999999
 20
782.80000250000001
 11
-167.07105999999999
 21
786.80000250000001
  0
ARC
  8
_0-0_0
  6
CONTINUOUS
 62
    7
 10
-167.57105999999999
 20
786.80000250000001
 40
0.5
 50
0
 51
90.000003000000007
  0
LINE
  8
_0-0_0
  6
CONTINUOUS
 62
    7
 10
-174.57105999999999
 20
787.30000250000001
 11
-167.57105999999999
 21
787.30000250000001
  0
LINE
  8
_0-0_0
  6
CONTINUOUS
 62
    7
 10
-225.76223800000002
 20
795.40000950000001
 11
1615.6200560000002
 21
795.40000950000001
  0
LINE
  8
_0-0_0
  6
CONTINUOUS
 62
    7
 10
-225.37731899999994
 20
796.10002150000003
 11
1615.235169
 21
796.10002150000003
  0
LINE
  8
_0-0_0
  6
CONTINUOUS
 62
    7
 10
-225.28338600000006
 20
796.30000250000001
 11
1615.1411739999999
 21
796.30000250000001
  0
LINE
  8
_0-0_0
  6
CONTINUOUS
 62
    7
 10
-225.19610599999987
 20
796.50001550000002
 11
1615.0538940000001
 21
796.50001550000002
  0
LINE
  8
_0-0_0
  6
CONTINUOUS
 62
    7
 10
-224.93954499999995
 20
797.20002750000003
 11
1614.7974239999999
 21
797.20002750000003
  0
LINE
  8
_0-0_0
  6
CONTINUOUS
 62
    7
 10
-224.87951700000008
 20
797.40000950000001
 11
1614.7373659999998
 21
797.40000950000001
  0
LINE
  8
_0-0_0
  6
CONTINUOUS
 62
    7
 10
-224.82507299999997
 20
797.60002150000003
 11
1614.682922
 21
797.60002150000003
  0
LINE
  8
_0-0_0
  6
CONTINUOUS
 62
    7
 10
-224.67736800000011
 20
798.30000250000001
 11
1614.5352170000001
 21
798.30000250000001
  0
LINE
  8
_0-0_0
  6
CONTINUOUS
 62
    7
 10
-224.64703400000008
 20
798.50001550000002
 11
1614.5048219999999
 21
798.50001550000002
  0
LINE
  8
_0-0_0
  6
CONTINUOUS
 62
    7
 10
-224.62182600000006
 20
798.70002750000003
 11
1614.479675
 21
798.70002750000003
  0
LINE
  8
_0-0_0
  6
CONTINUOUS
 62
    7
 10
-224.57354699999996
 20
799.40000950000001
 11
1614.4313349999998
 21
799.40000950000001
  0
LINE
  8
_0-0_0
  6
CONTINUOUS
 62
    7
 10
-224.57104500000014
 20
799.60002150000003
 11
1614.4288940000001
 21
799.60002150000003
  0
LINE
  8
_0-0_0
  6
CONTINUOUS
 62
    7
 10
1628.9741819999999
 20
804.20002750000003
 11
1629.0630489999999
 21
804.07072449999998
  0
ARC
  8
_0-0_0
  6
CONTINUOUS
 62
    7
 10
1622.4288940000001
 20
799.60002150000003
 40
8
 50
35.099632
 51
144.900373
  0
LINE
  8
_0-0_0
  6
CONTINUOUS
 62
    7
 10
1615.8836059999999
 20
804.20002750000003
 11
1615.7947389999999
 21
804.07072449999998
  0
LINE
  8
_0-0_0
  6
CONTINUOUS
 62
    7
 10
1615.701599
 20
803.92930550000005
 11
1615.7947389999999
 21
804.07072449999998
  0
LINE
  8
_0-0_0
  6
CONTINUOUS
 62
    7
 10
1615.701599
 20
803.92930550000005
 11
1615.6200560000002
 21
803.80000250000001
  0
ARC
  8
_0-0_0
  6
CONTINUOUS
 62
    7
 10
1622.4288940000001
 20
799.60002150000003
 40
8
 50
148.33176499999999
 51
154.05551800000001
  0
LINE
  8
_0-0_0
  6
CONTINUOUS
 62
    7
 10
1615.235169
 20
803.10002150000003
 11
1615.1411739999999
 21
802.90000950000001
  0
LINE
  8
_0-0_0
  6
CONTINUOUS
 62
    7
 10
1615.1411739999999
 20
802.90000950000001
 11
1615.0538940000001
 21
802.70002750000003
  0
ARC
  8
_0-0_0
  6
CONTINUOUS
 62
    7
 10
1622.4288940000001
 20
799.60002150000003
 40
8
 50
157.20097000000001
 51
162.54239699999999
  0
LINE
  8
_0-0_0
  6
CONTINUOUS
 62
    7
 10
1614.7974239999999
 20
802.00001550000002
 11
1614.7373659999998
 21
801.80000250000001
  0
LINE
  8
_0-0_0
  6
CONTINUOUS
 62
    7
 10
1614.7373659999998
 20
801.80000250000001
 11
1614.682922
 21
801.60002150000003
  0
ARC
  8
_0-0_0
  6
CONTINUOUS
 62
    7
 10
1622.4288940000001
 20
799.60002150000003
 40
8
 50
165.52249
 51
170.64796000000001
  0
LINE
  8
_0-0_0
  6
CONTINUOUS
 62
    7
 10
1614.5352170000001
 20
800.90000950000001
 11
1614.5048219999999
 21
800.70002750000003
  0
LINE
  8
_0-0_0
  6
CONTINUOUS
 62
    7
 10
1614.5048219999999
 20
800.70002750000003
 11
1614.479675
 21
800.50001550000002
  0
ARC
  8
_0-0_0
  6
CONTINUOUS
 62
    7
 10
1622.4288940000001
 20
799.60002150000003
 40
8
 50
173.54054500000001
 51
178.567455
  0
LINE
  8
_0-0_0
  6
CONTINUOUS
 62
    7
 10
1614.4313349999998
 20
799.80000250000001
 11
1614.4288940000001
 21
799.60002150000003
  0
LINE
  8
_0-0_0
  6
CONTINUOUS
 62
    7
 10
1630.426453
 20
799.80000250000001
 11
1630.4288940000001
 21
799.60002150000003
  0
ARC
  8
_0-0_0
  6
CONTINUOUS
 62
    7
 10
1622.4288940000001
 20
799.60002150000003
 40
8
 50
1.432544
 51
6.4594489999999993
  0
LINE
  8
_0-0_0
  6
CONTINUOUS
 62
    7
 10
1630.3529659999999
 20
800.70002750000003
 11
1630.3781130000002
 21
800.50001550000002
  0
LINE
  8
_0-0_0
  6
CONTINUOUS
 62
    7
 10
1630.3225710000002
 20
800.90000950000001
 11
1630.3529659999999
 21
800.70002750000003
  0
ARC
  8
_0-0_0
  6
CONTINUOUS
 62
    7
 10
1622.4288940000001
 20
799.60002150000003
 40
8
 50
9.3520350000000008
 51
14.477510999999998
  0
LINE
  8
_0-0_0
  6
CONTINUOUS
 62
    7
 10
1630.120422
 20
801.80000250000001
 11
1630.1748659999998
 21
801.60002150000003
  0
LINE
  8
_0-0_0
  6
CONTINUOUS
 62
    7
 10
1630.0603639999999
 20
802.00001550000002
 11
1630.120422
 21
801.80000250000001
  0
ARC
  8
_0-0_0
  6
CONTINUOUS
 62
    7
 10
1622.4288940000001
 20
799.60002150000003
 40
8
 50
17.457602999999999
 51
22.799030999999999
  0
LINE
  8
_0-0_0
  6
CONTINUOUS
 62
    7
 10
1629.7166139999999
 20
802.90000950000001
 11
1629.8038940000001
 21
802.70002750000003
  0
LINE
  8
_0-0_0
  6
CONTINUOUS
 62
    7
 10
1629.6226200000001
 20
803.10002150000003
 11
1629.7166139999999
 21
802.90000950000001
  0
ARC
  8
_0-0_0
  6
CONTINUOUS
 62
    7
 10
1622.4288940000001
 20
799.60002150000003
 40
8
 50
25.944476999999999
 51
31.668240000000001
  0
LINE
  8
_0-0_0
  6
CONTINUOUS
 62
    7
 10
1629.1561889999998
 20
803.92930550000005
 11
1629.2377320000001
 21
803.80000250000001
  0
LINE
  8
_0-0_0
  6
CONTINUOUS
 62
    7
 10
1629.1561889999998
 20
803.92930550000005
 11
1629.0630489999999
 21
804.07072449999998
  0
CIRCLE
  8
_0-0_0
  6
CONTINUOUS
 62
    7
 10
1622.4288940000001
 20
799.60002150000003
 40
7.5
  0
LINE
  8
_0-0_0
  6
CONTINUOUS
 62
    7
 10
1630.426453
 20
799.40000950000001
 11
1631.4288940000001
 21
799.40000950000001
  0
LINE
  8
_0-0_0
  6
CONTINUOUS
 62
    7
 10
1630.4288940000001
 20
799.60002150000003
 11
1631.4288940000001
 21
799.60002150000003
  0
LINE
  8
_0-0_0
  6
CONTINUOUS
 62
    7
 10
1630.3781130000002
 20
798.70002750000003
 11
1631.4288940000001
 21
798.70002750000003
  0
LINE
  8
_0-0_0
  6
CONTINUOUS
 62
    7
 10
1630.3529659999999
 20
798.50001550000002
 11
1631.4288940000001
 21
798.50001550000002
  0
LINE
  8
_0-0_0
  6
CONTINUOUS
 62
    7
 10
1630.3225710000002
 20
798.30000250000001
 11
1631.4288940000001
 21
798.30000250000001
  0
LINE
  8
_0-0_0
  6
CONTINUOUS
 62
    7
 10
1630.1748659999998
 20
797.60002150000003
 11
1631.4288940000001
 21
797.60002150000003
  0
LINE
  8
_0-0_0
  6
CONTINUOUS
 62
    7
 10
1630.120422
 20
797.40000950000001
 11
1631.4288940000001
 21
797.40000950000001
  0
LINE
  8
_0-0_0
  6
CONTINUOUS
 62
    7
 10
1630.0603639999999
 20
797.20002750000003
 11
1631.4288940000001
 21
797.20002750000003
  0
LINE
  8
_0-0_0
  6
CONTINUOUS
 62
    7
 10
1629.8038940000001
 20
796.50001550000002
 11
1631.4288940000001
 21
796.50001550000002
  0
LINE
  8
_0-0_0
  6
CONTINUOUS
 62
    7
 10
1629.7166139999999
 20
796.30000250000001
 11
1631.4288940000001
 21
796.30000250000001
  0
LINE
  8
_0-0_0
  6
CONTINUOUS
 62
    7
 10
1629.6226200000001
 20
796.10002150000003
 11
1631.4288940000001
 21
796.10002150000003
  0
LINE
  8
_0-0_0
  6
CONTINUOUS
 62
    7
 10
1629.2377320000001
 20
795.40000950000001
 11
1631.4288940000001
 21
795.40000950000001
  0
LINE
  8
_0-0_0
  6
CONTINUOUS
 62
    7
 10
1629.2377320000001
 20
803.80000250000001
 11
1631.4288940000001
 21
803.80000250000001
  0
LINE
  8
_0-0_0
  6
CONTINUOUS
 62
    7
 10
1629.6226200000001
 20
803.10002150000003
 11
1631.4288940000001
 21
803.10002150000003
  0
LINE
  8
_0-0_0
  6
CONTINUOUS
 62
    7
 10
1629.7166139999999
 20
802.90000950000001
 11
1631.4288940000001
 21
802.90000950000001
  0
LINE
  8
_0-0_0
  6
CONTINUOUS
 62
    7
 10
1629.8038940000001
 20
802.70002750000003
 11
1631.4288940000001
 21
802.70002750000003
  0
LINE
  8
_0-0_0
  6
CONTINUOUS
 62
    7
 10
1630.0603639999999
 20
802.00001550000002
 11
1631.4288940000001
 21
802.00001550000002
  0
LINE
  8
_0-0_0
  6
CONTINUOUS
 62
    7
 10
1630.120422
 20
801.80000250000001
 11
1631.4288940000001
 21
801.80000250000001
  0
LINE
  8
_0-0_0
  6
CONTINUOUS
 62
    7
 10
1630.1748659999998
 20
801.60002150000003
 11
1631.4288940000001
 21
801.60002150000003
  0
LINE
  8
_0-0_0
  6
CONTINUOUS
 62
    7
 10
1630.3225710000002
 20
800.90000950000001
 11
1631.4288940000001
 21
800.90000950000001
  0
LINE
  8
_0-0_0
  6
CONTINUOUS
 62
    7
 10
1630.3529659999999
 20
800.70002750000003
 11
1631.4288940000001
 21
800.70002750000003
  0
LINE
  8
_0-0_0
  6
CONTINUOUS
 62
    7
 10
1630.3781130000002
 20
800.50001550000002
 11
1631.4288940000001
 21
800.50001550000002
  0
LINE
  8
_0-0_0
  6
CONTINUOUS
 62
    7
 10
1630.426453
 20
799.80000250000001
 11
1631.4288940000001
 21
799.80000250000001
  0
LINE
  8
_0-0_0
  6
CONTINUOUS
 62
    7
 10
1631.9288940000001
 20
783.10002150000003
 11
1631.4288940000001
 21
783.10002150000003
  0
LINE
  8
_0-0_0
  6
CONTINUOUS
 62
    7
 10
1631.4288940000001
 20
785.30000250000001
 11
1631.9288940000001
 21
785.30000250000001
  0
LINE
  8
_0-0_0
  6
CONTINUOUS
 62
    7
 10
1631.9288940000001
 20
787.60002150000003
 11
1631.4288940000001
 21
787.60002150000003
  0
LINE
  8
_0-0_0
  6
CONTINUOUS
 62
    7
 10
-241.57104500000014
 20
787.60002150000003
 11
-242.07104500000014
 21
787.60002150000003
  0
LINE
  8
_0-0_0
  6
CONTINUOUS
 62
    7
 10
1631.4288940000001
 20
789.90000950000001
 11
1631.9288940000001
 21
789.90000950000001
  0
LINE
  8
_0-0_0
  6
CONTINUOUS
 62
    7
 10
1631.9288940000001
 20
810.10002150000003
 11
1631.9288940000001
 21
810.00001550000002
  0
LINE
  8
_0-0_0
  6
CONTINUOUS
 62
    7
 10
-242.07104500000014
 20
810.10002150000003
 11
-242.07104500000014
 21
810.00001550000002
  0
LINE
  8
_0-0_0
  6
CONTINUOUS
 62
    7
 10
-242.07104500000014
 20
789.90000950000001
 11
-241.57104500000014
 21
789.90000950000001
  0
LINE
  8
_0-0_0
  6
CONTINUOUS
 62
    7
 10
-241.57104500000014
 20
809.80000250000001
 11
1631.4288940000001
 21
809.80000250000001
  0
LINE
  8
_0-0_0
  6
CONTINUOUS
 62
    7
 10
-241.57104500000014
 20
809.20603949999997
 11
1631.4288940000001
 21
809.20603949999997
  0
LINE
  8
_0-0_0
  6
CONTINUOUS
 62
    7
 10
1628.9741819999999
 20
804.20002750000003
 11
1631.4288940000001
 21
804.20002750000003
  0
LINE
  8
_0-0_0
  6
CONTINUOUS
 62
    7
 10
-241.57104500000014
 20
804.20002750000003
 11
-239.11627199999998
 21
804.20002750000003
  0
ARC
  8
_0-0_0
  6
CONTINUOUS
 62
    7
 10
-232.57104500000014
 20
799.60002150000003
 40
8
 50
35.099632
 51
144.900373
  0
LINE
  8
_0-0_0
  6
CONTINUOUS
 62
    7
 10
-226.02581800000007
 20
804.20002750000003
 11
1615.8836059999999
 21
804.20002750000003
  0
LINE
  8
_0-0_0
  6
CONTINUOUS
 62
    7
 10
-242.07104500000014
 20
783.10002150000003
 11
-241.57104500000014
 21
783.10002150000003
  0
LINE
  8
_0-0_0
  6
CONTINUOUS
 62
    7
 10
-242.07104500000014
 20
785.30000250000001
 11
-241.57104500000014
 21
785.30000250000001
  0
LINE
  8
_0-0_0
  6
CONTINUOUS
 62
    7
 10
-239.11627199999998
 20
804.20002750000003
 11
-239.20526100000006
 21
804.07072449999998
  0
LINE
  8
_0-0_0
  6
CONTINUOUS
 62
    7
 10
-239.29840100000001
 20
803.92930550000005
 11
-239.20526100000006
 21
804.07072449999998
  0
LINE
  8
_0-0_0
  6
CONTINUOUS
 62
    7
 10
-241.57104500000014
 20
803.80000250000001
 11
-239.37988300000006
 21
803.80000250000001
  0
LINE
  8
_0-0_0
  6
CONTINUOUS
 62
    7
 10
-239.29840100000001
 20
803.92930550000005
 11
-239.37988300000006
 21
803.80000250000001
  0
ARC
  8
_0-0_0
  6
CONTINUOUS
 62
    7
 10
-232.57104500000014
 20
799.60002150000003
 40
8
 50
148.33176499999999
 51
154.05551800000001
  0
LINE
  8
_0-0_0
  6
CONTINUOUS
 62
    7
 10
-241.57104500000014
 20
803.10002150000003
 11
-239.76480100000003
 21
803.10002150000003
  0
LINE
  8
_0-0_0
  6
CONTINUOUS
 62
    7
 10
-239.76480100000003
 20
803.10002150000003
 11
-239.82629399999996
 21
802.97071849999998
  0
LINE
  8
_0-0_0
  6
CONTINUOUS
 62
    7
 10
-239.89031999999997
 20
802.82929950000005
 11
-239.82629399999996
 21
802.97071849999998
  0
LINE
  8
_0-0_0
  6
CONTINUOUS
 62
    7
 10
-241.57104500000014
 20
802.70002750000003
 11
-239.9460140000001
 21
802.70002750000003
  0
LINE
  8
_0-0_0
  6
CONTINUOUS
 62
    7
 10
-239.89031999999997
 20
802.82929950000005
 11
-239.9460140000001
 21
802.70002750000003
  0
ARC
  8
_0-0_0
  6
CONTINUOUS
 62
    7
 10
-232.57104500000014
 20
799.60002150000003
 40
8
 50
157.20097000000001
 51
162.54239699999999
  0
LINE
  8
_0-0_0
  6
CONTINUOUS
 62
    7
 10
-241.57104500000014
 20
802.00001550000002
 11
-240.20257600000014
 21
802.00001550000002
  0
LINE
  8
_0-0_0
  6
CONTINUOUS
 62
    7
 10
-240.20257600000014
 20
802.00001550000002
 11
-240.24203499999999
 21
801.87074250000001
  0
LINE
  8
_0-0_0
  6
CONTINUOUS
 62
    7
 10
-240.28247099999999
 20
801.72929350000004
 11
-240.24203499999999
 21
801.87074250000001
  0
LINE
  8
_0-0_0
  6
CONTINUOUS
 62
    7
 10
-241.57104500000014
 20
801.60002150000003
 11
-240.31701700000008
 21
801.60002150000003
  0
LINE
  8
_0-0_0
  6
CONTINUOUS
 62
    7
 10
-240.28247099999999
 20
801.72929350000004
 11
-240.31701700000008
 21
801.60002150000003
  0
ARC
  8
_0-0_0
  6
CONTINUOUS
 62
    7
 10
-232.57104500000014
 20
799.60002150000003
 40
8
 50
165.52249
 51
170.64796000000001
  0
LINE
  8
_0-0_0
  6
CONTINUOUS
 62
    7
 10
-241.57104500000014
 20
800.90000950000001
 11
-240.46472199999994
 21
800.90000950000001
  0
LINE
  8
_0-0_0
  6
CONTINUOUS
 62
    7
 10
-240.46472199999994
 20
800.90000950000001
 11
-240.48492400000009
 21
800.7707365
  0
LINE
  8
_0-0_0
  6
CONTINUOUS
 62
    7
 10
-240.50457800000004
 20
800.62931849999995
 11
-240.48492400000009
 21
800.7707365
  0
LINE
  8
_0-0_0
  6
CONTINUOUS
 62
    7
 10
-241.57104500000014
 20
800.50001550000002
 11
-240.520264
 21
800.50001550000002
  0
LINE
  8
_0-0_0
  6
CONTINUOUS
 62
    7
 10
-240.50457800000004
 20
800.62931849999995
 11
-240.520264
 21
800.50001550000002
  0
ARC
  8
_0-0_0
  6
CONTINUOUS
 62
    7
 10
-232.57104500000014
 20
799.60002150000003
 40
8
 50
173.54054500000001
 51
178.567455
  0
LINE
  8
_0-0_0
  6
CONTINUOUS
 62
    7
 10
-241.57104500000014
 20
799.80000250000001
 11
-240.56854199999998
 21
799.80000250000001
  0
LINE
  8
_0-0_0
  6
CONTINUOUS
 62
    7
 10
-240.56854199999998
 20
799.80000250000001
 11
-240.57074000000011
 21
799.67073049999999
  0
LINE
  8
_0-0_0
  6
CONTINUOUS
 62
    7
 10
-240.57104500000014
 20
799.60002150000003
 11
-240.57074000000011
 21
799.67073049999999
  0
LINE
  8
_0-0_0
  6
CONTINUOUS
 62
    7
 10
-241.57104500000014
 20
799.40000950000001
 11
-240.56854199999998
 21
799.40000950000001
  0
LINE
  8
_0-0_0
  6
CONTINUOUS
 62
    7
 10
-241.57104500000014
 20
798.70002750000003
 11
-240.520264
 21
798.70002750000003
  0
LINE
  8
_0-0_0
  6
CONTINUOUS
 62
    7
 10
-241.57104500000014
 20
798.30000250000001
 11
-240.46472199999994
 21
798.30000250000001
  0
LINE
  8
_0-0_0
  6
CONTINUOUS
 62
    7
 10
-241.57104500000014
 20
797.60002150000003
 11
-240.31701700000008
 21
797.60002150000003
  0
LINE
  8
_0-0_0
  6
CONTINUOUS
 62
    7
 10
-241.57104500000014
 20
797.20002750000003
 11
-240.20257600000014
 21
797.20002750000003
  0
LINE
  8
_0-0_0
  6
CONTINUOUS
 62
    7
 10
-241.57104500000014
 20
796.50001550000002
 11
-239.9460140000001
 21
796.50001550000002
  0
LINE
  8
_0-0_0
  6
CONTINUOUS
 62
    7
 10
-241.57104500000014
 20
796.10002150000003
 11
-239.76480100000003
 21
796.10002150000003
  0
LINE
  8
_0-0_0
  6
CONTINUOUS
 62
    7
 10
-241.57104500000014
 20
795.40000950000001
 11
-239.37988300000006
 21
795.40000950000001
  0
LINE
  8
_0-0_0
  6
CONTINUOUS
 62
    7
 10
-224.57354699999996
 20
799.80000250000001
 11
-224.57104500000014
 21
799.60002150000003
  0
ARC
  8
_0-0_0
  6
CONTINUOUS
 62
    7
 10
-232.57104500000014
 20
799.60002150000003
 40
8
 50
1.432544
 51
6.4594489999999993
  0
LINE
  8
_0-0_0
  6
CONTINUOUS
 62
    7
 10
-224.64703400000008
 20
800.70002750000003
 11
-224.62182600000006
 21
800.50001550000002
  0
LINE
  8
_0-0_0
  6
CONTINUOUS
 62
    7
 10
-224.67736800000011
 20
800.90000950000001
 11
-224.64703400000008
 21
800.70002750000003
  0
ARC
  8
_0-0_0
  6
CONTINUOUS
 62
    7
 10
-232.57104500000014
 20
799.60002150000003
 40
8
 50
9.3520350000000008
 51
14.477510999999998
  0
LINE
  8
_0-0_0
  6
CONTINUOUS
 62
    7
 10
-224.87951700000008
 20
801.80000250000001
 11
-224.82507299999997
 21
801.60002150000003
  0
LINE
  8
_0-0_0
  6
CONTINUOUS
 62
    7
 10
-224.93954499999995
 20
802.00001550000002
 11
-224.87951700000008
 21
801.80000250000001
  0
ARC
  8
_0-0_0
  6
CONTINUOUS
 62
    7
 10
-232.57104500000014
 20
799.60002150000003
 40
8
 50
17.457602999999999
 51
22.799030999999999
  0
LINE
  8
_0-0_0
  6
CONTINUOUS
 62
    7
 10
-225.28338600000006
 20
802.90000950000001
 11
-225.19610599999987
 21
802.70002750000003
  0
LINE
  8
_0-0_0
  6
CONTINUOUS
 62
    7
 10
-225.37731899999994
 20
803.10002150000003
 11
-225.28338600000006
 21
802.90000950000001
  0
ARC
  8
_0-0_0
  6
CONTINUOUS
 62
    7
 10
-232.57104500000014
 20
799.60002150000003
 40
8
 50
25.944476999999999
 51
31.668240000000001
  0
LINE
  8
_0-0_0
  6
CONTINUOUS
 62
    7
 10
-225.84368900000004
 20
803.92930550000005
 11
-225.76223800000002
 21
803.80000250000001
  0
LINE
  8
_0-0_0
  6
CONTINUOUS
 62
    7
 10
-225.84368900000004
 20
803.92930550000005
 11
-225.93682899999999
 21
804.07072449999998
  0
LINE
  8
_0-0_0
  6
CONTINUOUS
 62
    7
 10
-226.02581800000007
 20
804.20002750000003
 11
-225.93682899999999
 21
804.07072449999998
  0
CIRCLE
  8
_0-0_0
  6
CONTINUOUS
 62
    7
 10
-232.57104500000014
 20
799.60002150000003
 40
7.5
  0
LINE
  8
_0-0_0
  6
CONTINUOUS
 62
    7
 10
-224.57354699999996
 20
799.80000250000001
 11
1614.4313349999998
 21
799.80000250000001
  0
LINE
  8
_0-0_0
  6
CONTINUOUS
 62
    7
 10
-224.62182600000006
 20
800.50001550000002
 11
1614.479675
 21
800.50001550000002
  0
LINE
  8
_0-0_0
  6
CONTINUOUS
 62
    7
 10
-224.64703400000008
 20
800.70002750000003
 11
1614.5048219999999
 21
800.70002750000003
  0
LINE
  8
_0-0_0
  6
CONTINUOUS
 62
    7
 10
-224.67736800000011
 20
800.90000950000001
 11
1614.5352170000001
 21
800.90000950000001
  0
LINE
  8
_0-0_0
  6
CONTINUOUS
 62
    7
 10
-224.82507299999997
 20
801.60002150000003
 11
1614.682922
 21
801.60002150000003
  0
LINE
  8
_0-0_0
  6
CONTINUOUS
 62
    7
 10
-224.87951700000008
 20
801.80000250000001
 11
1614.7373659999998
 21
801.80000250000001
  0
LINE
  8
_0-0_0
  6
CONTINUOUS
 62
    7
 10
-224.93954499999995
 20
802.00001550000002
 11
1614.7974239999999
 21
802.00001550000002
  0
LINE
  8
_0-0_0
  6
CONTINUOUS
 62
    7
 10
-225.19610599999987
 20
802.70002750000003
 11
1615.0538940000001
 21
802.70002750000003
  0
LINE
  8
_0-0_0
  6
CONTINUOUS
 62
    7
 10
-225.28338600000006
 20
802.90000950000001
 11
1615.1411739999999
 21
802.90000950000001
  0
LINE
  8
_0-0_0
  6
CONTINUOUS
 62
    7
 10
-225.37731899999994
 20
803.10002150000003
 11
1615.235169
 21
803.10002150000003
  0
LINE
  8
_0-0_0
  6
CONTINUOUS
 62
    7
 10
-225.76223800000002
 20
803.80000250000001
 11
1615.6200560000002
 21
803.80000250000001
  0
LINE
  8
_0-0_0
  6
CONTINUOUS
 62
    7
 10
1631.9288940000001
 20
781.60002150000003
 11
1631.4288940000001
 21
781.60002150000003
  0
LINE
  8
_0-0_0
  6
CONTINUOUS
 62
    7
 10
1631.9288940000001
 20
809.20002750000003
 11
1631.9288940000001
 21
810.00001550000002
  0
LINE
  8
_0-0_0
  6
CONTINUOUS
 62
    7
 10
1631.9288940000001
 20
781.40000950000001
 11
1631.9288940000001
 21
809.20002750000003
  0
ARC
  8
_0-0_0
  6
CONTINUOUS
 62
    7
 10
1622.4288940000001
 20
800.30000250000001
 40
12.800000000000001
 50
73.932597000000001
 51
106.06740099999999
  0
LINE
  8
_0-0_0
  6
CONTINUOUS
 62
    7
 10
-242.07104500000014
 20
809.20002750000003
 11
-242.07104500000014
 21
810.00001550000002
  0
LINE
  8
_0-0_0
  6
CONTINUOUS
 62
    7
 10
-242.07104500000014
 20
781.40000950000001
 11
-242.07104500000014
 21
809.20002750000003
  0
ARC
  8
_0-0_0
  6
CONTINUOUS
 62
    7
 10
-232.57104500000014
 20
800.30000250000001
 40
12.800000000000001
 50
73.932597000000001
 51
106.06740099999999
  0
LINE
  8
_0-0_0
  6
CONTINUOUS
 62
    7
 10
377.92892499999999
 20
812.59999049999999
 11
377.92892499999999
 21
818.23991350000006
  0
LINE
  8
_0-0_0
  6
CONTINUOUS
 62
    7
 10
396.92892499999999
 20
818.23991350000006
 11
396.92892499999999
 21
812.59999049999999
  0
LINE
  8
_0-0_0
  6
CONTINUOUS
 62
    7
 10
997.92889400000001
 20
812.59999049999999
 11
997.92889400000001
 21
818.23991350000006
  0
LINE
  8
_0-0_0
  6
CONTINUOUS
 62
    7
 10
1016.928894
 20
818.23991350000006
 11
1016.928894
 21
812.59999049999999
  0
LINE
  8
_0-0_0
  6
CONTINUOUS
 62
    7
 10
1631.9288940000001
 20
810.10002150000003
 11
1631.9288940000001
 21
812.60002150000003
  0
LINE
  8
_0-0_0
  6
CONTINUOUS
 62
    7
 10
-242.07104500000014
 20
812.60002150000003
 11
1631.9288940000001
 21
812.60002150000003
  0
LINE
  8
_0-0_0
  6
CONTINUOUS
 62
    7
 10
-242.07104500000014
 20
810.10002150000003
 11
-242.07104500000014
 21
812.60002150000003
  0
LINE
  8
_0-0_0
  6
CONTINUOUS
 62
    7
 10
-242.07104500000014
 20
781.60002150000003
 11
-241.57104500000014
 21
781.60002150000003
  0
ARC
  8
_0-0_0
  6
CONTINUOUS
 62
    7
 10
1570.2289430000001
 20
786.50001550000002
 40
0.2
 50
339.62356199999999
 51
90.000002999999978
  0
LINE
  8
_0-0_0
  6
CONTINUOUS
 62
    7
 10
1570.4163210000002
 20
786.43037449999997
 11
1569.1163940000001
 21
782.93037449999997
  0
ARC
  8
_0-0_0
  6
CONTINUOUS
 62
    7
 10
1568.9288940000001
 20
783.00001550000002
 40
0.2
 50
200.37643
 51
339.62356199999999
  0
LINE
  8
_0-0_0
  6
CONTINUOUS
 62
    7
 10
1567.4414670000001
 20
786.43037449999997
 11
1568.7413940000001
 21
782.93037449999997
  0
ARC
  8
_0-0_0
  6
CONTINUOUS
 62
    7
 10
1567.6288450000002
 20
786.50001550000002
 40
0.2
 50
90.000003000000007
 51
200.37643
  0
LINE
  8
_0-0_0
  6
CONTINUOUS
 62
    7
 10
1567.6288450000002
 20
786.70002750000003
 11
1570.2289430000001
 21
786.70002750000003
  0
ARC
  8
_0-0_0
  6
CONTINUOUS
 62
    7
 10
-169.77105700000004
 20
786.50001550000002
 40
0.2
 50
339.62356199999999
 51
90.000002999999978
  0
LINE
  8
_0-0_0
  6
CONTINUOUS
 62
    7
 10
-169.583572
 20
786.43037449999997
 11
-170.88357500000006
 21
782.93037449999997
  0
ARC
  8
_0-0_0
  6
CONTINUOUS
 62
    7
 10
-171.07105999999999
 20
783.00001550000002
 40
0.2
 50
200.37643
 51
339.62356199999999
  0
LINE
  8
_0-0_0
  6
CONTINUOUS
 62
    7
 10
-172.55854799999997
 20
786.43037449999997
 11
-171.25854500000003
 21
782.93037449999997
  0
ARC
  8
_0-0_0
  6
CONTINUOUS
 62
    7
 10
-172.37106300000005
 20
786.50001550000002
 40
0.2
 50
90.000003000000007
 51
200.37643
  0
LINE
  8
_0-0_0
  6
CONTINUOUS
 62
    7
 10
-172.37106300000005
 20
786.70002750000003
 11
-169.77105700000004
 21
786.70002750000003
  0
LINE
  8
_0-0_0
  6
CONTINUOUS
 62
    7
 10
1632.9288940000001
 20
809.20002750000003
 11
1631.9288940000001
 21
809.20002750000003
  0
LINE
  8
_0-0_0
  6
CONTINUOUS
 62
    7
 10
1632.9288940000001
 20
810.23701449999999
 11
1631.9288940000001
 21
810.23701449999999
  0
LINE
  8
_0-0_0
  6
CONTINUOUS
 62
    7
 10
1632.9288940000001
 20
781.40000950000001
 11
1631.9288940000001
 21
781.40000950000001
  0
ARC
  8
_0-0_0
  6
CONTINUOUS
 62
    7
 10
1007.428894
 20
800.30000250000001
 40
20.299999
 50
62.096725999999997
 51
117.903272
  0
CIRCLE
  8
_0-0_0
  6
CONTINUOUS
 62
    7
 10
1007.428894
 20
816.60002150000003
 40
2.5
  0
ARC
  8
_0-0_0
  6
CONTINUOUS
 62
    7
 10
387.42892499999999
 20
800.30000250000001
 40
20.299999
 50
62.096725999999997
 51
117.903272
  0
CIRCLE
  8
_0-0_0
  6
CONTINUOUS
 62
    7
 10
387.42892499999999
 20
816.60002150000003
 40
2.5
  0
LINE
  8
_0-0_0
  6
CONTINUOUS
 62
    7
 10
-243.07104500000014
 20
809.20002750000003
 11
-242.07104500000014
 21
809.20002750000003
  0
LINE
  8
_0-0_0
  6
CONTINUOUS
 62
    7
 10
-243.07104500000014
 20
810.20002750000003
 11
-242.07104500000014
 21
810.20002750000003
  0
LINE
  8
_0-0_0
  6
CONTINUOUS
 62
    7
 10
-243.07104500000014
 20
781.40000950000001
 11
-242.07104500000014
 21
781.40000950000001
  0
LINE
  8
_0-0_0
  6
CONTINUOUS
 62
    7
 10
1632.9288940000001
 20
812.40000950000001
 11
1631.9288940000001
 21
812.40000950000001
  0
LINE
  8
_0-0_0
  6
CONTINUOUS
 62
    7
 10
-243.07104500000014
 20
812.40000950000001
 11
-242.07104500000014
 21
812.40000950000001
  0
LINE
  8
_0-0_0
  6
CONTINUOUS
 62
    7
 10
1633.9288940000001
 20
808.78581250000002
 11
1633.9279179999999
 21
808.80430550000005
  0
LINE
  8
_0-0_0
  6
CONTINUOUS
 62
    7
 10
1633.9279179999999
 20
808.80430550000005
 11
1633.9248659999998
 21
808.82273850000001
  0
LINE
  8
_0-0_0
  6
CONTINUOUS
 62
    7
 10
1633.9248659999998
 20
808.82273850000001
 11
1633.919617
 21
808.84187350000002
  0
LINE
  8
_0-0_0
  6
CONTINUOUS
 62
    7
 10
1633.919617
 20
808.84187350000002
 11
1633.9122929999999
 21
808.86091650000003
  0
LINE
  8
_0-0_0
  6
CONTINUOUS
 62
    7
 10
1633.9122929999999
 20
808.86091650000003
 11
1633.8917849999998
 21
808.8976285
  0
LINE
  8
_0-0_0
  6
CONTINUOUS
 62
    7
 10
1633.8917849999998
 20
808.8976285
 11
1633.8633420000001
 21
808.93330349999997
  0
LINE
  8
_0-0_0
  6
CONTINUOUS
 62
    7
 10
1633.8633420000001
 20
808.93330349999997
 11
1633.8274539999998
 21
808.96757449999996
  0
LINE
  8
_0-0_0
  6
CONTINUOUS
 62
    7
 10
1633.8274539999998
 20
808.96757449999996
 11
1633.7788700000001
 21
809.00404349999997
  0
LINE
  8
_0-0_0
  6
CONTINUOUS
 62
    7
 10
1633.7788700000001
 20
809.00404349999997
 11
1633.7221070000001
 21
809.0380705
  0
LINE
  8
_0-0_0
  6
CONTINUOUS
 62
    7
 10
1633.7221070000001
 20
809.0380705
 11
1633.6578979999999
 21
809.0693205
  0
LINE
  8
_0-0_0
  6
CONTINUOUS
 62
    7
 10
1633.6578979999999
 20
809.0693205
 11
1633.587219
 21
809.09754950000001
  0
LINE
  8
_0-0_0
  6
CONTINUOUS
 62
    7
 10
1633.587219
 20
809.09754950000001
 11
1633.5391239999999
 21
809.11390649999998
  0
LINE
  8
_0-0_0
  6
CONTINUOUS
 62
    7
 10
1633.5391239999999
 20
809.11390649999998
 11
1633.489075
 21
809.12892150000005
  0
LINE
  8
_0-0_0
  6
CONTINUOUS
 62
    7
 10
1633.489075
 20
809.12892150000005
 11
1633.4323119999999
 21
809.14369150000005
  0
LINE
  8
_0-0_0
  6
CONTINUOUS
 62
    7
 10
1633.4323119999999
 20
809.14369150000005
 11
1633.3737179999998
 21
809.15678349999996
  0
LINE
  8
_0-0_0
  6
CONTINUOUS
 62
    7
 10
1633.3737179999998
 20
809.15678349999996
 11
1633.2568970000002
 21
809.17707849999999
  0
LINE
  8
_0-0_0
  6
CONTINUOUS
 62
    7
 10
1633.2568970000002
 20
809.17707849999999
 11
1633.1495970000001
 21
809.18980350000004
  0
LINE
  8
_0-0_0
  6
CONTINUOUS
 62
    7
 10
1633.1495970000001
 20
809.18980350000004
 11
1633.039734
 21
809.19746350000003
  0
LINE
  8
_0-0_0
  6
CONTINUOUS
 62
    7
 10
1633.039734
 20
809.19746350000003
 11
1632.9288940000001
 21
809.20002750000003
  0
LINE
  8
_0-0_0
  6
CONTINUOUS
 62
    7
 10
1633.9288940000001
 20
808.78581250000002
 11
1633.9288940000001
 21
809.78587349999998
  0
LINE
  8
_0-0_0
  6
CONTINUOUS
 62
    7
 10
1633.9288940000001
 20
809.78587349999998
 11
1633.925964
 21
809.81742850000001
  0
LINE
  8
_0-0_0
  6
CONTINUOUS
 62
    7
 10
1633.925964
 20
809.81742850000001
 11
1633.917297
 21
809.84950249999997
  0
LINE
  8
_0-0_0
  6
CONTINUOUS
 62
    7
 10
1633.917297
 20
809.84950249999997
 11
1633.902771
 21
809.88179049999997
  0
LINE
  8
_0-0_0
  6
CONTINUOUS
 62
    7
 10
1633.902771
 20
809.88179049999997
 11
1633.8825069999998
 21
809.91395550000004
  0
LINE
  8
_0-0_0
  6
CONTINUOUS
 62
    7
 10
1633.8825069999998
 20
809.91395550000004
 11
1633.865906
 21
809.93516550000004
  0
LINE
  8
_0-0_0
  6
CONTINUOUS
 62
    7
 10
1633.865906
 20
809.93516550000004
 11
1633.8469850000001
 21
809.95613049999997
  0
LINE
  8
_0-0_0
  6
CONTINUOUS
 62
    7
 10
1633.8469850000001
 20
809.95613049999997
 11
1633.802185
 21
809.99690250000003
  0
LINE
  8
_0-0_0
  6
CONTINUOUS
 62
    7
 10
1633.802185
 20
809.99690250000003
 11
1633.7489620000001
 21
810.03565949999995
  0
LINE
  8
_0-0_0
  6
CONTINUOUS
 62
    7
 10
1633.7489620000001
 20
810.03565949999995
 11
1633.699036
 21
810.06587249999995
  0
LINE
  8
_0-0_0
  6
CONTINUOUS
 62
    7
 10
1633.699036
 20
810.06587249999995
 11
1633.6443479999998
 21
810.09407050000004
  0
LINE
  8
_0-0_0
  6
CONTINUOUS
 62
    7
 10
1633.6443479999998
 20
810.09407050000004
 11
1633.585388
 21
810.12013249999995
  0
LINE
  8
_0-0_0
  6
CONTINUOUS
 62
    7
 10
1633.585388
 20
810.12013249999995
 11
1633.5386349999999
 21
810.13810750000005
  0
LINE
  8
_0-0_0
  6
CONTINUOUS
 62
    7
 10
1633.5386349999999
 20
810.13810750000005
 11
1633.4899289999998
 21
810.15470849999997
  0
LINE
  8
_0-0_0
  6
CONTINUOUS
 62
    7
 10
1633.4899289999998
 20
810.15470849999997
 11
1633.3875119999998
 21
810.18360849999999
  0
LINE
  8
_0-0_0
  6
CONTINUOUS
 62
    7
 10
1633.3875119999998
 20
810.18360849999999
 11
1633.2798459999999
 21
810.2064365
  0
LINE
  8
_0-0_0
  6
CONTINUOUS
 62
    7
 10
1633.2798459999999
 20
810.2064365
 11
1633.1681520000002
 21
810.22300749999999
  0
LINE
  8
_0-0_0
  6
CONTINUOUS
 62
    7
 10
1633.1681520000002
 20
810.22300749999999
 11
1633.054138
 21
810.23319949999996
  0
LINE
  8
_0-0_0
  6
CONTINUOUS
 62
    7
 10
1633.054138
 20
810.23319949999996
 11
1632.9288940000001
 21
810.23701449999999
  0
ARC
  8
_0-0_0
  6
CONTINUOUS
 62
    7
 10
1632.9288940000001
 20
782.40000950000001
 40
1
 50
269.99999700000001
 51
0
  0
LINE
  8
_0-0_0
  6
CONTINUOUS
 62
    7
 10
1633.9288940000001
 20
782.40000950000001
 11
1633.9288940000001
 21
808.78581250000002
  0
CIRCLE
  8
_0-0_0
  6
CONTINUOUS
 62
    7
 10
1622.4288940000001
 20
799.60002150000003
 40
5
  0
LINE
  8
_0-0_0
  6
CONTINUOUS
 62
    7
 10
-244.07104500000014
 20
808.78581250000002
 11
-244.07006799999999
 21
808.80430550000005
  0
LINE
  8
_0-0_0
  6
CONTINUOUS
 62
    7
 10
-244.07006799999999
 20
808.80430550000005
 11
-244.067047
 21
808.82273850000001
  0
LINE
  8
_0-0_0
  6
CONTINUOUS
 62
    7
 10
-244.067047
 20
808.82273850000001
 11
-244.06182899999999
 21
808.84187350000002
  0
LINE
  8
_0-0_0
  6
CONTINUOUS
 62
    7
 10
-244.06182899999999
 20
808.84187350000002
 11
-244.05444299999999
 21
808.86091650000003
  0
LINE
  8
_0-0_0
  6
CONTINUOUS
 62
    7
 10
-244.05444299999999
 20
808.86091650000003
 11
-244.03387399999997
 21
808.8976285
  0
LINE
  8
_0-0_0
  6
CONTINUOUS
 62
    7
 10
-244.03387399999997
 20
808.8976285
 11
-244.00549300000011
 21
808.93330349999997
  0
LINE
  8
_0-0_0
  6
CONTINUOUS
 62
    7
 10
-244.00549300000011
 20
808.93330349999997
 11
-243.96960399999989
 21
808.96757449999996
  0
LINE
  8
_0-0_0
  6
CONTINUOUS
 62
    7
 10
-243.96960399999989
 20
808.96757449999996
 11
-243.92099000000007
 21
809.00404349999997
  0
LINE
  8
_0-0_0
  6
CONTINUOUS
 62
    7
 10
-243.92099000000007
 20
809.00404349999997
 11
-243.86419699999988
 21
809.0380705
  0
LINE
  8
_0-0_0
  6
CONTINUOUS
 62
    7
 10
-243.86419699999988
 20
809.0380705
 11
-243.80004899999994
 21
809.0693205
  0
LINE
  8
_0-0_0
  6
CONTINUOUS
 62
    7
 10
-243.80004899999994
 20
809.0693205
 11
-243.72943099999998
 21
809.09754950000001
  0
LINE
  8
_0-0_0
  6
CONTINUOUS
 62
    7
 10
-243.72943099999998
 20
809.09754950000001
 11
-243.68133499999999
 21
809.11390649999998
  0
LINE
  8
_0-0_0
  6
CONTINUOUS
 62
    7
 10
-243.68133499999999
 20
809.11390649999998
 11
-243.63119499999993
 21
809.12892150000005
  0
LINE
  8
_0-0_0
  6
CONTINUOUS
 62
    7
 10
-243.63119499999993
 20
809.12892150000005
 11
-243.57449300000007
 21
809.14369150000005
  0
LINE
  8
_0-0_0
  6
CONTINUOUS
 62
    7
 10
-243.57449300000007
 20
809.14369150000005
 11
-243.51589999999987
 21
809.15678349999996
  0
LINE
  8
_0-0_0
  6
CONTINUOUS
 62
    7
 10
-243.51589999999987
 20
809.15678349999996
 11
-243.39910899999995
 21
809.17707849999999
  0
LINE
  8
_0-0_0
  6
CONTINUOUS
 62
    7
 10
-243.39910899999995
 20
809.17707849999999
 11
-243.29168699999991
 21
809.18980350000004
  0
LINE
  8
_0-0_0
  6
CONTINUOUS
 62
    7
 10
-243.29168699999991
 20
809.18980350000004
 11
-243.18194600000015
 21
809.19746350000003
  0
LINE
  8
_0-0_0
  6
CONTINUOUS
 62
    7
 10
-243.18194600000015
 20
809.19746350000003
 11
-243.07104500000014
 21
809.20002750000003
  0
LINE
  8
_0-0_0
  6
CONTINUOUS
 62
    7
 10
-244.07104500000014
 20
809.75547749999998
 11
-244.06817599999999
 21
809.7863615
  0
LINE
  8
_0-0_0
  6
CONTINUOUS
 62
    7
 10
-244.06817599999999
 20
809.7863615
 11
-244.05944799999997
 21
809.81782550000003
  0
LINE
  8
_0-0_0
  6
CONTINUOUS
 62
    7
 10
-244.05944799999997
 20
809.81782550000003
 11
-244.044983
 21
809.84947150000005
  0
LINE
  8
_0-0_0
  6
CONTINUOUS
 62
    7
 10
-244.044983
 20
809.84947150000005
 11
-244.024811
 21
809.8810575
  0
LINE
  8
_0-0_0
  6
CONTINUOUS
 62
    7
 10
-244.024811
 20
809.8810575
 11
-244.00830100000007
 21
809.90193150000005
  0
LINE
  8
_0-0_0
  6
CONTINUOUS
 62
    7
 10
-244.00830100000007
 20
809.90193150000005
 11
-243.98937999999998
 21
809.92256150000003
  0
LINE
  8
_0-0_0
  6
CONTINUOUS
 62
    7
 10
-243.98937999999998
 20
809.92256150000003
 11
-243.94476299999997
 21
809.96272250000004
  0
LINE
  8
_0-0_0
  6
CONTINUOUS
 62
    7
 10
-243.94476299999997
 20
809.96272250000004
 11
-243.89160200000015
 21
810.00090050000006
  0
LINE
  8
_0-0_0
  6
CONTINUOUS
 62
    7
 10
-243.89160200000015
 20
810.00090050000006
 11
-243.84173600000008
 21
810.03071550000004
  0
LINE
  8
_0-0_0
  6
CONTINUOUS
 62
    7
 10
-243.84173600000008
 20
810.03071550000004
 11
-243.78704800000014
 21
810.05860849999999
  0
LINE
  8
_0-0_0
  6
CONTINUOUS
 62
    7
 10
-243.78704800000014
 20
810.05860849999999
 11
-243.72808800000007
 21
810.08433549999995
  0
LINE
  8
_0-0_0
  6
CONTINUOUS
 62
    7
 10
-243.72808800000007
 20
810.08433549999995
 11
-243.68133499999999
 21
810.10212650000005
  0
LINE
  8
_0-0_0
  6
CONTINUOUS
 62
    7
 10
-243.68133499999999
 20
810.10212650000005
 11
-243.63262899999995
 21
810.11854549999998
  0
LINE
  8
_0-0_0
  6
CONTINUOUS
 62
    7
 10
-243.63262899999995
 20
810.11854549999998
 11
-243.53018199999997
 21
810.14714049999998
  0
LINE
  8
_0-0_0
  6
CONTINUOUS
 62
    7
 10
-243.53018199999997
 20
810.14714049999998
 11
-243.42236300000013
 21
810.16972350000003
  0
LINE
  8
_0-0_0
  6
CONTINUOUS
 62
    7
 10
-243.42236300000013
 20
810.16972350000003
 11
-243.31066899999996
 21
810.18614149999996
  0
LINE
  8
_0-0_0
  6
CONTINUOUS
 62
    7
 10
-243.31066899999996
 20
810.18614149999996
 11
-243.19653300000004
 21
810.19624350000004
  0
LINE
  8
_0-0_0
  6
CONTINUOUS
 62
    7
 10
-243.19653300000004
 20
810.19624350000004
 11
-243.07104500000014
 21
810.20002750000003
  0
LINE
  8
_0-0_0
  6
CONTINUOUS
 62
    7
 10
-244.07104500000014
 20
808.78581250000002
 11
-244.07104500000014
 21
809.75547749999998
  0
ARC
  8
_0-0_0
  6
CONTINUOUS
 62
    7
 10
-243.07104500000014
 20
782.40000950000001
 40
1
 50
180.00000900000003
 51
269.99999700000001
  0
LINE
  8
_0-0_0
  6
CONTINUOUS
 62
    7
 10
-244.07104500000014
 20
782.40000950000001
 11
-244.07104500000014
 21
808.78581250000002
  0
CIRCLE
  8
_0-0_0
  6
CONTINUOUS
 62
    7
 10
-232.57104500000014
 20
799.60002150000003
 40
5
  0
LINE
  8
_0-0_0
  6
CONTINUOUS
 62
    7
 10
1633.9288940000001
 20
809.78587349999998
 11
1633.9288940000001
 21
811.40000950000001
  0
ARC
  8
_0-0_0
  6
CONTINUOUS
 62
    7
 10
1632.9288940000001
 20
811.40000950000001
 40
1
 50
0
 51
90.000003000000007
  0
ARC
  8
_0-0_0
  6
CONTINUOUS
 62
    7
 10
-243.07104500000014
 20
811.40000950000001
 40
1
 50
90.000003000000007
 51
180.00000900000001
  0
LINE
  8
_0-0_0
  6
CONTINUOUS
 62
    7
 10
-244.07104500000014
 20
809.75547749999998
 11
-244.07104500000014
 21
811.40000950000001
  0
LINE
  8
_0-0_0
  6
CONTINUOUS
 62
    7
 10
-331.88671900000008
 20
779.29994150000005
 11
-331.88671900000008
 21
779.27494750000005
  0
LINE
  8
_0-0_0
  6
CONTINUOUS
 62
    7
 10
-331.88671900000008
 20
776.2228235
 11
-331.88671900000008
 21
776.32493550000004
  0
LINE
  8
_0-0_0
  6
CONTINUOUS
 62
    7
 10
-331.88671900000008
 20
755.19993550000004
 11
-331.88671900000008
 21
755.97706549999998
  0
LINE
  8
_0-0_0
  6
CONTINUOUS
 62
    7
 10
-348.68673699999999
 20
755.19993550000004
 11
-331.88671900000008
 21
755.19993550000004
  0
LINE
  8
_0-0_0
  6
CONTINUOUS
 62
    7
 10
-348.68673699999999
 20
763.09992950000003
 11
-348.68673699999999
 21
755.19993550000004
  0
LINE
  8
_0-0_0
  6
CONTINUOUS
 62
    7
 10
-348.68673699999999
 20
775.55525150000005
 11
-348.68673699999999
 21
769.09992950000003
  0
LINE
  8
_0-0_0
  6
CONTINUOUS
 62
    7
 10
-331.38674900000001
 20
758.69993550000004
 11
-331.18673699999999
 21
758.69993550000004
  0
LINE
  8
_0-0_0
  6
CONTINUOUS
 62
    7
 10
-331.18673699999999
 20
758.69993550000004
 11
-331.18673699999999
 21
761.69993550000004
  0
LINE
  8
_0-0_0
  6
CONTINUOUS
 62
    7
 10
-331.18673699999999
 20
775.29994150000005
 11
-331.18673699999999
 21
761.69993550000004
  0
LINE
  8
_0-0_0
  6
CONTINUOUS
 62
    7
 10
-331.38671900000008
 20
778.29994150000005
 11
-331.18673699999999
 21
778.29994150000005
  0
LINE
  8
_0-0_0
  6
CONTINUOUS
 62
    7
 10
-331.18673699999999
 20
775.29994150000005
 11
-331.18673699999999
 21
778.29994150000005
  0
LINE
  8
_0-0_0
  6
CONTINUOUS
 62
    7
 10
-332.08673099999987
 20
777.59901449999995
 11
-332.08673099999987
 21
776.41981450000003
  0
LINE
  8
_0-0_0
  6
CONTINUOUS
 62
    7
 10
-332.08673099999987
 20
779.79994150000005
 11
-332.08673099999987
 21
779.29994150000005
  0
LINE
  8
_0-0_0
  6
CONTINUOUS
 62
    7
 10
-333.08673099999987
 20
776.88343750000001
 11
-333.08673099999987
 21
777.59992950000003
  0
ARC
  8
_0-0_0
  6
CONTINUOUS
 62
    7
 10
-333.38671900000008
 20
774.89994750000005
 40
2
 50
0
 51
90.000003000000007
  0
LINE
  8
_0-0_0
  6
CONTINUOUS
 62
    7
 10
-331.38671900000008
 20
771.39994750000005
 11
-331.38671900000008
 21
774.39994750000005
  0
LINE
  8
_0-0_0
  6
CONTINUOUS
 62
    7
 10
-331.38671900000008
 20
774.39994750000005
 11
-331.38671900000008
 21
774.89994750000005
  0
LINE
  8
_0-0_0
  6
CONTINUOUS
 62
    7
 10
-331.38671900000008
 20
757.29994150000005
 11
-331.38671900000008
 21
770.89994750000005
  0
LINE
  8
_0-0_0
  6
CONTINUOUS
 62
    7
 10
-331.38671900000008
 20
771.39994750000005
 11
-331.38671900000008
 21
770.89994750000005
  0
ARC
  8
_0-0_0
  6
CONTINUOUS
 62
    7
 10
-333.38671900000008
 20
757.29994150000005
 40
2
 50
273.84026500000004
 51
0.000010000000014
  0
LINE
  8
_0-0_0
  6
CONTINUOUS
 62
    7
 10
-346.68673699999999
 20
776.88343750000001
 11
-346.68673699999999
 21
777.59992950000003
  0
LINE
  8
_0-0_0
  6
CONTINUOUS
 62
    7
 10
-346.68673699999999
 20
776.88343750000001
 11
-346.68673699999999
 21
776.87730350000004
  0
LINE
  8
_0-0_0
  6
CONTINUOUS
 62
    7
 10
-348.68673699999999
 20
775.55525150000005
 11
-348.68673699999999
 21
776.05525150000005
  0
LINE
  8
_0-0_0
  6
CONTINUOUS
 62
    7
 10
-348.38671900000008
 20
774.89994750000005
 11
-348.38671900000008
 21
761.29994150000005
  0
LINE
  8
_0-0_0
  6
CONTINUOUS
 62
    7
 10
-348.38671900000008
 20
760.79994150000005
 11
-348.38671900000008
 21
761.29994150000005
  0
LINE
  8
_0-0_0
  6
CONTINUOUS
 62
    7
 10
-348.38671900000008
 20
757.79994150000005
 11
-348.38671900000008
 21
760.79994150000005
  0
LINE
  8
_0-0_0
  6
CONTINUOUS
 62
    7
 10
-348.38671900000008
 20
757.29994150000005
 11
-348.38671900000008
 21
757.79994150000005
  0
ARC
  8
_0-0_0
  6
CONTINUOUS
 62
    7
 10
-346.38671900000008
 20
774.89994750000005
 40
2
 50
93.840255999999997
 51
180.00000900000001
  0
LINE
  8
_0-0_0
  6
CONTINUOUS
 62
    7
 10
-348.68673699999999
 20
763.09992950000003
 11
-348.68673699999999
 21
769.09992950000003
  0
LINE
  8
_0-0_0
  6
CONTINUOUS
 62
    7
 10
-348.68673699999999
 20
777.59992950000003
 11
-348.68673699999999
 21
776.05525150000005
  0
LINE
  8
_0-0_0
  6
CONTINUOUS
 62
    7
 10
-348.68673699999999
 20
769.09992950000003
 11
-348.38671900000008
 21
769.09992950000003
  0
LINE
  8
_0-0_0
  6
CONTINUOUS
 62
    7
 10
-348.68673699999999
 20
763.09992950000003
 11
-348.38671900000008
 21
763.09992950000003
  0
LINE
  8
_0-0_0
  6
CONTINUOUS
 62
    7
 10
-333.38671900000008
 20
755.29994150000005
 11
-342.38671900000008
 21
755.29994150000005
  0
LINE
  8
_0-0_0
  6
CONTINUOUS
 62
    7
 10
-345.88671900000008
 20
755.29994150000005
 11
-346.38671900000008
 21
755.29994150000005
  0
LINE
  8
_0-0_0
  6
CONTINUOUS
 62
    7
 10
-342.88671900000008
 20
755.29994150000005
 11
-345.88671900000008
 21
755.29994150000005
  0
LINE
  8
_0-0_0
  6
CONTINUOUS
 62
    7
 10
-342.38671900000008
 20
755.29994150000005
 11
-342.88671900000008
 21
755.29994150000005
  0
ARC
  8
_0-0_0
  6
CONTINUOUS
 62
    7
 10
-346.38671900000008
 20
757.29994150000005
 40
2
 50
180.00000900000003
 51
269.99999700000001
  0
ARC
  8
_0-0_0
  6
CONTINUOUS
 62
    7
 10
-332.58673099999987
 20
779.79994150000005
 40
0.5
 50
0
 51
90.000003000000007
  0
LINE
  8
_0-0_0
  6
CONTINUOUS
 62
    7
 10
-334.08673099999987
 20
780.29994150000005
 11
-332.58673099999987
 21
780.29994150000005
  0
ARC
  8
_0-0_0
  6
CONTINUOUS
 62
    7
 10
-334.08673099999987
 20
781.29994150000005
 40
1
 50
180.00000900000003
 51
269.99999700000001
  0
LINE
  8
_0-0_0
  6
CONTINUOUS
 62
    7
 10
-335.08673099999987
 20
781.29994150000005
 11
-335.08673099999987
 21
781.40003950000005
  0
LINE
  8
_0-0_0
  6
CONTINUOUS
 62
    7
 10
-335.58673099999987
 20
780.29994150000005
 11
-335.58673099999987
 21
781.40003950000005
  0
ARC
  8
_0-0_0
  6
CONTINUOUS
 62
    7
 10
-334.58673099999987
 20
780.29994150000005
 40
1
 50
180.00000900000003
 51
269.99999700000001
  0
LINE
  8
_0-0_0
  6
CONTINUOUS
 62
    7
 10
-334.58673099999987
 20
779.29994150000005
 11
-334.78671299999996
 21
779.29994150000005
  0
ARC
  8
_0-0_0
  6
CONTINUOUS
 62
    7
 10
-334.78671299999996
 20
780.29994150000005
 40
1
 50
180.00000900000003
 51
269.99999700000001
  0
ARC
  8
_0-0_0
  6
CONTINUOUS
 62
    7
 10
-344.98672499999998
 20
780.29994150000005
 40
1
 50
269.99999700000001
 51
0
  0
LINE
  8
_0-0_0
  6
CONTINUOUS
 62
    7
 10
-344.98672499999998
 20
779.29994150000005
 11
-345.68673699999999
 21
779.29994150000005
  0
LINE
  8
_0-0_0
  6
CONTINUOUS
 62
    7
 10
-331.88671900000008
 20
779.29994150000005
 11
-332.08673099999987
 21
779.29994150000005
  0
LINE
  8
_0-0_0
  6
CONTINUOUS
 62
    7
 10
-348.68673699999999
 20
777.59992950000003
 11
-331.88671900000008
 21
777.59992950000003
  0
LINE
  8
_0-0_0
  6
CONTINUOUS
 62
    7
 10
-331.88671900000008
 20
777.59992950000003
 11
-331.88671900000008
 21
779.29994150000005
  0
LINE
  8
_0-0_0
  6
CONTINUOUS
 62
    7
 10
-335.78671299999996
 20
781.40003950000005
 11
-335.78671299999996
 21
780.29994150000005
  0
LINE
  8
_0-0_0
  6
CONTINUOUS
 62
    7
 10
-343.98672499999998
 20
780.29994150000005
 11
-343.98672499999998
 21
781.40003950000005
  0
LINE
  8
_0-0_0
  6
CONTINUOUS
 62
    7
 10
-347.68673699999999
 20
779.29994150000005
 11
-348.68673699999999
 21
779.29994150000005
  0
LINE
  8
_0-0_0
  6
CONTINUOUS
 62
    7
 10
-348.68673699999999
 20
777.59992950000003
 11
-348.68673699999999
 21
779.29994150000005
  0
LINE
  8
_0-0_0
  6
CONTINUOUS
 62
    7
 10
-333.38671900000008
 20
776.89994750000005
 11
-333.88671900000008
 21
776.89994750000005
  0
CIRCLE
  8
_0-0_0
  6
CONTINUOUS
 62
    7
 10
-333.88671900000008
 20
774.39994750000005
 40
2.5
  0
LINE
  8
_0-0_0
  6
CONTINUOUS
 62
    7
 10
-346.38671900000008
 20
776.89994750000005
 11
-337.38671900000008
 21
776.89994750000005
  0
LINE
  8
_0-0_0
  6
CONTINUOUS
 62
    7
 10
-333.88671900000008
 20
776.89994750000005
 11
-336.88671900000008
 21
776.89994750000005
  0
LINE
  8
_0-0_0
  6
CONTINUOUS
 62
    7
 10
-337.38671900000008
 20
776.89994750000005
 11
-336.88671900000008
 21
776.89994750000005
  0
ARC
  8
_0-0_0
  6
CONTINUOUS
 62
    7
 10
-331.88671900000008
 20
770.89994750000005
 40
0.5
 50
0
 51
90.000003000000007
  0
LINE
  8
_0-0_0
  6
CONTINUOUS
 62
    7
 10
-333.38671900000008
 20
755.40257250000002
 11
-333.37085000000002
 21
755.37532050000004
  0
LINE
  8
_0-0_0
  6
CONTINUOUS
 62
    7
 10
-333.37085000000002
 20
755.37532050000004
 11
-333.3550110000001
 21
755.35234049999997
  0
LINE
  8
_0-0_0
  6
CONTINUOUS
 62
    7
 10
-333.3550110000001
 20
755.35234049999997
 11
-333.341003
 21
755.33558649999998
  0
LINE
  8
_0-0_0
  6
CONTINUOUS
 62
    7
 10
-333.341003
 20
755.33558649999998
 11
-333.32711800000016
 21
755.3222505
  0
LINE
  8
_0-0_0
  6
CONTINUOUS
 62
    7
 10
-333.32711800000016
 20
755.3222505
 11
-333.31491099999994
 21
755.31333949999998
  0
LINE
  8
_0-0_0
  6
CONTINUOUS
 62
    7
 10
-333.31491099999994
 20
755.31333949999998
 11
-333.30279500000006
 21
755.30711350000001
  0
LINE
  8
_0-0_0
  6
CONTINUOUS
 62
    7
 10
-333.30279500000006
 20
755.30711350000001
 11
-333.29193099999998
 21
755.30384849999996
  0
LINE
  8
_0-0_0
  6
CONTINUOUS
 62
    7
 10
-333.29193099999998
 20
755.30384849999996
 11
-333.281158
 21
755.30278050000004
  0
LINE
  8
_0-0_0
  6
CONTINUOUS
 62
    7
 10
-333.281158
 20
755.30278050000004
 11
-333.27868600000011
 21
755.30287150000004
  0
LINE
  8
_0-0_0
  6
CONTINUOUS
 62
    7
 10
-347.68673699999999
 20
776.41981450000003
 11
-347.68673699999999
 21
777.59901449999995
  0
ARC
  8
_0-0_0
  6
CONTINUOUS
 62
    7
 10
-347.88671900000008
 20
761.29994150000005
 40
0.5
 50
180.00000900000003
 51
269.99999700000001
  0
CIRCLE
  8
_0-0_0
  6
CONTINUOUS
 62
    7
 10
-345.88671900000008
 20
757.79994150000005
 40
2.5
  0
LINE
  8
_0-0_0
  6
CONTINUOUS
 62
    7
 10
-346.38671900000008
 20
776.79731749999996
 11
-346.40261800000007
 21
776.82456950000005
  0
LINE
  8
_0-0_0
  6
CONTINUOUS
 62
    7
 10
-346.40261800000007
 20
776.82456950000005
 11
-346.41845699999999
 21
776.84754950000001
  0
LINE
  8
_0-0_0
  6
CONTINUOUS
 62
    7
 10
-346.41845699999999
 20
776.84754950000001
 11
-346.43243400000006
 21
776.86430350000001
  0
LINE
  8
_0-0_0
  6
CONTINUOUS
 62
    7
 10
-346.43243400000006
 20
776.86430350000001
 11
-346.44632000000001
 21
776.87763949999999
  0
LINE
  8
_0-0_0
  6
CONTINUOUS
 62
    7
 10
-346.44632000000001
 20
776.87763949999999
 11
-346.45855699999993
 21
776.8865505
  0
LINE
  8
_0-0_0
  6
CONTINUOUS
 62
    7
 10
-346.45855699999993
 20
776.8865505
 11
-346.47067300000003
 21
776.89277649999997
  0
LINE
  8
_0-0_0
  6
CONTINUOUS
 62
    7
 10
-346.47067300000003
 20
776.89277649999997
 11
-346.48153700000012
 21
776.89604150000002
  0
LINE
  8
_0-0_0
  6
CONTINUOUS
 62
    7
 10
-346.48153700000012
 20
776.89604150000002
 11
-346.49227900000005
 21
776.89710950000006
  0
LINE
  8
_0-0_0
  6
CONTINUOUS
 62
    7
 10
-346.49227900000005
 20
776.89710950000006
 11
-346.49475099999995
 21
776.89701850000006
  0
LINE
  8
_0-0_0
  6
CONTINUOUS
 62
    7
 10
-348.68673699999999
 20
758.69993550000004
 11
-348.78671299999996
 21
758.69993550000004
  0
LINE
  8
_0-0_0
  6
CONTINUOUS
 62
    7
 10
-348.78671299999996
 20
758.69993550000004
 11
-348.78671299999996
 21
761.69993550000004
  0
LINE
  8
_0-0_0
  6
CONTINUOUS
 62
    7
 10
-348.78671299999996
 20
761.69993550000004
 11
-348.78671299999996
 21
775.29994150000005
  0
LINE
  8
_0-0_0
  6
CONTINUOUS
 62
    7
 10
-348.68673699999999
 20
778.29994150000005
 11
-348.78671299999996
 21
778.29994150000005
  0
LINE
  8
_0-0_0
  6
CONTINUOUS
 62
    7
 10
-348.78671299999996
 20
775.29994150000005
 11
-348.78671299999996
 21
778.29994150000005
  0
ARC
  8
_0-0_0
  6
CONTINUOUS
 62
    7
 10
-342.38671900000008
 20
755.79994150000005
 40
0.5
 50
180.00000900000003
 51
269.99999700000001
  0
ARC
  8
_0-0_0
  6
CONTINUOUS
 62
    7
 10
-345.68673699999999
 20
780.80000250000001
 40
1.5
 50
269.99999700000001
 51
0
  0
ARC
  8
_0-0_0
  6
CONTINUOUS
 62
    7
 10
-347.18673699999999
 20
779.80000250000001
 40
0.5
 50
90.000003000000007
 51
180.00000900000001
  0
LINE
  8
_0-0_0
  6
CONTINUOUS
 62
    7
 10
-347.18673699999999
 20
780.30000250000001
 11
-345.68673699999999
 21
780.30000250000001
  0
ARC
  8
_0-0_0
  6
CONTINUOUS
 62
    7
 10
-345.68673699999999
 20
781.30000250000001
 40
1
 50
269.99999700000001
 51
0
  0
LINE
  8
_0-0_0
  6
CONTINUOUS
 62
    7
 10
-344.68673699999999
 20
781.40003950000005
 11
-344.68673699999999
 21
781.30000250000001
  0
LINE
  8
_0-0_0
  6
CONTINUOUS
 62
    7
 10
-344.18673699999999
 20
781.40003950000005
 11
-344.18673699999999
 21
780.80000250000001
  0
LINE
  8
_0-0_0
  6
CONTINUOUS
 62
    7
 10
-347.68673699999999
 20
779.30000250000001
 11
-347.68673699999999
 21
779.80000250000001
  0
ARC
  8
_0-0_0
  6
CONTINUOUS
 62
    7
 10
-337.38671900000008
 20
776.39994750000005
 40
0.5
 50
0
 51
90.000003000000007
  0
LINE
  8
_0-0_0
  6
CONTINUOUS
 62
    7
 10
-336.88671900000008
 20
776.32295250000004
 11
-336.88671900000008
 21
776.39994750000005
  0
LINE
  8
_0-0_0
  6
CONTINUOUS
 62
    7
 10
-336.88671900000008
 20
774.88145450000002
 11
-336.88671900000008
 21
776.32295250000004
  0
LINE
  8
_0-0_0
  6
CONTINUOUS
 62
    7
 10
-336.88671900000008
 20
774.39994750000005
 11
-336.88671900000008
 21
774.88145450000002
  0
ARC
  8
_0-0_0
  6
CONTINUOUS
 62
    7
 10
-333.88671900000008
 20
774.39994750000005
 40
3
 50
180.00000900000003
 51
269.99999700000001
  0
LINE
  8
_0-0_0
  6
CONTINUOUS
 62
    7
 10
-333.40521200000012
 20
771.39994750000005
 11
-333.88671900000008
 21
771.39994750000005
  0
LINE
  8
_0-0_0
  6
CONTINUOUS
 62
    7
 10
-333.40521200000012
 20
771.39994750000005
 11
-331.96368400000006
 21
771.39994750000005
  0
LINE
  8
_0-0_0
  6
CONTINUOUS
 62
    7
 10
-331.88671900000008
 20
771.39994750000005
 11
-331.96368400000006
 21
771.39994750000005
  0
LINE
  8
_0-0_0
  6
CONTINUOUS
 62
    7
 10
-347.809753
 20
760.79994150000005
 11
-347.88671900000008
 21
760.79994150000005
  0
LINE
  8
_0-0_0
  6
CONTINUOUS
 62
    7
 10
-345.88671900000008
 20
760.79994150000005
 11
-346.36822499999994
 21
760.79994150000005
  0
LINE
  8
_0-0_0
  6
CONTINUOUS
 62
    7
 10
-346.36822499999994
 20
760.79994150000005
 11
-347.809753
 21
760.79994150000005
  0
LINE
  8
_0-0_0
  6
CONTINUOUS
 62
    7
 10
-342.88671900000008
 20
755.79994150000005
 11
-342.88671900000008
 21
755.87690750000002
  0
LINE
  8
_0-0_0
  6
CONTINUOUS
 62
    7
 10
-342.88671900000008
 20
757.31843549999996
 11
-342.88671900000008
 21
755.87690750000002
  0
LINE
  8
_0-0_0
  6
CONTINUOUS
 62
    7
 10
-342.88671900000008
 20
757.31843549999996
 11
-342.88671900000008
 21
757.79994150000005
  0
ARC
  8
_0-0_0
  6
CONTINUOUS
 62
    7
 10
-345.88671900000008
 20
757.79994150000005
 40
3
 50
0
 51
89.999995999999996
  0
LINE
  8
_0-0_0
  6
CONTINUOUS
 62
    7
 10
-331.38671900000008
 20
778.41120850000004
 11
-331.38671900000008
 21
776.52494750000005
  0
LINE
  8
_0-0_0
  6
CONTINUOUS
 62
    7
 10
-331.38671900000008
 20
779.07493550000004
 11
-331.38671900000008
 21
778.41120850000004
  0
ARC
  8
_0-0_0
  6
CONTINUOUS
 62
    7
 10
-336.65661599999999
 20
767.27317749999997
 40
3.063396
 50
19.82113
 51
25.289563000000001
  0
ARC
  8
_0-0_0
  6
CONTINUOUS
 62
    7
 10
-336.65628000000015
 20
764.92655950000005
 40
3.0630519999999999
 50
334.71006
 51
340.17869200000001
  0
ARC
  8
_0-0_0
  6
CONTINUOUS
 62
    7
 10
-343.11685200000011
 20
764.92671150000001
 40
3.063399
 50
199.82113599999997
 51
205.28948099999999
  0
ARC
  8
_0-0_0
  6
CONTINUOUS
 62
    7
 10
-343.11715700000013
 20
767.27333050000004
 40
3.0630549999999999
 50
154.710137
 51
160.17869999999999
  0
ARC
  8
_0-0_0
  6
CONTINUOUS
 62
    7
 10
-339.88671900000008
 20
766.09992950000003
 40
6.5
 50
340.10416099999998
 51
19.895609999999952
  0
ARC
  8
_0-0_0
  6
CONTINUOUS
 62
    7
 10
-339.88671900000008
 20
766.09992950000003
 40
6.5
 50
160.10415599999999
 51
199.895612
  0
LINE
  8
_0-0_0
  6
CONTINUOUS
 62
    7
 10
-348.38671900000008
 20
777.18873550000001
 11
-348.38671900000008
 21
777.59907550000003
  0
LINE
  8
_0-0_0
  6
CONTINUOUS
 62
    7
 10
-348.38671900000008
 20
776.52986150000004
 11
-348.38671900000008
 21
777.18873550000001
  0
LINE
  8
_0-0_0
  6
CONTINUOUS
 62
    7
 10
-340.62838699999998
 20
772.59992950000003
 11
-345.14505000000008
 21
769.9922335
  0
LINE
  8
_0-0_0
  6
CONTINUOUS
 62
    7
 10
-339.14505000000008
 20
772.59992950000003
 11
-340.62838699999998
 21
772.59992950000003
  0
LINE
  8
_0-0_0
  6
CONTINUOUS
 62
    7
 10
-334.62838699999998
 20
769.9922335
 11
-339.14505000000008
 21
772.59992950000003
  0
LINE
  8
_0-0_0
  6
CONTINUOUS
 62
    7
 10
-333.88671900000008
 20
768.70762649999995
 11
-333.88671900000008
 21
763.4922335
  0
LINE
  8
_0-0_0
  6
CONTINUOUS
 62
    7
 10
-334.62838699999998
 20
769.9922335
 11
-333.88671900000008
 21
768.70762649999995
  0
LINE
  8
_0-0_0
  6
CONTINUOUS
 62
    7
 10
-339.14505000000008
 20
759.59992950000003
 11
-334.62838699999998
 21
762.20762649999995
  0
LINE
  8
_0-0_0
  6
CONTINUOUS
 62
    7
 10
-334.33425899999997
 20
762.71708650000005
 11
-333.88671900000008
 21
763.4922335
  0
LINE
  8
_0-0_0
  6
CONTINUOUS
 62
    7
 10
-334.33425899999997
 20
762.71708650000005
 11
-334.62838699999998
 21
762.20762649999995
  0
LINE
  8
_0-0_0
  6
CONTINUOUS
 62
    7
 10
-340.62838699999998
 20
759.59992950000003
 11
-339.14505000000008
 21
759.59992950000003
  0
LINE
  8
_0-0_0
  6
CONTINUOUS
 62
    7
 10
-345.14505000000008
 20
762.20762649999995
 11
-340.62838699999998
 21
759.59992950000003
  0
LINE
  8
_0-0_0
  6
CONTINUOUS
 62
    7
 10
-345.88671900000008
 20
768.70762649999995
 11
-345.88671900000008
 21
763.4922335
  0
LINE
  8
_0-0_0
  6
CONTINUOUS
 62
    7
 10
-345.14505000000008
 20
762.20762649999995
 11
-345.88671900000008
 21
763.4922335
  0
LINE
  8
_0-0_0
  6
CONTINUOUS
 62
    7
 10
-345.43917800000008
 20
769.48280350000005
 11
-345.88671900000008
 21
768.70762649999995
  0
LINE
  8
_0-0_0
  6
CONTINUOUS
 62
    7
 10
-345.43917800000008
 20
769.48280350000005
 11
-345.14505000000008
 21
769.9922335
  0
LINE
  8
_0-0_0
  6
CONTINUOUS
 62
    7
 10
-331.99972500000013
 20
775.6253815
 11
-331.72164900000007
 21
775.64994750000005
  0
LINE
  8
_0-0_0
  6
CONTINUOUS
 62
    7
 10
-331.88195799999994
 20
775.42143250000004
 11
-331.72164900000007
 21
775.64994750000005
  0
LINE
  8
_0-0_0
  6
CONTINUOUS
 62
    7
 10
-332.13815299999987
 20
775.81590249999999
 11
-331.86419699999988
 21
775.86939949999999
  0
LINE
  8
_0-0_0
  6
CONTINUOUS
 62
    7
 10
-331.99972500000013
 20
775.6253815
 11
-331.86419699999988
 21
775.86939949999999
  0
LINE
  8
_0-0_0
  6
CONTINUOUS
 62
    7
 10
-332.29574600000001
 20
775.99092050000002
 11
-332.0288700000001
 21
776.07276950000005
  0
LINE
  8
_0-0_0
  6
CONTINUOUS
 62
    7
 10
-332.13815299999987
 20
775.81590249999999
 11
-332.0288700000001
 21
776.07276950000005
  0
LINE
  8
_0-0_0
  6
CONTINUOUS
 62
    7
 10
-332.47076400000014
 20
776.14851350000004
 11
-332.21389799999997
 21
776.25779750000004
  0
LINE
  8
_0-0_0
  6
CONTINUOUS
 62
    7
 10
-332.29574600000001
 20
775.99092050000002
 11
-332.21389799999997
 21
776.25779750000004
  0
LINE
  8
_0-0_0
  6
CONTINUOUS
 62
    7
 10
-332.66128500000013
 20
776.28694150000001
 11
-332.41726700000004
 21
776.42250049999996
  0
LINE
  8
_0-0_0
  6
CONTINUOUS
 62
    7
 10
-332.47076400000014
 20
776.14851350000004
 11
-332.41726700000004
 21
776.42250049999996
  0
LINE
  8
_0-0_0
  6
CONTINUOUS
 62
    7
 10
-332.86523399999987
 20
776.40470849999997
 11
-332.63671900000008
 21
776.56501749999995
  0
LINE
  8
_0-0_0
  6
CONTINUOUS
 62
    7
 10
-332.66128500000013
 20
776.28694150000001
 11
-332.63671900000008
 21
776.56501749999995
  0
LINE
  8
_0-0_0
  6
CONTINUOUS
 62
    7
 10
-333.08038299999998
 20
776.50050350000004
 11
-332.8698730000001
 21
776.68379149999998
  0
LINE
  8
_0-0_0
  6
CONTINUOUS
 62
    7
 10
-332.86523399999987
 20
776.40470849999997
 11
-332.8698730000001
 21
776.68379149999998
  0
LINE
  8
_0-0_0
  6
CONTINUOUS
 62
    7
 10
-333.30438200000003
 20
776.57328749999999
 11
-333.11419699999988
 21
776.77757250000002
  0
LINE
  8
_0-0_0
  6
CONTINUOUS
 62
    7
 10
-333.08038299999998
 20
776.50050350000004
 11
-333.11419699999988
 21
776.77757250000002
  0
LINE
  8
_0-0_0
  6
CONTINUOUS
 62
    7
 10
-333.53475900000012
 20
776.62223849999998
 11
-333.36694299999999
 21
776.84532149999995
  0
LINE
  8
_0-0_0
  6
CONTINUOUS
 62
    7
 10
-333.30438200000003
 20
776.57328749999999
 11
-333.36694299999999
 21
776.84532149999995
  0
LINE
  8
_0-0_0
  6
CONTINUOUS
 62
    7
 10
-333.76898200000005
 20
776.64686549999999
 11
-333.62539700000002
 21
776.88624549999997
  0
LINE
  8
_0-0_0
  6
CONTINUOUS
 62
    7
 10
-333.53475900000012
 20
776.62223849999998
 11
-333.62539700000002
 21
776.88624549999997
  0
LINE
  8
_0-0_0
  6
CONTINUOUS
 62
    7
 10
-334.00448600000004
 20
776.64686549999999
 11
-333.88671900000008
 21
776.89994750000005
  0
LINE
  8
_0-0_0
  6
CONTINUOUS
 62
    7
 10
-333.76898200000005
 20
776.64686549999999
 11
-333.88671900000008
 21
776.89994750000005
  0
LINE
  8
_0-0_0
  6
CONTINUOUS
 62
    7
 10
-334.23870800000009
 20
776.62223849999998
 11
-334.14804099999992
 21
776.88624549999997
  0
LINE
  8
_0-0_0
  6
CONTINUOUS
 62
    7
 10
-334.00448600000004
 20
776.64686549999999
 11
-334.14804099999992
 21
776.88624549999997
  0
LINE
  8
_0-0_0
  6
CONTINUOUS
 62
    7
 10
-334.46905500000003
 20
776.57328749999999
 11
-334.40649400000007
 21
776.84532149999995
  0
LINE
  8
_0-0_0
  6
CONTINUOUS
 62
    7
 10
-334.23870800000009
 20
776.62223849999998
 11
-334.40649400000007
 21
776.84532149999995
  0
LINE
  8
_0-0_0
  6
CONTINUOUS
 62
    7
 10
-334.69305400000007
 20
776.50050350000004
 11
-334.65927099999999
 21
776.77757250000002
  0
LINE
  8
_0-0_0
  6
CONTINUOUS
 62
    7
 10
-334.46905500000003
 20
776.57328749999999
 11
-334.65927099999999
 21
776.77757250000002
  0
LINE
  8
_0-0_0
  6
CONTINUOUS
 62
    7
 10
-334.90820299999996
 20
776.40470849999997
 11
-334.90356399999996
 21
776.68379149999998
  0
LINE
  8
_0-0_0
  6
CONTINUOUS
 62
    7
 10
-334.69305400000007
 20
776.50050350000004
 11
-334.90356399999996
 21
776.68379149999998
  0
LINE
  8
_0-0_0
  6
CONTINUOUS
 62
    7
 10
-335.02773999999999
 20
776.48857150000003
 11
-335.13671900000008
 21
776.56501749999995
  0
LINE
  8
_0-0_0
  6
CONTINUOUS
 62
    7
 10
-334.90820299999996
 20
776.40470849999997
 11
-335.02773999999999
 21
776.48857150000003
  0
LINE
  8
_0-0_0
  6
CONTINUOUS
 62
    7
 10
-335.11215200000015
 20
776.28694150000001
 11
-335.13671900000008
 21
776.56501749999995
  0
LINE
  8
_0-0_0
  6
CONTINUOUS
 62
    7
 10
-335.30270399999995
 20
776.14851350000004
 11
-335.35620100000006
 21
776.42250049999996
  0
LINE
  8
_0-0_0
  6
CONTINUOUS
 62
    7
 10
-335.11215200000015
 20
776.28694150000001
 11
-335.35620100000006
 21
776.42250049999996
  0
LINE
  8
_0-0_0
  6
CONTINUOUS
 62
    7
 10
-335.47772200000009
 20
775.99092050000002
 11
-335.55953999999997
 21
776.25779750000004
  0
LINE
  8
_0-0_0
  6
CONTINUOUS
 62
    7
 10
-335.30270399999995
 20
776.14851350000004
 11
-335.55953999999997
 21
776.25779750000004
  0
LINE
  8
_0-0_0
  6
CONTINUOUS
 62
    7
 10
-335.63531499999999
 20
775.81590249999999
 11
-335.744598
 21
776.07276950000005
  0
LINE
  8
_0-0_0
  6
CONTINUOUS
 62
    7
 10
-335.47772200000009
 20
775.99092050000002
 11
-335.744598
 21
776.07276950000005
  0
LINE
  8
_0-0_0
  6
CONTINUOUS
 62
    7
 10
-335.77374299999997
 20
775.6253815
 11
-335.90927099999999
 21
775.86939949999999
  0
LINE
  8
_0-0_0
  6
CONTINUOUS
 62
    7
 10
-335.63531499999999
 20
775.81590249999999
 11
-335.90927099999999
 21
775.86939949999999
  0
LINE
  8
_0-0_0
  6
CONTINUOUS
 62
    7
 10
-335.89147899999989
 20
775.42143250000004
 11
-336.05178799999999
 21
775.64994750000005
  0
LINE
  8
_0-0_0
  6
CONTINUOUS
 62
    7
 10
-335.77374299999997
 20
775.6253815
 11
-336.05178799999999
 21
775.64994750000005
  0
LINE
  8
_0-0_0
  6
CONTINUOUS
 62
    7
 10
-335.98727400000007
 20
775.20628350000004
 11
-336.17059300000005
 21
775.41679350000004
  0
LINE
  8
_0-0_0
  6
CONTINUOUS
 62
    7
 10
-335.89147899999989
 20
775.42143250000004
 11
-336.17059300000005
 21
775.41679350000004
  0
LINE
  8
_0-0_0
  6
CONTINUOUS
 62
    7
 10
-336.06005899999991
 20
774.98228449999999
 11
-336.26437400000009
 21
775.17250049999996
  0
LINE
  8
_0-0_0
  6
CONTINUOUS
 62
    7
 10
-335.98727400000007
 20
775.20628350000004
 11
-336.26437400000009
 21
775.17250049999996
  0
LINE
  8
_0-0_0
  6
CONTINUOUS
 62
    7
 10
-336.10900900000001
 20
774.75190750000002
 11
-336.3320920000001
 21
774.91972350000003
  0
LINE
  8
_0-0_0
  6
CONTINUOUS
 62
    7
 10
-336.06005899999991
 20
774.98228449999999
 11
-336.3320920000001
 21
774.91972350000003
  0
LINE
  8
_0-0_0
  6
CONTINUOUS
 62
    7
 10
-336.10900900000001
 20
774.75190750000002
 11
-336.37301600000001
 21
774.6612705
  0
LINE
  8
_0-0_0
  6
CONTINUOUS
 62
    7
 10
-336.13363600000002
 20
774.51768449999997
 11
-336.37301600000001
 21
774.6612705
  0
LINE
  8
_0-0_0
  6
CONTINUOUS
 62
    7
 10
-336.13363600000002
 20
774.28218049999998
 11
-336.38671900000008
 21
774.39994750000005
  0
LINE
  8
_0-0_0
  6
CONTINUOUS
 62
    7
 10
-336.13363600000002
 20
774.51768449999997
 11
-336.38671900000008
 21
774.39994750000005
  0
LINE
  8
_0-0_0
  6
CONTINUOUS
 62
    7
 10
-336.10900900000001
 20
774.04795850000005
 11
-336.37301600000001
 21
774.13862549999999
  0
LINE
  8
_0-0_0
  6
CONTINUOUS
 62
    7
 10
-336.13363600000002
 20
774.28218049999998
 11
-336.37301600000001
 21
774.13862549999999
  0
LINE
  8
_0-0_0
  6
CONTINUOUS
 62
    7
 10
-336.06005899999991
 20
773.8176115
 11
-336.3320920000001
 21
773.88017249999996
  0
LINE
  8
_0-0_0
  6
CONTINUOUS
 62
    7
 10
-336.10900900000001
 20
774.04795850000005
 11
-336.3320920000001
 21
773.88017249999996
  0
LINE
  8
_0-0_0
  6
CONTINUOUS
 62
    7
 10
-335.98727400000007
 20
773.59361249999995
 11
-336.26437400000009
 21
773.62739550000003
  0
LINE
  8
_0-0_0
  6
CONTINUOUS
 62
    7
 10
-336.06005899999991
 20
773.8176115
 11
-336.26437400000009
 21
773.62739550000003
  0
LINE
  8
_0-0_0
  6
CONTINUOUS
 62
    7
 10
-335.89147899999989
 20
773.37846349999995
 11
-336.17059300000005
 21
773.38310249999995
  0
LINE
  8
_0-0_0
  6
CONTINUOUS
 62
    7
 10
-335.98727400000007
 20
773.59361249999995
 11
-336.17059300000005
 21
773.38310249999995
  0
LINE
  8
_0-0_0
  6
CONTINUOUS
 62
    7
 10
-335.77374299999997
 20
773.17451449999999
 11
-336.05178799999999
 21
773.14994750000005
  0
LINE
  8
_0-0_0
  6
CONTINUOUS
 62
    7
 10
-335.89147899999989
 20
773.37846349999995
 11
-336.05178799999999
 21
773.14994750000005
  0
LINE
  8
_0-0_0
  6
CONTINUOUS
 62
    7
 10
-335.63531499999999
 20
772.98396249999996
 11
-335.90927099999999
 21
772.9304965
  0
LINE
  8
_0-0_0
  6
CONTINUOUS
 62
    7
 10
-335.77374299999997
 20
773.17451449999999
 11
-335.90927099999999
 21
772.9304965
  0
LINE
  8
_0-0_0
  6
CONTINUOUS
 62
    7
 10
-335.47772200000009
 20
772.80894450000005
 11
-335.744598
 21
772.72712650000005
  0
LINE
  8
_0-0_0
  6
CONTINUOUS
 62
    7
 10
-335.63531499999999
 20
772.98396249999996
 11
-335.744598
 21
772.72712650000005
  0
LINE
  8
_0-0_0
  6
CONTINUOUS
 62
    7
 10
-335.30270399999995
 20
772.65135150000003
 11
-335.55953999999997
 21
772.54206850000003
  0
LINE
  8
_0-0_0
  6
CONTINUOUS
 62
    7
 10
-335.47772200000009
 20
772.80894450000005
 11
-335.55953999999997
 21
772.54206850000003
  0
LINE
  8
_0-0_0
  6
CONTINUOUS
 62
    7
 10
-335.11215200000015
 20
772.51292450000005
 11
-335.35620100000006
 21
772.37739550000003
  0
LINE
  8
_0-0_0
  6
CONTINUOUS
 62
    7
 10
-335.30270399999995
 20
772.65135150000003
 11
-335.35620100000006
 21
772.37739550000003
  0
LINE
  8
_0-0_0
  6
CONTINUOUS
 62
    7
 10
-334.90820299999996
 20
772.39518750000002
 11
-335.13671900000008
 21
772.23487850000004
  0
LINE
  8
_0-0_0
  6
CONTINUOUS
 62
    7
 10
-335.11215200000015
 20
772.51292450000005
 11
-335.13671900000008
 21
772.23487850000004
  0
LINE
  8
_0-0_0
  6
CONTINUOUS
 62
    7
 10
-334.69305400000007
 20
772.29939249999995
 11
-334.90356399999996
 21
772.11607349999997
  0
LINE
  8
_0-0_0
  6
CONTINUOUS
 62
    7
 10
-334.90820299999996
 20
772.39518750000002
 11
-334.90356399999996
 21
772.11607349999997
  0
LINE
  8
_0-0_0
  6
CONTINUOUS
 62
    7
 10
-334.46905500000003
 20
772.2266085
 11
-334.65927099999999
 21
772.02229250000005
  0
LINE
  8
_0-0_0
  6
CONTINUOUS
 62
    7
 10
-334.69305400000007
 20
772.29939249999995
 11
-334.65927099999999
 21
772.02229250000005
  0
LINE
  8
_0-0_0
  6
CONTINUOUS
 62
    7
 10
-334.23870800000009
 20
772.17765750000001
 11
-334.40649400000007
 21
771.95457450000004
  0
LINE
  8
_0-0_0
  6
CONTINUOUS
 62
    7
 10
-334.46905500000003
 20
772.2266085
 11
-334.40649400000007
 21
771.95457450000004
  0
LINE
  8
_0-0_0
  6
CONTINUOUS
 62
    7
 10
-334.00448600000004
 20
772.1530305
 11
-334.14804099999992
 21
771.91365050000002
  0
LINE
  8
_0-0_0
  6
CONTINUOUS
 62
    7
 10
-334.23870800000009
 20
772.17765750000001
 11
-334.14804099999992
 21
771.91365050000002
  0
LINE
  8
_0-0_0
  6
CONTINUOUS
 62
    7
 10
-333.76898200000005
 20
772.1530305
 11
-333.88671900000008
 21
771.89994750000005
  0
LINE
  8
_0-0_0
  6
CONTINUOUS
 62
    7
 10
-334.00448600000004
 20
772.1530305
 11
-333.88671900000008
 21
771.89994750000005
  0
LINE
  8
_0-0_0
  6
CONTINUOUS
 62
    7
 10
-333.53475900000012
 20
772.17765750000001
 11
-333.62539700000002
 21
771.91365050000002
  0
LINE
  8
_0-0_0
  6
CONTINUOUS
 62
    7
 10
-333.76898200000005
 20
772.1530305
 11
-333.62539700000002
 21
771.91365050000002
  0
LINE
  8
_0-0_0
  6
CONTINUOUS
 62
    7
 10
-333.30438200000003
 20
772.2266085
 11
-333.36694299999999
 21
771.95457450000004
  0
LINE
  8
_0-0_0
  6
CONTINUOUS
 62
    7
 10
-333.53475900000012
 20
772.17765750000001
 11
-333.36694299999999
 21
771.95457450000004
  0
LINE
  8
_0-0_0
  6
CONTINUOUS
 62
    7
 10
-333.08038299999998
 20
772.29939249999995
 11
-333.11419699999988
 21
772.02229250000005
  0
LINE
  8
_0-0_0
  6
CONTINUOUS
 62
    7
 10
-333.30438200000003
 20
772.2266085
 11
-333.11419699999988
 21
772.02229250000005
  0
LINE
  8
_0-0_0
  6
CONTINUOUS
 62
    7
 10
-332.86523399999987
 20
772.39518750000002
 11
-332.8698730000001
 21
772.11607349999997
  0
LINE
  8
_0-0_0
  6
CONTINUOUS
 62
    7
 10
-333.08038299999998
 20
772.29939249999995
 11
-332.8698730000001
 21
772.11607349999997
  0
LINE
  8
_0-0_0
  6
CONTINUOUS
 62
    7
 10
-332.74569700000006
 20
772.31132449999996
 11
-332.63671900000008
 21
772.23487850000004
  0
LINE
  8
_0-0_0
  6
CONTINUOUS
 62
    7
 10
-332.86523399999987
 20
772.39518750000002
 11
-332.74569700000006
 21
772.31132449999996
  0
LINE
  8
_0-0_0
  6
CONTINUOUS
 62
    7
 10
-332.66128500000013
 20
772.51292450000005
 11
-332.63671900000008
 21
772.23487850000004
  0
LINE
  8
_0-0_0
  6
CONTINUOUS
 62
    7
 10
-332.47076400000014
 20
772.65135150000003
 11
-332.41726700000004
 21
772.37739550000003
  0
LINE
  8
_0-0_0
  6
CONTINUOUS
 62
    7
 10
-332.66128500000013
 20
772.51292450000005
 11
-332.41726700000004
 21
772.37739550000003
  0
LINE
  8
_0-0_0
  6
CONTINUOUS
 62
    7
 10
-332.29574600000001
 20
772.80894450000005
 11
-332.21389799999997
 21
772.54206850000003
  0
LINE
  8
_0-0_0
  6
CONTINUOUS
 62
    7
 10
-332.47076400000014
 20
772.65135150000003
 11
-332.21389799999997
 21
772.54206850000003
  0
LINE
  8
_0-0_0
  6
CONTINUOUS
 62
    7
 10
-332.13815299999987
 20
772.98396249999996
 11
-332.0288700000001
 21
772.72712650000005
  0
LINE
  8
_0-0_0
  6
CONTINUOUS
 62
    7
 10
-332.29574600000001
 20
772.80894450000005
 11
-332.0288700000001
 21
772.72712650000005
  0
LINE
  8
_0-0_0
  6
CONTINUOUS
 62
    7
 10
-331.99972500000013
 20
773.17451449999999
 11
-331.86419699999988
 21
772.9304965
  0
LINE
  8
_0-0_0
  6
CONTINUOUS
 62
    7
 10
-332.13815299999987
 20
772.98396249999996
 11
-331.86419699999988
 21
772.9304965
  0
LINE
  8
_0-0_0
  6
CONTINUOUS
 62
    7
 10
-331.88195799999994
 20
773.37846349999995
 11
-331.72164900000007
 21
773.14994750000005
  0
LINE
  8
_0-0_0
  6
CONTINUOUS
 62
    7
 10
-331.99972500000013
 20
773.17451449999999
 11
-331.72164900000007
 21
773.14994750000005
  0
LINE
  8
_0-0_0
  6
CONTINUOUS
 62
    7
 10
-331.78616299999999
 20
773.59361249999995
 11
-331.60287500000004
 21
773.38310249999995
  0
LINE
  8
_0-0_0
  6
CONTINUOUS
 62
    7
 10
-331.88195799999994
 20
773.37846349999995
 11
-331.60287500000004
 21
773.38310249999995
  0
LINE
  8
_0-0_0
  6
CONTINUOUS
 62
    7
 10
-331.71337900000003
 20
773.8176115
 11
-331.509094
 21
773.62739550000003
  0
LINE
  8
_0-0_0
  6
CONTINUOUS
 62
    7
 10
-331.78616299999999
 20
773.59361249999995
 11
-331.509094
 21
773.62739550000003
  0
LINE
  8
_0-0_0
  6
CONTINUOUS
 62
    7
 10
-331.66442899999993
 20
774.04795850000005
 11
-331.44134499999996
 21
773.88017249999996
  0
LINE
  8
_0-0_0
  6
CONTINUOUS
 62
    7
 10
-331.71337900000003
 20
773.8176115
 11
-331.44134499999996
 21
773.88017249999996
  0
LINE
  8
_0-0_0
  6
CONTINUOUS
 62
    7
 10
-331.63980100000003
 20
774.28218049999998
 11
-331.40042100000005
 21
774.13862549999999
  0
LINE
  8
_0-0_0
  6
CONTINUOUS
 62
    7
 10
-331.66442899999993
 20
774.04795850000005
 11
-331.40042100000005
 21
774.13862549999999
  0
LINE
  8
_0-0_0
  6
CONTINUOUS
 62
    7
 10
-331.63980100000003
 20
774.51768449999997
 11
-331.38671900000008
 21
774.39994750000005
  0
LINE
  8
_0-0_0
  6
CONTINUOUS
 62
    7
 10
-331.63980100000003
 20
774.28218049999998
 11
-331.38671900000008
 21
774.39994750000005
  0
LINE
  8
_0-0_0
  6
CONTINUOUS
 62
    7
 10
-331.66442899999993
 20
774.75190750000002
 11
-331.40042100000005
 21
774.6612705
  0
LINE
  8
_0-0_0
  6
CONTINUOUS
 62
    7
 10
-331.63980100000003
 20
774.51768449999997
 11
-331.40042100000005
 21
774.6612705
  0
LINE
  8
_0-0_0
  6
CONTINUOUS
 62
    7
 10
-331.71337900000003
 20
774.98228449999999
 11
-331.44134499999996
 21
774.91972350000003
  0
LINE
  8
_0-0_0
  6
CONTINUOUS
 62
    7
 10
-331.66442899999993
 20
774.75190750000002
 11
-331.44134499999996
 21
774.91972350000003
  0
LINE
  8
_0-0_0
  6
CONTINUOUS
 62
    7
 10
-331.78616299999999
 20
775.20628350000004
 11
-331.509094
 21
775.17250049999996
  0
LINE
  8
_0-0_0
  6
CONTINUOUS
 62
    7
 10
-331.71337900000003
 20
774.98228449999999
 11
-331.509094
 21
775.17250049999996
  0
LINE
  8
_0-0_0
  6
CONTINUOUS
 62
    7
 10
-331.88195799999994
 20
775.42143250000004
 11
-331.60287500000004
 21
775.41679350000004
  0
LINE
  8
_0-0_0
  6
CONTINUOUS
 62
    7
 10
-331.78616299999999
 20
775.20628350000004
 11
-331.60287500000004
 21
775.41679350000004
  0
CIRCLE
  8
_0-0_0
  6
CONTINUOUS
 62
    7
 10
-339.88671900000008
 20
766.09992950000003
 40
5.25
  0
LINE
  8
_0-0_0
  6
CONTINUOUS
 62
    7
 10
-343.99972500000013
 20
759.0253755
 11
-343.72164900000007
 21
759.04994150000005
  0
LINE
  8
_0-0_0
  6
CONTINUOUS
 62
    7
 10
-343.88195799999994
 20
758.82142650000003
 11
-343.72164900000007
 21
759.04994150000005
  0
LINE
  8
_0-0_0
  6
CONTINUOUS
 62
    7
 10
-344.13815299999987
 20
759.21592650000002
 11
-343.86419699999988
 21
759.26939349999998
  0
LINE
  8
_0-0_0
  6
CONTINUOUS
 62
    7
 10
-343.99972500000013
 20
759.0253755
 11
-343.86419699999988
 21
759.26939349999998
  0
LINE
  8
_0-0_0
  6
CONTINUOUS
 62
    7
 10
-344.29574600000001
 20
759.39094550000004
 11
-344.0288700000001
 21
759.47276250000004
  0
LINE
  8
_0-0_0
  6
CONTINUOUS
 62
    7
 10
-344.13815299999987
 20
759.21592650000002
 11
-344.0288700000001
 21
759.47276250000004
  0
LINE
  8
_0-0_0
  6
CONTINUOUS
 62
    7
 10
-344.47076400000014
 20
759.54850750000003
 11
-344.21389799999997
 21
759.65779150000003
  0
LINE
  8
_0-0_0
  6
CONTINUOUS
 62
    7
 10
-344.29574600000001
 20
759.39094550000004
 11
-344.21389799999997
 21
759.65779150000003
  0
LINE
  8
_0-0_0
  6
CONTINUOUS
 62
    7
 10
-344.66128500000013
 20
759.68696550000004
 11
-344.41726700000004
 21
759.82249449999995
  0
LINE
  8
_0-0_0
  6
CONTINUOUS
 62
    7
 10
-344.47076400000014
 20
759.54850750000003
 11
-344.41726700000004
 21
759.82249449999995
  0
LINE
  8
_0-0_0
  6
CONTINUOUS
 62
    7
 10
-344.86523399999987
 20
759.80470249999996
 11
-344.63671900000008
 21
759.96501150000006
  0
LINE
  8
_0-0_0
  6
CONTINUOUS
 62
    7
 10
-344.66128500000013
 20
759.68696550000004
 11
-344.63671900000008
 21
759.96501150000006
  0
LINE
  8
_0-0_0
  6
CONTINUOUS
 62
    7
 10
-345.08038299999998
 20
759.90049750000003
 11
-344.8698730000001
 21
760.08381650000001
  0
LINE
  8
_0-0_0
  6
CONTINUOUS
 62
    7
 10
-344.86523399999987
 20
759.80470249999996
 11
-344.8698730000001
 21
760.08381650000001
  0
LINE
  8
_0-0_0
  6
CONTINUOUS
 62
    7
 10
-345.30438200000003
 20
759.97328149999998
 11
-345.11416600000007
 21
760.17759650000005
  0
LINE
  8
_0-0_0
  6
CONTINUOUS
 62
    7
 10
-345.08038299999998
 20
759.90049750000003
 11
-345.11416600000007
 21
760.17759650000005
  0
LINE
  8
_0-0_0
  6
CONTINUOUS
 62
    7
 10
-345.53475900000012
 20
760.02223149999998
 11
-345.36694299999999
 21
760.24531549999995
  0
LINE
  8
_0-0_0
  6
CONTINUOUS
 62
    7
 10
-345.30438200000003
 20
759.97328149999998
 11
-345.36694299999999
 21
760.24531549999995
  0
LINE
  8
_0-0_0
  6
CONTINUOUS
 62
    7
 10
-345.76898200000005
 20
760.04685949999998
 11
-345.62539700000002
 21
760.28623949999997
  0
LINE
  8
_0-0_0
  6
CONTINUOUS
 62
    7
 10
-345.53475900000012
 20
760.02223149999998
 11
-345.62539700000002
 21
760.28623949999997
  0
LINE
  8
_0-0_0
  6
CONTINUOUS
 62
    7
 10
-346.00448600000004
 20
760.04685949999998
 11
-345.88671900000008
 21
760.29994150000005
  0
LINE
  8
_0-0_0
  6
CONTINUOUS
 62
    7
 10
-345.76898200000005
 20
760.04685949999998
 11
-345.88671900000008
 21
760.29994150000005
  0
LINE
  8
_0-0_0
  6
CONTINUOUS
 62
    7
 10
-346.23870800000009
 20
760.02223149999998
 11
-346.14804099999992
 21
760.28623949999997
  0
LINE
  8
_0-0_0
  6
CONTINUOUS
 62
    7
 10
-346.00448600000004
 20
760.04685949999998
 11
-346.14804099999992
 21
760.28623949999997
  0
LINE
  8
_0-0_0
  6
CONTINUOUS
 62
    7
 10
-346.46905500000003
 20
759.97328149999998
 11
-346.40649400000007
 21
760.24531549999995
  0
LINE
  8
_0-0_0
  6
CONTINUOUS
 62
    7
 10
-346.23870800000009
 20
760.02223149999998
 11
-346.40649400000007
 21
760.24531549999995
  0
LINE
  8
_0-0_0
  6
CONTINUOUS
 62
    7
 10
-346.69305400000007
 20
759.90049750000003
 11
-346.65927099999999
 21
760.17759650000005
  0
LINE
  8
_0-0_0
  6
CONTINUOUS
 62
    7
 10
-346.46905500000003
 20
759.97328149999998
 11
-346.65927099999999
 21
760.17759650000005
  0
LINE
  8
_0-0_0
  6
CONTINUOUS
 62
    7
 10
-346.90820299999996
 20
759.80470249999996
 11
-346.90356399999996
 21
760.08381650000001
  0
LINE
  8
_0-0_0
  6
CONTINUOUS
 62
    7
 10
-346.69305400000007
 20
759.90049750000003
 11
-346.90356399999996
 21
760.08381650000001
  0
LINE
  8
_0-0_0
  6
CONTINUOUS
 62
    7
 10
-347.02773999999999
 20
759.88856450000003
 11
-347.13671900000008
 21
759.96501150000006
  0
LINE
  8
_0-0_0
  6
CONTINUOUS
 62
    7
 10
-346.90820299999996
 20
759.80470249999996
 11
-347.02773999999999
 21
759.88856450000003
  0
LINE
  8
_0-0_0
  6
CONTINUOUS
 62
    7
 10
-347.11215200000015
 20
759.68696550000004
 11
-347.13671900000008
 21
759.96501150000006
  0
LINE
  8
_0-0_0
  6
CONTINUOUS
 62
    7
 10
-347.30270399999995
 20
759.54850750000003
 11
-347.35620100000006
 21
759.82249449999995
  0
LINE
  8
_0-0_0
  6
CONTINUOUS
 62
    7
 10
-347.11215200000015
 20
759.68696550000004
 11
-347.35620100000006
 21
759.82249449999995
  0
LINE
  8
_0-0_0
  6
CONTINUOUS
 62
    7
 10
-347.47772200000009
 20
759.39094550000004
 11
-347.55953999999997
 21
759.65779150000003
  0
LINE
  8
_0-0_0
  6
CONTINUOUS
 62
    7
 10
-347.30270399999995
 20
759.54850750000003
 11
-347.55953999999997
 21
759.65779150000003
  0
LINE
  8
_0-0_0
  6
CONTINUOUS
 62
    7
 10
-347.63531499999999
 20
759.21592650000002
 11
-347.744598
 21
759.47276250000004
  0
LINE
  8
_0-0_0
  6
CONTINUOUS
 62
    7
 10
-347.47772200000009
 20
759.39094550000004
 11
-347.744598
 21
759.47276250000004
  0
LINE
  8
_0-0_0
  6
CONTINUOUS
 62
    7
 10
-347.77374299999997
 20
759.0253755
 11
-347.90927099999999
 21
759.26939349999998
  0
LINE
  8
_0-0_0
  6
CONTINUOUS
 62
    7
 10
-347.63531499999999
 20
759.21592650000002
 11
-347.90927099999999
 21
759.26939349999998
  0
LINE
  8
_0-0_0
  6
CONTINUOUS
 62
    7
 10
-347.89147899999989
 20
758.82142650000003
 11
-348.05178799999999
 21
759.04994150000005
  0
LINE
  8
_0-0_0
  6
CONTINUOUS
 62
    7
 10
-347.77374299999997
 20
759.0253755
 11
-348.05178799999999
 21
759.04994150000005
  0
LINE
  8
_0-0_0
  6
CONTINUOUS
 62
    7
 10
-347.98727400000007
 20
758.60627750000003
 11
-348.17059300000005
 21
758.81678750000003
  0
LINE
  8
_0-0_0
  6
CONTINUOUS
 62
    7
 10
-347.89147899999989
 20
758.82142650000003
 11
-348.17059300000005
 21
758.81678750000003
  0
LINE
  8
_0-0_0
  6
CONTINUOUS
 62
    7
 10
-348.06005899999991
 20
758.38227849999998
 11
-348.26437400000009
 21
758.57249449999995
  0
LINE
  8
_0-0_0
  6
CONTINUOUS
 62
    7
 10
-347.98727400000007
 20
758.60627750000003
 11
-348.26437400000009
 21
758.57249449999995
  0
LINE
  8
_0-0_0
  6
CONTINUOUS
 62
    7
 10
-348.10900900000001
 20
758.15193150000005
 11
-348.3320920000001
 21
758.31971750000002
  0
LINE
  8
_0-0_0
  6
CONTINUOUS
 62
    7
 10
-348.06005899999991
 20
758.38227849999998
 11
-348.3320920000001
 21
758.31971750000002
  0
LINE
  8
_0-0_0
  6
CONTINUOUS
 62
    7
 10
-348.10900900000001
 20
758.15193150000005
 11
-348.37301600000001
 21
758.0612635
  0
LINE
  8
_0-0_0
  6
CONTINUOUS
 62
    7
 10
-348.13363600000002
 20
757.9177095
 11
-348.37301600000001
 21
758.0612635
  0
LINE
  8
_0-0_0
  6
CONTINUOUS
 62
    7
 10
-348.13363600000002
 20
757.68217449999997
 11
-348.38671900000008
 21
757.79994150000005
  0
LINE
  8
_0-0_0
  6
CONTINUOUS
 62
    7
 10
-348.13363600000002
 20
757.9177095
 11
-348.38671900000008
 21
757.79994150000005
  0
LINE
  8
_0-0_0
  6
CONTINUOUS
 62
    7
 10
-348.10900900000001
 20
757.44795250000004
 11
-348.37301600000001
 21
757.53861949999998
  0
LINE
  8
_0-0_0
  6
CONTINUOUS
 62
    7
 10
-348.13363600000002
 20
757.68217449999997
 11
-348.37301600000001
 21
757.53861949999998
  0
LINE
  8
_0-0_0
  6
CONTINUOUS
 62
    7
 10
-348.06005899999991
 20
757.21760549999999
 11
-348.3320920000001
 21
757.28016649999995
  0
LINE
  8
_0-0_0
  6
CONTINUOUS
 62
    7
 10
-348.10900900000001
 20
757.44795250000004
 11
-348.3320920000001
 21
757.28016649999995
  0
LINE
  8
_0-0_0
  6
CONTINUOUS
 62
    7
 10
-347.98727400000007
 20
756.99360650000006
 11
-348.26437400000009
 21
757.02738950000003
  0
LINE
  8
_0-0_0
  6
CONTINUOUS
 62
    7
 10
-348.06005899999991
 20
757.21760549999999
 11
-348.26437400000009
 21
757.02738950000003
  0
LINE
  8
_0-0_0
  6
CONTINUOUS
 62
    7
 10
-347.89147899999989
 20
756.77845750000006
 11
-348.17059300000005
 21
756.78309650000006
  0
LINE
  8
_0-0_0
  6
CONTINUOUS
 62
    7
 10
-347.98727400000007
 20
756.99360650000006
 11
-348.17059300000005
 21
756.78309650000006
  0
LINE
  8
_0-0_0
  6
CONTINUOUS
 62
    7
 10
-347.77374299999997
 20
756.57450849999998
 11
-348.05178799999999
 21
756.54994150000005
  0
LINE
  8
_0-0_0
  6
CONTINUOUS
 62
    7
 10
-347.89147899999989
 20
756.77845750000006
 11
-348.05178799999999
 21
756.54994150000005
  0
LINE
  8
_0-0_0
  6
CONTINUOUS
 62
    7
 10
-347.63531499999999
 20
756.38398749999999
 11
-347.90927099999999
 21
756.3304895
  0
LINE
  8
_0-0_0
  6
CONTINUOUS
 62
    7
 10
-347.77374299999997
 20
756.57450849999998
 11
-347.90927099999999
 21
756.3304895
  0
LINE
  8
_0-0_0
  6
CONTINUOUS
 62
    7
 10
-347.47772200000009
 20
756.20896849999997
 11
-347.744598
 21
756.12712050000005
  0
LINE
  8
_0-0_0
  6
CONTINUOUS
 62
    7
 10
-347.63531499999999
 20
756.38398749999999
 11
-347.744598
 21
756.12712050000005
  0
LINE
  8
_0-0_0
  6
CONTINUOUS
 62
    7
 10
-347.30270399999995
 20
756.05137649999995
 11
-347.55953999999997
 21
755.94209250000006
  0
LINE
  8
_0-0_0
  6
CONTINUOUS
 62
    7
 10
-347.47772200000009
 20
756.20896849999997
 11
-347.55953999999997
 21
755.94209250000006
  0
LINE
  8
_0-0_0
  6
CONTINUOUS
 62
    7
 10
-347.11215200000015
 20
755.91291750000005
 11
-347.35620100000006
 21
755.77738950000003
  0
LINE
  8
_0-0_0
  6
CONTINUOUS
 62
    7
 10
-347.30270399999995
 20
756.05137649999995
 11
-347.35620100000006
 21
755.77738950000003
  0
LINE
  8
_0-0_0
  6
CONTINUOUS
 62
    7
 10
-346.90820299999996
 20
755.79518150000001
 11
-347.13671900000008
 21
755.63487250000003
  0
LINE
  8
_0-0_0
  6
CONTINUOUS
 62
    7
 10
-347.11215200000015
 20
755.91291750000005
 11
-347.13671900000008
 21
755.63487250000003
  0
LINE
  8
_0-0_0
  6
CONTINUOUS
 62
    7
 10
-346.69305400000007
 20
755.69938650000006
 11
-346.90356399999996
 21
755.51606749999996
  0
LINE
  8
_0-0_0
  6
CONTINUOUS
 62
    7
 10
-346.90820299999996
 20
755.79518150000001
 11
-346.90356399999996
 21
755.51606749999996
  0
LINE
  8
_0-0_0
  6
CONTINUOUS
 62
    7
 10
-346.46905500000003
 20
755.62660249999999
 11
-346.65927099999999
 21
755.42228650000004
  0
LINE
  8
_0-0_0
  6
CONTINUOUS
 62
    7
 10
-346.69305400000007
 20
755.69938650000006
 11
-346.65927099999999
 21
755.42228650000004
  0
LINE
  8
_0-0_0
  6
CONTINUOUS
 62
    7
 10
-346.23870800000009
 20
755.5776515
 11
-346.40649400000007
 21
755.35456850000003
  0
LINE
  8
_0-0_0
  6
CONTINUOUS
 62
    7
 10
-346.46905500000003
 20
755.62660249999999
 11
-346.40649400000007
 21
755.35456850000003
  0
LINE
  8
_0-0_0
  6
CONTINUOUS
 62
    7
 10
-346.00448600000004
 20
755.55302449999999
 11
-346.14804099999992
 21
755.31364450000001
  0
LINE
  8
_0-0_0
  6
CONTINUOUS
 62
    7
 10
-346.23870800000009
 20
755.5776515
 11
-346.14804099999992
 21
755.31364450000001
  0
LINE
  8
_0-0_0
  6
CONTINUOUS
 62
    7
 10
-345.76898200000005
 20
755.55302449999999
 11
-345.88671900000008
 21
755.29994150000005
  0
LINE
  8
_0-0_0
  6
CONTINUOUS
 62
    7
 10
-346.00448600000004
 20
755.55302449999999
 11
-345.88671900000008
 21
755.29994150000005
  0
LINE
  8
_0-0_0
  6
CONTINUOUS
 62
    7
 10
-345.53475900000012
 20
755.5776515
 11
-345.62539700000002
 21
755.31364450000001
  0
LINE
  8
_0-0_0
  6
CONTINUOUS
 62
    7
 10
-345.76898200000005
 20
755.55302449999999
 11
-345.62539700000002
 21
755.31364450000001
  0
LINE
  8
_0-0_0
  6
CONTINUOUS
 62
    7
 10
-345.30438200000003
 20
755.62660249999999
 11
-345.36694299999999
 21
755.35456850000003
  0
LINE
  8
_0-0_0
  6
CONTINUOUS
 62
    7
 10
-345.53475900000012
 20
755.5776515
 11
-345.36694299999999
 21
755.35456850000003
  0
LINE
  8
_0-0_0
  6
CONTINUOUS
 62
    7
 10
-345.08038299999998
 20
755.69938650000006
 11
-345.11416600000007
 21
755.42228650000004
  0
LINE
  8
_0-0_0
  6
CONTINUOUS
 62
    7
 10
-345.30438200000003
 20
755.62660249999999
 11
-345.11416600000007
 21
755.42228650000004
  0
LINE
  8
_0-0_0
  6
CONTINUOUS
 62
    7
 10
-344.86523399999987
 20
755.79518150000001
 11
-344.8698730000001
 21
755.51606749999996
  0
LINE
  8
_0-0_0
  6
CONTINUOUS
 62
    7
 10
-345.08038299999998
 20
755.69938650000006
 11
-344.8698730000001
 21
755.51606749999996
  0
LINE
  8
_0-0_0
  6
CONTINUOUS
 62
    7
 10
-344.74569700000006
 20
755.71131849999995
 11
-344.63671900000008
 21
755.63487250000003
  0
LINE
  8
_0-0_0
  6
CONTINUOUS
 62
    7
 10
-344.86523399999987
 20
755.79518150000001
 11
-344.74569700000006
 21
755.71131849999995
  0
LINE
  8
_0-0_0
  6
CONTINUOUS
 62
    7
 10
-344.66128500000013
 20
755.91291750000005
 11
-344.63671900000008
 21
755.63487250000003
  0
LINE
  8
_0-0_0
  6
CONTINUOUS
 62
    7
 10
-344.47076400000014
 20
756.05137649999995
 11
-344.41726700000004
 21
755.77738950000003
  0
LINE
  8
_0-0_0
  6
CONTINUOUS
 62
    7
 10
-344.66128500000013
 20
755.91291750000005
 11
-344.41726700000004
 21
755.77738950000003
  0
LINE
  8
_0-0_0
  6
CONTINUOUS
 62
    7
 10
-344.29574600000001
 20
756.20896849999997
 11
-344.21389799999997
 21
755.94209250000006
  0
LINE
  8
_0-0_0
  6
CONTINUOUS
 62
    7
 10
-344.47076400000014
 20
756.05137649999995
 11
-344.21389799999997
 21
755.94209250000006
  0
LINE
  8
_0-0_0
  6
CONTINUOUS
 62
    7
 10
-344.13815299999987
 20
756.38398749999999
 11
-344.0288700000001
 21
756.12712050000005
  0
LINE
  8
_0-0_0
  6
CONTINUOUS
 62
    7
 10
-344.29574600000001
 20
756.20896849999997
 11
-344.0288700000001
 21
756.12712050000005
  0
LINE
  8
_0-0_0
  6
CONTINUOUS
 62
    7
 10
-343.99972500000013
 20
756.57450849999998
 11
-343.86419699999988
 21
756.3304895
  0
LINE
  8
_0-0_0
  6
CONTINUOUS
 62
    7
 10
-344.13815299999987
 20
756.38398749999999
 11
-343.86419699999988
 21
756.3304895
  0
LINE
  8
_0-0_0
  6
CONTINUOUS
 62
    7
 10
-343.88195799999994
 20
756.77845750000006
 11
-343.72164900000007
 21
756.54994150000005
  0
LINE
  8
_0-0_0
  6
CONTINUOUS
 62
    7
 10
-343.99972500000013
 20
756.57450849999998
 11
-343.72164900000007
 21
756.54994150000005
  0
LINE
  8
_0-0_0
  6
CONTINUOUS
 62
    7
 10
-343.78616299999999
 20
756.99360650000006
 11
-343.60287500000004
 21
756.78309650000006
  0
LINE
  8
_0-0_0
  6
CONTINUOUS
 62
    7
 10
-343.88195799999994
 20
756.77845750000006
 11
-343.60287500000004
 21
756.78309650000006
  0
LINE
  8
_0-0_0
  6
CONTINUOUS
 62
    7
 10
-343.71337900000003
 20
757.21760549999999
 11
-343.509094
 21
757.02738950000003
  0
LINE
  8
_0-0_0
  6
CONTINUOUS
 62
    7
 10
-343.78616299999999
 20
756.99360650000006
 11
-343.509094
 21
757.02738950000003
  0
LINE
  8
_0-0_0
  6
CONTINUOUS
 62
    7
 10
-343.66442899999993
 20
757.44795250000004
 11
-343.44134499999996
 21
757.28016649999995
  0
LINE
  8
_0-0_0
  6
CONTINUOUS
 62
    7
 10
-343.71337900000003
 20
757.21760549999999
 11
-343.44134499999996
 21
757.28016649999995
  0
LINE
  8
_0-0_0
  6
CONTINUOUS
 62
    7
 10
-343.63980100000003
 20
757.68217449999997
 11
-343.40042100000005
 21
757.53861949999998
  0
LINE
  8
_0-0_0
  6
CONTINUOUS
 62
    7
 10
-343.66442899999993
 20
757.44795250000004
 11
-343.40042100000005
 21
757.53861949999998
  0
LINE
  8
_0-0_0
  6
CONTINUOUS
 62
    7
 10
-343.63980100000003
 20
757.9177095
 11
-343.38671900000008
 21
757.79994150000005
  0
LINE
  8
_0-0_0
  6
CONTINUOUS
 62
    7
 10
-343.63980100000003
 20
757.68217449999997
 11
-343.38671900000008
 21
757.79994150000005
  0
LINE
  8
_0-0_0
  6
CONTINUOUS
 62
    7
 10
-343.66442899999993
 20
758.15193150000005
 11
-343.40042100000005
 21
758.0612635
  0
LINE
  8
_0-0_0
  6
CONTINUOUS
 62
    7
 10
-343.63980100000003
 20
757.9177095
 11
-343.40042100000005
 21
758.0612635
  0
LINE
  8
_0-0_0
  6
CONTINUOUS
 62
    7
 10
-343.71337900000003
 20
758.38227849999998
 11
-343.44134499999996
 21
758.31971750000002
  0
LINE
  8
_0-0_0
  6
CONTINUOUS
 62
    7
 10
-343.66442899999993
 20
758.15193150000005
 11
-343.44134499999996
 21
758.31971750000002
  0
LINE
  8
_0-0_0
  6
CONTINUOUS
 62
    7
 10
-343.78616299999999
 20
758.60627750000003
 11
-343.509094
 21
758.57249449999995
  0
LINE
  8
_0-0_0
  6
CONTINUOUS
 62
    7
 10
-343.71337900000003
 20
758.38227849999998
 11
-343.509094
 21
758.57249449999995
  0
LINE
  8
_0-0_0
  6
CONTINUOUS
 62
    7
 10
-343.88195799999994
 20
758.82142650000003
 11
-343.60287500000004
 21
758.81678750000003
  0
LINE
  8
_0-0_0
  6
CONTINUOUS
 62
    7
 10
-343.78616299999999
 20
758.60627750000003
 11
-343.60287500000004
 21
758.81678750000003
  0
CIRCLE
  8
_0-0_0
  6
CONTINUOUS
 62
    7
 10
-333.88671900000008
 20
774.39994750000005
 40
2
  0
CIRCLE
  8
_0-0_0
  6
CONTINUOUS
 62
    7
 10
-345.88671900000008
 20
757.79994150000005
 40
2
  0
LINE
  8
_0-0_0
  6
CONTINUOUS
 62
    7
 10
-333.3046260000001
 20
773.39994750000005
 11
-334.468842
 21
773.39994750000005
  0
LINE
  8
_0-0_0
  6
CONTINUOUS
 62
    7
 10
-334.468842
 20
773.39994750000005
 11
-335.03671299999996
 21
774.39994750000005
  0
LINE
  8
_0-0_0
  6
CONTINUOUS
 62
    7
 10
-335.03671299999996
 20
774.39994750000005
 11
-334.468842
 21
775.39994750000005
  0
LINE
  8
_0-0_0
  6
CONTINUOUS
 62
    7
 10
-334.468842
 20
775.39994750000005
 11
-333.3046260000001
 21
775.39994750000005
  0
LINE
  8
_0-0_0
  6
CONTINUOUS
 62
    7
 10
-333.3046260000001
 20
775.39994750000005
 11
-332.73672499999998
 21
774.39994750000005
  0
LINE
  8
_0-0_0
  6
CONTINUOUS
 62
    7
 10
-332.73672499999998
 20
774.39994750000005
 11
-333.3046260000001
 21
773.39994750000005
  0
CIRCLE
  8
_0-0_0
  6
CONTINUOUS
 62
    7
 10
-339.88671900000008
 20
766.09992950000003
 40
5
  0
LINE
  8
_0-0_0
  6
CONTINUOUS
 62
    7
 10
-345.3046260000001
 20
756.79994150000005
 11
-346.468842
 21
756.79994150000005
  0
LINE
  8
_0-0_0
  6
CONTINUOUS
 62
    7
 10
-346.468842
 20
756.79994150000005
 11
-347.03671299999996
 21
757.79994150000005
  0
LINE
  8
_0-0_0
  6
CONTINUOUS
 62
    7
 10
-347.03671299999996
 20
757.79994150000005
 11
-346.468842
 21
758.79994150000005
  0
LINE
  8
_0-0_0
  6
CONTINUOUS
 62
    7
 10
-346.468842
 20
758.79994150000005
 11
-345.3046260000001
 21
758.79994150000005
  0
LINE
  8
_0-0_0
  6
CONTINUOUS
 62
    7
 10
-345.3046260000001
 20
758.79994150000005
 11
-344.73672499999998
 21
757.79994150000005
  0
LINE
  8
_0-0_0
  6
CONTINUOUS
 62
    7
 10
-344.73672499999998
 20
757.79994150000005
 11
-345.3046260000001
 21
756.79994150000005
  0
CIRCLE
  8
_0-0_0
  6
CONTINUOUS
 62
    7
 10
-339.88671900000008
 20
766.09992950000003
 40
4.5381200000000002
  0
CIRCLE
  8
_0-0_0
  6
CONTINUOUS
 62
    7
 10
-339.88671900000008
 20
766.09992950000003
 40
4
  0
LINE
  8
_0-0_0
  6
CONTINUOUS
 62
    7
 10
-348.01928700000008
 20
776.05525150000005
 11
-348.68673699999999
 21
776.05525150000005
  0
ARC
  8
_0-0_0
  6
CONTINUOUS
 62
    7
 10
-331.88671900000008
 20
776.52494750000005
 40
0.2
 50
179.94055499999999
 51
269.99997000000002
  0
ARC
  8
_0-0_0
  6
CONTINUOUS
 62
    7
 10
-333.38671900000008
 20
757.29994150000005
 40
2
 50
269.99999700000001
 51
273.84026499999999
  0
ARC
  8
_0-0_0
  6
CONTINUOUS
 62
    7
 10
-346.38671900000008
 20
774.89994750000005
 40
2
 50
90.000003000000007
 51
93.840255999999997
  0
LINE
  8
_0-0_0
  6
CONTINUOUS
 62
    7
 10
-331.58673099999987
 20
776.32493550000004
 11
-331.88671900000008
 21
776.32493550000004
  0
LINE
  8
_0-0_0
  6
CONTINUOUS
 62
    7
 10
-331.58673099999987
 20
779.27494750000005
 11
-331.88671900000008
 21
779.27494750000005
  0
ARC
  8
_0-0_0
  6
CONTINUOUS
 62
    7
 10
-347.88671900000008
 20
776.52500950000001
 40
0.2
 50
270.00002499999994
 51
0.0594439999999606
  0
ARC
  8
_0-0_0
  6
CONTINUOUS
 62
    7
 10
-331.58676100000002
 20
776.52497849999997
 40
0.200055
 50
270.00964199999999
 51
1.3705509999999435
  0
ARC
  8
_0-0_0
  6
CONTINUOUS
 62
    7
 10
-331.58673099999987
 20
779.07493550000004
 40
0.2
 50
359.91222800000003
 51
89.999948000000003
  0
LINE
  8
_0-0_0
  6
CONTINUOUS
 62
    7
 10
-348.18673699999999
 20
776.32502750000003
 11
-347.88671900000008
 21
776.32502750000003
  0
ARC
  8
_0-0_0
  6
CONTINUOUS
 62
    7
 10
-348.18667600000003
 20
776.52507049999997
 40
0.200055
 50
178.629446
 51
269.99035300000003
  0
LINE
  8
_0-0_0
  6
CONTINUOUS
 62
    7
 10
-331.18673699999999
 20
781.80000250000001
 11
-331.18673699999999
 21
795.00001550000002
  0
ARC
  8
_0-0_0
  6
CONTINUOUS
 62
    7
 10
-331.68673699999999
 20
781.80000250000001
 40
0.5
 50
269.99999700000001
 51
0
  0
ARC
  8
_0-0_0
  6
CONTINUOUS
 62
    7
 10
-331.24530000000004
 20
795.20002750000003
 40
0.1
 50
135
 51
225
  0
LINE
  8
_0-0_0
  6
CONTINUOUS
 62
    7
 10
-331.31600900000012
 20
795.12931849999995
 11
-331.18673699999999
 21
795.00001550000002
  0
LINE
  8
_0-0_0
  6
CONTINUOUS
 62
    7
 10
-331.68673699999999
 20
781.30000250000001
 11
-333.58673099999987
 21
781.30000250000001
  0
ARC
  8
_0-0_0
  6
CONTINUOUS
 62
    7
 10
-333.58673099999987
 20
781.80000250000001
 40
0.5
 50
233.12990600000001
 51
269.99999700000001
  0
ARC
  8
_0-0_0
  6
CONTINUOUS
 62
    7
 10
-346.28671299999996
 20
781.80000250000001
 40
0.5
 50
269.99999700000001
 51
306.87009999999998
  0
LINE
  8
_0-0_0
  6
CONTINUOUS
 62
    7
 10
-346.28671299999996
 20
781.30000250000001
 11
-348.18673699999999
 21
781.30000250000001
  0
ARC
  8
_0-0_0
  6
CONTINUOUS
 62
    7
 10
-348.18673699999999
 20
781.80000250000001
 40
0.5
 50
180.00000900000003
 51
269.99999700000001
  0
LINE
  8
_0-0_0
  6
CONTINUOUS
 62
    7
 10
-348.68673699999999
 20
791.23500049999996
 11
-348.68673699999999
 21
781.80000250000001
  0
LINE
  8
_0-0_0
  6
CONTINUOUS
 62
    7
 10
-348.68673699999999
 20
791.23500049999996
 11
-347.98672499999998
 21
791.23500049999996
  0
LINE
  8
_0-0_0
  6
CONTINUOUS
 62
    7
 10
-331.98672499999998
 20
809.80000250000001
 11
-331.78070100000014
 21
809.80000250000001
  0
LINE
  8
_0-0_0
  6
CONTINUOUS
 62
    7
 10
-331.78070100000014
 20
809.80000250000001
 11
-331.18673699999999
 21
809.20603949999997
  0
LINE
  8
_0-0_0
  6
CONTINUOUS
 62
    7
 10
-331.18673699999999
 20
804.20002750000003
 11
-331.18673699999999
 21
809.20603949999997
  0
LINE
  8
_0-0_0
  6
CONTINUOUS
 62
    7
 10
-331.31600900000012
 20
804.07072449999998
 11
-331.18673699999999
 21
804.20002750000003
  0
ARC
  8
_0-0_0
  6
CONTINUOUS
 62
    7
 10
-331.24530000000004
 20
804.00001550000002
 40
0.1
 50
135
 51
225
  0
LINE
  8
_0-0_0
  6
CONTINUOUS
 62
    7
 10
-331.31600900000012
 20
803.92930550000005
 11
-331.18673699999999
 21
803.80000250000001
  0
LINE
  8
_0-0_0
  6
CONTINUOUS
 62
    7
 10
-331.18673699999999
 20
803.10002150000003
 11
-331.18673699999999
 21
803.80000250000001
  0
LINE
  8
_0-0_0
  6
CONTINUOUS
 62
    7
 10
-331.31600900000012
 20
802.97071849999998
 11
-331.18673699999999
 21
803.10002150000003
  0
ARC
  8
_0-0_0
  6
CONTINUOUS
 62
    7
 10
-331.24530000000004
 20
802.90000950000001
 40
0.1
 50
135
 51
225
  0
LINE
  8
_0-0_0
  6
CONTINUOUS
 62
    7
 10
-331.31600900000012
 20
802.82929950000005
 11
-331.18673699999999
 21
802.70002750000003
  0
LINE
  8
_0-0_0
  6
CONTINUOUS
 62
    7
 10
-331.18673699999999
 20
802.00001550000002
 11
-331.18673699999999
 21
802.70002750000003
  0
LINE
  8
_0-0_0
  6
CONTINUOUS
 62
    7
 10
-331.31600900000012
 20
801.87074250000001
 11
-331.18673699999999
 21
802.00001550000002
  0
ARC
  8
_0-0_0
  6
CONTINUOUS
 62
    7
 10
-331.24530000000004
 20
801.80000250000001
 40
0.1
 50
135
 51
225
  0
LINE
  8
_0-0_0
  6
CONTINUOUS
 62
    7
 10
-331.31600900000012
 20
801.72929350000004
 11
-331.18673699999999
 21
801.60002150000003
  0
LINE
  8
_0-0_0
  6
CONTINUOUS
 62
    7
 10
-331.18673699999999
 20
800.90000950000001
 11
-331.18673699999999
 21
801.60002150000003
  0
LINE
  8
_0-0_0
  6
CONTINUOUS
 62
    7
 10
-331.31600900000012
 20
800.7707365
 11
-331.18673699999999
 21
800.90000950000001
  0
ARC
  8
_0-0_0
  6
CONTINUOUS
 62
    7
 10
-331.24530000000004
 20
800.70002750000003
 40
0.1
 50
135
 51
225
  0
LINE
  8
_0-0_0
  6
CONTINUOUS
 62
    7
 10
-331.31600900000012
 20
800.62931849999995
 11
-331.18673699999999
 21
800.50001550000002
  0
LINE
  8
_0-0_0
  6
CONTINUOUS
 62
    7
 10
-331.18673699999999
 20
799.80000250000001
 11
-331.18673699999999
 21
800.50001550000002
  0
LINE
  8
_0-0_0
  6
CONTINUOUS
 62
    7
 10
-331.31600900000012
 20
799.67073049999999
 11
-331.18673699999999
 21
799.80000250000001
  0
ARC
  8
_0-0_0
  6
CONTINUOUS
 62
    7
 10
-331.24530000000004
 20
799.60002150000003
 40
0.1
 50
135
 51
225
  0
LINE
  8
_0-0_0
  6
CONTINUOUS
 62
    7
 10
-331.31600900000012
 20
799.52931149999995
 11
-331.18673699999999
 21
799.40000950000001
  0
LINE
  8
_0-0_0
  6
CONTINUOUS
 62
    7
 10
-331.18673699999999
 20
798.70002750000003
 11
-331.18673699999999
 21
799.40000950000001
  0
LINE
  8
_0-0_0
  6
CONTINUOUS
 62
    7
 10
-331.31600900000012
 20
798.57072449999998
 11
-331.18673699999999
 21
798.70002750000003
  0
ARC
  8
_0-0_0
  6
CONTINUOUS
 62
    7
 10
-331.24530000000004
 20
798.50001550000002
 40
0.1
 50
135
 51
225
  0
LINE
  8
_0-0_0
  6
CONTINUOUS
 62
    7
 10
-331.31600900000012
 20
798.42930550000005
 11
-331.18673699999999
 21
798.30000250000001
  0
LINE
  8
_0-0_0
  6
CONTINUOUS
 62
    7
 10
-331.18673699999999
 20
797.60002150000003
 11
-331.18673699999999
 21
798.30000250000001
  0
LINE
  8
_0-0_0
  6
CONTINUOUS
 62
    7
 10
-331.31600900000012
 20
797.47071849999998
 11
-331.18673699999999
 21
797.60002150000003
  0
ARC
  8
_0-0_0
  6
CONTINUOUS
 62
    7
 10
-331.24530000000004
 20
797.40000950000001
 40
0.1
 50
135
 51
225
  0
LINE
  8
_0-0_0
  6
CONTINUOUS
 62
    7
 10
-331.31600900000012
 20
797.32929950000005
 11
-331.18673699999999
 21
797.20002750000003
  0
LINE
  8
_0-0_0
  6
CONTINUOUS
 62
    7
 10
-331.18673699999999
 20
796.50001550000002
 11
-331.18673699999999
 21
797.20002750000003
  0
LINE
  8
_0-0_0
  6
CONTINUOUS
 62
    7
 10
-331.31600900000012
 20
796.37074250000001
 11
-331.18673699999999
 21
796.50001550000002
  0
ARC
  8
_0-0_0
  6
CONTINUOUS
 62
    7
 10
-331.24530000000004
 20
796.30000250000001
 40
0.1
 50
135
 51
225
  0
LINE
  8
_0-0_0
  6
CONTINUOUS
 62
    7
 10
-331.31600900000012
 20
796.22929350000004
 11
-331.18673699999999
 21
796.10002150000003
  0
LINE
  8
_0-0_0
  6
CONTINUOUS
 62
    7
 10
-331.18673699999999
 20
795.40000950000001
 11
-331.18673699999999
 21
796.10002150000003
  0
LINE
  8
_0-0_0
  6
CONTINUOUS
 62
    7
 10
-331.31600900000012
 20
795.2707365
 11
-331.18673699999999
 21
795.40000950000001
  0
LINE
  8
_0-0_0
  6
CONTINUOUS
 62
    7
 10
-331.18673699999999
 20
787.30000250000001
 11
-331.08673099999987
 21
787.30000250000001
  0
LINE
  8
_0-0_0
  6
CONTINUOUS
 62
    7
 10
-331.08673099999987
 20
786.80000250000001
 11
-331.08673099999987
 21
787.30000250000001
  0
LINE
  8
_0-0_0
  6
CONTINUOUS
 62
    7
 10
-331.08673099999987
 20
786.80000250000001
 11
-331.08673099999987
 21
782.80000250000001
  0
LINE
  8
_0-0_0
  6
CONTINUOUS
 62
    7
 10
-331.18673699999999
 20
782.30000250000001
 11
-331.08673099999987
 21
782.30000250000001
  0
LINE
  8
_0-0_0
  6
CONTINUOUS
 62
    7
 10
-331.08673099999987
 20
782.30000250000001
 11
-331.08673099999987
 21
782.80000250000001
  0
LINE
  8
_0-0_0
  6
CONTINUOUS
 62
    7
 10
-348.68673699999999
 20
791.30003350000004
 11
-348.68673699999999
 21
791.23500049999996
  0
LINE
  8
_0-0_0
  6
CONTINUOUS
 62
    7
 10
-332.18673699999999
 20
810.10002150000003
 11
-332.18673699999999
 21
810.00001550000002
  0
ARC
  8
_0-0_0
  6
CONTINUOUS
 62
    7
 10
-344.68673699999999
 20
810.10002150000003
 40
2.5
 50
90.000003000000007
 51
180.00000900000001
  0
LINE
  8
_0-0_0
  6
CONTINUOUS
 62
    7
 10
-348.78671299999996
 20
791.30000250000001
 11
-347.98672499999998
 21
791.30000250000001
  0
LINE
  8
_0-0_0
  6
CONTINUOUS
 62
    7
 10
-348.28671299999996
 20
813.10002150000003
 11
-348.28671299999996
 21
808.87849449999999
  0
LINE
  8
_0-0_0
  6
CONTINUOUS
 62
    7
 10
-347.18673699999999
 20
813.10002150000003
 11
-347.18673699999999
 21
810.10002150000003
  0
LINE
  8
_0-0_0
  6
CONTINUOUS
 62
    7
 10
-348.28671299999996
 20
808.87849449999999
 11
-347.98672499999998
 21
808.87849449999999
  0
LINE
  8
_0-0_0
  6
CONTINUOUS
 62
    7
 10
-348.28671299999996
 20
818.23991350000006
 11
-347.18673699999999
 21
818.23991350000006
  0
LINE
  8
_0-0_0
  6
CONTINUOUS
 62
    7
 10
-347.18673699999999
 20
813.10044849999997
 11
-347.18673699999999
 21
818.23991350000006
  0
LINE
  8
_0-0_0
  6
CONTINUOUS
 62
    7
 10
-348.78671299999996
 20
812.60087550000003
 11
-348.78671299999996
 21
817.67213449999997
  0
LINE
  8
_0-0_0
  6
CONTINUOUS
 62
    7
 10
-348.28671299999996
 20
818.23991350000006
 11
-348.78671299999996
 21
817.67213449999997
  0
ARC
  8
_0-0_0
  6
CONTINUOUS
 62
    7
 10
-334.68673699999999
 20
810.10002150000003
 40
2.5
 50
0
 51
90.000003000000007
  0
LINE
  8
_0-0_0
  6
CONTINUOUS
 62
    7
 10
-347.18673699999999
 20
810.00001550000002
 11
-347.18673699999999
 21
810.10002150000003
  0
LINE
  8
_0-0_0
  6
CONTINUOUS
 62
    7
 10
-334.68673699999999
 20
812.60002150000003
 11
-344.68673699999999
 21
812.60002150000003
  0
LINE
  8
_0-0_0
  6
CONTINUOUS
 62
    7
 10
-330.98672499999998
 20
782.80000250000001
 11
-330.98672499999998
 21
782.93037449999997
  0
LINE
  8
_0-0_0
  6
CONTINUOUS
 62
    7
 10
-330.98672499999998
 20
786.43037449999997
 11
-330.98672499999998
 21
782.93037449999997
  0
LINE
  8
_0-0_0
  6
CONTINUOUS
 62
    7
 10
-331.08673099999987
 20
786.70002750000003
 11
-330.98672499999998
 21
786.70002750000003
  0
LINE
  8
_0-0_0
  6
CONTINUOUS
 62
    7
 10
-330.98672499999998
 20
786.43037449999997
 11
-330.98672499999998
 21
786.70002750000003
  0
LINE
  8
_0-0_0
  6
CONTINUOUS
 62
    7
 10
-347.18673699999999
 20
820.60002150000003
 11
-347.18673699999999
 21
818.23991350000006
  0
LINE
  8
_0-0_0
  6
CONTINUOUS
 62
    7
 10
-331.38671900000008
 20
809.20002750000003
 11
-332.38671900000008
 21
810.20002750000003
  0
LINE
  8
_0-0_0
  6
CONTINUOUS
 62
    7
 10
-331.38671900000008
 20
781.40000950000001
 11
-331.38671900000008
 21
809.20002750000003
  0
LINE
  8
_0-0_0
  6
CONTINUOUS
 62
    7
 10
-347.98672499999998
 20
781.40000950000001
 11
-331.38671900000008
 21
781.40000950000001
  0
LINE
  8
_0-0_0
  6
CONTINUOUS
 62
    7
 10
-347.98672499999998
 20
809.20002750000003
 11
-347.98672499999998
 21
781.40000950000001
  0
LINE
  8
_0-0_0
  6
CONTINUOUS
 62
    7
 10
-348.78671299999996
 20
791.30000250000001
 11
-348.78671299999996
 21
808.11283849999995
  0
LINE
  8
_0-0_0
  6
CONTINUOUS
 62
    7
 10
-348.78671299999996
 20
812.60002150000003
 11
-348.78671299999996
 21
808.11283849999995
  0
ARC
  8
_0-0_0
  6
CONTINUOUS
 62
    7
 10
-317.33499099999995
 20
788.11784350000005
 40
37.269466000000001
 50
146.14857699999999
 51
147.55443399999999
  0
LINE
  8
_0-0_0
  6
CONTINUOUS
 62
    7
 10
-348.28671299999996
 20
820.60002150000003
 11
-348.28671299999996
 21
818.23991350000006
  0
LINE
  8
_0-0_0
  6
CONTINUOUS
 62
    7
 10
-348.78671299999996
 20
820.10002150000003
 11
-348.78671299999996
 21
817.67213449999997
  0
ARC
  8
_0-0_0
  6
CONTINUOUS
 62
    7
 10
-334.95578
 20
809.80000250000001
 40
2.6000000000000001
 50
8.8498839999999994
 51
90.000002999999992
  0
LINE
  8
_0-0_0
  6
CONTINUOUS
 62
    7
 10
-334.95578
 20
812.40000950000001
 11
-344.41766400000006
 21
812.40000950000001
  0
ARC
  8
_0-0_0
  6
CONTINUOUS
 62
    7
 10
-344.41766400000006
 20
809.80000250000001
 40
2.6000000000000001
 50
90.000003000000007
 51
171.150115
  0
LINE
  8
_0-0_0
  6
CONTINUOUS
 62
    7
 10
-347.98672499999998
 20
809.20002750000003
 11
-346.98672499999998
 21
810.20002750000003
  0
LINE
  8
_0-0_0
  6
CONTINUOUS
 62
    7
 10
-332.38671900000008
 20
808.78581250000002
 11
-331.38671900000008
 21
809.20002750000003
  0
ARC
  8
_0-0_0
  6
CONTINUOUS
 62
    7
 10
-337.92925999999989
 20
820.98612949999995
 40
12.126564999999999
 50
292.155034
 51
297.19674500000002
  0
LINE
  8
_0-0_0
  6
CONTINUOUS
 62
    7
 10
-332.38671900000008
 20
782.40000950000001
 11
-331.38671900000008
 21
781.40000950000001
  0
LINE
  8
_0-0_0
  6
CONTINUOUS
 62
    7
 10
-346.98672499999998
 20
782.40000950000001
 11
-347.98672499999998
 21
781.40000950000001
  0
LINE
  8
_0-0_0
  6
CONTINUOUS
 62
    7
 10
-346.98672499999998
 20
808.78581250000002
 11
-347.98672499999998
 21
809.20002750000003
  0
ARC
  8
_0-0_0
  6
CONTINUOUS
 62
    7
 10
-341.44418300000007
 20
820.98612949999995
 40
12.126567
 50
242.80325699999997
 51
247.84494000000001
  0
CIRCLE
  8
_0-0_0
  6
CONTINUOUS
 62
    7
 10
-339.68673699999999
 20
789.60002150000003
 40
2.0670000000000002
  0
LINE
  8
_0-0_0
  6
CONTINUOUS
 62
    7
 10
-347.18673699999999
 20
813.10002150000003
 11
-348.28671299999996
 21
813.10002150000003
  0
LINE
  8
_0-0_0
  6
CONTINUOUS
 62
    7
 10
-331.08673099999987
 20
782.80000250000001
 11
-330.98672499999998
 21
782.80000250000001
  0
LINE
  8
_0-0_0
  6
CONTINUOUS
 62
    7
 10
-331.08673099999987
 20
782.80000250000001
 11
-330.98672499999998
 21
782.80000250000001
  0
LINE
  8
_0-0_0
  6
CONTINUOUS
 62
    7
 10
-348.78671299999996
 20
812.60002150000003
 11
-348.28671299999996
 21
813.10002150000003
  0
LINE
  8
_0-0_0
  6
CONTINUOUS
 62
    7
 10
-347.18673699999999
 20
820.60002150000003
 11
-348.28671299999996
 21
820.60002150000003
  0
LINE
  8
_0-0_0
  6
CONTINUOUS
 62
    7
 10
-348.78671299999996
 20
820.10002150000003
 11
-348.28671299999996
 21
820.60002150000003
  0
ENDSEC
  0
EOF
