  0
SECTION
  2
HEADER
  9
$ACADVER
  1
AC1009
  9
$INSBASE
 10
0
 20
0
 30
0
  9
$EXTMIN
 10
0
 20
0
  9
$EXTMAX
 10
1682
 20
1188
  9
$LIMMIN
 10
0
 20
0
  9
$LIMMAX
 10
1682
 20
1188
  9
$LTSCALE
 40
2
  0
ENDSEC
  0
SECTION
  2
TABLES
  0
TABLE
  2
LTYPE
 70
     9
  0
LTYPE
  2
CONTINUOUS
 70
    64
  3
実線
 72
    65
 73
     0
 40
0.0
  0
LTYPE
  2
DASHED1
 70
    64
  3
--  --  --  --  --  --  --  --  
 72
    65
 73
     2
 40
2.5
 49
1.25
 49
-1.25
  0
LTYPE
  2
DASHED2
 70
    64
  3
----    ----    ----    ----    
 72
    65
 73
     2
 40
5.0
 49
2.5
 49
-2.5
  0
LTYPE
  2
DASHED3
 70
    64
  3
------  ------  ------  ------  
 72
    65
 73
     2
 40
5.0
 49
3.75
 49
-1.25
  0
LTYPE
  2
CENTER1
 70
    64
  3
----- - ----- - ----- - ----- - 
 72
    65
 73
     4
 40
10.0
 49
6.25
 49
-1.25
 49
1.25
 49
-1.25
  0
LTYPE
  2
CENTER2
 70
    64
  3
----------  --  ----------  --  
 72
    65
 73
     4
 40
20.0
 49
12.5
 49
-2.5
 49
2.5
 49
-2.5
  0
LTYPE
  2
PHANTOM1
 70
    64
  3
--- - - --- - - --- - - --- - - 
 72
    65
 73
     6
 40
10.0
 49
3.25
 49
-1.25
 49
1.25
 49
-1.25
 49
1.25
 49
-1.25
  0
LTYPE
  2
PHANTOM2
 70
    64
  3
--------  -  -  --------  -  -  
 72
    65
 73
     6
 40
20.0
 49
10.0
 49
-2.5
 49
1.25
 49
-2.5
 49
1.25
 49
-2.5
  0
LTYPE
  2
DOT
 70
    64
  3
-   -   -   -   -   -   -   -   
 72
    65
 73
     2
 40
2.5
 49
0.625
 49
-1.875
  0
LTYPE
  2
DUMMY
 70
    64
  3
ダミー
 72
    65
 73
     0
 40
0.0
  0
LTYPE
  2
RAND1
 70
    64
  3
ランダム線1
 72
    65
 73
     4
 40
10.0
 49
1.0
 49
-2.0
 49
3.0
 49
-4.0
  0
LTYPE
  2
RAND2
 70
    64
  3
ランダム線2
 72
    65
 73
     4
 40
14.0
 49
2.0
 49
-3.0
 49
4.0
 49
-5.0
  0
LTYPE
  2
RAND3
 70
    64
  3
ランダム線3
 72
    65
 73
     4
 40
18.0
 49
3.0
 49
-4.0
 49
5.0
 49
-6.0
  0
LTYPE
  2
RAND4
 70
    64
  3
ランダム線4
 72
    65
 73
     4
 40
22.0
 49
4.0
 49
-5.0
 49
6.0
 49
-7.0
  0
LTYPE
  2
RAND5
 70
    64
  3
ランダム線5
 72
    65
 73
     4
 40
26.0
 49
5.0
 49
-6.0
 49
7.0
 49
-8.0
  0
LTYPE
  2
LONG1
 70
    64
  3
----------  --  ----------  --  
 72
    65
 73
     4
 40
40.0
 49
32.5
 49
-2.5
 49
2.5
 49
-2.5
  0
LTYPE
  2
LONG2
 70
    64
  3
--------  -  -  --------  -  -  
 72
    65
 73
     6
 40
40.0
 49
30.0
 49
-2.5
 49
1.25
 49
-2.5
 49
1.25
 49
-2.5
  0
LTYPE
  2
LONG3
 70
    64
  3
+++++++++++++++..+++++++++++++++
 72
    65
 73
     2
 40
40.0
 49
37.5
 49
-2.5
  0
LTYPE
  2
LONG4
 70
    64
  3
+++++++++++++++..+++++++++++++++
 72
    65
 73
     2
 40
80.0
 49
75.0
 49
-5.0
  0
LTYPE
  2
LONG5
 70
    64
  3
----------  --  ----------  --  
 72
    65
 73
     4
 40
60.0
 49
37.5
 49
-7.5
 49
7.5
 49
-7.5
  0
LTYPE
  2
dashed
 70
   64
  3
-------   -------------   ------
 72
   65
 73
    2
 40
7.5
 49
6
 49
-1.5
  0
LTYPE
  2
dashed_spaced
 70
   64
  3
----        --------        ----
 72
   65
 73
    2
 40
12
 49
6
 49
-6
  0
LTYPE
  2
long_dashed_dotted
 70
   64
  3
------------- --- --------------
 72
   65
 73
    4
 40
15.25
 49
12
 49
-1.5
 49
0.25
 49
-1.5
  0
LTYPE
  2
long_dashed_double-dotted
 70
   64
  3
----------- --- --- ------------
 72
   65
 73
    6
 40
17
 49
12
 49
-1.5
 49
0.25
 49
-1.5
 49
0.25
 49
-1.5
  0
LTYPE
  2
long_dashed_triplicate-dotted
 70
   64
  3
--------- --- --- --- ----------
 72
   65
 73
    8
 40
18.75
 49
12
 49
-1.5
 49
0.25
 49
-1.5
 49
0.25
 49
-1.5
 49
0.25
 49
-1.5
  0
LTYPE
  2
dotted
 70
   64
  3
   -       -       -       -    
 72
   65
 73
    2
 40
1.75
 49
0.25
 49
-1.5
  0
LTYPE
  2
chain
 70
   64
  3
-------------- -- --------------
 72
   65
 73
    4
 40
18.5
 49
12
 49
-1.5
 49
3.5
 49
-1.5
  0
LTYPE
  2
chain_double_dash
 70
   64
  3
------------ -- -- -------------
 72
   65
 73
    6
 40
23.5
 49
12
 49
-1.5
 49
3.5
 49
-1.5
 49
3.5
 49
-1.5
  0
LTYPE
  2
dashed_dotted
 70
   64
  3
-----------     -     ----------
 72
   65
 73
    4
 40
9.25
 49
6
 49
-1.5
 49
0.25
 49
-1.5
  0
LTYPE
  2
double-dashed_dotted
 70
   64
  3
------   -----------   -   -----
 72
   65
 73
    6
 40
16.75
 49
6
 49
-1.5
 49
6
 49
-1.5
 49
0.25
 49
-1.5
  0
LTYPE
  2
dashed_double-dotted
 70
   64
  3
---------    -    -    ---------
 72
   65
 73
    6
 40
11
 49
6
 49
-1.5
 49
0.25
 49
-1.5
 49
0.25
 49
-1.5
  0
LTYPE
  2
double-dashed_double-dotted
 70
   64
  3
-----   ---------   -   -   ----
 72
   65
 73
    8
 40
18.5
 49
6
 49
-1.5
 49
6
 49
-1.5
 49
0.25
 49
-1.5
 49
0.25
 49
-1.5
  0
LTYPE
  2
dashed_triplicate-dotted
 70
   64
  3
-------    -    -    -    ------
 72
   65
 73
    8
 40
12.75
 49
6
 49
-1.5
 49
0.25
 49
-1.5
 49
0.25
 49
-1.5
 49
0.25
 49
-1.5
  0
LTYPE
  2
double-dashed_triplicate-dotted
 70
   64
  3
-----  ---------  -  -  -  -----
 72
   65
 73
   10
 40
20.25
 49
6
 49
-1.5
 49
6
 49
-1.5
 49
0.25
 49
-1.5
 49
0.25
 49
-1.5
 49
0.25
 49
-1.5
  0
LTYPE
  2
undefined
 70
   64
  3
--------------------------------
 72
   65
 73
    0
 40
0
  0
ENDTAB
  0
TABLE
  2
STYLE
  5
3
100
AcDbSymbolTable
 70
     1
  0
STYLE
  5
10
100
AcDbSymbolTableRecord
100
AcDbTextStyleTableRecord
  2
STANDARD
 70
     0
 40
0.0
 41
1.0
 50
0.0
 71
     0
 42
0.2
  3
txt
  4
bigfont.shx
  0
STYLE
  5
26
100
AcDbSymbolTableRecord
100
AcDbTextStyleTableRecord
  2
TATEGAKI
 70
    68
 40
0.0
 41
1.0
 50
0.0
 71
     0
 42
1.0
  3
txt
  4
bigfont.shx
  0
ENDTAB
  0
TABLE
  2
LAYER
 70
    2
  0
LAYER
  2
_0-0_0
 70
   64
 62
    7
  6
CONTINUOUS
  0
LAYER
  2
ADD_LINE
 70
   64
 62
    7
  6
CONTINUOUS
  0
ENDTAB
  0
ENDSEC
  0
SECTION
  2
BLOCKS
  0
ENDSEC
  0
SECTION
  2
ENTITIES
  0
LINE
  8
_0-0_0
  6
CONTINUOUS
 62
    7
 10
-99.071045000000026
 20
813.90052749999995
 11
-99.071045000000026
 21
813.89952049999999
  0
LINE
  8
_0-0_0
  6
CONTINUOUS
 62
    7
 10
53.741469999999936
 20
774.96958949999998
 11
52.441466999999989
 21
771.46958949999998
  0
ARC
  8
_0-0_0
  6
CONTINUOUS
 62
    7
 10
53.928954999999974
 20
774.89994750000005
 40
0.2
 50
20.376434999999997
 51
159.62357000000003
  0
ARC
  8
_0-0_0
  6
CONTINUOUS
 62
    7
 10
91.928954999999974
 20
777.79994150000005
 40
2.2000000000000002
 50
180.00000900000003
 51
303.74900400000001
  0
LINE
  8
_0-0_0
  6
CONTINUOUS
 62
    7
 10
89.728958000000034
 20
779.29994150000005
 11
89.728958000000034
 21
777.79994150000005
  0
LINE
  8
_0-0_0
  6
CONTINUOUS
 62
    7
 10
89.728958000000034
 20
779.29994150000005
 11
15.128966999999989
 21
779.29994150000005
  0
LINE
  8
_0-0_0
  6
CONTINUOUS
 62
    7
 10
15.128966999999989
 20
779.29994150000005
 11
15.128966999999989
 21
777.79994150000005
  0
ARC
  8
_0-0_0
  6
CONTINUOUS
 62
    7
 10
12.928954999999974
 20
777.79994150000005
 40
2.2000000000000002
 50
236.25102899999999
 51
0
  0
ARC
  8
_0-0_0
  6
CONTINUOUS
 62
    7
 10
11.428954999999974
 20
775.55494650000003
 40
0.5
 50
56.251010000000008
 51
180.00000900000001
  0
LINE
  8
_0-0_0
  6
CONTINUOUS
 62
    7
 10
10.928954999999974
 20
755.19993550000004
 11
10.928954999999974
 21
755.97706549999998
  0
LINE
  8
_0-0_0
  6
CONTINUOUS
 62
    7
 10
10.928954999999974
 20
755.19993550000004
 11
20.728958000000034
 21
755.19993550000004
  0
ARC
  8
_0-0_0
  6
CONTINUOUS
 62
    7
 10
20.728958000000034
 20
755.39994750000005
 40
0.2
 50
269.99999700000001
 51
0
  0
LINE
  8
_0-0_0
  6
CONTINUOUS
 62
    7
 10
20.928954999999974
 20
757.09992950000003
 11
20.928954999999974
 21
755.39994750000005
  0
ARC
  8
_0-0_0
  6
CONTINUOUS
 62
    7
 10
21.128966999999989
 20
757.09992950000003
 40
0.2
 50
90.000003000000007
 51
180.00000900000001
  0
LINE
  8
_0-0_0
  6
CONTINUOUS
 62
    7
 10
21.628966999999989
 20
757.29994150000005
 11
21.128966999999989
 21
757.29994150000005
  0
ARC
  8
_0-0_0
  6
CONTINUOUS
 62
    7
 10
21.628966999999989
 20
756.79994150000005
 40
0.5
 50
90.000003000000007
 51
180.00000900000001
  0
LINE
  8
_0-0_0
  6
CONTINUOUS
 62
    7
 10
21.128966999999989
 20
755.29994150000005
 11
21.128966999999989
 21
756.79994150000005
  0
LINE
  8
_0-0_0
  6
CONTINUOUS
 62
    7
 10
90.728958000000034
 20
755.29994150000005
 11
21.128966999999989
 21
755.29994150000005
  0
LINE
  8
_0-0_0
  6
CONTINUOUS
 62
    7
 10
90.728958000000034
 20
755.29994150000005
 11
90.728958000000034
 21
756.79994150000005
  0
ARC
  8
_0-0_0
  6
CONTINUOUS
 62
    7
 10
90.228958000000034
 20
756.79994150000005
 40
0.5
 50
0
 51
90.000003000000007
  0
LINE
  8
_0-0_0
  6
CONTINUOUS
 62
    7
 10
90.728958000000034
 20
757.29994150000005
 11
90.228958000000034
 21
757.29994150000005
  0
ARC
  8
_0-0_0
  6
CONTINUOUS
 62
    7
 10
90.728958000000034
 20
757.09992950000003
 40
0.2
 50
0
 51
90.000003000000007
  0
LINE
  8
_0-0_0
  6
CONTINUOUS
 62
    7
 10
90.928954999999974
 20
755.39994750000005
 11
90.928954999999974
 21
757.09992950000003
  0
ARC
  8
_0-0_0
  6
CONTINUOUS
 62
    7
 10
91.128952000000027
 20
755.39994750000005
 40
0.2
 50
180.00000900000003
 51
269.99999700000001
  0
LINE
  8
_0-0_0
  6
CONTINUOUS
 62
    7
 10
91.128952000000027
 20
755.19993550000004
 11
91.928954999999974
 21
755.19993550000004
  0
ARC
  8
_0-0_0
  6
CONTINUOUS
 62
    7
 10
91.928954999999974
 20
757.19993550000004
 40
2
 50
269.99999700000001
 51
0.0000099999999886
  0
LINE
  8
_0-0_0
  6
CONTINUOUS
 62
    7
 10
93.928954999999974
 20
775.55494650000003
 11
93.928954999999974
 21
757.19993550000004
  0
ARC
  8
_0-0_0
  6
CONTINUOUS
 62
    7
 10
93.428954999999974
 20
775.55494650000003
 40
0.5
 50
0
 51
123.74898500000002
  0
LINE
  8
_0-0_0
  6
CONTINUOUS
 62
    7
 10
22.428954999999974
 20
757.49995450000006
 11
22.428954999999974
 21
757.69993550000004
  0
LINE
  8
_0-0_0
  6
CONTINUOUS
 62
    7
 10
22.428954999999974
 20
757.69993550000004
 11
89.428954999999974
 21
757.69993550000004
  0
LINE
  8
_0-0_0
  6
CONTINUOUS
 62
    7
 10
89.428954999999974
 20
757.49995450000006
 11
89.428954999999974
 21
757.69993550000004
  0
ARC
  8
_0-0_0
  6
CONTINUOUS
 62
    7
 10
89.628952000000027
 20
757.49995450000006
 40
0.2
 50
180.00000900000003
 51
269.99999700000001
  0
LINE
  8
_0-0_0
  6
CONTINUOUS
 62
    7
 10
89.628952000000027
 20
757.29994150000005
 11
22.228958000000034
 21
757.29994150000005
  0
ARC
  8
_0-0_0
  6
CONTINUOUS
 62
    7
 10
22.228958000000034
 20
757.49995450000006
 40
0.2
 50
269.99999700000001
 51
0
  0
ARC
  8
_0-0_0
  6
CONTINUOUS
 62
    7
 10
52.628952000000027
 20
771.39994750000005
 40
0.2
 50
159.62357
 51
269.99999700000001
  0
LINE
  8
_0-0_0
  6
CONTINUOUS
 62
    7
 10
52.628952000000027
 20
771.19993550000004
 11
55.228958000000034
 21
771.19993550000004
  0
ARC
  8
_0-0_0
  6
CONTINUOUS
 62
    7
 10
55.228958000000034
 20
771.39994750000005
 40
0.2
 50
269.99999700000001
 51
20.376435000000019
  0
LINE
  8
_0-0_0
  6
CONTINUOUS
 62
    7
 10
55.416442999999958
 20
771.46958949999998
 11
54.116440000000011
 21
774.96958949999998
  0
LINE
  8
_0-0_0
  6
CONTINUOUS
 62
    7
 10
10.928954999999974
 20
774.89994750000005
 11
10.928954999999974
 21
776.87730350000004
  0
LINE
  8
_0-0_0
  6
CONTINUOUS
 62
    7
 10
10.928954999999974
 20
774.89994750000005
 11
10.928954999999974
 21
757.29994150000005
  0
LINE
  8
_0-0_0
  6
CONTINUOUS
 62
    7
 10
10.928954999999974
 20
755.97706549999998
 11
10.928954999999974
 21
757.29994150000005
  0
LINE
  8
_0-0_0
  6
CONTINUOUS
 62
    7
 10
93.928954999999974
 20
781.29994150000005
 11
93.928954999999974
 21
780.29994150000005
  0
LINE
  8
_0-0_0
  6
CONTINUOUS
 62
    7
 10
93.928954999999974
 20
780.29994150000005
 11
93.928954999999974
 21
779.79994150000005
  0
LINE
  8
_0-0_0
  6
CONTINUOUS
 62
    7
 10
93.928954999999974
 20
779.79994150000005
 11
93.928954999999974
 21
777.79994150000005
  0
LINE
  8
_0-0_0
  6
CONTINUOUS
 62
    7
 10
93.928954999999974
 20
777.79994150000005
 11
93.928954999999974
 21
775.55494650000003
  0
LINE
  8
_0-0_0
  6
CONTINUOUS
 62
    7
 10
71.928954999999974
 20
775.29994150000005
 11
71.928954999999974
 21
761.69993550000004
  0
ARC
  8
_0-0_0
  6
CONTINUOUS
 62
    7
 10
74.928954999999974
 20
775.29994150000005
 40
3
 50
90.000003000000007
 51
180.00000900000001
  0
LINE
  8
_0-0_0
  6
CONTINUOUS
 62
    7
 10
88.26289399999996
 20
778.29994150000005
 11
74.928954999999974
 21
778.29994150000005
  0
ARC
  8
_0-0_0
  6
CONTINUOUS
 62
    7
 10
88.26289399999996
 20
777.29994150000005
 40
1
 50
7.7664340000000012
 51
90.000002999999992
  0
ARC
  8
_0-0_0
  6
CONTINUOUS
 62
    7
 10
91.928954999999974
 20
777.79994150000005
 40
2.7000000000000002
 50
187.76643899999999
 51
254.31966600000001
  0
ARC
  8
_0-0_0
  6
CONTINUOUS
 62
    7
 10
90.928954999999974
 20
774.23762450000004
 40
1
 50
0
 51
74.319649999999996
  0
LINE
  8
_0-0_0
  6
CONTINUOUS
 62
    7
 10
91.928954999999974
 20
761.69993550000004
 11
91.928954999999974
 21
774.23762450000004
  0
ARC
  8
_0-0_0
  6
CONTINUOUS
 62
    7
 10
88.928954999999974
 20
761.69993550000004
 40
3
 50
269.99999700000001
 51
0.0000099999999886
  0
LINE
  8
_0-0_0
  6
CONTINUOUS
 62
    7
 10
74.928954999999974
 20
758.69993550000004
 11
88.928954999999974
 21
758.69993550000004
  0
ARC
  8
_0-0_0
  6
CONTINUOUS
 62
    7
 10
74.928954999999974
 20
761.69993550000004
 40
3
 50
180.00000900000003
 51
269.99999700000001
  0
LINE
  8
_0-0_0
  6
CONTINUOUS
 62
    7
 10
17.928954999999974
 20
758.69993550000004
 11
32.928954999999974
 21
758.69993550000004
  0
ARC
  8
_0-0_0
  6
CONTINUOUS
 62
    7
 10
17.928954999999974
 20
761.69993550000004
 40
3
 50
180.00000900000003
 51
269.99999700000001
  0
LINE
  8
_0-0_0
  6
CONTINUOUS
 62
    7
 10
14.928954999999974
 20
775.29994150000005
 11
14.928954999999974
 21
761.69993550000004
  0
ARC
  8
_0-0_0
  6
CONTINUOUS
 62
    7
 10
17.928954999999974
 20
775.29994150000005
 40
3
 50
90.000003000000007
 51
180.00000900000001
  0
LINE
  8
_0-0_0
  6
CONTINUOUS
 62
    7
 10
32.928954999999974
 20
778.29994150000005
 11
17.928954999999974
 21
778.29994150000005
  0
ARC
  8
_0-0_0
  6
CONTINUOUS
 62
    7
 10
32.928954999999974
 20
775.29994150000005
 40
3
 50
0
 51
90.000003000000007
  0
LINE
  8
_0-0_0
  6
CONTINUOUS
 62
    7
 10
35.928954999999974
 20
761.69993550000004
 11
35.928954999999974
 21
775.29994150000005
  0
ARC
  8
_0-0_0
  6
CONTINUOUS
 62
    7
 10
32.928954999999974
 20
761.69993550000004
 40
3
 50
269.99999700000001
 51
0.0000099999999886
  0
LINE
  8
_0-0_0
  6
CONTINUOUS
 62
    7
 10
89.928954999999974
 20
779.29994150000005
 11
89.728958000000034
 21
779.29994150000005
  0
ARC
  8
_0-0_0
  6
CONTINUOUS
 62
    7
 10
91.928954999999974
 20
777.79994150000005
 40
2
 50
180.00000900000003
 51
0.0000000000000254
  0
LINE
  8
_0-0_0
  6
CONTINUOUS
 62
    7
 10
89.928954999999974
 20
779.29994150000005
 11
89.928954999999974
 21
777.79994150000005
  0
LINE
  8
_0-0_0
  6
CONTINUOUS
 62
    7
 10
15.128966999999989
 20
779.29994150000005
 11
14.928954999999974
 21
779.29994150000005
  0
LINE
  8
_0-0_0
  6
CONTINUOUS
 62
    7
 10
14.928954999999974
 20
779.29994150000005
 11
14.928954999999974
 21
777.79994150000005
  0
ARC
  8
_0-0_0
  6
CONTINUOUS
 62
    7
 10
12.928954999999974
 20
777.79994150000005
 40
2
 50
180.00000900000003
 51
0.0000000000000254
  0
LINE
  8
_0-0_0
  6
CONTINUOUS
 62
    7
 10
-2.5710370000000466
 20
779.79994150000005
 11
-2.5710370000000466
 21
779.29994150000005
  0
LINE
  8
_0-0_0
  6
CONTINUOUS
 62
    7
 10
10.928954999999974
 20
776.88343750000001
 11
10.928954999999974
 21
777.59992950000003
  0
LINE
  8
_0-0_0
  6
CONTINUOUS
 62
    7
 10
10.928954999999974
 20
776.88343750000001
 11
10.928954999999974
 21
776.87730350000004
  0
LINE
  8
_0-0_0
  6
CONTINUOUS
 62
    7
 10
10.928954999999974
 20
775.66880749999996
 11
10.928954999999974
 21
775.55494650000003
  0
LINE
  8
_0-0_0
  6
CONTINUOUS
 62
    7
 10
-1.0710370000000466
 20
776.89994750000005
 11
-1.0710370000000466
 21
774.89994750000005
  0
LINE
  8
_0-0_0
  6
CONTINUOUS
 62
    7
 10
10.928954999999974
 20
776.89994750000005
 11
-1.0710370000000466
 21
776.89994750000005
  0
LINE
  8
_0-0_0
  6
CONTINUOUS
 62
    7
 10
-1.0710370000000466
 20
771.39994750000005
 11
-1.0710370000000466
 21
774.39994750000005
  0
LINE
  8
_0-0_0
  6
CONTINUOUS
 62
    7
 10
-1.0710370000000466
 20
774.39994750000005
 11
-1.0710370000000466
 21
774.89994750000005
  0
LINE
  8
_0-0_0
  6
CONTINUOUS
 62
    7
 10
-1.0710370000000466
 20
771.39994750000005
 11
-1.0710370000000466
 21
770.89994750000005
  0
ARC
  8
_0-0_0
  6
CONTINUOUS
 62
    7
 10
4.9289699999999357
 20
771.59992950000003
 40
0.500016
 50
0.001164
 51
179.99560600000004
  0
LINE
  8
_0-0_0
  6
CONTINUOUS
 62
    7
 10
4.4289549999999736
 20
771.59992950000003
 11
4.4289549999999736
 21
759.59992950000003
  0
ARC
  8
_0-0_0
  6
CONTINUOUS
 62
    7
 10
4.9289699999999357
 20
759.59996049999995
 40
0.500016
 50
180.00117
 51
359.995611
  0
LINE
  8
_0-0_0
  6
CONTINUOUS
 62
    7
 10
5.4289549999999736
 20
771.59992950000003
 11
5.4289549999999736
 21
759.59992950000003
  0
ARC
  8
_0-0_0
  6
CONTINUOUS
 62
    7
 10
3.4289699999999357
 20
771.59992950000003
 40
0.500016
 50
0.001164
 51
179.99560600000004
  0
LINE
  8
_0-0_0
  6
CONTINUOUS
 62
    7
 10
2.9289549999999736
 20
771.59992950000003
 11
2.9289549999999736
 21
759.59992950000003
  0
ARC
  8
_0-0_0
  6
CONTINUOUS
 62
    7
 10
3.4289699999999357
 20
759.59996049999995
 40
0.500016
 50
180.00117
 51
359.995611
  0
LINE
  8
_0-0_0
  6
CONTINUOUS
 62
    7
 10
3.9289549999999736
 20
771.59992950000003
 11
3.9289549999999736
 21
759.59992950000003
  0
ARC
  8
_0-0_0
  6
CONTINUOUS
 62
    7
 10
1.9289699999999357
 20
771.59992950000003
 40
0.500016
 50
0.001164
 51
179.99560600000004
  0
LINE
  8
_0-0_0
  6
CONTINUOUS
 62
    7
 10
1.4289549999999736
 20
771.59992950000003
 11
1.4289549999999736
 21
759.59992950000003
  0
ARC
  8
_0-0_0
  6
CONTINUOUS
 62
    7
 10
1.9289699999999357
 20
759.59996049999995
 40
0.500016
 50
180.00117
 51
359.995611
  0
LINE
  8
_0-0_0
  6
CONTINUOUS
 62
    7
 10
2.4289549999999736
 20
771.59992950000003
 11
2.4289549999999736
 21
759.59992950000003
  0
ARC
  8
_0-0_0
  6
CONTINUOUS
 62
    7
 10
0.4289699999999356
 20
771.59992950000003
 40
0.500016
 50
0.001164
 51
179.99560600000004
  0
LINE
  8
_0-0_0
  6
CONTINUOUS
 62
    7
 10
-0.0710370000000466
 20
771.59992950000003
 11
-0.0710370000000466
 21
759.59992950000003
  0
ARC
  8
_0-0_0
  6
CONTINUOUS
 62
    7
 10
0.4289699999999356
 20
759.59996049999995
 40
0.500016
 50
180.00117
 51
359.995611
  0
LINE
  8
_0-0_0
  6
CONTINUOUS
 62
    7
 10
0.9289549999999735
 20
771.59992950000003
 11
0.9289549999999735
 21
759.59992950000003
  0
LINE
  8
_0-0_0
  6
CONTINUOUS
 62
    7
 10
10.928954999999974
 20
755.29994150000005
 11
-5.7464899999999943
 21
755.29994150000005
  0
LINE
  8
_0-0_0
  6
CONTINUOUS
 62
    7
 10
21.478958000000034
 20
757.27690150000001
 11
21.478958000000034
 21
757.29994150000005
  0
LINE
  8
_0-0_0
  6
CONTINUOUS
 62
    7
 10
90.378952000000027
 20
757.27690150000001
 11
90.378952000000027
 21
757.29994150000005
  0
LINE
  8
_0-0_0
  6
CONTINUOUS
 62
    7
 10
-2.5710370000000466
 20
779.79994150000005
 11
-2.5710370000000466
 21
780.29994150000005
  0
LINE
  8
_0-0_0
  6
CONTINUOUS
 62
    7
 10
93.928954999999974
 20
780.29994150000005
 11
-2.5710370000000466
 21
780.29994150000005
  0
LINE
  8
_0-0_0
  6
CONTINUOUS
 62
    7
 10
-2.5710370000000466
 20
780.29994150000005
 11
-2.5710370000000466
 21
781.29994150000005
  0
LINE
  8
_0-0_0
  6
CONTINUOUS
 62
    7
 10
93.929091999999969
 20
781.30000250000001
 11
93.929091999999969
 21
780.80000250000001
  0
LINE
  8
_0-0_0
  6
CONTINUOUS
 62
    7
 10
93.929091999999969
 20
780.80000250000001
 11
93.929091999999969
 21
779.30000250000001
  0
ARC
  8
_0-0_0
  6
CONTINUOUS
 62
    7
 10
84.428954999999974
 20
770.89994750000005
 40
4.5
 50
269.99999700000001
 51
90.000002999999992
  0
LINE
  8
_0-0_0
  6
CONTINUOUS
 62
    7
 10
84.428954999999974
 20
766.39994750000005
 11
79.428954999999974
 21
766.39994750000005
  0
ARC
  8
_0-0_0
  6
CONTINUOUS
 62
    7
 10
79.428954999999974
 20
770.89994750000005
 40
4.5
 50
90.000003000000007
 51
269.99999700000006
  0
LINE
  8
_0-0_0
  6
CONTINUOUS
 62
    7
 10
79.428954999999974
 20
775.39994750000005
 11
84.428954999999974
 21
775.39994750000005
  0
ARC
  8
_0-0_0
  6
CONTINUOUS
 62
    7
 10
28.428954999999974
 20
770.89994750000005
 40
4.5
 50
269.99999700000001
 51
90.000002999999992
  0
LINE
  8
_0-0_0
  6
CONTINUOUS
 62
    7
 10
28.428954999999974
 20
766.39994750000005
 11
23.428954999999974
 21
766.39994750000005
  0
ARC
  8
_0-0_0
  6
CONTINUOUS
 62
    7
 10
23.428954999999974
 20
770.89994750000005
 40
4.5
 50
90.000003000000007
 51
269.99999700000006
  0
LINE
  8
_0-0_0
  6
CONTINUOUS
 62
    7
 10
23.428954999999974
 20
775.39994750000005
 11
28.428954999999974
 21
775.39994750000005
  0
LINE
  8
_0-0_0
  6
CONTINUOUS
 62
    7
 10
10.928954999999974
 20
777.59992950000003
 11
10.928954999999974
 21
779.29994150000005
  0
LINE
  8
_0-0_0
  6
CONTINUOUS
 62
    7
 10
10.928954999999974
 20
779.29994150000005
 11
-2.5710370000000466
 21
779.29994150000005
  0
LINE
  8
_0-0_0
  6
CONTINUOUS
 62
    7
 10
-2.5710370000000466
 20
777.59992950000003
 11
-2.5710370000000466
 21
779.29994150000005
  0
LINE
  8
_0-0_0
  6
CONTINUOUS
 62
    7
 10
-1.0710370000000466
 20
776.89994750000005
 11
-5.7464899999999943
 21
776.89994750000005
  0
LINE
  8
_0-0_0
  6
CONTINUOUS
 62
    7
 10
-1.0710370000000466
 20
771.39994750000005
 11
-5.7464899999999943
 21
771.39994750000005
  0
LINE
  8
_0-0_0
  6
CONTINUOUS
 62
    7
 10
-6.3789369999999508
 20
755.40257250000002
 11
-6.2594300000000658
 21
755.36695850000001
  0
LINE
  8
_0-0_0
  6
CONTINUOUS
 62
    7
 10
-6.2594300000000658
 20
755.36695850000001
 11
-6.1378780000000006
 21
755.33906549999995
  0
LINE
  8
_0-0_0
  6
CONTINUOUS
 62
    7
 10
-6.1378780000000006
 20
755.33906549999995
 11
-6.0147550000000365
 21
755.31904550000002
  0
LINE
  8
_0-0_0
  6
CONTINUOUS
 62
    7
 10
-6.0147550000000365
 20
755.31904550000002
 11
-5.8905330000000049
 21
755.30693050000002
  0
LINE
  8
_0-0_0
  6
CONTINUOUS
 62
    7
 10
-5.8905330000000049
 20
755.30693050000002
 11
-5.7657169999999951
 21
755.30278050000004
  0
LINE
  8
_0-0_0
  6
CONTINUOUS
 62
    7
 10
-5.7657169999999951
 20
755.30278050000004
 11
-5.7464899999999943
 21
755.30287150000004
  0
ARC
  8
_0-0_0
  6
CONTINUOUS
 62
    7
 10
-5.7464899999999943
 20
757.29994150000005
 40
2
 50
251.56498899999997
 51
269.99999700000001
  0
LINE
  8
_0-0_0
  6
CONTINUOUS
 62
    7
 10
-2.5710370000000466
 20
777.59992950000003
 11
10.928954999999974
 21
777.59992950000003
  0
CIRCLE
  8
_0-0_0
  6
CONTINUOUS
 62
    7
 10
91.928954999999974
 20
777.79994150000005
 40
1.4750000000000001
  0
CIRCLE
  8
_0-0_0
  6
CONTINUOUS
 62
    7
 10
12.928954999999974
 20
777.79994150000005
 40
1.4750000000000001
  0
ARC
  8
_0-0_0
  6
CONTINUOUS
 62
    7
 10
-5.7464899999999943
 20
774.89994750000005
 40
2
 50
90.000003000000007
 51
108.434997
  0
LINE
  8
_0-0_0
  6
CONTINUOUS
 62
    7
 10
-10.545380000000023
 20
771.39994750000005
 11
-11.23873900000001
 21
771.39994750000005
  0
LINE
  8
_0-0_0
  6
CONTINUOUS
 62
    7
 10
-10.545380000000023
 20
771.39994750000005
 11
-6.2208249999999907
 21
771.39994750000005
  0
LINE
  8
_0-0_0
  6
CONTINUOUS
 62
    7
 10
-5.7464899999999943
 20
771.39994750000005
 11
-6.2208249999999907
 21
771.39994750000005
  0
LINE
  8
_0-0_0
  6
CONTINUOUS
 62
    7
 10
-10.703490999999985
 20
756.84410049999997
 11
-6.3789369999999508
 21
755.40257250000002
  0
LINE
  8
_0-0_0
  6
CONTINUOUS
 62
    7
 10
88.478958000000034
 20
770.89994750000005
 11
86.169555999999943
 21
766.89994750000005
  0
LINE
  8
_0-0_0
  6
CONTINUOUS
 62
    7
 10
77.688355000000001
 20
766.89994750000005
 11
86.169555999999943
 21
766.89994750000005
  0
LINE
  8
_0-0_0
  6
CONTINUOUS
 62
    7
 10
77.688355000000001
 20
766.89994750000005
 11
75.378952000000027
 21
770.89994750000005
  0
LINE
  8
_0-0_0
  6
CONTINUOUS
 62
    7
 10
75.378952000000027
 20
770.89994750000005
 11
77.688355000000001
 21
774.89994750000005
  0
LINE
  8
_0-0_0
  6
CONTINUOUS
 62
    7
 10
86.169555999999943
 20
774.89994750000005
 11
77.688355000000001
 21
774.89994750000005
  0
LINE
  8
_0-0_0
  6
CONTINUOUS
 62
    7
 10
86.169555999999943
 20
774.89994750000005
 11
88.478958000000034
 21
770.89994750000005
  0
LINE
  8
_0-0_0
  6
CONTINUOUS
 62
    7
 10
21.688355000000001
 20
774.89994750000005
 11
19.378966999999989
 21
770.89994750000005
  0
LINE
  8
_0-0_0
  6
CONTINUOUS
 62
    7
 10
30.169555999999943
 20
774.89994750000005
 11
21.688355000000001
 21
774.89994750000005
  0
LINE
  8
_0-0_0
  6
CONTINUOUS
 62
    7
 10
32.478958000000034
 20
770.89994750000005
 11
30.169555999999943
 21
774.89994750000005
  0
LINE
  8
_0-0_0
  6
CONTINUOUS
 62
    7
 10
30.169555999999943
 20
766.89994750000005
 11
32.478958000000034
 21
770.89994750000005
  0
LINE
  8
_0-0_0
  6
CONTINUOUS
 62
    7
 10
21.688355000000001
 20
766.89994750000005
 11
30.169555999999943
 21
766.89994750000005
  0
LINE
  8
_0-0_0
  6
CONTINUOUS
 62
    7
 10
19.378966999999989
 20
770.89994750000005
 11
21.688355000000001
 21
766.89994750000005
  0
LINE
  8
_0-0_0
  6
CONTINUOUS
 62
    7
 10
-6.8210450000000264
 20
776.64994750000005
 11
-6.3789369999999508
 21
776.79731749999996
  0
LINE
  8
_0-0_0
  6
CONTINUOUS
 62
    7
 10
-12.071045000000026
 20
772.14997849999997
 11
-12.071045000000026
 21
771.02894549999996
  0
LINE
  8
_0-0_0
  6
CONTINUOUS
 62
    7
 10
-12.071045000000026
 20
770.10762050000005
 11
-12.071045000000026
 21
771.02894549999996
  0
LINE
  8
_0-0_0
  6
CONTINUOUS
 62
    7
 10
-11.771027000000004
 20
768.3119355
 11
-11.829834000000005
 21
768.55876150000006
  0
LINE
  8
_0-0_0
  6
CONTINUOUS
 62
    7
 10
-11.829834000000005
 20
768.55876150000006
 11
-11.879607999999962
 21
768.75111349999997
  0
LINE
  8
_0-0_0
  6
CONTINUOUS
 62
    7
 10
-11.879607999999962
 20
768.75111349999997
 11
-11.950729000000024
 21
769.01692149999997
  0
LINE
  8
_0-0_0
  6
CONTINUOUS
 62
    7
 10
-11.950729000000024
 20
769.01692149999997
 11
-11.983688000000029
 21
769.14363049999997
  0
LINE
  8
_0-0_0
  6
CONTINUOUS
 62
    7
 10
-11.983688000000029
 20
769.14363049999997
 11
-12.008942000000047
 21
769.24705449999999
  0
LINE
  8
_0-0_0
  6
CONTINUOUS
 62
    7
 10
-12.008942000000047
 20
769.24705449999999
 11
-12.030975000000012
 21
769.3469695
  0
LINE
  8
_0-0_0
  6
CONTINUOUS
 62
    7
 10
-12.030975000000012
 20
769.3469695
 11
-12.052353000000039
 21
769.4646755
  0
LINE
  8
_0-0_0
  6
CONTINUOUS
 62
    7
 10
-12.052353000000039
 20
769.4646755
 11
-12.06092799999999
 21
769.52680950000001
  0
LINE
  8
_0-0_0
  6
CONTINUOUS
 62
    7
 10
-12.06092799999999
 20
769.52680950000001
 11
-12.067017000000078
 21
769.58741750000002
  0
LINE
  8
_0-0_0
  6
CONTINUOUS
 62
    7
 10
-12.067017000000078
 20
769.58741750000002
 11
-12.070007000000032
 21
769.63667250000003
  0
LINE
  8
_0-0_0
  6
CONTINUOUS
 62
    7
 10
-12.070007000000032
 20
769.63667250000003
 11
-12.071045000000026
 21
769.68489050000005
  0
LINE
  8
_0-0_0
  6
CONTINUOUS
 62
    7
 10
-11.771027000000004
 20
763.88792450000005
 11
-11.687576000000035
 21
764.26661650000005
  0
LINE
  8
_0-0_0
  6
CONTINUOUS
 62
    7
 10
-11.687576000000035
 20
764.26661650000005
 11
-11.647490999999945
 21
764.4581455
  0
LINE
  8
_0-0_0
  6
CONTINUOUS
 62
    7
 10
-11.647490999999945
 20
764.4581455
 11
-11.591400000000021
 21
764.74815350000006
  0
LINE
  8
_0-0_0
  6
CONTINUOUS
 62
    7
 10
-11.591400000000021
 20
764.74815350000006
 11
-11.553802000000019
 21
764.96772750000002
  0
LINE
  8
_0-0_0
  6
CONTINUOUS
 62
    7
 10
-11.553802000000019
 20
764.96772750000002
 11
-11.521149000000037
 21
765.18897949999996
  0
LINE
  8
_0-0_0
  6
CONTINUOUS
 62
    7
 10
-11.521149000000037
 20
765.18897949999996
 11
-11.493987999999945
 21
765.41578649999997
  0
LINE
  8
_0-0_0
  6
CONTINUOUS
 62
    7
 10
-11.493987999999945
 20
765.41578649999997
 11
-11.473937999999976
 21
765.64317349999999
  0
LINE
  8
_0-0_0
  6
CONTINUOUS
 62
    7
 10
-11.473937999999976
 20
765.64317349999999
 11
-11.466766000000007
 21
765.7569125
  0
LINE
  8
_0-0_0
  6
CONTINUOUS
 62
    7
 10
-11.466766000000007
 20
765.7569125
 11
-11.461608999999953
 21
765.87059050000005
  0
LINE
  8
_0-0_0
  6
CONTINUOUS
 62
    7
 10
-11.461608999999953
 20
765.87059050000005
 11
-11.457900999999993
 21
766.02201850000006
  0
LINE
  8
_0-0_0
  6
CONTINUOUS
 62
    7
 10
-11.457900999999993
 20
766.02201850000006
 11
-11.457840000000033
 21
766.1732935
  0
LINE
  8
_0-0_0
  6
CONTINUOUS
 62
    7
 10
-11.457840000000033
 20
766.1732935
 11
-11.461426000000074
 21
766.32435550000002
  0
LINE
  8
_0-0_0
  6
CONTINUOUS
 62
    7
 10
-11.461426000000074
 20
766.32435550000002
 11
-11.470916999999986
 21
766.51289350000002
  0
LINE
  8
_0-0_0
  6
CONTINUOUS
 62
    7
 10
-11.470916999999986
 20
766.51289350000002
 11
-11.485794000000055
 21
766.70112549999999
  0
LINE
  8
_0-0_0
  6
CONTINUOUS
 62
    7
 10
-11.485794000000055
 20
766.70112549999999
 11
-11.505707000000029
 21
766.88908349999997
  0
LINE
  8
_0-0_0
  6
CONTINUOUS
 62
    7
 10
-11.505707000000029
 20
766.88908349999997
 11
-11.522095000000036
 21
767.01795949999996
  0
LINE
  8
_0-0_0
  6
CONTINUOUS
 62
    7
 10
-11.522095000000036
 20
767.01795949999996
 11
-11.540512000000035
 21
767.1465915
  0
LINE
  8
_0-0_0
  6
CONTINUOUS
 62
    7
 10
-11.540512000000035
 20
767.1465915
 11
-11.564666999999986
 21
767.29853849999995
  0
LINE
  8
_0-0_0
  6
CONTINUOUS
 62
    7
 10
-11.564666999999986
 20
767.29853849999995
 11
-11.59106399999996
 21
767.44987449999996
  0
LINE
  8
_0-0_0
  6
CONTINUOUS
 62
    7
 10
-11.59106399999996
 20
767.44987449999996
 11
-11.647246999999993
 21
767.74049349999996
  0
LINE
  8
_0-0_0
  6
CONTINUOUS
 62
    7
 10
-11.647246999999993
 20
767.74049349999996
 11
-11.687408000000005
 21
767.93244949999996
  0
LINE
  8
_0-0_0
  6
CONTINUOUS
 62
    7
 10
-11.687408000000005
 20
767.93244949999996
 11
-11.771027000000004
 21
768.3119355
  0
LINE
  8
_0-0_0
  6
CONTINUOUS
 62
    7
 10
-11.771042000000079
 20
763.88792450000005
 11
-11.829834000000005
 21
763.64106749999996
  0
LINE
  8
_0-0_0
  6
CONTINUOUS
 62
    7
 10
-11.829834000000005
 20
763.64106749999996
 11
-11.879607999999962
 21
763.44874549999997
  0
LINE
  8
_0-0_0
  6
CONTINUOUS
 62
    7
 10
-11.879607999999962
 20
763.44874549999997
 11
-11.950714000000062
 21
763.18299850000005
  0
LINE
  8
_0-0_0
  6
CONTINUOUS
 62
    7
 10
-11.950714000000062
 20
763.18299850000005
 11
-11.983672999999953
 21
763.05632049999997
  0
LINE
  8
_0-0_0
  6
CONTINUOUS
 62
    7
 10
-11.983672999999953
 20
763.05632049999997
 11
-12.008942000000047
 21
762.95286550000003
  0
LINE
  8
_0-0_0
  6
CONTINUOUS
 62
    7
 10
-12.008942000000047
 20
762.95286550000003
 11
-12.030975000000012
 21
762.85288949999995
  0
LINE
  8
_0-0_0
  6
CONTINUOUS
 62
    7
 10
-12.030975000000012
 20
762.85288949999995
 11
-12.052368000000001
 21
762.73518349999995
  0
LINE
  8
_0-0_0
  6
CONTINUOUS
 62
    7
 10
-12.052368000000001
 20
762.73518349999995
 11
-12.06092799999999
 21
762.67304950000005
  0
LINE
  8
_0-0_0
  6
CONTINUOUS
 62
    7
 10
-12.06092799999999
 20
762.67304950000005
 11
-12.067017000000078
 21
762.61244150000005
  0
LINE
  8
_0-0_0
  6
CONTINUOUS
 62
    7
 10
-12.067017000000078
 20
762.61244150000005
 11
-12.070007000000032
 21
762.56321749999995
  0
LINE
  8
_0-0_0
  6
CONTINUOUS
 62
    7
 10
-12.070007000000032
 20
762.56321749999995
 11
-12.071045000000026
 21
762.51499950000004
  0
LINE
  8
_0-0_0
  6
CONTINUOUS
 62
    7
 10
-12.071045000000026
 20
758.74147049999999
 11
-12.071045000000026
 21
762.09223950000001
  0
ARC
  8
_0-0_0
  6
CONTINUOUS
 62
    7
 10
-10.071045000000026
 20
758.74147049999999
 40
2
 50
180.00000900000003
 51
251.56498900000003
  0
LINE
  8
_0-0_0
  6
CONTINUOUS
 62
    7
 10
92.378952000000027
 20
777.59992950000003
 11
93.028960999999981
 21
777.59992950000003
  0
ARC
  8
_0-0_0
  6
CONTINUOUS
 62
    7
 10
92.378952000000027
 20
777.34992950000003
 40
0.25
 50
90.000003000000007
 51
180.00000900000001
  0
LINE
  8
_0-0_0
  6
CONTINUOUS
 62
    7
 10
92.128952000000027
 20
777.34992950000003
 11
92.128952000000027
 21
776.69993550000004
  0
LINE
  8
_0-0_0
  6
CONTINUOUS
 62
    7
 10
91.728958000000034
 20
776.69993550000004
 11
92.128952000000027
 21
776.69993550000004
  0
LINE
  8
_0-0_0
  6
CONTINUOUS
 62
    7
 10
91.728958000000034
 20
776.69993550000004
 11
91.728958000000034
 21
777.34992950000003
  0
ARC
  8
_0-0_0
  6
CONTINUOUS
 62
    7
 10
91.478958000000034
 20
777.34992950000003
 40
0.25
 50
0
 51
90.000003000000007
  0
LINE
  8
_0-0_0
  6
CONTINUOUS
 62
    7
 10
90.828964000000042
 20
777.59992950000003
 11
91.478958000000034
 21
777.59992950000003
  0
LINE
  8
_0-0_0
  6
CONTINUOUS
 62
    7
 10
90.828964000000042
 20
777.59992950000003
 11
90.828964000000042
 21
777.99995450000006
  0
LINE
  8
_0-0_0
  6
CONTINUOUS
 62
    7
 10
91.478958000000034
 20
777.99995450000006
 11
90.828964000000042
 21
777.99995450000006
  0
ARC
  8
_0-0_0
  6
CONTINUOUS
 62
    7
 10
91.478958000000034
 20
778.24995450000006
 40
0.25
 50
269.99999700000001
 51
0
  0
LINE
  8
_0-0_0
  6
CONTINUOUS
 62
    7
 10
91.728958000000034
 20
778.24995450000006
 11
91.728958000000034
 21
778.89994750000005
  0
LINE
  8
_0-0_0
  6
CONTINUOUS
 62
    7
 10
92.128952000000027
 20
778.89994750000005
 11
91.728958000000034
 21
778.89994750000005
  0
LINE
  8
_0-0_0
  6
CONTINUOUS
 62
    7
 10
92.128952000000027
 20
778.89994750000005
 11
92.128952000000027
 21
778.24995450000006
  0
ARC
  8
_0-0_0
  6
CONTINUOUS
 62
    7
 10
92.378952000000027
 20
778.24995450000006
 40
0.25
 50
180.00000900000003
 51
269.99999700000001
  0
LINE
  8
_0-0_0
  6
CONTINUOUS
 62
    7
 10
93.028960999999981
 20
777.99995450000006
 11
92.378952000000027
 21
777.99995450000006
  0
LINE
  8
_0-0_0
  6
CONTINUOUS
 62
    7
 10
93.028960999999981
 20
777.99995450000006
 11
93.028960999999981
 21
777.59992950000003
  0
LINE
  8
_0-0_0
  6
CONTINUOUS
 62
    7
 10
13.378966999999989
 20
777.59992950000003
 11
14.028960999999981
 21
777.59992950000003
  0
ARC
  8
_0-0_0
  6
CONTINUOUS
 62
    7
 10
13.378966999999989
 20
777.34992950000003
 40
0.25
 50
90.000003000000007
 51
180.00000900000001
  0
LINE
  8
_0-0_0
  6
CONTINUOUS
 62
    7
 10
13.128966999999989
 20
777.34992950000003
 11
13.128966999999989
 21
776.69993550000004
  0
LINE
  8
_0-0_0
  6
CONTINUOUS
 62
    7
 10
12.728958000000034
 20
776.69993550000004
 11
13.128966999999989
 21
776.69993550000004
  0
LINE
  8
_0-0_0
  6
CONTINUOUS
 62
    7
 10
12.728958000000034
 20
776.69993550000004
 11
12.728958000000034
 21
777.34992950000003
  0
ARC
  8
_0-0_0
  6
CONTINUOUS
 62
    7
 10
12.478958000000034
 20
777.34992950000003
 40
0.25
 50
0
 51
90.000003000000007
  0
LINE
  8
_0-0_0
  6
CONTINUOUS
 62
    7
 10
11.828964000000042
 20
777.59992950000003
 11
12.478958000000034
 21
777.59992950000003
  0
LINE
  8
_0-0_0
  6
CONTINUOUS
 62
    7
 10
11.828964000000042
 20
777.59992950000003
 11
11.828964000000042
 21
777.99995450000006
  0
LINE
  8
_0-0_0
  6
CONTINUOUS
 62
    7
 10
12.478958000000034
 20
777.99995450000006
 11
11.828964000000042
 21
777.99995450000006
  0
ARC
  8
_0-0_0
  6
CONTINUOUS
 62
    7
 10
12.478958000000034
 20
778.24995450000006
 40
0.25
 50
269.99999700000001
 51
0
  0
LINE
  8
_0-0_0
  6
CONTINUOUS
 62
    7
 10
12.728958000000034
 20
778.24995450000006
 11
12.728958000000034
 21
778.89994750000005
  0
LINE
  8
_0-0_0
  6
CONTINUOUS
 62
    7
 10
13.128966999999989
 20
778.89994750000005
 11
12.728958000000034
 21
778.89994750000005
  0
LINE
  8
_0-0_0
  6
CONTINUOUS
 62
    7
 10
13.128966999999989
 20
778.89994750000005
 11
13.128966999999989
 21
778.24995450000006
  0
ARC
  8
_0-0_0
  6
CONTINUOUS
 62
    7
 10
13.378966999999989
 20
778.24995450000006
 40
0.25
 50
180.00000900000003
 51
269.99999700000001
  0
LINE
  8
_0-0_0
  6
CONTINUOUS
 62
    7
 10
14.028960999999981
 20
777.99995450000006
 11
13.378966999999989
 21
777.99995450000006
  0
LINE
  8
_0-0_0
  6
CONTINUOUS
 62
    7
 10
14.028960999999981
 20
777.99995450000006
 11
14.028960999999981
 21
777.59992950000003
  0
LINE
  8
_0-0_0
  6
CONTINUOUS
 62
    7
 10
-27.071045000000026
 20
775.6253815
 11
-27.071045000000026
 21
775.47865249999995
  0
LINE
  8
_0-0_0
  6
CONTINUOUS
 62
    7
 10
-27.071045000000026
 20
775.81590249999999
 11
-27.071045000000026
 21
775.6253815
  0
LINE
  8
_0-0_0
  6
CONTINUOUS
 62
    7
 10
-27.071045000000026
 20
775.99092050000002
 11
-27.071045000000026
 21
775.81590249999999
  0
LINE
  8
_0-0_0
  6
CONTINUOUS
 62
    7
 10
-27.071045000000026
 20
776.14851350000004
 11
-27.071045000000026
 21
775.99092050000002
  0
LINE
  8
_0-0_0
  6
CONTINUOUS
 62
    7
 10
-27.071045000000026
 20
776.28694150000001
 11
-27.071045000000026
 21
776.14851350000004
  0
LINE
  8
_0-0_0
  6
CONTINUOUS
 62
    7
 10
-27.071045000000026
 20
776.40470849999997
 11
-27.071045000000026
 21
776.28694150000001
  0
LINE
  8
_0-0_0
  6
CONTINUOUS
 62
    7
 10
-27.071045000000026
 20
776.50050350000004
 11
-27.071045000000026
 21
776.40470849999997
  0
LINE
  8
_0-0_0
  6
CONTINUOUS
 62
    7
 10
-27.071045000000026
 20
776.57328749999999
 11
-27.071045000000026
 21
776.50050350000004
  0
LINE
  8
_0-0_0
  6
CONTINUOUS
 62
    7
 10
-27.071045000000026
 20
776.62223849999998
 11
-27.071045000000026
 21
776.57328749999999
  0
LINE
  8
_0-0_0
  6
CONTINUOUS
 62
    7
 10
-27.071045000000026
 20
776.64686549999999
 11
-27.071045000000026
 21
776.62223849999998
  0
LINE
  8
_0-0_0
  6
CONTINUOUS
 62
    7
 10
-27.071045000000026
 20
776.64994750000005
 11
-27.071045000000026
 21
776.64686549999999
  0
LINE
  8
_0-0_0
  6
CONTINUOUS
 62
    7
 10
-27.071045000000026
 20
772.1530305
 11
-27.071045000000026
 21
772.14994750000005
  0
LINE
  8
_0-0_0
  6
CONTINUOUS
 62
    7
 10
-27.071045000000026
 20
772.17765750000001
 11
-27.071045000000026
 21
772.14994750000005
  0
LINE
  8
_0-0_0
  6
CONTINUOUS
 62
    7
 10
-27.071045000000026
 20
772.2266085
 11
-27.071045000000026
 21
772.17765750000001
  0
LINE
  8
_0-0_0
  6
CONTINUOUS
 62
    7
 10
-27.071045000000026
 20
772.29939249999995
 11
-27.071045000000026
 21
772.2266085
  0
LINE
  8
_0-0_0
  6
CONTINUOUS
 62
    7
 10
-27.071045000000026
 20
772.39518750000002
 11
-27.071045000000026
 21
772.29939249999995
  0
LINE
  8
_0-0_0
  6
CONTINUOUS
 62
    7
 10
-27.071045000000026
 20
772.42536949999999
 11
-27.071045000000026
 21
772.39518750000002
  0
LINE
  8
_0-0_0
  6
CONTINUOUS
 62
    7
 10
-27.071045000000026
 20
772.51292450000005
 11
-27.071045000000026
 21
772.42536949999999
  0
LINE
  8
_0-0_0
  6
CONTINUOUS
 62
    7
 10
-27.071045000000026
 20
772.65135150000003
 11
-27.071045000000026
 21
772.51292450000005
  0
LINE
  8
_0-0_0
  6
CONTINUOUS
 62
    7
 10
-27.071045000000026
 20
772.80894450000005
 11
-27.071045000000026
 21
772.65135150000003
  0
LINE
  8
_0-0_0
  6
CONTINUOUS
 62
    7
 10
-27.071045000000026
 20
772.98396249999996
 11
-27.071045000000026
 21
772.80894450000005
  0
LINE
  8
_0-0_0
  6
CONTINUOUS
 62
    7
 10
-27.071045000000026
 20
773.17451449999999
 11
-27.071045000000026
 21
772.98396249999996
  0
LINE
  8
_0-0_0
  6
CONTINUOUS
 62
    7
 10
-27.071045000000026
 20
773.37846349999995
 11
-27.071045000000026
 21
773.17451449999999
  0
LINE
  8
_0-0_0
  6
CONTINUOUS
 62
    7
 10
-27.071045000000026
 20
773.59361249999995
 11
-27.071045000000026
 21
773.37846349999995
  0
LINE
  8
_0-0_0
  6
CONTINUOUS
 62
    7
 10
-27.071045000000026
 20
773.8176115
 11
-27.071045000000026
 21
773.59361249999995
  0
LINE
  8
_0-0_0
  6
CONTINUOUS
 62
    7
 10
-27.071045000000026
 20
774.04795850000005
 11
-27.071045000000026
 21
773.8176115
  0
LINE
  8
_0-0_0
  6
CONTINUOUS
 62
    7
 10
-27.071045000000026
 20
774.28218049999998
 11
-27.071045000000026
 21
774.04795850000005
  0
LINE
  8
_0-0_0
  6
CONTINUOUS
 62
    7
 10
-27.071045000000026
 20
774.51771550000001
 11
-27.071045000000026
 21
774.28218049999998
  0
LINE
  8
_0-0_0
  6
CONTINUOUS
 62
    7
 10
-27.071045000000026
 20
774.75190750000002
 11
-27.071045000000026
 21
774.51771550000001
  0
LINE
  8
_0-0_0
  6
CONTINUOUS
 62
    7
 10
-27.071045000000026
 20
774.98228449999999
 11
-27.071045000000026
 21
774.75190750000002
  0
LINE
  8
_0-0_0
  6
CONTINUOUS
 62
    7
 10
-27.071045000000026
 20
775.20628350000004
 11
-27.071045000000026
 21
774.98228449999999
  0
LINE
  8
_0-0_0
  6
CONTINUOUS
 62
    7
 10
-27.071045000000026
 20
775.42143250000004
 11
-27.071045000000026
 21
775.20628350000004
  0
LINE
  8
_0-0_0
  6
CONTINUOUS
 62
    7
 10
-27.071045000000026
 20
775.47865249999995
 11
-27.071045000000026
 21
775.42143250000004
  0
LINE
  8
_0-0_0
  6
CONTINUOUS
 62
    7
 10
-12.071045000000026
 20
767.66200249999997
 11
-12.071045000000026
 21
768.70762649999995
  0
LINE
  8
_0-0_0
  6
CONTINUOUS
 62
    7
 10
-12.071045000000026
 20
769.9922335
 11
-12.071045000000026
 21
768.70762649999995
  0
LINE
  8
_0-0_0
  6
CONTINUOUS
 62
    7
 10
-12.071045000000026
 20
770.10762050000005
 11
-12.071045000000026
 21
769.9922335
  0
LINE
  8
_0-0_0
  6
CONTINUOUS
 62
    7
 10
-12.071045000000026
 20
767.66200249999997
 11
-12.071045000000026
 21
764.53788750000001
  0
LINE
  8
_0-0_0
  6
CONTINUOUS
 62
    7
 10
-12.071045000000026
 20
762.09223950000001
 11
-12.071045000000026
 21
762.20762649999995
  0
LINE
  8
_0-0_0
  6
CONTINUOUS
 62
    7
 10
-12.071045000000026
 20
763.4922335
 11
-12.071045000000026
 21
762.20762649999995
  0
LINE
  8
_0-0_0
  6
CONTINUOUS
 62
    7
 10
-12.071045000000026
 20
763.4922335
 11
-12.071045000000026
 21
764.53788750000001
  0
LINE
  8
_0-0_0
  6
CONTINUOUS
 62
    7
 10
-27.071045000000026
 20
759.0253755
 11
-27.071045000000026
 21
758.87864650000006
  0
LINE
  8
_0-0_0
  6
CONTINUOUS
 62
    7
 10
-27.071045000000026
 20
759.21592650000002
 11
-27.071045000000026
 21
759.0253755
  0
LINE
  8
_0-0_0
  6
CONTINUOUS
 62
    7
 10
-27.071045000000026
 20
759.39094550000004
 11
-27.071045000000026
 21
759.21592650000002
  0
LINE
  8
_0-0_0
  6
CONTINUOUS
 62
    7
 10
-27.071045000000026
 20
759.54850750000003
 11
-27.071045000000026
 21
759.39094550000004
  0
LINE
  8
_0-0_0
  6
CONTINUOUS
 62
    7
 10
-27.071045000000026
 20
759.68696550000004
 11
-27.071045000000026
 21
759.54850750000003
  0
LINE
  8
_0-0_0
  6
CONTINUOUS
 62
    7
 10
-27.071045000000026
 20
759.80470249999996
 11
-27.071045000000026
 21
759.68696550000004
  0
LINE
  8
_0-0_0
  6
CONTINUOUS
 62
    7
 10
-27.071045000000026
 20
759.90049750000003
 11
-27.071045000000026
 21
759.80470249999996
  0
LINE
  8
_0-0_0
  6
CONTINUOUS
 62
    7
 10
-27.071045000000026
 20
759.97328149999998
 11
-27.071045000000026
 21
759.90049750000003
  0
LINE
  8
_0-0_0
  6
CONTINUOUS
 62
    7
 10
-27.071045000000026
 20
760.02223149999998
 11
-27.071045000000026
 21
759.97328149999998
  0
LINE
  8
_0-0_0
  6
CONTINUOUS
 62
    7
 10
-27.071045000000026
 20
760.04994150000005
 11
-27.071045000000026
 21
760.02223149999998
  0
LINE
  8
_0-0_0
  6
CONTINUOUS
 62
    7
 10
-27.071045000000026
 20
760.04994150000005
 11
-27.071045000000026
 21
760.04685949999998
  0
LINE
  8
_0-0_0
  6
CONTINUOUS
 62
    7
 10
-27.071045000000026
 20
755.55302449999999
 11
-27.071045000000026
 21
755.54994150000005
  0
LINE
  8
_0-0_0
  6
CONTINUOUS
 62
    7
 10
-27.071045000000026
 20
755.5776515
 11
-27.071045000000026
 21
755.54994150000005
  0
LINE
  8
_0-0_0
  6
CONTINUOUS
 62
    7
 10
-27.071045000000026
 20
755.62660249999999
 11
-27.071045000000026
 21
755.5776515
  0
LINE
  8
_0-0_0
  6
CONTINUOUS
 62
    7
 10
-27.071045000000026
 20
755.69938650000006
 11
-27.071045000000026
 21
755.62660249999999
  0
LINE
  8
_0-0_0
  6
CONTINUOUS
 62
    7
 10
-27.071045000000026
 20
755.79518150000001
 11
-27.071045000000026
 21
755.69938650000006
  0
LINE
  8
_0-0_0
  6
CONTINUOUS
 62
    7
 10
-27.071045000000026
 20
755.82539350000002
 11
-27.071045000000026
 21
755.79518150000001
  0
LINE
  8
_0-0_0
  6
CONTINUOUS
 62
    7
 10
-27.071045000000026
 20
755.91291750000005
 11
-27.071045000000026
 21
755.82539350000002
  0
LINE
  8
_0-0_0
  6
CONTINUOUS
 62
    7
 10
-27.071045000000026
 20
756.05137649999995
 11
-27.071045000000026
 21
755.91291750000005
  0
LINE
  8
_0-0_0
  6
CONTINUOUS
 62
    7
 10
-27.071045000000026
 20
756.20896849999997
 11
-27.071045000000026
 21
756.05137649999995
  0
LINE
  8
_0-0_0
  6
CONTINUOUS
 62
    7
 10
-27.071045000000026
 20
756.38398749999999
 11
-27.071045000000026
 21
756.20896849999997
  0
LINE
  8
_0-0_0
  6
CONTINUOUS
 62
    7
 10
-27.071045000000026
 20
756.57450849999998
 11
-27.071045000000026
 21
756.38398749999999
  0
LINE
  8
_0-0_0
  6
CONTINUOUS
 62
    7
 10
-27.071045000000026
 20
756.77845750000006
 11
-27.071045000000026
 21
756.57450849999998
  0
LINE
  8
_0-0_0
  6
CONTINUOUS
 62
    7
 10
-27.071045000000026
 20
756.99360650000006
 11
-27.071045000000026
 21
756.77845750000006
  0
LINE
  8
_0-0_0
  6
CONTINUOUS
 62
    7
 10
-27.071045000000026
 20
757.21760549999999
 11
-27.071045000000026
 21
756.99360650000006
  0
LINE
  8
_0-0_0
  6
CONTINUOUS
 62
    7
 10
-27.071045000000026
 20
757.44795250000004
 11
-27.071045000000026
 21
757.21760549999999
  0
LINE
  8
_0-0_0
  6
CONTINUOUS
 62
    7
 10
-27.071045000000026
 20
757.68217449999997
 11
-27.071045000000026
 21
757.44795250000004
  0
LINE
  8
_0-0_0
  6
CONTINUOUS
 62
    7
 10
-27.071045000000026
 20
757.9177095
 11
-27.071045000000026
 21
757.68217449999997
  0
LINE
  8
_0-0_0
  6
CONTINUOUS
 62
    7
 10
-27.071045000000026
 20
758.15193150000005
 11
-27.071045000000026
 21
757.9177095
  0
LINE
  8
_0-0_0
  6
CONTINUOUS
 62
    7
 10
-27.071045000000026
 20
758.38227849999998
 11
-27.071045000000026
 21
758.15193150000005
  0
LINE
  8
_0-0_0
  6
CONTINUOUS
 62
    7
 10
-27.071045000000026
 20
758.60627750000003
 11
-27.071045000000026
 21
758.38227849999998
  0
LINE
  8
_0-0_0
  6
CONTINUOUS
 62
    7
 10
-27.071045000000026
 20
758.82142650000003
 11
-27.071045000000026
 21
758.60627750000003
  0
LINE
  8
_0-0_0
  6
CONTINUOUS
 62
    7
 10
-27.071045000000026
 20
758.87864650000006
 11
-27.071045000000026
 21
758.82142650000003
  0
LINE
  8
_0-0_0
  6
CONTINUOUS
 62
    7
 10
83.928954999999974
 20
768.64994750000005
 11
79.928954999999974
 21
768.64994750000005
  0
ARC
  8
_0-0_0
  6
CONTINUOUS
 62
    7
 10
79.928954999999974
 20
770.89994750000005
 40
2.25
 50
90.000003000000007
 51
269.99999700000006
  0
LINE
  8
_0-0_0
  6
CONTINUOUS
 62
    7
 10
79.928954999999974
 20
773.14994750000005
 11
83.928954999999974
 21
773.14994750000005
  0
ARC
  8
_0-0_0
  6
CONTINUOUS
 62
    7
 10
83.928954999999974
 20
770.89994750000005
 40
2.25
 50
269.99999700000001
 51
90.000002999999992
  0
ARC
  8
_0-0_0
  6
CONTINUOUS
 62
    7
 10
23.928954999999974
 20
770.89994750000005
 40
2.25
 50
90.000003000000007
 51
269.99999700000006
  0
LINE
  8
_0-0_0
  6
CONTINUOUS
 62
    7
 10
23.928954999999974
 20
773.14994750000005
 11
27.928954999999974
 21
773.14994750000005
  0
ARC
  8
_0-0_0
  6
CONTINUOUS
 62
    7
 10
27.928954999999974
 20
770.89994750000005
 40
2.25
 50
269.99999700000001
 51
90.000002999999992
  0
LINE
  8
_0-0_0
  6
CONTINUOUS
 62
    7
 10
27.928954999999974
 20
768.64994750000005
 11
23.928954999999974
 21
768.64994750000005
  0
LINE
  8
_0-0_0
  6
CONTINUOUS
 62
    7
 10
-27.071045000000026
 20
775.6253815
 11
-27.321045000000026
 21
775.64994750000005
  0
LINE
  8
_0-0_0
  6
CONTINUOUS
 62
    7
 10
-27.071045000000026
 20
775.42143250000004
 11
-27.321045000000026
 21
775.64994750000005
  0
LINE
  8
_0-0_0
  6
CONTINUOUS
 62
    7
 10
-27.071045000000026
 20
775.81590249999999
 11
-27.321045000000026
 21
775.86939949999999
  0
LINE
  8
_0-0_0
  6
CONTINUOUS
 62
    7
 10
-27.071045000000026
 20
775.6253815
 11
-27.321045000000026
 21
775.86939949999999
  0
LINE
  8
_0-0_0
  6
CONTINUOUS
 62
    7
 10
-27.071045000000026
 20
775.99092050000002
 11
-27.321045000000026
 21
776.07276950000005
  0
LINE
  8
_0-0_0
  6
CONTINUOUS
 62
    7
 10
-27.071045000000026
 20
775.81590249999999
 11
-27.321045000000026
 21
776.07276950000005
  0
LINE
  8
_0-0_0
  6
CONTINUOUS
 62
    7
 10
-27.071045000000026
 20
776.14851350000004
 11
-27.321045000000026
 21
776.25779750000004
  0
LINE
  8
_0-0_0
  6
CONTINUOUS
 62
    7
 10
-27.071045000000026
 20
775.99092050000002
 11
-27.321045000000026
 21
776.25779750000004
  0
LINE
  8
_0-0_0
  6
CONTINUOUS
 62
    7
 10
-27.071045000000026
 20
776.28694150000001
 11
-27.321045000000026
 21
776.42250049999996
  0
LINE
  8
_0-0_0
  6
CONTINUOUS
 62
    7
 10
-27.071045000000026
 20
776.14851350000004
 11
-27.321045000000026
 21
776.42250049999996
  0
LINE
  8
_0-0_0
  6
CONTINUOUS
 62
    7
 10
-27.071045000000026
 20
776.40470849999997
 11
-27.321045000000026
 21
776.56501749999995
  0
LINE
  8
_0-0_0
  6
CONTINUOUS
 62
    7
 10
-27.071045000000026
 20
776.28694150000001
 11
-27.321045000000026
 21
776.56501749999995
  0
LINE
  8
_0-0_0
  6
CONTINUOUS
 62
    7
 10
-27.071045000000026
 20
776.50050350000004
 11
-27.321045000000026
 21
776.68379149999998
  0
LINE
  8
_0-0_0
  6
CONTINUOUS
 62
    7
 10
-27.071045000000026
 20
776.40470849999997
 11
-27.321045000000026
 21
776.68379149999998
  0
LINE
  8
_0-0_0
  6
CONTINUOUS
 62
    7
 10
-27.071045000000026
 20
776.57328749999999
 11
-27.321045000000026
 21
776.77757250000002
  0
LINE
  8
_0-0_0
  6
CONTINUOUS
 62
    7
 10
-27.071045000000026
 20
776.50050350000004
 11
-27.321045000000026
 21
776.77757250000002
  0
LINE
  8
_0-0_0
  6
CONTINUOUS
 62
    7
 10
-27.071045000000026
 20
776.62223849999998
 11
-27.321045000000026
 21
776.84532149999995
  0
LINE
  8
_0-0_0
  6
CONTINUOUS
 62
    7
 10
-27.071045000000026
 20
776.57328749999999
 11
-27.321045000000026
 21
776.84532149999995
  0
LINE
  8
_0-0_0
  6
CONTINUOUS
 62
    7
 10
-27.071045000000026
 20
776.64686549999999
 11
-27.321045000000026
 21
776.88624549999997
  0
LINE
  8
_0-0_0
  6
CONTINUOUS
 62
    7
 10
-27.071045000000026
 20
776.62223849999998
 11
-27.321045000000026
 21
776.88624549999997
  0
LINE
  8
_0-0_0
  6
CONTINUOUS
 62
    7
 10
-27.071045000000026
 20
776.64686549999999
 11
-27.321045000000026
 21
776.89994750000005
  0
LINE
  8
_0-0_0
  6
CONTINUOUS
 62
    7
 10
-27.071045000000026
 20
772.1530305
 11
-27.321045000000026
 21
771.89994750000005
  0
LINE
  8
_0-0_0
  6
CONTINUOUS
 62
    7
 10
-27.071045000000026
 20
772.17765750000001
 11
-27.321045000000026
 21
771.91365050000002
  0
LINE
  8
_0-0_0
  6
CONTINUOUS
 62
    7
 10
-27.071045000000026
 20
772.1530305
 11
-27.321045000000026
 21
771.91365050000002
  0
LINE
  8
_0-0_0
  6
CONTINUOUS
 62
    7
 10
-27.071045000000026
 20
772.2266085
 11
-27.321045000000026
 21
771.95457450000004
  0
LINE
  8
_0-0_0
  6
CONTINUOUS
 62
    7
 10
-27.071045000000026
 20
772.17765750000001
 11
-27.321045000000026
 21
771.95457450000004
  0
LINE
  8
_0-0_0
  6
CONTINUOUS
 62
    7
 10
-27.071045000000026
 20
772.29939249999995
 11
-27.321045000000026
 21
772.02229250000005
  0
LINE
  8
_0-0_0
  6
CONTINUOUS
 62
    7
 10
-27.071045000000026
 20
772.2266085
 11
-27.321045000000026
 21
772.02229250000005
  0
LINE
  8
_0-0_0
  6
CONTINUOUS
 62
    7
 10
-27.071045000000026
 20
772.39518750000002
 11
-27.321045000000026
 21
772.11607349999997
  0
LINE
  8
_0-0_0
  6
CONTINUOUS
 62
    7
 10
-27.071045000000026
 20
772.29939249999995
 11
-27.321045000000026
 21
772.11607349999997
  0
LINE
  8
_0-0_0
  6
CONTINUOUS
 62
    7
 10
-27.071045000000026
 20
772.39518750000002
 11
-27.201004000000012
 21
772.31132449999996
  0
LINE
  8
_0-0_0
  6
CONTINUOUS
 62
    7
 10
-27.071045000000026
 20
772.51292450000005
 11
-27.321045000000026
 21
772.23487850000004
  0
LINE
  8
_0-0_0
  6
CONTINUOUS
 62
    7
 10
-27.201004000000012
 20
772.31132449999996
 11
-27.321045000000026
 21
772.23487850000004
  0
LINE
  8
_0-0_0
  6
CONTINUOUS
 62
    7
 10
-27.071045000000026
 20
772.65135150000003
 11
-27.321045000000026
 21
772.37739550000003
  0
LINE
  8
_0-0_0
  6
CONTINUOUS
 62
    7
 10
-27.071045000000026
 20
772.51292450000005
 11
-27.321045000000026
 21
772.37739550000003
  0
LINE
  8
_0-0_0
  6
CONTINUOUS
 62
    7
 10
-27.071045000000026
 20
772.80894450000005
 11
-27.321045000000026
 21
772.54206850000003
  0
LINE
  8
_0-0_0
  6
CONTINUOUS
 62
    7
 10
-27.071045000000026
 20
772.65135150000003
 11
-27.321045000000026
 21
772.54206850000003
  0
LINE
  8
_0-0_0
  6
CONTINUOUS
 62
    7
 10
-27.071045000000026
 20
772.98396249999996
 11
-27.321045000000026
 21
772.72712650000005
  0
LINE
  8
_0-0_0
  6
CONTINUOUS
 62
    7
 10
-27.071045000000026
 20
772.80894450000005
 11
-27.321045000000026
 21
772.72712650000005
  0
LINE
  8
_0-0_0
  6
CONTINUOUS
 62
    7
 10
-27.071045000000026
 20
773.17451449999999
 11
-27.321045000000026
 21
772.9304965
  0
LINE
  8
_0-0_0
  6
CONTINUOUS
 62
    7
 10
-27.071045000000026
 20
772.98396249999996
 11
-27.321045000000026
 21
772.9304965
  0
LINE
  8
_0-0_0
  6
CONTINUOUS
 62
    7
 10
-27.071045000000026
 20
773.37846349999995
 11
-27.321045000000026
 21
773.14994750000005
  0
LINE
  8
_0-0_0
  6
CONTINUOUS
 62
    7
 10
-27.071045000000026
 20
773.17451449999999
 11
-27.321045000000026
 21
773.14994750000005
  0
LINE
  8
_0-0_0
  6
CONTINUOUS
 62
    7
 10
-27.071045000000026
 20
773.59361249999995
 11
-27.321045000000026
 21
773.38310249999995
  0
LINE
  8
_0-0_0
  6
CONTINUOUS
 62
    7
 10
-27.071045000000026
 20
773.37846349999995
 11
-27.321045000000026
 21
773.38310249999995
  0
LINE
  8
_0-0_0
  6
CONTINUOUS
 62
    7
 10
-27.071045000000026
 20
773.8176115
 11
-27.321045000000026
 21
773.62739550000003
  0
LINE
  8
_0-0_0
  6
CONTINUOUS
 62
    7
 10
-27.071045000000026
 20
773.59361249999995
 11
-27.321045000000026
 21
773.62739550000003
  0
LINE
  8
_0-0_0
  6
CONTINUOUS
 62
    7
 10
-27.071045000000026
 20
774.04795850000005
 11
-27.321045000000026
 21
773.88017249999996
  0
LINE
  8
_0-0_0
  6
CONTINUOUS
 62
    7
 10
-27.071045000000026
 20
773.8176115
 11
-27.321045000000026
 21
773.88017249999996
  0
LINE
  8
_0-0_0
  6
CONTINUOUS
 62
    7
 10
-27.071045000000026
 20
774.28218049999998
 11
-27.321045000000026
 21
774.13862549999999
  0
LINE
  8
_0-0_0
  6
CONTINUOUS
 62
    7
 10
-27.071045000000026
 20
774.04795850000005
 11
-27.321045000000026
 21
774.13862549999999
  0
LINE
  8
_0-0_0
  6
CONTINUOUS
 62
    7
 10
-27.071045000000026
 20
774.51771550000001
 11
-27.321045000000026
 21
774.39994750000005
  0
LINE
  8
_0-0_0
  6
CONTINUOUS
 62
    7
 10
-27.071045000000026
 20
774.28218049999998
 11
-27.321045000000026
 21
774.39994750000005
  0
LINE
  8
_0-0_0
  6
CONTINUOUS
 62
    7
 10
-27.071045000000026
 20
774.75190750000002
 11
-27.321045000000026
 21
774.6612705
  0
LINE
  8
_0-0_0
  6
CONTINUOUS
 62
    7
 10
-27.071045000000026
 20
774.51771550000001
 11
-27.321045000000026
 21
774.6612705
  0
LINE
  8
_0-0_0
  6
CONTINUOUS
 62
    7
 10
-27.071045000000026
 20
774.98228449999999
 11
-27.321045000000026
 21
774.91972350000003
  0
LINE
  8
_0-0_0
  6
CONTINUOUS
 62
    7
 10
-27.071045000000026
 20
774.75190750000002
 11
-27.321045000000026
 21
774.91972350000003
  0
LINE
  8
_0-0_0
  6
CONTINUOUS
 62
    7
 10
-27.071045000000026
 20
775.20628350000004
 11
-27.321045000000026
 21
775.17250049999996
  0
LINE
  8
_0-0_0
  6
CONTINUOUS
 62
    7
 10
-27.071045000000026
 20
774.98228449999999
 11
-27.321045000000026
 21
775.17250049999996
  0
LINE
  8
_0-0_0
  6
CONTINUOUS
 62
    7
 10
-27.071045000000026
 20
775.42143250000004
 11
-27.321045000000026
 21
775.41679350000004
  0
LINE
  8
_0-0_0
  6
CONTINUOUS
 62
    7
 10
-27.071045000000026
 20
775.20628350000004
 11
-27.321045000000026
 21
775.41679350000004
  0
LINE
  8
_0-0_0
  6
CONTINUOUS
 62
    7
 10
-12.071045000000026
 20
769.9922335
 11
-21.778869999999984
 21
769.9922335
  0
LINE
  8
_0-0_0
  6
CONTINUOUS
 62
    7
 10
-21.778869999999984
 20
769.9922335
 11
-21.833343000000013
 21
770.06217949999996
  0
LINE
  8
_0-0_0
  6
CONTINUOUS
 62
    7
 10
-21.833343000000013
 20
770.06217949999996
 11
-21.884445000000028
 21
770.13099650000004
  0
LINE
  8
_0-0_0
  6
CONTINUOUS
 62
    7
 10
-21.884445000000028
 20
770.13099650000004
 11
-21.932083000000034
 21
770.19850150000002
  0
LINE
  8
_0-0_0
  6
CONTINUOUS
 62
    7
 10
-21.932083000000034
 20
770.19850150000002
 11
-21.97659299999998
 21
770.2650605
  0
LINE
  8
_0-0_0
  6
CONTINUOUS
 62
    7
 10
-21.97659299999998
 20
770.2650605
 11
-22.03131099999996
 21
770.35261549999996
  0
LINE
  8
_0-0_0
  6
CONTINUOUS
 62
    7
 10
-22.03131099999996
 20
770.35261549999996
 11
-22.08081100000004
 21
770.43870549999997
  0
LINE
  8
_0-0_0
  6
CONTINUOUS
 62
    7
 10
-22.08081100000004
 20
770.43870549999997
 11
-22.125274999999988
 21
770.52354449999996
  0
LINE
  8
_0-0_0
  6
CONTINUOUS
 62
    7
 10
-22.125274999999988
 20
770.52354449999996
 11
-22.172240999999985
 21
770.62385549999999
  0
LINE
  8
_0-0_0
  6
CONTINUOUS
 62
    7
 10
-22.172240999999985
 20
770.62385549999999
 11
-22.212463000000071
 21
770.72279349999997
  0
LINE
  8
_0-0_0
  6
CONTINUOUS
 62
    7
 10
-22.212463000000071
 20
770.72279349999997
 11
-22.246124000000009
 21
770.82054149999999
  0
LINE
  8
_0-0_0
  6
CONTINUOUS
 62
    7
 10
-22.246124000000009
 20
770.82054149999999
 11
-22.27340700000002
 21
770.91734350000002
  0
LINE
  8
_0-0_0
  6
CONTINUOUS
 62
    7
 10
-22.27340700000002
 20
770.91734350000002
 11
-22.294464000000062
 21
771.01338150000004
  0
LINE
  8
_0-0_0
  6
CONTINUOUS
 62
    7
 10
-22.294464000000062
 20
771.01338150000004
 11
-22.310393999999974
 21
771.11726350000004
  0
LINE
  8
_0-0_0
  6
CONTINUOUS
 62
    7
 10
-22.310393999999974
 20
771.11726350000004
 11
-22.319153000000028
 21
771.22068750000005
  0
LINE
  8
_0-0_0
  6
CONTINUOUS
 62
    7
 10
-22.319153000000028
 20
771.22068750000005
 11
-22.320770000000039
 21
771.32392849999997
  0
LINE
  8
_0-0_0
  6
CONTINUOUS
 62
    7
 10
-22.320770000000039
 20
771.32392849999997
 11
-22.315307999999959
 21
771.42720050000003
  0
LINE
  8
_0-0_0
  6
CONTINUOUS
 62
    7
 10
-22.315307999999959
 20
771.42720050000003
 11
-22.302703999999949
 21
771.53080750000004
  0
LINE
  8
_0-0_0
  6
CONTINUOUS
 62
    7
 10
-22.302703999999949
 20
771.53080750000004
 11
-22.282883000000083
 21
771.63493349999999
  0
LINE
  8
_0-0_0
  6
CONTINUOUS
 62
    7
 10
-22.282883000000083
 20
771.63493349999999
 11
-22.255736999999954
 21
771.73991350000006
  0
LINE
  8
_0-0_0
  6
CONTINUOUS
 62
    7
 10
-22.255736999999954
 20
771.73991350000006
 11
-22.221099999999979
 21
771.84593150000001
  0
LINE
  8
_0-0_0
  6
CONTINUOUS
 62
    7
 10
-22.221099999999979
 20
771.84593150000001
 11
-22.178740999999945
 21
771.95332350000001
  0
LINE
  8
_0-0_0
  6
CONTINUOUS
 62
    7
 10
-22.178740999999945
 20
771.95332350000001
 11
-22.128432999999973
 21
772.06233250000002
  0
LINE
  8
_0-0_0
  6
CONTINUOUS
 62
    7
 10
-22.128432999999973
 20
772.06233250000002
 11
-22.082732999999962
 21
772.14997849999997
  0
LINE
  8
_0-0_0
  6
CONTINUOUS
 62
    7
 10
-12.071045000000026
 20
768.70762649999995
 11
-21.778869999999984
 21
768.70762649999995
  0
LINE
  8
_0-0_0
  6
CONTINUOUS
 62
    7
 10
-21.778869999999984
 20
768.70762649999995
 11
-21.873199
 21
768.46101350000004
  0
LINE
  8
_0-0_0
  6
CONTINUOUS
 62
    7
 10
-21.873199
 20
768.46101350000004
 11
-21.957153000000062
 21
768.22105350000004
  0
LINE
  8
_0-0_0
  6
CONTINUOUS
 62
    7
 10
-21.957153000000062
 20
768.22105350000004
 11
-22.03131099999996
 21
767.98692349999999
  0
LINE
  8
_0-0_0
  6
CONTINUOUS
 62
    7
 10
-22.03131099999996
 20
767.98692349999999
 11
-22.096190999999976
 21
767.75788850000004
  0
LINE
  8
_0-0_0
  6
CONTINUOUS
 62
    7
 10
-22.096190999999976
 20
767.75788850000004
 11
-22.152222000000052
 21
767.53321849999998
  0
LINE
  8
_0-0_0
  6
CONTINUOUS
 62
    7
 10
-22.152222000000052
 20
767.53321849999998
 11
-22.199798999999985
 21
767.31224050000003
  0
LINE
  8
_0-0_0
  6
CONTINUOUS
 62
    7
 10
-22.199798999999985
 20
767.31224050000003
 11
-22.23919699999999
 21
767.0943145
  0
LINE
  8
_0-0_0
  6
CONTINUOUS
 62
    7
 10
-22.23919699999999
 20
767.0943145
 11
-22.270691000000056
 21
766.87886049999997
  0
LINE
  8
_0-0_0
  6
CONTINUOUS
 62
    7
 10
-22.270691000000056
 20
766.87886049999997
 11
-22.294464000000062
 21
766.66532849999999
  0
LINE
  8
_0-0_0
  6
CONTINUOUS
 62
    7
 10
-22.294464000000062
 20
766.66532849999999
 11
-22.310393999999974
 21
766.45762649999995
  0
LINE
  8
_0-0_0
  6
CONTINUOUS
 62
    7
 10
-22.310393999999974
 20
766.45762649999995
 11
-22.319153000000028
 21
766.25077850000002
  0
LINE
  8
_0-0_0
  6
CONTINUOUS
 62
    7
 10
-22.319153000000028
 20
766.25077850000002
 11
-22.320770000000039
 21
766.04429649999997
  0
LINE
  8
_0-0_0
  6
CONTINUOUS
 62
    7
 10
-22.320770000000039
 20
766.04429649999997
 11
-22.315307999999959
 21
765.83772250000004
  0
LINE
  8
_0-0_0
  6
CONTINUOUS
 62
    7
 10
-22.315307999999959
 20
765.83772250000004
 11
-22.302703999999949
 21
765.63053850000006
  0
LINE
  8
_0-0_0
  6
CONTINUOUS
 62
    7
 10
-22.302703999999949
 20
765.63053850000006
 11
-22.282883000000083
 21
765.4222565
  0
LINE
  8
_0-0_0
  6
CONTINUOUS
 62
    7
 10
-22.282883000000083
 20
765.4222565
 11
-22.255736999999954
 21
765.21232550000002
  0
LINE
  8
_0-0_0
  6
CONTINUOUS
 62
    7
 10
-22.255736999999954
 20
765.21232550000002
 11
-22.221099999999979
 21
765.00025949999997
  0
LINE
  8
_0-0_0
  6
CONTINUOUS
 62
    7
 10
-22.221099999999979
 20
765.00025949999997
 11
-22.178740999999945
 21
764.78550749999999
  0
LINE
  8
_0-0_0
  6
CONTINUOUS
 62
    7
 10
-22.178740999999945
 20
764.78550749999999
 11
-22.128432999999973
 21
764.56748949999997
  0
LINE
  8
_0-0_0
  6
CONTINUOUS
 62
    7
 10
-22.128432999999973
 20
764.56748949999997
 11
-22.074188000000049
 21
764.36122150000006
  0
LINE
  8
_0-0_0
  6
CONTINUOUS
 62
    7
 10
-22.074188000000049
 20
764.36122150000006
 11
-22.012481999999977
 21
764.15110749999997
  0
LINE
  8
_0-0_0
  6
CONTINUOUS
 62
    7
 10
-22.012481999999977
 20
764.15110749999997
 11
-21.942962999999963
 21
763.93663049999998
  0
LINE
  8
_0-0_0
  6
CONTINUOUS
 62
    7
 10
-21.942962999999963
 20
763.93663049999998
 11
-21.865233999999987
 21
763.71723950000001
  0
LINE
  8
_0-0_0
  6
CONTINUOUS
 62
    7
 10
-21.865233999999987
 20
763.71723950000001
 11
-21.778869999999984
 21
763.4922335
  0
LINE
  8
_0-0_0
  6
CONTINUOUS
 62
    7
 10
-12.071045000000026
 20
763.4922335
 11
-21.778869999999984
 21
763.4922335
  0
ARC
  8
_0-0_0
  6
CONTINUOUS
 62
    7
 10
-16.907318000000032
 20
769.34992950000003
 40
4.9136889999999998
 50
172.48898299999999
 51
187.51101699999998
  0
LINE
  8
_0-0_0
  6
CONTINUOUS
 62
    7
 10
-12.071045000000026
 20
762.20762649999995
 11
-21.778869999999984
 21
762.20762649999995
  0
LINE
  8
_0-0_0
  6
CONTINUOUS
 62
    7
 10
-21.778869999999984
 20
759.59992950000003
 11
-21.833343000000013
 21
759.66987549999999
  0
LINE
  8
_0-0_0
  6
CONTINUOUS
 62
    7
 10
-21.833343000000013
 20
759.66987549999999
 11
-21.884445000000028
 21
759.73869349999995
  0
LINE
  8
_0-0_0
  6
CONTINUOUS
 62
    7
 10
-21.884445000000028
 20
759.73869349999995
 11
-21.932083000000034
 21
759.80619750000005
  0
LINE
  8
_0-0_0
  6
CONTINUOUS
 62
    7
 10
-21.932083000000034
 20
759.80619750000005
 11
-21.97659299999998
 21
759.87275650000004
  0
LINE
  8
_0-0_0
  6
CONTINUOUS
 62
    7
 10
-21.97659299999998
 20
759.87275650000004
 11
-22.03131099999996
 21
759.96031149999999
  0
LINE
  8
_0-0_0
  6
CONTINUOUS
 62
    7
 10
-22.03131099999996
 20
759.96031149999999
 11
-22.08081100000004
 21
760.0464015
  0
LINE
  8
_0-0_0
  6
CONTINUOUS
 62
    7
 10
-22.08081100000004
 20
760.0464015
 11
-22.125274999999988
 21
760.13124049999999
  0
LINE
  8
_0-0_0
  6
CONTINUOUS
 62
    7
 10
-22.125274999999988
 20
760.13124049999999
 11
-22.172240999999985
 21
760.23155150000002
  0
LINE
  8
_0-0_0
  6
CONTINUOUS
 62
    7
 10
-22.172240999999985
 20
760.23155150000002
 11
-22.212463000000071
 21
760.3304895
  0
LINE
  8
_0-0_0
  6
CONTINUOUS
 62
    7
 10
-22.212463000000071
 20
760.3304895
 11
-22.246124000000009
 21
760.42823750000002
  0
LINE
  8
_0-0_0
  6
CONTINUOUS
 62
    7
 10
-22.246124000000009
 20
760.42823750000002
 11
-22.27340700000002
 21
760.52503950000005
  0
LINE
  8
_0-0_0
  6
CONTINUOUS
 62
    7
 10
-22.27340700000002
 20
760.52503950000005
 11
-22.294464000000062
 21
760.62107849999995
  0
LINE
  8
_0-0_0
  6
CONTINUOUS
 62
    7
 10
-22.294464000000062
 20
760.62107849999995
 11
-22.310393999999974
 21
760.72496049999995
  0
LINE
  8
_0-0_0
  6
CONTINUOUS
 62
    7
 10
-22.310393999999974
 20
760.72496049999995
 11
-22.319153000000028
 21
760.82838449999997
  0
LINE
  8
_0-0_0
  6
CONTINUOUS
 62
    7
 10
-22.319153000000028
 20
760.82838449999997
 11
-22.320770000000039
 21
760.93159449999996
  0
LINE
  8
_0-0_0
  6
CONTINUOUS
 62
    7
 10
-22.320770000000039
 20
760.93159449999996
 11
-22.315307999999959
 21
761.03489650000006
  0
LINE
  8
_0-0_0
  6
CONTINUOUS
 62
    7
 10
-22.315307999999959
 20
761.03489650000006
 11
-22.302703999999949
 21
761.13850349999996
  0
LINE
  8
_0-0_0
  6
CONTINUOUS
 62
    7
 10
-22.302703999999949
 20
761.13850349999996
 11
-22.282883000000083
 21
761.24262950000002
  0
LINE
  8
_0-0_0
  6
CONTINUOUS
 62
    7
 10
-22.282883000000083
 20
761.24262950000002
 11
-22.255736999999954
 21
761.34761049999997
  0
LINE
  8
_0-0_0
  6
CONTINUOUS
 62
    7
 10
-22.255736999999954
 20
761.34761049999997
 11
-22.221099999999979
 21
761.45362850000004
  0
LINE
  8
_0-0_0
  6
CONTINUOUS
 62
    7
 10
-22.221099999999979
 20
761.45362850000004
 11
-22.178740999999945
 21
761.56101950000004
  0
LINE
  8
_0-0_0
  6
CONTINUOUS
 62
    7
 10
-22.178740999999945
 20
761.56101950000004
 11
-22.128432999999973
 21
761.66999850000002
  0
LINE
  8
_0-0_0
  6
CONTINUOUS
 62
    7
 10
-22.128432999999973
 20
761.66999850000002
 11
-22.074188000000049
 21
761.77314750000005
  0
LINE
  8
_0-0_0
  6
CONTINUOUS
 62
    7
 10
-22.074188000000049
 20
761.77314750000005
 11
-22.012481999999977
 21
761.8782195
  0
LINE
  8
_0-0_0
  6
CONTINUOUS
 62
    7
 10
-22.012481999999977
 20
761.8782195
 11
-21.942962999999963
 21
761.98542750000001
  0
LINE
  8
_0-0_0
  6
CONTINUOUS
 62
    7
 10
-21.942962999999963
 20
761.98542750000001
 11
-21.865233999999987
 21
762.09513849999996
  0
LINE
  8
_0-0_0
  6
CONTINUOUS
 62
    7
 10
-21.865233999999987
 20
762.09513849999996
 11
-21.778869999999984
 21
762.20762649999995
  0
LINE
  8
_0-0_0
  6
CONTINUOUS
 62
    7
 10
-12.071045000000026
 20
759.59992950000003
 11
-21.778869999999984
 21
759.59992950000003
  0
ARC
  8
_0-0_0
  6
CONTINUOUS
 62
    7
 10
-16.897155999999995
 20
762.84904449999999
 40
4.9238749999999998
 50
172.49424200000001
 51
181.535968
  0
ARC
  8
_0-0_0
  6
CONTINUOUS
 62
    7
 10
-16.859131000000048
 20
762.85401950000005
 40
4.9620009999999999
 50
181.58130700000004
 51
187.48478900000003
  0
LINE
  8
_0-0_0
  6
CONTINUOUS
 62
    7
 10
-21.821045000000026
 20
759.59992950000003
 11
-21.778869999999984
 21
759.59992950000003
  0
LINE
  8
_0-0_0
  6
CONTINUOUS
 62
    7
 10
-27.071045000000026
 20
759.0253755
 11
-27.321045000000026
 21
759.04994150000005
  0
LINE
  8
_0-0_0
  6
CONTINUOUS
 62
    7
 10
-27.071045000000026
 20
758.82142650000003
 11
-27.321045000000026
 21
759.04994150000005
  0
LINE
  8
_0-0_0
  6
CONTINUOUS
 62
    7
 10
-27.071045000000026
 20
759.21592650000002
 11
-27.321045000000026
 21
759.26939349999998
  0
LINE
  8
_0-0_0
  6
CONTINUOUS
 62
    7
 10
-27.071045000000026
 20
759.0253755
 11
-27.321045000000026
 21
759.26939349999998
  0
LINE
  8
_0-0_0
  6
CONTINUOUS
 62
    7
 10
-27.071045000000026
 20
759.39094550000004
 11
-27.321045000000026
 21
759.47276250000004
  0
LINE
  8
_0-0_0
  6
CONTINUOUS
 62
    7
 10
-27.071045000000026
 20
759.21592650000002
 11
-27.321045000000026
 21
759.47276250000004
  0
LINE
  8
_0-0_0
  6
CONTINUOUS
 62
    7
 10
-27.071045000000026
 20
759.54850750000003
 11
-27.321045000000026
 21
759.65779150000003
  0
LINE
  8
_0-0_0
  6
CONTINUOUS
 62
    7
 10
-27.071045000000026
 20
759.39094550000004
 11
-27.321045000000026
 21
759.65779150000003
  0
LINE
  8
_0-0_0
  6
CONTINUOUS
 62
    7
 10
-27.071045000000026
 20
759.68696550000004
 11
-27.321045000000026
 21
759.82249449999995
  0
LINE
  8
_0-0_0
  6
CONTINUOUS
 62
    7
 10
-27.071045000000026
 20
759.54850750000003
 11
-27.321045000000026
 21
759.82249449999995
  0
LINE
  8
_0-0_0
  6
CONTINUOUS
 62
    7
 10
-27.071045000000026
 20
759.80470249999996
 11
-27.321045000000026
 21
759.96501150000006
  0
LINE
  8
_0-0_0
  6
CONTINUOUS
 62
    7
 10
-27.071045000000026
 20
759.68696550000004
 11
-27.321045000000026
 21
759.96501150000006
  0
LINE
  8
_0-0_0
  6
CONTINUOUS
 62
    7
 10
-27.071045000000026
 20
759.90049750000003
 11
-27.321045000000026
 21
760.08381650000001
  0
LINE
  8
_0-0_0
  6
CONTINUOUS
 62
    7
 10
-27.071045000000026
 20
759.80470249999996
 11
-27.321045000000026
 21
760.08381650000001
  0
LINE
  8
_0-0_0
  6
CONTINUOUS
 62
    7
 10
-27.071045000000026
 20
759.97328149999998
 11
-27.321045000000026
 21
760.17759650000005
  0
LINE
  8
_0-0_0
  6
CONTINUOUS
 62
    7
 10
-27.071045000000026
 20
759.90049750000003
 11
-27.321045000000026
 21
760.17759650000005
  0
LINE
  8
_0-0_0
  6
CONTINUOUS
 62
    7
 10
-27.071045000000026
 20
760.02223149999998
 11
-27.321045000000026
 21
760.24531549999995
  0
LINE
  8
_0-0_0
  6
CONTINUOUS
 62
    7
 10
-27.071045000000026
 20
759.97328149999998
 11
-27.321045000000026
 21
760.24531549999995
  0
LINE
  8
_0-0_0
  6
CONTINUOUS
 62
    7
 10
-27.071045000000026
 20
760.04685949999998
 11
-27.321045000000026
 21
760.28623949999997
  0
LINE
  8
_0-0_0
  6
CONTINUOUS
 62
    7
 10
-27.071045000000026
 20
760.02223149999998
 11
-27.321045000000026
 21
760.28623949999997
  0
LINE
  8
_0-0_0
  6
CONTINUOUS
 62
    7
 10
-27.071045000000026
 20
760.04685949999998
 11
-27.321045000000026
 21
760.29994150000005
  0
LINE
  8
_0-0_0
  6
CONTINUOUS
 62
    7
 10
-27.071045000000026
 20
755.55302449999999
 11
-27.321045000000026
 21
755.29994150000005
  0
LINE
  8
_0-0_0
  6
CONTINUOUS
 62
    7
 10
-27.071045000000026
 20
755.5776515
 11
-27.321045000000026
 21
755.31364450000001
  0
LINE
  8
_0-0_0
  6
CONTINUOUS
 62
    7
 10
-27.071045000000026
 20
755.55302449999999
 11
-27.321045000000026
 21
755.31364450000001
  0
LINE
  8
_0-0_0
  6
CONTINUOUS
 62
    7
 10
-27.071045000000026
 20
755.62660249999999
 11
-27.321045000000026
 21
755.35456850000003
  0
LINE
  8
_0-0_0
  6
CONTINUOUS
 62
    7
 10
-27.071045000000026
 20
755.5776515
 11
-27.321045000000026
 21
755.35456850000003
  0
LINE
  8
_0-0_0
  6
CONTINUOUS
 62
    7
 10
-27.071045000000026
 20
755.69938650000006
 11
-27.321045000000026
 21
755.42228650000004
  0
LINE
  8
_0-0_0
  6
CONTINUOUS
 62
    7
 10
-27.071045000000026
 20
755.62660249999999
 11
-27.321045000000026
 21
755.42228650000004
  0
LINE
  8
_0-0_0
  6
CONTINUOUS
 62
    7
 10
-27.071045000000026
 20
755.79518150000001
 11
-27.321045000000026
 21
755.51606749999996
  0
LINE
  8
_0-0_0
  6
CONTINUOUS
 62
    7
 10
-27.071045000000026
 20
755.69938650000006
 11
-27.321045000000026
 21
755.51606749999996
  0
LINE
  8
_0-0_0
  6
CONTINUOUS
 62
    7
 10
-27.071045000000026
 20
755.79518150000001
 11
-27.201004000000012
 21
755.71131849999995
  0
LINE
  8
_0-0_0
  6
CONTINUOUS
 62
    7
 10
-27.071045000000026
 20
755.91291750000005
 11
-27.321045000000026
 21
755.63487250000003
  0
LINE
  8
_0-0_0
  6
CONTINUOUS
 62
    7
 10
-27.201004000000012
 20
755.71131849999995
 11
-27.321045000000026
 21
755.63487250000003
  0
LINE
  8
_0-0_0
  6
CONTINUOUS
 62
    7
 10
-27.071045000000026
 20
756.05137649999995
 11
-27.321045000000026
 21
755.77738950000003
  0
LINE
  8
_0-0_0
  6
CONTINUOUS
 62
    7
 10
-27.071045000000026
 20
755.91291750000005
 11
-27.321045000000026
 21
755.77738950000003
  0
LINE
  8
_0-0_0
  6
CONTINUOUS
 62
    7
 10
-27.071045000000026
 20
756.20896849999997
 11
-27.321045000000026
 21
755.94209250000006
  0
LINE
  8
_0-0_0
  6
CONTINUOUS
 62
    7
 10
-27.071045000000026
 20
756.05137649999995
 11
-27.321045000000026
 21
755.94209250000006
  0
LINE
  8
_0-0_0
  6
CONTINUOUS
 62
    7
 10
-27.071045000000026
 20
756.38398749999999
 11
-27.321045000000026
 21
756.12712050000005
  0
LINE
  8
_0-0_0
  6
CONTINUOUS
 62
    7
 10
-27.071045000000026
 20
756.20896849999997
 11
-27.321045000000026
 21
756.12712050000005
  0
LINE
  8
_0-0_0
  6
CONTINUOUS
 62
    7
 10
-27.071045000000026
 20
756.57450849999998
 11
-27.321045000000026
 21
756.3304895
  0
LINE
  8
_0-0_0
  6
CONTINUOUS
 62
    7
 10
-27.071045000000026
 20
756.38398749999999
 11
-27.321045000000026
 21
756.3304895
  0
LINE
  8
_0-0_0
  6
CONTINUOUS
 62
    7
 10
-27.071045000000026
 20
756.77845750000006
 11
-27.321045000000026
 21
756.54994150000005
  0
LINE
  8
_0-0_0
  6
CONTINUOUS
 62
    7
 10
-27.071045000000026
 20
756.57450849999998
 11
-27.321045000000026
 21
756.54994150000005
  0
LINE
  8
_0-0_0
  6
CONTINUOUS
 62
    7
 10
-27.071045000000026
 20
756.99360650000006
 11
-27.321045000000026
 21
756.78309650000006
  0
LINE
  8
_0-0_0
  6
CONTINUOUS
 62
    7
 10
-27.071045000000026
 20
756.77845750000006
 11
-27.321045000000026
 21
756.78309650000006
  0
LINE
  8
_0-0_0
  6
CONTINUOUS
 62
    7
 10
-27.071045000000026
 20
757.21760549999999
 11
-27.321045000000026
 21
757.02738950000003
  0
LINE
  8
_0-0_0
  6
CONTINUOUS
 62
    7
 10
-27.071045000000026
 20
756.99360650000006
 11
-27.321045000000026
 21
757.02738950000003
  0
LINE
  8
_0-0_0
  6
CONTINUOUS
 62
    7
 10
-27.071045000000026
 20
757.44795250000004
 11
-27.321045000000026
 21
757.28016649999995
  0
LINE
  8
_0-0_0
  6
CONTINUOUS
 62
    7
 10
-27.071045000000026
 20
757.21760549999999
 11
-27.321045000000026
 21
757.28016649999995
  0
LINE
  8
_0-0_0
  6
CONTINUOUS
 62
    7
 10
-27.071045000000026
 20
757.68217449999997
 11
-27.321045000000026
 21
757.53861949999998
  0
LINE
  8
_0-0_0
  6
CONTINUOUS
 62
    7
 10
-27.071045000000026
 20
757.44795250000004
 11
-27.321045000000026
 21
757.53861949999998
  0
LINE
  8
_0-0_0
  6
CONTINUOUS
 62
    7
 10
-27.071045000000026
 20
757.9177095
 11
-27.321045000000026
 21
757.79994150000005
  0
LINE
  8
_0-0_0
  6
CONTINUOUS
 62
    7
 10
-27.071045000000026
 20
757.68217449999997
 11
-27.321045000000026
 21
757.79994150000005
  0
LINE
  8
_0-0_0
  6
CONTINUOUS
 62
    7
 10
-27.071045000000026
 20
758.15193150000005
 11
-27.321045000000026
 21
758.0612635
  0
LINE
  8
_0-0_0
  6
CONTINUOUS
 62
    7
 10
-27.071045000000026
 20
757.9177095
 11
-27.321045000000026
 21
758.0612635
  0
LINE
  8
_0-0_0
  6
CONTINUOUS
 62
    7
 10
-27.071045000000026
 20
758.38227849999998
 11
-27.321045000000026
 21
758.31971750000002
  0
LINE
  8
_0-0_0
  6
CONTINUOUS
 62
    7
 10
-27.071045000000026
 20
758.15193150000005
 11
-27.321045000000026
 21
758.31971750000002
  0
LINE
  8
_0-0_0
  6
CONTINUOUS
 62
    7
 10
-27.071045000000026
 20
758.60627750000003
 11
-27.321045000000026
 21
758.57249449999995
  0
LINE
  8
_0-0_0
  6
CONTINUOUS
 62
    7
 10
-27.071045000000026
 20
758.38227849999998
 11
-27.321045000000026
 21
758.57249449999995
  0
LINE
  8
_0-0_0
  6
CONTINUOUS
 62
    7
 10
-27.071045000000026
 20
758.82142650000003
 11
-27.321045000000026
 21
758.81678750000003
  0
LINE
  8
_0-0_0
  6
CONTINUOUS
 62
    7
 10
-27.071045000000026
 20
758.60627750000003
 11
-27.321045000000026
 21
758.81678750000003
  0
LINE
  8
_0-0_0
  6
CONTINUOUS
 62
    7
 10
-36.821045000000026
 20
775.6253815
 11
-36.571045000000026
 21
775.64994750000005
  0
LINE
  8
_0-0_0
  6
CONTINUOUS
 62
    7
 10
-36.571045000000026
 20
775.64994750000005
 11
-27.321045000000026
 21
775.64994750000005
  0
LINE
  8
_0-0_0
  6
CONTINUOUS
 62
    7
 10
-36.821045000000026
 20
775.42143250000004
 11
-36.571045000000026
 21
775.64994750000005
  0
LINE
  8
_0-0_0
  6
CONTINUOUS
 62
    7
 10
-36.821045000000026
 20
775.42143250000004
 11
-27.071045000000026
 21
775.42143250000004
  0
LINE
  8
_0-0_0
  6
CONTINUOUS
 62
    7
 10
-36.821045000000026
 20
775.81590249999999
 11
-36.571045000000026
 21
775.86939949999999
  0
LINE
  8
_0-0_0
  6
CONTINUOUS
 62
    7
 10
-36.571045000000026
 20
775.86939949999999
 11
-27.321045000000026
 21
775.86939949999999
  0
LINE
  8
_0-0_0
  6
CONTINUOUS
 62
    7
 10
-36.821045000000026
 20
775.6253815
 11
-36.571045000000026
 21
775.86939949999999
  0
LINE
  8
_0-0_0
  6
CONTINUOUS
 62
    7
 10
-36.821045000000026
 20
775.99092050000002
 11
-36.571045000000026
 21
776.07276950000005
  0
LINE
  8
_0-0_0
  6
CONTINUOUS
 62
    7
 10
-36.571045000000026
 20
776.07276950000005
 11
-27.321045000000026
 21
776.07276950000005
  0
LINE
  8
_0-0_0
  6
CONTINUOUS
 62
    7
 10
-36.821045000000026
 20
775.81590249999999
 11
-36.571045000000026
 21
776.07276950000005
  0
LINE
  8
_0-0_0
  6
CONTINUOUS
 62
    7
 10
-36.821045000000026
 20
776.14851350000004
 11
-36.571045000000026
 21
776.25779750000004
  0
LINE
  8
_0-0_0
  6
CONTINUOUS
 62
    7
 10
-36.571045000000026
 20
776.25779750000004
 11
-27.321045000000026
 21
776.25779750000004
  0
LINE
  8
_0-0_0
  6
CONTINUOUS
 62
    7
 10
-36.821045000000026
 20
775.99092050000002
 11
-36.571045000000026
 21
776.25779750000004
  0
LINE
  8
_0-0_0
  6
CONTINUOUS
 62
    7
 10
-36.821045000000026
 20
776.28694150000001
 11
-36.571045000000026
 21
776.42250049999996
  0
LINE
  8
_0-0_0
  6
CONTINUOUS
 62
    7
 10
-36.571045000000026
 20
776.42250049999996
 11
-27.321045000000026
 21
776.42250049999996
  0
LINE
  8
_0-0_0
  6
CONTINUOUS
 62
    7
 10
-36.821045000000026
 20
776.14851350000004
 11
-36.571045000000026
 21
776.42250049999996
  0
LINE
  8
_0-0_0
  6
CONTINUOUS
 62
    7
 10
-36.821045000000026
 20
776.40470849999997
 11
-36.571045000000026
 21
776.56501749999995
  0
LINE
  8
_0-0_0
  6
CONTINUOUS
 62
    7
 10
-36.571045000000026
 20
776.56501749999995
 11
-27.321045000000026
 21
776.56501749999995
  0
LINE
  8
_0-0_0
  6
CONTINUOUS
 62
    7
 10
-36.821045000000026
 20
776.28694150000001
 11
-36.571045000000026
 21
776.56501749999995
  0
LINE
  8
_0-0_0
  6
CONTINUOUS
 62
    7
 10
-36.821045000000026
 20
776.50050350000004
 11
-36.571045000000026
 21
776.68379149999998
  0
LINE
  8
_0-0_0
  6
CONTINUOUS
 62
    7
 10
-36.571045000000026
 20
776.68379149999998
 11
-27.321045000000026
 21
776.68379149999998
  0
LINE
  8
_0-0_0
  6
CONTINUOUS
 62
    7
 10
-36.821045000000026
 20
776.40470849999997
 11
-36.571045000000026
 21
776.68379149999998
  0
LINE
  8
_0-0_0
  6
CONTINUOUS
 62
    7
 10
-36.821045000000026
 20
776.57328749999999
 11
-36.571045000000026
 21
776.77757250000002
  0
LINE
  8
_0-0_0
  6
CONTINUOUS
 62
    7
 10
-36.571045000000026
 20
776.77757250000002
 11
-27.321045000000026
 21
776.77757250000002
  0
LINE
  8
_0-0_0
  6
CONTINUOUS
 62
    7
 10
-36.821045000000026
 20
776.50050350000004
 11
-36.571045000000026
 21
776.77757250000002
  0
LINE
  8
_0-0_0
  6
CONTINUOUS
 62
    7
 10
-36.821045000000026
 20
776.62223849999998
 11
-36.571045000000026
 21
776.84532149999995
  0
LINE
  8
_0-0_0
  6
CONTINUOUS
 62
    7
 10
-36.571045000000026
 20
776.84532149999995
 11
-27.321045000000026
 21
776.84532149999995
  0
LINE
  8
_0-0_0
  6
CONTINUOUS
 62
    7
 10
-36.821045000000026
 20
776.57328749999999
 11
-36.571045000000026
 21
776.84532149999995
  0
LINE
  8
_0-0_0
  6
CONTINUOUS
 62
    7
 10
-36.821045000000026
 20
776.64686549999999
 11
-36.571045000000026
 21
776.88624549999997
  0
LINE
  8
_0-0_0
  6
CONTINUOUS
 62
    7
 10
-36.571045000000026
 20
776.88624549999997
 11
-27.321045000000026
 21
776.88624549999997
  0
LINE
  8
_0-0_0
  6
CONTINUOUS
 62
    7
 10
-36.821045000000026
 20
776.62223849999998
 11
-36.571045000000026
 21
776.88624549999997
  0
LINE
  8
_0-0_0
  6
CONTINUOUS
 62
    7
 10
-36.571045000000026
 20
776.89994750000005
 11
-27.321045000000026
 21
776.89994750000005
  0
LINE
  8
_0-0_0
  6
CONTINUOUS
 62
    7
 10
-36.821045000000026
 20
776.64686549999999
 11
-36.571045000000026
 21
776.89994750000005
  0
LINE
  8
_0-0_0
  6
CONTINUOUS
 62
    7
 10
-36.821045000000026
 20
772.1530305
 11
-36.571045000000026
 21
771.89994750000005
  0
LINE
  8
_0-0_0
  6
CONTINUOUS
 62
    7
 10
-36.571045000000026
 20
771.89994750000005
 11
-27.321045000000026
 21
771.89994750000005
  0
LINE
  8
_0-0_0
  6
CONTINUOUS
 62
    7
 10
-36.821045000000026
 20
772.17765750000001
 11
-36.571045000000026
 21
771.91365050000002
  0
LINE
  8
_0-0_0
  6
CONTINUOUS
 62
    7
 10
-36.571045000000026
 20
771.91365050000002
 11
-27.321045000000026
 21
771.91365050000002
  0
LINE
  8
_0-0_0
  6
CONTINUOUS
 62
    7
 10
-36.821045000000026
 20
772.1530305
 11
-36.571045000000026
 21
771.91365050000002
  0
LINE
  8
_0-0_0
  6
CONTINUOUS
 62
    7
 10
-36.821045000000026
 20
772.2266085
 11
-36.571045000000026
 21
771.95457450000004
  0
LINE
  8
_0-0_0
  6
CONTINUOUS
 62
    7
 10
-36.571045000000026
 20
771.95457450000004
 11
-27.321045000000026
 21
771.95457450000004
  0
LINE
  8
_0-0_0
  6
CONTINUOUS
 62
    7
 10
-36.821045000000026
 20
772.17765750000001
 11
-36.571045000000026
 21
771.95457450000004
  0
LINE
  8
_0-0_0
  6
CONTINUOUS
 62
    7
 10
-36.821045000000026
 20
772.29939249999995
 11
-36.571045000000026
 21
772.02229250000005
  0
LINE
  8
_0-0_0
  6
CONTINUOUS
 62
    7
 10
-36.571045000000026
 20
772.02229250000005
 11
-27.321045000000026
 21
772.02229250000005
  0
LINE
  8
_0-0_0
  6
CONTINUOUS
 62
    7
 10
-36.821045000000026
 20
772.2266085
 11
-36.571045000000026
 21
772.02229250000005
  0
LINE
  8
_0-0_0
  6
CONTINUOUS
 62
    7
 10
-36.821045000000026
 20
772.39518750000002
 11
-36.571045000000026
 21
772.11607349999997
  0
LINE
  8
_0-0_0
  6
CONTINUOUS
 62
    7
 10
-36.571045000000026
 20
772.11607349999997
 11
-27.321045000000026
 21
772.11607349999997
  0
LINE
  8
_0-0_0
  6
CONTINUOUS
 62
    7
 10
-36.821045000000026
 20
772.29939249999995
 11
-36.571045000000026
 21
772.11607349999997
  0
LINE
  8
_0-0_0
  6
CONTINUOUS
 62
    7
 10
-36.571045000000026
 20
772.23487850000004
 11
-27.321045000000026
 21
772.23487850000004
  0
LINE
  8
_0-0_0
  6
CONTINUOUS
 62
    7
 10
-36.691070999999965
 20
772.31132449999996
 11
-36.571045000000026
 21
772.23487850000004
  0
LINE
  8
_0-0_0
  6
CONTINUOUS
 62
    7
 10
-36.821045000000026
 20
772.39518750000002
 11
-36.691070999999965
 21
772.31132449999996
  0
LINE
  8
_0-0_0
  6
CONTINUOUS
 62
    7
 10
-36.821045000000026
 20
772.51292450000005
 11
-36.571045000000026
 21
772.23487850000004
  0
LINE
  8
_0-0_0
  6
CONTINUOUS
 62
    7
 10
-36.821045000000026
 20
772.65135150000003
 11
-36.571045000000026
 21
772.37739550000003
  0
LINE
  8
_0-0_0
  6
CONTINUOUS
 62
    7
 10
-36.571045000000026
 20
772.37739550000003
 11
-27.321045000000026
 21
772.37739550000003
  0
LINE
  8
_0-0_0
  6
CONTINUOUS
 62
    7
 10
-36.821045000000026
 20
772.51292450000005
 11
-36.571045000000026
 21
772.37739550000003
  0
LINE
  8
_0-0_0
  6
CONTINUOUS
 62
    7
 10
-36.821045000000026
 20
772.80894450000005
 11
-36.571045000000026
 21
772.54206850000003
  0
LINE
  8
_0-0_0
  6
CONTINUOUS
 62
    7
 10
-36.571045000000026
 20
772.54206850000003
 11
-27.321045000000026
 21
772.54206850000003
  0
LINE
  8
_0-0_0
  6
CONTINUOUS
 62
    7
 10
-36.821045000000026
 20
772.65135150000003
 11
-36.571045000000026
 21
772.54206850000003
  0
LINE
  8
_0-0_0
  6
CONTINUOUS
 62
    7
 10
-36.821045000000026
 20
772.98396249999996
 11
-36.571045000000026
 21
772.72712650000005
  0
LINE
  8
_0-0_0
  6
CONTINUOUS
 62
    7
 10
-36.571045000000026
 20
772.72712650000005
 11
-27.321045000000026
 21
772.72712650000005
  0
LINE
  8
_0-0_0
  6
CONTINUOUS
 62
    7
 10
-36.821045000000026
 20
772.80894450000005
 11
-36.571045000000026
 21
772.72712650000005
  0
LINE
  8
_0-0_0
  6
CONTINUOUS
 62
    7
 10
-36.821045000000026
 20
773.17451449999999
 11
-36.571045000000026
 21
772.9304965
  0
LINE
  8
_0-0_0
  6
CONTINUOUS
 62
    7
 10
-36.571045000000026
 20
772.9304965
 11
-27.321045000000026
 21
772.9304965
  0
LINE
  8
_0-0_0
  6
CONTINUOUS
 62
    7
 10
-36.821045000000026
 20
772.98396249999996
 11
-36.571045000000026
 21
772.9304965
  0
LINE
  8
_0-0_0
  6
CONTINUOUS
 62
    7
 10
-36.821045000000026
 20
773.37846349999995
 11
-36.571045000000026
 21
773.14994750000005
  0
LINE
  8
_0-0_0
  6
CONTINUOUS
 62
    7
 10
-36.571045000000026
 20
773.14994750000005
 11
-27.321045000000026
 21
773.14994750000005
  0
LINE
  8
_0-0_0
  6
CONTINUOUS
 62
    7
 10
-36.821045000000026
 20
773.37846349999995
 11
-27.071045000000026
 21
773.37846349999995
  0
LINE
  8
_0-0_0
  6
CONTINUOUS
 62
    7
 10
-36.821045000000026
 20
773.17451449999999
 11
-36.571045000000026
 21
773.14994750000005
  0
LINE
  8
_0-0_0
  6
CONTINUOUS
 62
    7
 10
-36.821045000000026
 20
773.59361249999995
 11
-36.571045000000026
 21
773.38310249999995
  0
LINE
  8
_0-0_0
  6
CONTINUOUS
 62
    7
 10
-36.571045000000026
 20
773.38310249999995
 11
-27.321045000000026
 21
773.38310249999995
  0
LINE
  8
_0-0_0
  6
CONTINUOUS
 62
    7
 10
-36.821045000000026
 20
773.59361249999995
 11
-27.071045000000026
 21
773.59361249999995
  0
LINE
  8
_0-0_0
  6
CONTINUOUS
 62
    7
 10
-36.821045000000026
 20
773.37846349999995
 11
-36.571045000000026
 21
773.38310249999995
  0
LINE
  8
_0-0_0
  6
CONTINUOUS
 62
    7
 10
-36.821045000000026
 20
773.8176115
 11
-36.571045000000026
 21
773.62739550000003
  0
LINE
  8
_0-0_0
  6
CONTINUOUS
 62
    7
 10
-36.571045000000026
 20
773.62739550000003
 11
-27.321045000000026
 21
773.62739550000003
  0
LINE
  8
_0-0_0
  6
CONTINUOUS
 62
    7
 10
-36.821045000000026
 20
773.8176115
 11
-27.071045000000026
 21
773.8176115
  0
LINE
  8
_0-0_0
  6
CONTINUOUS
 62
    7
 10
-36.821045000000026
 20
773.59361249999995
 11
-36.571045000000026
 21
773.62739550000003
  0
LINE
  8
_0-0_0
  6
CONTINUOUS
 62
    7
 10
-36.821045000000026
 20
774.04795850000005
 11
-36.571045000000026
 21
773.88017249999996
  0
LINE
  8
_0-0_0
  6
CONTINUOUS
 62
    7
 10
-36.571045000000026
 20
773.88017249999996
 11
-27.321045000000026
 21
773.88017249999996
  0
LINE
  8
_0-0_0
  6
CONTINUOUS
 62
    7
 10
-36.821045000000026
 20
774.04795850000005
 11
-27.071045000000026
 21
774.04795850000005
  0
LINE
  8
_0-0_0
  6
CONTINUOUS
 62
    7
 10
-36.821045000000026
 20
773.8176115
 11
-36.571045000000026
 21
773.88017249999996
  0
LINE
  8
_0-0_0
  6
CONTINUOUS
 62
    7
 10
-36.821045000000026
 20
774.28218049999998
 11
-36.571045000000026
 21
774.13862549999999
  0
LINE
  8
_0-0_0
  6
CONTINUOUS
 62
    7
 10
-36.571045000000026
 20
774.13862549999999
 11
-27.321045000000026
 21
774.13862549999999
  0
LINE
  8
_0-0_0
  6
CONTINUOUS
 62
    7
 10
-36.821045000000026
 20
774.28218049999998
 11
-27.071045000000026
 21
774.28218049999998
  0
LINE
  8
_0-0_0
  6
CONTINUOUS
 62
    7
 10
-36.821045000000026
 20
774.04795850000005
 11
-36.571045000000026
 21
774.13862549999999
  0
LINE
  8
_0-0_0
  6
CONTINUOUS
 62
    7
 10
-36.821045000000026
 20
774.51771550000001
 11
-36.571045000000026
 21
774.39994750000005
  0
LINE
  8
_0-0_0
  6
CONTINUOUS
 62
    7
 10
-36.571045000000026
 20
774.39994750000005
 11
-27.321045000000026
 21
774.39994750000005
  0
LINE
  8
_0-0_0
  6
CONTINUOUS
 62
    7
 10
-36.821045000000026
 20
774.51771550000001
 11
-27.071045000000026
 21
774.51771550000001
  0
LINE
  8
_0-0_0
  6
CONTINUOUS
 62
    7
 10
-36.821045000000026
 20
774.28218049999998
 11
-36.571045000000026
 21
774.39994750000005
  0
LINE
  8
_0-0_0
  6
CONTINUOUS
 62
    7
 10
-36.821045000000026
 20
774.75190750000002
 11
-36.571045000000026
 21
774.6612705
  0
LINE
  8
_0-0_0
  6
CONTINUOUS
 62
    7
 10
-36.571045000000026
 20
774.6612705
 11
-27.321045000000026
 21
774.6612705
  0
LINE
  8
_0-0_0
  6
CONTINUOUS
 62
    7
 10
-36.821045000000026
 20
774.75190750000002
 11
-27.071045000000026
 21
774.75190750000002
  0
LINE
  8
_0-0_0
  6
CONTINUOUS
 62
    7
 10
-36.821045000000026
 20
774.51771550000001
 11
-36.571045000000026
 21
774.6612705
  0
LINE
  8
_0-0_0
  6
CONTINUOUS
 62
    7
 10
-36.821045000000026
 20
774.98228449999999
 11
-36.571045000000026
 21
774.91972350000003
  0
LINE
  8
_0-0_0
  6
CONTINUOUS
 62
    7
 10
-36.571045000000026
 20
774.91972350000003
 11
-27.321045000000026
 21
774.91972350000003
  0
LINE
  8
_0-0_0
  6
CONTINUOUS
 62
    7
 10
-36.821045000000026
 20
774.98228449999999
 11
-27.071045000000026
 21
774.98228449999999
  0
LINE
  8
_0-0_0
  6
CONTINUOUS
 62
    7
 10
-36.821045000000026
 20
774.75190750000002
 11
-36.571045000000026
 21
774.91972350000003
  0
LINE
  8
_0-0_0
  6
CONTINUOUS
 62
    7
 10
-36.821045000000026
 20
775.20628350000004
 11
-36.571045000000026
 21
775.17250049999996
  0
LINE
  8
_0-0_0
  6
CONTINUOUS
 62
    7
 10
-36.571045000000026
 20
775.17250049999996
 11
-27.321045000000026
 21
775.17250049999996
  0
LINE
  8
_0-0_0
  6
CONTINUOUS
 62
    7
 10
-36.821045000000026
 20
775.20628350000004
 11
-27.071045000000026
 21
775.20628350000004
  0
LINE
  8
_0-0_0
  6
CONTINUOUS
 62
    7
 10
-36.821045000000026
 20
774.98228449999999
 11
-36.571045000000026
 21
775.17250049999996
  0
LINE
  8
_0-0_0
  6
CONTINUOUS
 62
    7
 10
-36.821045000000026
 20
775.42143250000004
 11
-36.571045000000026
 21
775.41679350000004
  0
LINE
  8
_0-0_0
  6
CONTINUOUS
 62
    7
 10
-36.571045000000026
 20
775.41679350000004
 11
-27.321045000000026
 21
775.41679350000004
  0
LINE
  8
_0-0_0
  6
CONTINUOUS
 62
    7
 10
-36.821045000000026
 20
775.20628350000004
 11
-36.571045000000026
 21
775.41679350000004
  0
LINE
  8
_0-0_0
  6
CONTINUOUS
 62
    7
 10
-23.071045000000026
 20
771.34992950000003
 11
-23.071045000000026
 21
763.36839250000003
  0
LINE
  8
_0-0_0
  6
CONTINUOUS
 62
    7
 10
-23.071045000000026
 20
763.36839250000003
 11
-23.071045000000026
 21
760.84992950000003
  0
LINE
  8
_0-0_0
  6
CONTINUOUS
 62
    7
 10
-36.821045000000026
 20
759.0253755
 11
-36.571045000000026
 21
759.04994150000005
  0
LINE
  8
_0-0_0
  6
CONTINUOUS
 62
    7
 10
-36.571045000000026
 20
759.04994150000005
 11
-27.321045000000026
 21
759.04994150000005
  0
LINE
  8
_0-0_0
  6
CONTINUOUS
 62
    7
 10
-36.821045000000026
 20
758.82142650000003
 11
-36.571045000000026
 21
759.04994150000005
  0
LINE
  8
_0-0_0
  6
CONTINUOUS
 62
    7
 10
-36.821045000000026
 20
758.82142650000003
 11
-27.071045000000026
 21
758.82142650000003
  0
LINE
  8
_0-0_0
  6
CONTINUOUS
 62
    7
 10
-36.821045000000026
 20
759.21592650000002
 11
-36.571045000000026
 21
759.26939349999998
  0
LINE
  8
_0-0_0
  6
CONTINUOUS
 62
    7
 10
-36.571045000000026
 20
759.26939349999998
 11
-27.321045000000026
 21
759.26939349999998
  0
LINE
  8
_0-0_0
  6
CONTINUOUS
 62
    7
 10
-36.821045000000026
 20
759.0253755
 11
-36.571045000000026
 21
759.26939349999998
  0
LINE
  8
_0-0_0
  6
CONTINUOUS
 62
    7
 10
-36.821045000000026
 20
759.39094550000004
 11
-36.571045000000026
 21
759.47276250000004
  0
LINE
  8
_0-0_0
  6
CONTINUOUS
 62
    7
 10
-36.571045000000026
 20
759.47276250000004
 11
-27.321045000000026
 21
759.47276250000004
  0
LINE
  8
_0-0_0
  6
CONTINUOUS
 62
    7
 10
-36.821045000000026
 20
759.21592650000002
 11
-36.571045000000026
 21
759.47276250000004
  0
LINE
  8
_0-0_0
  6
CONTINUOUS
 62
    7
 10
-36.821045000000026
 20
759.54850750000003
 11
-36.571045000000026
 21
759.65779150000003
  0
LINE
  8
_0-0_0
  6
CONTINUOUS
 62
    7
 10
-36.571045000000026
 20
759.65779150000003
 11
-27.321045000000026
 21
759.65779150000003
  0
LINE
  8
_0-0_0
  6
CONTINUOUS
 62
    7
 10
-36.821045000000026
 20
759.39094550000004
 11
-36.571045000000026
 21
759.65779150000003
  0
LINE
  8
_0-0_0
  6
CONTINUOUS
 62
    7
 10
-36.821045000000026
 20
759.68696550000004
 11
-36.571045000000026
 21
759.82249449999995
  0
LINE
  8
_0-0_0
  6
CONTINUOUS
 62
    7
 10
-36.571045000000026
 20
759.82249449999995
 11
-27.321045000000026
 21
759.82249449999995
  0
LINE
  8
_0-0_0
  6
CONTINUOUS
 62
    7
 10
-36.821045000000026
 20
759.54850750000003
 11
-36.571045000000026
 21
759.82249449999995
  0
LINE
  8
_0-0_0
  6
CONTINUOUS
 62
    7
 10
-36.821045000000026
 20
759.80470249999996
 11
-36.571045000000026
 21
759.96501150000006
  0
LINE
  8
_0-0_0
  6
CONTINUOUS
 62
    7
 10
-36.571045000000026
 20
759.96501150000006
 11
-27.321045000000026
 21
759.96501150000006
  0
LINE
  8
_0-0_0
  6
CONTINUOUS
 62
    7
 10
-36.821045000000026
 20
759.68696550000004
 11
-36.571045000000026
 21
759.96501150000006
  0
LINE
  8
_0-0_0
  6
CONTINUOUS
 62
    7
 10
-36.821045000000026
 20
759.90049750000003
 11
-36.571045000000026
 21
760.08381650000001
  0
LINE
  8
_0-0_0
  6
CONTINUOUS
 62
    7
 10
-36.571045000000026
 20
760.08381650000001
 11
-27.321045000000026
 21
760.08381650000001
  0
LINE
  8
_0-0_0
  6
CONTINUOUS
 62
    7
 10
-36.821045000000026
 20
759.80470249999996
 11
-36.571045000000026
 21
760.08381650000001
  0
LINE
  8
_0-0_0
  6
CONTINUOUS
 62
    7
 10
-36.821045000000026
 20
759.97328149999998
 11
-36.571045000000026
 21
760.17759650000005
  0
LINE
  8
_0-0_0
  6
CONTINUOUS
 62
    7
 10
-36.571045000000026
 20
760.17759650000005
 11
-27.321045000000026
 21
760.17759650000005
  0
LINE
  8
_0-0_0
  6
CONTINUOUS
 62
    7
 10
-36.821045000000026
 20
759.90049750000003
 11
-36.571045000000026
 21
760.17759650000005
  0
LINE
  8
_0-0_0
  6
CONTINUOUS
 62
    7
 10
-36.821045000000026
 20
760.02223149999998
 11
-36.571045000000026
 21
760.24531549999995
  0
LINE
  8
_0-0_0
  6
CONTINUOUS
 62
    7
 10
-36.571045000000026
 20
760.24531549999995
 11
-27.321045000000026
 21
760.24531549999995
  0
LINE
  8
_0-0_0
  6
CONTINUOUS
 62
    7
 10
-36.821045000000026
 20
759.97328149999998
 11
-36.571045000000026
 21
760.24531549999995
  0
LINE
  8
_0-0_0
  6
CONTINUOUS
 62
    7
 10
-36.821045000000026
 20
760.04685949999998
 11
-36.571045000000026
 21
760.28623949999997
  0
LINE
  8
_0-0_0
  6
CONTINUOUS
 62
    7
 10
-36.571045000000026
 20
760.28623949999997
 11
-27.321045000000026
 21
760.28623949999997
  0
LINE
  8
_0-0_0
  6
CONTINUOUS
 62
    7
 10
-36.821045000000026
 20
760.02223149999998
 11
-36.571045000000026
 21
760.28623949999997
  0
LINE
  8
_0-0_0
  6
CONTINUOUS
 62
    7
 10
-36.571045000000026
 20
760.29994150000005
 11
-27.321045000000026
 21
760.29994150000005
  0
LINE
  8
_0-0_0
  6
CONTINUOUS
 62
    7
 10
-36.821045000000026
 20
760.04685949999998
 11
-36.571045000000026
 21
760.29994150000005
  0
LINE
  8
_0-0_0
  6
CONTINUOUS
 62
    7
 10
-36.821045000000026
 20
755.55302449999999
 11
-36.571045000000026
 21
755.29994150000005
  0
LINE
  8
_0-0_0
  6
CONTINUOUS
 62
    7
 10
-36.571045000000026
 20
755.29994150000005
 11
-27.321045000000026
 21
755.29994150000005
  0
LINE
  8
_0-0_0
  6
CONTINUOUS
 62
    7
 10
-36.821045000000026
 20
755.5776515
 11
-36.571045000000026
 21
755.31364450000001
  0
LINE
  8
_0-0_0
  6
CONTINUOUS
 62
    7
 10
-36.571045000000026
 20
755.31364450000001
 11
-27.321045000000026
 21
755.31364450000001
  0
LINE
  8
_0-0_0
  6
CONTINUOUS
 62
    7
 10
-36.821045000000026
 20
755.55302449999999
 11
-36.571045000000026
 21
755.31364450000001
  0
LINE
  8
_0-0_0
  6
CONTINUOUS
 62
    7
 10
-36.821045000000026
 20
755.62660249999999
 11
-36.571045000000026
 21
755.35456850000003
  0
LINE
  8
_0-0_0
  6
CONTINUOUS
 62
    7
 10
-36.571045000000026
 20
755.35456850000003
 11
-27.321045000000026
 21
755.35456850000003
  0
LINE
  8
_0-0_0
  6
CONTINUOUS
 62
    7
 10
-36.821045000000026
 20
755.5776515
 11
-36.571045000000026
 21
755.35456850000003
  0
LINE
  8
_0-0_0
  6
CONTINUOUS
 62
    7
 10
-36.821045000000026
 20
755.69938650000006
 11
-36.571045000000026
 21
755.42228650000004
  0
LINE
  8
_0-0_0
  6
CONTINUOUS
 62
    7
 10
-36.571045000000026
 20
755.42228650000004
 11
-27.321045000000026
 21
755.42228650000004
  0
LINE
  8
_0-0_0
  6
CONTINUOUS
 62
    7
 10
-36.821045000000026
 20
755.62660249999999
 11
-36.571045000000026
 21
755.42228650000004
  0
LINE
  8
_0-0_0
  6
CONTINUOUS
 62
    7
 10
-36.821045000000026
 20
755.79518150000001
 11
-36.571045000000026
 21
755.51606749999996
  0
LINE
  8
_0-0_0
  6
CONTINUOUS
 62
    7
 10
-36.571045000000026
 20
755.51606749999996
 11
-27.321045000000026
 21
755.51606749999996
  0
LINE
  8
_0-0_0
  6
CONTINUOUS
 62
    7
 10
-36.821045000000026
 20
755.69938650000006
 11
-36.571045000000026
 21
755.51606749999996
  0
LINE
  8
_0-0_0
  6
CONTINUOUS
 62
    7
 10
-36.571045000000026
 20
755.63487250000003
 11
-27.321045000000026
 21
755.63487250000003
  0
LINE
  8
_0-0_0
  6
CONTINUOUS
 62
    7
 10
-36.691070999999965
 20
755.71131849999995
 11
-36.571045000000026
 21
755.63487250000003
  0
LINE
  8
_0-0_0
  6
CONTINUOUS
 62
    7
 10
-36.821045000000026
 20
755.79518150000001
 11
-36.691070999999965
 21
755.71131849999995
  0
LINE
  8
_0-0_0
  6
CONTINUOUS
 62
    7
 10
-36.821045000000026
 20
755.91291750000005
 11
-36.571045000000026
 21
755.63487250000003
  0
LINE
  8
_0-0_0
  6
CONTINUOUS
 62
    7
 10
-36.821045000000026
 20
756.05137649999995
 11
-36.571045000000026
 21
755.77738950000003
  0
LINE
  8
_0-0_0
  6
CONTINUOUS
 62
    7
 10
-36.571045000000026
 20
755.77738950000003
 11
-27.321045000000026
 21
755.77738950000003
  0
LINE
  8
_0-0_0
  6
CONTINUOUS
 62
    7
 10
-36.821045000000026
 20
755.91291750000005
 11
-36.571045000000026
 21
755.77738950000003
  0
LINE
  8
_0-0_0
  6
CONTINUOUS
 62
    7
 10
-36.821045000000026
 20
756.20896849999997
 11
-36.571045000000026
 21
755.94209250000006
  0
LINE
  8
_0-0_0
  6
CONTINUOUS
 62
    7
 10
-36.571045000000026
 20
755.94209250000006
 11
-27.321045000000026
 21
755.94209250000006
  0
LINE
  8
_0-0_0
  6
CONTINUOUS
 62
    7
 10
-36.821045000000026
 20
756.05137649999995
 11
-36.571045000000026
 21
755.94209250000006
  0
LINE
  8
_0-0_0
  6
CONTINUOUS
 62
    7
 10
-36.821045000000026
 20
756.38398749999999
 11
-36.571045000000026
 21
756.12712050000005
  0
LINE
  8
_0-0_0
  6
CONTINUOUS
 62
    7
 10
-36.571045000000026
 20
756.12712050000005
 11
-27.321045000000026
 21
756.12712050000005
  0
LINE
  8
_0-0_0
  6
CONTINUOUS
 62
    7
 10
-36.821045000000026
 20
756.20896849999997
 11
-36.571045000000026
 21
756.12712050000005
  0
LINE
  8
_0-0_0
  6
CONTINUOUS
 62
    7
 10
-36.821045000000026
 20
756.57450849999998
 11
-36.571045000000026
 21
756.3304895
  0
LINE
  8
_0-0_0
  6
CONTINUOUS
 62
    7
 10
-36.571045000000026
 20
756.3304895
 11
-27.321045000000026
 21
756.3304895
  0
LINE
  8
_0-0_0
  6
CONTINUOUS
 62
    7
 10
-36.821045000000026
 20
756.38398749999999
 11
-36.571045000000026
 21
756.3304895
  0
LINE
  8
_0-0_0
  6
CONTINUOUS
 62
    7
 10
-36.821045000000026
 20
756.77845750000006
 11
-36.571045000000026
 21
756.54994150000005
  0
LINE
  8
_0-0_0
  6
CONTINUOUS
 62
    7
 10
-36.571045000000026
 20
756.54994150000005
 11
-27.321045000000026
 21
756.54994150000005
  0
LINE
  8
_0-0_0
  6
CONTINUOUS
 62
    7
 10
-36.821045000000026
 20
756.77845750000006
 11
-27.071045000000026
 21
756.77845750000006
  0
LINE
  8
_0-0_0
  6
CONTINUOUS
 62
    7
 10
-36.821045000000026
 20
756.57450849999998
 11
-36.571045000000026
 21
756.54994150000005
  0
LINE
  8
_0-0_0
  6
CONTINUOUS
 62
    7
 10
-36.821045000000026
 20
756.99360650000006
 11
-36.571045000000026
 21
756.78309650000006
  0
LINE
  8
_0-0_0
  6
CONTINUOUS
 62
    7
 10
-36.571045000000026
 20
756.78309650000006
 11
-27.321045000000026
 21
756.78309650000006
  0
LINE
  8
_0-0_0
  6
CONTINUOUS
 62
    7
 10
-36.821045000000026
 20
756.99360650000006
 11
-27.071045000000026
 21
756.99360650000006
  0
LINE
  8
_0-0_0
  6
CONTINUOUS
 62
    7
 10
-36.821045000000026
 20
756.77845750000006
 11
-36.571045000000026
 21
756.78309650000006
  0
LINE
  8
_0-0_0
  6
CONTINUOUS
 62
    7
 10
-36.821045000000026
 20
757.21760549999999
 11
-36.571045000000026
 21
757.02738950000003
  0
LINE
  8
_0-0_0
  6
CONTINUOUS
 62
    7
 10
-36.571045000000026
 20
757.02738950000003
 11
-27.321045000000026
 21
757.02738950000003
  0
LINE
  8
_0-0_0
  6
CONTINUOUS
 62
    7
 10
-36.821045000000026
 20
757.21760549999999
 11
-27.071045000000026
 21
757.21760549999999
  0
LINE
  8
_0-0_0
  6
CONTINUOUS
 62
    7
 10
-36.821045000000026
 20
756.99360650000006
 11
-36.571045000000026
 21
757.02738950000003
  0
LINE
  8
_0-0_0
  6
CONTINUOUS
 62
    7
 10
-36.821045000000026
 20
757.44795250000004
 11
-36.571045000000026
 21
757.28016649999995
  0
LINE
  8
_0-0_0
  6
CONTINUOUS
 62
    7
 10
-36.571045000000026
 20
757.28016649999995
 11
-27.321045000000026
 21
757.28016649999995
  0
LINE
  8
_0-0_0
  6
CONTINUOUS
 62
    7
 10
-36.821045000000026
 20
757.44795250000004
 11
-27.071045000000026
 21
757.44795250000004
  0
LINE
  8
_0-0_0
  6
CONTINUOUS
 62
    7
 10
-36.821045000000026
 20
757.21760549999999
 11
-36.571045000000026
 21
757.28016649999995
  0
LINE
  8
_0-0_0
  6
CONTINUOUS
 62
    7
 10
-36.821045000000026
 20
757.68217449999997
 11
-36.571045000000026
 21
757.53861949999998
  0
LINE
  8
_0-0_0
  6
CONTINUOUS
 62
    7
 10
-36.571045000000026
 20
757.53861949999998
 11
-27.321045000000026
 21
757.53861949999998
  0
LINE
  8
_0-0_0
  6
CONTINUOUS
 62
    7
 10
-36.821045000000026
 20
757.68217449999997
 11
-27.071045000000026
 21
757.68217449999997
  0
LINE
  8
_0-0_0
  6
CONTINUOUS
 62
    7
 10
-36.821045000000026
 20
757.44795250000004
 11
-36.571045000000026
 21
757.53861949999998
  0
LINE
  8
_0-0_0
  6
CONTINUOUS
 62
    7
 10
-36.821045000000026
 20
757.9177095
 11
-36.571045000000026
 21
757.79994150000005
  0
LINE
  8
_0-0_0
  6
CONTINUOUS
 62
    7
 10
-36.571045000000026
 20
757.79994150000005
 11
-27.321045000000026
 21
757.79994150000005
  0
LINE
  8
_0-0_0
  6
CONTINUOUS
 62
    7
 10
-36.821045000000026
 20
757.9177095
 11
-27.071045000000026
 21
757.9177095
  0
LINE
  8
_0-0_0
  6
CONTINUOUS
 62
    7
 10
-36.821045000000026
 20
757.68217449999997
 11
-36.571045000000026
 21
757.79994150000005
  0
LINE
  8
_0-0_0
  6
CONTINUOUS
 62
    7
 10
-36.821045000000026
 20
758.15193150000005
 11
-36.571045000000026
 21
758.0612635
  0
LINE
  8
_0-0_0
  6
CONTINUOUS
 62
    7
 10
-36.571045000000026
 20
758.0612635
 11
-27.321045000000026
 21
758.0612635
  0
LINE
  8
_0-0_0
  6
CONTINUOUS
 62
    7
 10
-36.821045000000026
 20
758.15193150000005
 11
-27.071045000000026
 21
758.15193150000005
  0
LINE
  8
_0-0_0
  6
CONTINUOUS
 62
    7
 10
-36.821045000000026
 20
757.9177095
 11
-36.571045000000026
 21
758.0612635
  0
LINE
  8
_0-0_0
  6
CONTINUOUS
 62
    7
 10
-36.821045000000026
 20
758.38227849999998
 11
-36.571045000000026
 21
758.31971750000002
  0
LINE
  8
_0-0_0
  6
CONTINUOUS
 62
    7
 10
-36.571045000000026
 20
758.31971750000002
 11
-27.321045000000026
 21
758.31971750000002
  0
LINE
  8
_0-0_0
  6
CONTINUOUS
 62
    7
 10
-36.821045000000026
 20
758.38227849999998
 11
-27.071045000000026
 21
758.38227849999998
  0
LINE
  8
_0-0_0
  6
CONTINUOUS
 62
    7
 10
-36.821045000000026
 20
758.15193150000005
 11
-36.571045000000026
 21
758.31971750000002
  0
LINE
  8
_0-0_0
  6
CONTINUOUS
 62
    7
 10
-36.821045000000026
 20
758.60627750000003
 11
-36.571045000000026
 21
758.57249449999995
  0
LINE
  8
_0-0_0
  6
CONTINUOUS
 62
    7
 10
-36.571045000000026
 20
758.57249449999995
 11
-27.321045000000026
 21
758.57249449999995
  0
LINE
  8
_0-0_0
  6
CONTINUOUS
 62
    7
 10
-36.821045000000026
 20
758.60627750000003
 11
-27.071045000000026
 21
758.60627750000003
  0
LINE
  8
_0-0_0
  6
CONTINUOUS
 62
    7
 10
-36.821045000000026
 20
758.38227849999998
 11
-36.571045000000026
 21
758.57249449999995
  0
LINE
  8
_0-0_0
  6
CONTINUOUS
 62
    7
 10
-36.821045000000026
 20
758.82142650000003
 11
-36.571045000000026
 21
758.81678750000003
  0
LINE
  8
_0-0_0
  6
CONTINUOUS
 62
    7
 10
-36.571045000000026
 20
758.81678750000003
 11
-27.321045000000026
 21
758.81678750000003
  0
LINE
  8
_0-0_0
  6
CONTINUOUS
 62
    7
 10
-36.821045000000026
 20
758.60627750000003
 11
-36.571045000000026
 21
758.81678750000003
  0
LINE
  8
_0-0_0
  6
CONTINUOUS
 62
    7
 10
-37.071045000000026
 20
776.39994750000005
 11
-37.071045000000026
 21
772.6447905
  0
LINE
  8
_0-0_0
  6
CONTINUOUS
 62
    7
 10
-37.071045000000026
 20
772.6447905
 11
-37.071045000000026
 21
772.39994750000005
  0
LINE
  8
_0-0_0
  6
CONTINUOUS
 62
    7
 10
-37.071045000000026
 20
759.79994150000005
 11
-37.071045000000026
 21
756.04478449999999
  0
LINE
  8
_0-0_0
  6
CONTINUOUS
 62
    7
 10
-37.071045000000026
 20
756.04478449999999
 11
-37.071045000000026
 21
755.79994150000005
  0
LINE
  8
_0-0_0
  6
CONTINUOUS
 62
    7
 10
-23.471039000000019
 20
771.09992950000003
 11
-23.471039000000019
 21
768.59992950000003
  0
LINE
  8
_0-0_0
  6
CONTINUOUS
 62
    7
 10
-23.471039000000019
 20
768.59992950000003
 11
-23.471039000000019
 21
761.09992950000003
  0
LINE
  8
_0-0_0
  6
CONTINUOUS
 62
    7
 10
-24.271027000000004
 20
770.63807650000001
 11
-24.271027000000004
 21
768.36900349999996
  0
LINE
  8
_0-0_0
  6
CONTINUOUS
 62
    7
 10
-24.271027000000004
 20
768.36900349999996
 11
-24.271027000000004
 21
761.56181349999997
  0
LINE
  8
_0-0_0
  6
CONTINUOUS
 62
    7
 10
-82.271042000000079
 20
770.09992950000003
 11
-82.271042000000079
 21
770.09858650000001
  0
LINE
  8
_0-0_0
  6
CONTINUOUS
 62
    7
 10
-82.271042000000079
 20
770.09858650000001
 11
-82.271042000000079
 21
762.09992950000003
  0
LINE
  8
_0-0_0
  6
CONTINUOUS
 62
    7
 10
-1.0710370000000466
 20
776.64994750000005
 11
-27.071045000000026
 21
776.64994750000005
  0
LINE
  8
_0-0_0
  6
CONTINUOUS
 62
    7
 10
-1.0710370000000466
 20
772.14994750000005
 11
-27.071045000000026
 21
772.14994750000005
  0
LINE
  8
_0-0_0
  6
CONTINUOUS
 62
    7
 10
-22.271057000000042
 20
760.04994150000005
 11
-27.071045000000026
 21
760.04994150000005
  0
LINE
  8
_0-0_0
  6
CONTINUOUS
 62
    7
 10
-6.8210750000000644
 20
755.54994150000005
 11
-27.071045000000026
 21
755.54994150000005
  0
LINE
  8
_0-0_0
  6
CONTINUOUS
 62
    7
 10
-27.071045000000026
 20
776.64994750000005
 11
-27.321045000000026
 21
776.89994750000005
  0
LINE
  8
_0-0_0
  6
CONTINUOUS
 62
    7
 10
-27.071045000000026
 20
772.14994750000005
 11
-27.321045000000026
 21
771.89994750000005
  0
LINE
  8
_0-0_0
  6
CONTINUOUS
 62
    7
 10
-27.071045000000026
 20
760.04994150000005
 11
-27.321045000000026
 21
760.29994150000005
  0
LINE
  8
_0-0_0
  6
CONTINUOUS
 62
    7
 10
-27.071045000000026
 20
755.54994150000005
 11
-27.321045000000026
 21
755.29994150000005
  0
LINE
  8
_0-0_0
  6
CONTINUOUS
 62
    7
 10
-23.071045000000026
 20
771.34992950000003
 11
-22.271042000000079
 21
772.14994750000005
  0
LINE
  8
_0-0_0
  6
CONTINUOUS
 62
    7
 10
-23.071045000000026
 20
760.84992950000003
 11
-21.821045000000026
 21
759.59992950000003
  0
LINE
  8
_0-0_0
  6
CONTINUOUS
 62
    7
 10
-37.071045000000026
 20
776.39994750000005
 11
-36.571196999999984
 21
776.89979549999998
  0
LINE
  8
_0-0_0
  6
CONTINUOUS
 62
    7
 10
-37.071045000000026
 20
772.39994750000005
 11
-36.571196999999984
 21
771.90010050000001
  0
LINE
  8
_0-0_0
  6
CONTINUOUS
 62
    7
 10
-37.071045000000026
 20
759.79994150000005
 11
-36.571196999999984
 21
760.29978949999997
  0
LINE
  8
_0-0_0
  6
CONTINUOUS
 62
    7
 10
-37.071045000000026
 20
755.79994150000005
 11
-36.571196999999984
 21
755.3000945
  0
LINE
  8
_0-0_0
  6
CONTINUOUS
 62
    7
 10
-23.071045000000026
 20
771.09992950000003
 11
-23.471039000000019
 21
771.09992950000003
  0
LINE
  8
_0-0_0
  6
CONTINUOUS
 62
    7
 10
-23.071045000000026
 20
761.09992950000003
 11
-23.471039000000019
 21
761.09992950000003
  0
LINE
  8
_0-0_0
  6
CONTINUOUS
 62
    7
 10
-24.271027000000004
 20
770.63807650000001
 11
-23.471039000000019
 21
771.09992950000003
  0
LINE
  8
_0-0_0
  6
CONTINUOUS
 62
    7
 10
-24.271027000000004
 20
761.56181349999997
 11
-23.471039000000019
 21
761.09992950000003
  0
LINE
  8
_0-0_0
  6
CONTINUOUS
 62
    7
 10
-24.271027000000004
 20
770.09992950000003
 11
-82.271042000000079
 21
770.09992950000003
  0
LINE
  8
_0-0_0
  6
CONTINUOUS
 62
    7
 10
-24.271027000000004
 20
762.09992950000003
 11
-82.271042000000079
 21
762.09992950000003
  0
ARC
  8
_0-0_0
  6
CONTINUOUS
 62
    7
 10
-7.5710450000000264
 20
799.60002150000003
 40
8
 50
215.099627
 51
324.90037799999999
  0
LINE
  8
_0-0_0
  6
CONTINUOUS
 62
    7
 10
-16.571045000000026
 20
795.00001550000002
 11
-14.116271999999981
 21
795.00001550000002
  0
LINE
  8
_0-0_0
  6
CONTINUOUS
 62
    7
 10
-16.571045000000026
 20
781.80000250000001
 11
-16.571045000000026
 21
795.00001550000002
  0
LINE
  8
_0-0_0
  6
CONTINUOUS
 62
    7
 10
1556.4288940000001
 20
781.80000250000001
 11
1556.4288940000001
 21
795.00001550000002
  0
LINE
  8
_0-0_0
  6
CONTINUOUS
 62
    7
 10
1553.9741819999999
 20
795.00001550000002
 11
1556.4288940000001
 21
795.00001550000002
  0
ARC
  8
_0-0_0
  6
CONTINUOUS
 62
    7
 10
1547.4288940000001
 20
799.60002150000003
 40
8
 50
215.099627
 51
324.90037799999999
  0
LINE
  8
_0-0_0
  6
CONTINUOUS
 62
    7
 10
-1.0258099999999786
 20
795.00001550000002
 11
1540.8836059999999
 21
795.00001550000002
  0
LINE
  8
_0-0_0
  6
CONTINUOUS
 62
    7
 10
-1.0258099999999786
 20
795.00001550000002
 11
-0.9368289999999888
 21
795.12931849999995
  0
LINE
  8
_0-0_0
  6
CONTINUOUS
 62
    7
 10
1540.8836059999999
 20
795.00001550000002
 11
1540.7947389999999
 21
795.12931849999995
  0
LINE
  8
_0-0_0
  6
CONTINUOUS
 62
    7
 10
1554.1561889999998
 20
795.2707365
 11
1554.2377320000001
 21
795.40000950000001
  0
ARC
  8
_0-0_0
  6
CONTINUOUS
 62
    7
 10
1547.4288940000001
 20
799.60002150000003
 40
8
 50
328.33175599999993
 51
334.05550899999992
  0
LINE
  8
_0-0_0
  6
CONTINUOUS
 62
    7
 10
1554.6226200000001
 20
796.10002150000003
 11
1554.7166139999999
 21
796.30000250000001
  0
LINE
  8
_0-0_0
  6
CONTINUOUS
 62
    7
 10
1554.7166139999999
 20
796.30000250000001
 11
1554.8038940000001
 21
796.50001550000002
  0
ARC
  8
_0-0_0
  6
CONTINUOUS
 62
    7
 10
1547.4288940000001
 20
799.60002150000003
 40
8
 50
337.20097500000003
 51
342.54240199999998
  0
LINE
  8
_0-0_0
  6
CONTINUOUS
 62
    7
 10
1555.0603639999999
 20
797.20002750000003
 11
1555.120422
 21
797.40000950000001
  0
LINE
  8
_0-0_0
  6
CONTINUOUS
 62
    7
 10
1555.120422
 20
797.40000950000001
 11
1555.1748659999998
 21
797.60002150000003
  0
ARC
  8
_0-0_0
  6
CONTINUOUS
 62
    7
 10
1547.4288940000001
 20
799.60002150000003
 40
8
 50
345.52249499999999
 51
350.64797900000002
  0
LINE
  8
_0-0_0
  6
CONTINUOUS
 62
    7
 10
1555.3225710000002
 20
798.30000250000001
 11
1555.3529659999999
 21
798.50001550000002
  0
LINE
  8
_0-0_0
  6
CONTINUOUS
 62
    7
 10
1555.3529659999999
 20
798.50001550000002
 11
1555.3781130000002
 21
798.70002750000003
  0
ARC
  8
_0-0_0
  6
CONTINUOUS
 62
    7
 10
1547.4288940000001
 20
799.60002150000003
 40
8
 50
353.54056400000002
 51
358.56744600000002
  0
LINE
  8
_0-0_0
  6
CONTINUOUS
 62
    7
 10
1555.426453
 20
799.40000950000001
 11
1555.4288940000001
 21
799.60002150000003
  0
LINE
  8
_0-0_0
  6
CONTINUOUS
 62
    7
 10
1539.4313349999998
 20
799.40000950000001
 11
1539.4288940000001
 21
799.60002150000003
  0
ARC
  8
_0-0_0
  6
CONTINUOUS
 62
    7
 10
1547.4288940000001
 20
799.60002150000003
 40
8
 50
181.432545
 51
186.45945499999999
  0
LINE
  8
_0-0_0
  6
CONTINUOUS
 62
    7
 10
1539.5048219999999
 20
798.50001550000002
 11
1539.479675
 21
798.70002750000003
  0
LINE
  8
_0-0_0
  6
CONTINUOUS
 62
    7
 10
1539.5352170000001
 20
798.30000250000001
 11
1539.5048219999999
 21
798.50001550000002
  0
ARC
  8
_0-0_0
  6
CONTINUOUS
 62
    7
 10
1547.4288940000001
 20
799.60002150000003
 40
8
 50
189.35203999999999
 51
194.47751
  0
LINE
  8
_0-0_0
  6
CONTINUOUS
 62
    7
 10
1539.7373659999998
 20
797.40000950000001
 11
1539.682922
 21
797.60002150000003
  0
LINE
  8
_0-0_0
  6
CONTINUOUS
 62
    7
 10
1539.7974239999999
 20
797.20002750000003
 11
1539.7373659999998
 21
797.40000950000001
  0
ARC
  8
_0-0_0
  6
CONTINUOUS
 62
    7
 10
1547.4288940000001
 20
799.60002150000003
 40
8
 50
197.45760300000001
 51
202.79902999999999
  0
LINE
  8
_0-0_0
  6
CONTINUOUS
 62
    7
 10
1540.1411739999999
 20
796.30000250000001
 11
1540.0538940000001
 21
796.50001550000002
  0
LINE
  8
_0-0_0
  6
CONTINUOUS
 62
    7
 10
1540.235169
 20
796.10002150000003
 11
1540.1411739999999
 21
796.30000250000001
  0
ARC
  8
_0-0_0
  6
CONTINUOUS
 62
    7
 10
1547.4288940000001
 20
799.60002150000003
 40
8
 50
205.94448199999999
 51
211.66823500000001
  0
LINE
  8
_0-0_0
  6
CONTINUOUS
 62
    7
 10
1540.701599
 20
795.2707365
 11
1540.6200560000002
 21
795.40000950000001
  0
LINE
  8
_0-0_0
  6
CONTINUOUS
 62
    7
 10
1540.701599
 20
795.2707365
 11
1540.7947389999999
 21
795.12931849999995
  0
LINE
  8
_0-0_0
  6
CONTINUOUS
 62
    7
 10
1553.9741819999999
 20
795.00001550000002
 11
1554.0630489999999
 21
795.12931849999995
  0
LINE
  8
_0-0_0
  6
CONTINUOUS
 62
    7
 10
1554.1561889999998
 20
795.2707365
 11
1554.0630489999999
 21
795.12931849999995
  0
LINE
  8
_0-0_0
  6
CONTINUOUS
 62
    7
 10
1556.4288940000001
 20
795.12931849999995
 11
1556.4288940000001
 21
795.00001550000002
  0
LINE
  8
_0-0_0
  6
CONTINUOUS
 62
    7
 10
1556.4288940000001
 20
803.92930550000005
 11
1556.4288940000001
 21
804.07072449999998
  0
LINE
  8
_0-0_0
  6
CONTINUOUS
 62
    7
 10
1556.4288940000001
 20
803.92930550000005
 11
1556.4288940000001
 21
803.80000250000001
  0
LINE
  8
_0-0_0
  6
CONTINUOUS
 62
    7
 10
1556.4288940000001
 20
803.10002150000003
 11
1556.4288940000001
 21
803.80000250000001
  0
LINE
  8
_0-0_0
  6
CONTINUOUS
 62
    7
 10
1556.4288940000001
 20
802.90000950000001
 11
1556.4288940000001
 21
803.10002150000003
  0
LINE
  8
_0-0_0
  6
CONTINUOUS
 62
    7
 10
1556.4288940000001
 20
802.90000950000001
 11
1556.4288940000001
 21
802.70002750000003
  0
LINE
  8
_0-0_0
  6
CONTINUOUS
 62
    7
 10
1556.4288940000001
 20
802.00001550000002
 11
1556.4288940000001
 21
802.70002750000003
  0
LINE
  8
_0-0_0
  6
CONTINUOUS
 62
    7
 10
1556.4288940000001
 20
801.80000250000001
 11
1556.4288940000001
 21
802.00001550000002
  0
LINE
  8
_0-0_0
  6
CONTINUOUS
 62
    7
 10
1556.4288940000001
 20
801.80000250000001
 11
1556.4288940000001
 21
801.60002150000003
  0
LINE
  8
_0-0_0
  6
CONTINUOUS
 62
    7
 10
1556.4288940000001
 20
800.90000950000001
 11
1556.4288940000001
 21
801.60002150000003
  0
LINE
  8
_0-0_0
  6
CONTINUOUS
 62
    7
 10
1556.4288940000001
 20
800.70002750000003
 11
1556.4288940000001
 21
800.90000950000001
  0
LINE
  8
_0-0_0
  6
CONTINUOUS
 62
    7
 10
1556.4288940000001
 20
800.70002750000003
 11
1556.4288940000001
 21
800.50001550000002
  0
LINE
  8
_0-0_0
  6
CONTINUOUS
 62
    7
 10
1556.4288940000001
 20
799.80000250000001
 11
1556.4288940000001
 21
800.50001550000002
  0
LINE
  8
_0-0_0
  6
CONTINUOUS
 62
    7
 10
1556.4288940000001
 20
799.60002150000003
 11
1556.4288940000001
 21
799.80000250000001
  0
LINE
  8
_0-0_0
  6
CONTINUOUS
 62
    7
 10
1556.4288940000001
 20
799.60002150000003
 11
1556.4288940000001
 21
799.40000950000001
  0
LINE
  8
_0-0_0
  6
CONTINUOUS
 62
    7
 10
1556.4288940000001
 20
798.70002750000003
 11
1556.4288940000001
 21
799.40000950000001
  0
LINE
  8
_0-0_0
  6
CONTINUOUS
 62
    7
 10
1556.4288940000001
 20
798.50001550000002
 11
1556.4288940000001
 21
798.70002750000003
  0
LINE
  8
_0-0_0
  6
CONTINUOUS
 62
    7
 10
1556.4288940000001
 20
798.50001550000002
 11
1556.4288940000001
 21
798.30000250000001
  0
LINE
  8
_0-0_0
  6
CONTINUOUS
 62
    7
 10
1556.4288940000001
 20
797.60002150000003
 11
1556.4288940000001
 21
798.30000250000001
  0
LINE
  8
_0-0_0
  6
CONTINUOUS
 62
    7
 10
1556.4288940000001
 20
797.40000950000001
 11
1556.4288940000001
 21
797.60002150000003
  0
LINE
  8
_0-0_0
  6
CONTINUOUS
 62
    7
 10
1556.4288940000001
 20
797.40000950000001
 11
1556.4288940000001
 21
797.20002750000003
  0
LINE
  8
_0-0_0
  6
CONTINUOUS
 62
    7
 10
1556.4288940000001
 20
796.50001550000002
 11
1556.4288940000001
 21
797.20002750000003
  0
LINE
  8
_0-0_0
  6
CONTINUOUS
 62
    7
 10
1556.4288940000001
 20
796.30000250000001
 11
1556.4288940000001
 21
796.50001550000002
  0
LINE
  8
_0-0_0
  6
CONTINUOUS
 62
    7
 10
1556.4288940000001
 20
796.30000250000001
 11
1556.4288940000001
 21
796.10002150000003
  0
LINE
  8
_0-0_0
  6
CONTINUOUS
 62
    7
 10
1556.4288940000001
 20
795.40000950000001
 11
1556.4288940000001
 21
796.10002150000003
  0
LINE
  8
_0-0_0
  6
CONTINUOUS
 62
    7
 10
1556.4288940000001
 20
795.2707365
 11
1556.4288940000001
 21
795.40000950000001
  0
LINE
  8
_0-0_0
  6
CONTINUOUS
 62
    7
 10
1556.4288940000001
 20
795.12931849999995
 11
1556.4288940000001
 21
795.2707365
  0
LINE
  8
_0-0_0
  6
CONTINUOUS
 62
    7
 10
1556.4288940000001
 20
781.30000250000001
 11
1556.4288940000001
 21
781.80000250000001
  0
LINE
  8
_0-0_0
  6
CONTINUOUS
 62
    7
 10
1556.4288940000001
 20
809.80000250000001
 11
1556.4288940000001
 21
809.20603949999997
  0
LINE
  8
_0-0_0
  6
CONTINUOUS
 62
    7
 10
1556.4288940000001
 20
804.20002750000003
 11
1556.4288940000001
 21
809.20603949999997
  0
LINE
  8
_0-0_0
  6
CONTINUOUS
 62
    7
 10
1556.4288940000001
 20
804.07072449999998
 11
1556.4288940000001
 21
804.20002750000003
  0
LINE
  8
_0-0_0
  6
CONTINUOUS
 62
    7
 10
-16.571045000000026
 20
781.30000250000001
 11
-16.571045000000026
 21
781.80000250000001
  0
LINE
  8
_0-0_0
  6
CONTINUOUS
 62
    7
 10
-16.571045000000026
 20
781.30000250000001
 11
1556.4288940000001
 21
781.30000250000001
  0
LINE
  8
_0-0_0
  6
CONTINUOUS
 62
    7
 10
-16.571045000000026
 20
795.12931849999995
 11
-16.571045000000026
 21
795.2707365
  0
LINE
  8
_0-0_0
  6
CONTINUOUS
 62
    7
 10
-16.571045000000026
 20
795.12931849999995
 11
-16.571045000000026
 21
795.00001550000002
  0
LINE
  8
_0-0_0
  6
CONTINUOUS
 62
    7
 10
-16.571045000000026
 20
809.80000250000001
 11
-16.571045000000026
 21
809.20603949999997
  0
LINE
  8
_0-0_0
  6
CONTINUOUS
 62
    7
 10
-16.571045000000026
 20
804.20002750000003
 11
-16.571045000000026
 21
809.20603949999997
  0
LINE
  8
_0-0_0
  6
CONTINUOUS
 62
    7
 10
-16.571045000000026
 20
804.07072449999998
 11
-16.571045000000026
 21
804.20002750000003
  0
LINE
  8
_0-0_0
  6
CONTINUOUS
 62
    7
 10
-16.571045000000026
 20
803.92930550000005
 11
-16.571045000000026
 21
804.07072449999998
  0
LINE
  8
_0-0_0
  6
CONTINUOUS
 62
    7
 10
-16.571045000000026
 20
803.92930550000005
 11
-16.571045000000026
 21
803.80000250000001
  0
LINE
  8
_0-0_0
  6
CONTINUOUS
 62
    7
 10
-16.571045000000026
 20
803.10002150000003
 11
-16.571045000000026
 21
803.80000250000001
  0
LINE
  8
_0-0_0
  6
CONTINUOUS
 62
    7
 10
-16.571045000000026
 20
802.97071849999998
 11
-16.571045000000026
 21
803.10002150000003
  0
LINE
  8
_0-0_0
  6
CONTINUOUS
 62
    7
 10
-16.571045000000026
 20
802.82929950000005
 11
-16.571045000000026
 21
802.97071849999998
  0
LINE
  8
_0-0_0
  6
CONTINUOUS
 62
    7
 10
-16.571045000000026
 20
802.82929950000005
 11
-16.571045000000026
 21
802.70002750000003
  0
LINE
  8
_0-0_0
  6
CONTINUOUS
 62
    7
 10
-16.571045000000026
 20
802.00001550000002
 11
-16.571045000000026
 21
802.70002750000003
  0
LINE
  8
_0-0_0
  6
CONTINUOUS
 62
    7
 10
-16.571045000000026
 20
801.87074250000001
 11
-16.571045000000026
 21
802.00001550000002
  0
LINE
  8
_0-0_0
  6
CONTINUOUS
 62
    7
 10
-16.571045000000026
 20
801.72929350000004
 11
-16.571045000000026
 21
801.87074250000001
  0
LINE
  8
_0-0_0
  6
CONTINUOUS
 62
    7
 10
-16.571045000000026
 20
801.72929350000004
 11
-16.571045000000026
 21
801.60002150000003
  0
LINE
  8
_0-0_0
  6
CONTINUOUS
 62
    7
 10
-16.571045000000026
 20
800.90000950000001
 11
-16.571045000000026
 21
801.60002150000003
  0
LINE
  8
_0-0_0
  6
CONTINUOUS
 62
    7
 10
-16.571045000000026
 20
800.7707365
 11
-16.571045000000026
 21
800.90000950000001
  0
LINE
  8
_0-0_0
  6
CONTINUOUS
 62
    7
 10
-16.571045000000026
 20
800.62931849999995
 11
-16.571045000000026
 21
800.7707365
  0
LINE
  8
_0-0_0
  6
CONTINUOUS
 62
    7
 10
-16.571045000000026
 20
800.62931849999995
 11
-16.571045000000026
 21
800.50001550000002
  0
LINE
  8
_0-0_0
  6
CONTINUOUS
 62
    7
 10
-16.571045000000026
 20
799.80000250000001
 11
-16.571045000000026
 21
800.50001550000002
  0
LINE
  8
_0-0_0
  6
CONTINUOUS
 62
    7
 10
-16.571045000000026
 20
799.67073049999999
 11
-16.571045000000026
 21
799.80000250000001
  0
LINE
  8
_0-0_0
  6
CONTINUOUS
 62
    7
 10
-16.571045000000026
 20
799.52931149999995
 11
-16.571045000000026
 21
799.67073049999999
  0
LINE
  8
_0-0_0
  6
CONTINUOUS
 62
    7
 10
-16.571045000000026
 20
799.52931149999995
 11
-16.571045000000026
 21
799.40000950000001
  0
LINE
  8
_0-0_0
  6
CONTINUOUS
 62
    7
 10
-16.571045000000026
 20
798.70002750000003
 11
-16.571045000000026
 21
799.40000950000001
  0
LINE
  8
_0-0_0
  6
CONTINUOUS
 62
    7
 10
-16.571045000000026
 20
798.57072449999998
 11
-16.571045000000026
 21
798.70002750000003
  0
LINE
  8
_0-0_0
  6
CONTINUOUS
 62
    7
 10
-16.571045000000026
 20
798.42930550000005
 11
-16.571045000000026
 21
798.57072449999998
  0
LINE
  8
_0-0_0
  6
CONTINUOUS
 62
    7
 10
-16.571045000000026
 20
798.42930550000005
 11
-16.571045000000026
 21
798.30000250000001
  0
LINE
  8
_0-0_0
  6
CONTINUOUS
 62
    7
 10
-16.571045000000026
 20
797.60002150000003
 11
-16.571045000000026
 21
798.30000250000001
  0
LINE
  8
_0-0_0
  6
CONTINUOUS
 62
    7
 10
-16.571045000000026
 20
797.47071849999998
 11
-16.571045000000026
 21
797.60002150000003
  0
LINE
  8
_0-0_0
  6
CONTINUOUS
 62
    7
 10
-16.571045000000026
 20
797.32929950000005
 11
-16.571045000000026
 21
797.47071849999998
  0
LINE
  8
_0-0_0
  6
CONTINUOUS
 62
    7
 10
-16.571045000000026
 20
797.32929950000005
 11
-16.571045000000026
 21
797.20002750000003
  0
LINE
  8
_0-0_0
  6
CONTINUOUS
 62
    7
 10
-16.571045000000026
 20
796.50001550000002
 11
-16.571045000000026
 21
797.20002750000003
  0
LINE
  8
_0-0_0
  6
CONTINUOUS
 62
    7
 10
-16.571045000000026
 20
796.37074250000001
 11
-16.571045000000026
 21
796.50001550000002
  0
LINE
  8
_0-0_0
  6
CONTINUOUS
 62
    7
 10
-16.571045000000026
 20
796.22929350000004
 11
-16.571045000000026
 21
796.37074250000001
  0
LINE
  8
_0-0_0
  6
CONTINUOUS
 62
    7
 10
-16.571045000000026
 20
796.22929350000004
 11
-16.571045000000026
 21
796.10002150000003
  0
LINE
  8
_0-0_0
  6
CONTINUOUS
 62
    7
 10
-16.571045000000026
 20
795.40000950000001
 11
-16.571045000000026
 21
796.10002150000003
  0
LINE
  8
_0-0_0
  6
CONTINUOUS
 62
    7
 10
-16.571045000000026
 20
795.2707365
 11
-16.571045000000026
 21
795.40000950000001
  0
LINE
  8
_0-0_0
  6
CONTINUOUS
 62
    7
 10
-14.116271999999981
 20
795.00001550000002
 11
-14.205245999999988
 21
795.12931849999995
  0
LINE
  8
_0-0_0
  6
CONTINUOUS
 62
    7
 10
-0.8436890000000403
 20
795.2707365
 11
-0.9368289999999888
 21
795.12931849999995
  0
LINE
  8
_0-0_0
  6
CONTINUOUS
 62
    7
 10
-0.8436890000000403
 20
795.2707365
 11
-0.7622220000000652
 21
795.40000950000001
  0
ARC
  8
_0-0_0
  6
CONTINUOUS
 62
    7
 10
-7.5710450000000264
 20
799.60002150000003
 40
8
 50
328.33175599999993
 51
334.05550899999992
  0
LINE
  8
_0-0_0
  6
CONTINUOUS
 62
    7
 10
-0.3772890000000188
 20
796.10002150000003
 11
-0.283378999999968
 21
796.30000250000001
  0
LINE
  8
_0-0_0
  6
CONTINUOUS
 62
    7
 10
-0.283378999999968
 20
796.30000250000001
 11
-0.1960750000000643
 21
796.50001550000002
  0
ARC
  8
_0-0_0
  6
CONTINUOUS
 62
    7
 10
-7.5710450000000264
 20
799.60002150000003
 40
8
 50
337.20097500000003
 51
342.54240199999998
  0
LINE
  8
_0-0_0
  6
CONTINUOUS
 62
    7
 10
0.0604779999999891
 20
797.20002750000003
 11
0.1205139999999573
 21
797.40000950000001
  0
LINE
  8
_0-0_0
  6
CONTINUOUS
 62
    7
 10
0.1205139999999573
 20
797.40000950000001
 11
0.1749270000000251
 21
797.60002150000003
  0
ARC
  8
_0-0_0
  6
CONTINUOUS
 62
    7
 10
-7.5710450000000264
 20
799.60002150000003
 40
8
 50
345.52249499999999
 51
350.64797900000002
  0
LINE
  8
_0-0_0
  6
CONTINUOUS
 62
    7
 10
0.3226319999999987
 20
798.30000250000001
 11
0.3529819999999972
 21
798.50001550000002
  0
LINE
  8
_0-0_0
  6
CONTINUOUS
 62
    7
 10
0.3529819999999972
 20
798.50001550000002
 11
0.3781739999999445
 21
798.70002750000003
  0
ARC
  8
_0-0_0
  6
CONTINUOUS
 62
    7
 10
-7.5710450000000264
 20
799.60002150000003
 40
8
 50
353.54056400000002
 51
358.56744600000002
  0
LINE
  8
_0-0_0
  6
CONTINUOUS
 62
    7
 10
0.4264679999999998
 20
799.40000950000001
 11
0.4289699999999356
 21
799.60002150000003
  0
LINE
  8
_0-0_0
  6
CONTINUOUS
 62
    7
 10
-15.570724000000041
 20
799.52931149999995
 11
-15.571045000000026
 21
799.60002150000003
  0
LINE
  8
_0-0_0
  6
CONTINUOUS
 62
    7
 10
-15.568541999999979
 20
799.40000950000001
 11
-15.570724000000041
 21
799.52931149999995
  0
ARC
  8
_0-0_0
  6
CONTINUOUS
 62
    7
 10
-7.5710450000000264
 20
799.60002150000003
 40
8
 50
181.432545
 51
186.45945499999999
  0
LINE
  8
_0-0_0
  6
CONTINUOUS
 62
    7
 10
-15.504547000000002
 20
798.57072449999998
 11
-15.520248000000038
 21
798.70002750000003
  0
LINE
  8
_0-0_0
  6
CONTINUOUS
 62
    7
 10
-15.504547000000002
 20
798.57072449999998
 11
-15.484923999999978
 21
798.42930550000005
  0
LINE
  8
_0-0_0
  6
CONTINUOUS
 62
    7
 10
-15.464705999999978
 20
798.30000250000001
 11
-15.484923999999978
 21
798.42930550000005
  0
ARC
  8
_0-0_0
  6
CONTINUOUS
 62
    7
 10
-7.5710450000000264
 20
799.60002150000003
 40
8
 50
189.35203999999999
 51
194.47751
  0
LINE
  8
_0-0_0
  6
CONTINUOUS
 62
    7
 10
-15.282470999999987
 20
797.47071849999998
 11
-15.317001000000005
 21
797.60002150000003
  0
LINE
  8
_0-0_0
  6
CONTINUOUS
 62
    7
 10
-15.282470999999987
 20
797.47071849999998
 11
-15.242003999999952
 21
797.32929950000005
  0
LINE
  8
_0-0_0
  6
CONTINUOUS
 62
    7
 10
-15.202544999999986
 20
797.20002750000003
 11
-15.242003999999952
 21
797.32929950000005
  0
ARC
  8
_0-0_0
  6
CONTINUOUS
 62
    7
 10
-7.5710450000000264
 20
799.60002150000003
 40
8
 50
197.45760300000001
 51
202.79902999999999
  0
LINE
  8
_0-0_0
  6
CONTINUOUS
 62
    7
 10
-14.890305000000012
 20
796.37074250000001
 11
-14.945983999999953
 21
796.50001550000002
  0
LINE
  8
_0-0_0
  6
CONTINUOUS
 62
    7
 10
-14.890305000000012
 20
796.37074250000001
 11
-14.82626300000004
 21
796.22929350000004
  0
LINE
  8
_0-0_0
  6
CONTINUOUS
 62
    7
 10
-14.764785999999958
 20
796.10002150000003
 11
-14.82626300000004
 21
796.22929350000004
  0
ARC
  8
_0-0_0
  6
CONTINUOUS
 62
    7
 10
-7.5710450000000264
 20
799.60002150000003
 40
8
 50
205.94448199999999
 51
211.66823500000001
  0
LINE
  8
_0-0_0
  6
CONTINUOUS
 62
    7
 10
-14.29838600000005
 20
795.2707365
 11
-14.379852000000028
 21
795.40000950000001
  0
LINE
  8
_0-0_0
  6
CONTINUOUS
 62
    7
 10
-14.29838600000005
 20
795.2707365
 11
-14.205245999999988
 21
795.12931849999995
  0
LINE
  8
_0-0_0
  6
CONTINUOUS
 62
    7
 10
1490.4288940000001
 20
787.30000250000001
 11
1497.4288940000001
 21
787.30000250000001
  0
ARC
  8
_0-0_0
  6
CONTINUOUS
 62
    7
 10
1490.4288940000001
 20
786.80000250000001
 40
0.5
 50
90.000003000000007
 51
180.00000900000001
  0
LINE
  8
_0-0_0
  6
CONTINUOUS
 62
    7
 10
1489.9288940000001
 20
786.80000250000001
 11
1489.9288940000001
 21
782.80000250000001
  0
ARC
  8
_0-0_0
  6
CONTINUOUS
 62
    7
 10
1490.4288940000001
 20
782.80000250000001
 40
0.5
 50
180.00000900000003
 51
269.99999700000001
  0
LINE
  8
_0-0_0
  6
CONTINUOUS
 62
    7
 10
1497.4288940000001
 20
782.30000250000001
 11
1490.4288940000001
 21
782.30000250000001
  0
ARC
  8
_0-0_0
  6
CONTINUOUS
 62
    7
 10
1497.4288940000001
 20
782.80000250000001
 40
0.5
 50
269.99999700000001
 51
0
  0
LINE
  8
_0-0_0
  6
CONTINUOUS
 62
    7
 10
1497.9288940000001
 20
782.80000250000001
 11
1497.9288940000001
 21
786.80000250000001
  0
ARC
  8
_0-0_0
  6
CONTINUOUS
 62
    7
 10
1497.4288940000001
 20
786.80000250000001
 40
0.5
 50
0
 51
90.000003000000007
  0
ARC
  8
_0-0_0
  6
CONTINUOUS
 62
    7
 10
50.428954999999974
 20
786.80000250000001
 40
0.5
 50
90.000003000000007
 51
180.00000900000001
  0
LINE
  8
_0-0_0
  6
CONTINUOUS
 62
    7
 10
49.928954999999974
 20
786.80000250000001
 11
49.928954999999974
 21
782.80000250000001
  0
ARC
  8
_0-0_0
  6
CONTINUOUS
 62
    7
 10
50.428954999999974
 20
782.80000250000001
 40
0.5
 50
180.00000900000003
 51
269.99999700000001
  0
LINE
  8
_0-0_0
  6
CONTINUOUS
 62
    7
 10
57.428954999999974
 20
782.30000250000001
 11
50.428954999999974
 21
782.30000250000001
  0
ARC
  8
_0-0_0
  6
CONTINUOUS
 62
    7
 10
57.428954999999974
 20
782.80000250000001
 40
0.5
 50
269.99999700000001
 51
0
  0
LINE
  8
_0-0_0
  6
CONTINUOUS
 62
    7
 10
57.928954999999974
 20
782.80000250000001
 11
57.928954999999974
 21
786.80000250000001
  0
ARC
  8
_0-0_0
  6
CONTINUOUS
 62
    7
 10
57.428954999999974
 20
786.80000250000001
 40
0.5
 50
0
 51
90.000003000000007
  0
LINE
  8
_0-0_0
  6
CONTINUOUS
 62
    7
 10
50.428954999999974
 20
787.30000250000001
 11
57.428954999999974
 21
787.30000250000001
  0
LINE
  8
_0-0_0
  6
CONTINUOUS
 62
    7
 10
-0.7622220000000652
 20
795.40000950000001
 11
1540.6200560000002
 21
795.40000950000001
  0
LINE
  8
_0-0_0
  6
CONTINUOUS
 62
    7
 10
-0.3772890000000188
 20
796.10002150000003
 11
1540.235169
 21
796.10002150000003
  0
LINE
  8
_0-0_0
  6
CONTINUOUS
 62
    7
 10
-0.283378999999968
 20
796.30000250000001
 11
1540.1411739999999
 21
796.30000250000001
  0
LINE
  8
_0-0_0
  6
CONTINUOUS
 62
    7
 10
-0.1960750000000643
 20
796.50001550000002
 11
1540.0538940000001
 21
796.50001550000002
  0
LINE
  8
_0-0_0
  6
CONTINUOUS
 62
    7
 10
0.0604779999999891
 20
797.20002750000003
 11
1539.7974239999999
 21
797.20002750000003
  0
LINE
  8
_0-0_0
  6
CONTINUOUS
 62
    7
 10
0.1205139999999573
 20
797.40000950000001
 11
1539.7373659999998
 21
797.40000950000001
  0
LINE
  8
_0-0_0
  6
CONTINUOUS
 62
    7
 10
0.1749270000000251
 20
797.60002150000003
 11
1539.682922
 21
797.60002150000003
  0
LINE
  8
_0-0_0
  6
CONTINUOUS
 62
    7
 10
0.3226319999999987
 20
798.30000250000001
 11
1539.5352170000001
 21
798.30000250000001
  0
LINE
  8
_0-0_0
  6
CONTINUOUS
 62
    7
 10
0.3529819999999972
 20
798.50001550000002
 11
1539.5048219999999
 21
798.50001550000002
  0
LINE
  8
_0-0_0
  6
CONTINUOUS
 62
    7
 10
0.3781739999999445
 20
798.70002750000003
 11
1539.479675
 21
798.70002750000003
  0
LINE
  8
_0-0_0
  6
CONTINUOUS
 62
    7
 10
0.4264679999999998
 20
799.40000950000001
 11
1539.4313349999998
 21
799.40000950000001
  0
LINE
  8
_0-0_0
  6
CONTINUOUS
 62
    7
 10
0.4289699999999356
 20
799.60002150000003
 11
1539.4288940000001
 21
799.60002150000003
  0
LINE
  8
_0-0_0
  6
CONTINUOUS
 62
    7
 10
1553.9741819999999
 20
804.20002750000003
 11
1554.0630489999999
 21
804.07072449999998
  0
ARC
  8
_0-0_0
  6
CONTINUOUS
 62
    7
 10
1547.4288940000001
 20
799.60002150000003
 40
8
 50
35.099632
 51
144.900373
  0
LINE
  8
_0-0_0
  6
CONTINUOUS
 62
    7
 10
1540.8836059999999
 20
804.20002750000003
 11
1540.7947389999999
 21
804.07072449999998
  0
LINE
  8
_0-0_0
  6
CONTINUOUS
 62
    7
 10
1540.701599
 20
803.92930550000005
 11
1540.7947389999999
 21
804.07072449999998
  0
LINE
  8
_0-0_0
  6
CONTINUOUS
 62
    7
 10
1540.701599
 20
803.92930550000005
 11
1540.6200560000002
 21
803.80000250000001
  0
ARC
  8
_0-0_0
  6
CONTINUOUS
 62
    7
 10
1547.4288940000001
 20
799.60002150000003
 40
8
 50
148.33176499999999
 51
154.05551800000001
  0
LINE
  8
_0-0_0
  6
CONTINUOUS
 62
    7
 10
1540.235169
 20
803.10002150000003
 11
1540.1411739999999
 21
802.90000950000001
  0
LINE
  8
_0-0_0
  6
CONTINUOUS
 62
    7
 10
1540.1411739999999
 20
802.90000950000001
 11
1540.0538940000001
 21
802.70002750000003
  0
ARC
  8
_0-0_0
  6
CONTINUOUS
 62
    7
 10
1547.4288940000001
 20
799.60002150000003
 40
8
 50
157.20097000000001
 51
162.54239699999999
  0
LINE
  8
_0-0_0
  6
CONTINUOUS
 62
    7
 10
1539.7974239999999
 20
802.00001550000002
 11
1539.7373659999998
 21
801.80000250000001
  0
LINE
  8
_0-0_0
  6
CONTINUOUS
 62
    7
 10
1539.7373659999998
 20
801.80000250000001
 11
1539.682922
 21
801.60002150000003
  0
ARC
  8
_0-0_0
  6
CONTINUOUS
 62
    7
 10
1547.4288940000001
 20
799.60002150000003
 40
8
 50
165.52249
 51
170.64796000000001
  0
LINE
  8
_0-0_0
  6
CONTINUOUS
 62
    7
 10
1539.5352170000001
 20
800.90000950000001
 11
1539.5048219999999
 21
800.70002750000003
  0
LINE
  8
_0-0_0
  6
CONTINUOUS
 62
    7
 10
1539.5048219999999
 20
800.70002750000003
 11
1539.479675
 21
800.50001550000002
  0
ARC
  8
_0-0_0
  6
CONTINUOUS
 62
    7
 10
1547.4288940000001
 20
799.60002150000003
 40
8
 50
173.54054500000001
 51
178.567455
  0
LINE
  8
_0-0_0
  6
CONTINUOUS
 62
    7
 10
1539.4313349999998
 20
799.80000250000001
 11
1539.4288940000001
 21
799.60002150000003
  0
LINE
  8
_0-0_0
  6
CONTINUOUS
 62
    7
 10
1555.426453
 20
799.80000250000001
 11
1555.4288940000001
 21
799.60002150000003
  0
ARC
  8
_0-0_0
  6
CONTINUOUS
 62
    7
 10
1547.4288940000001
 20
799.60002150000003
 40
8
 50
1.432544
 51
6.4594489999999993
  0
LINE
  8
_0-0_0
  6
CONTINUOUS
 62
    7
 10
1555.3529659999999
 20
800.70002750000003
 11
1555.3781130000002
 21
800.50001550000002
  0
LINE
  8
_0-0_0
  6
CONTINUOUS
 62
    7
 10
1555.3225710000002
 20
800.90000950000001
 11
1555.3529659999999
 21
800.70002750000003
  0
ARC
  8
_0-0_0
  6
CONTINUOUS
 62
    7
 10
1547.4288940000001
 20
799.60002150000003
 40
8
 50
9.3520350000000008
 51
14.477510999999998
  0
LINE
  8
_0-0_0
  6
CONTINUOUS
 62
    7
 10
1555.120422
 20
801.80000250000001
 11
1555.1748659999998
 21
801.60002150000003
  0
LINE
  8
_0-0_0
  6
CONTINUOUS
 62
    7
 10
1555.0603639999999
 20
802.00001550000002
 11
1555.120422
 21
801.80000250000001
  0
ARC
  8
_0-0_0
  6
CONTINUOUS
 62
    7
 10
1547.4288940000001
 20
799.60002150000003
 40
8
 50
17.457602999999999
 51
22.799030999999999
  0
LINE
  8
_0-0_0
  6
CONTINUOUS
 62
    7
 10
1554.7166139999999
 20
802.90000950000001
 11
1554.8038940000001
 21
802.70002750000003
  0
LINE
  8
_0-0_0
  6
CONTINUOUS
 62
    7
 10
1554.6226200000001
 20
803.10002150000003
 11
1554.7166139999999
 21
802.90000950000001
  0
ARC
  8
_0-0_0
  6
CONTINUOUS
 62
    7
 10
1547.4288940000001
 20
799.60002150000003
 40
8
 50
25.944476999999999
 51
31.668240000000001
  0
LINE
  8
_0-0_0
  6
CONTINUOUS
 62
    7
 10
1554.1561889999998
 20
803.92930550000005
 11
1554.2377320000001
 21
803.80000250000001
  0
LINE
  8
_0-0_0
  6
CONTINUOUS
 62
    7
 10
1554.1561889999998
 20
803.92930550000005
 11
1554.0630489999999
 21
804.07072449999998
  0
CIRCLE
  8
_0-0_0
  6
CONTINUOUS
 62
    7
 10
1547.4288940000001
 20
799.60002150000003
 40
7.5
  0
LINE
  8
_0-0_0
  6
CONTINUOUS
 62
    7
 10
1555.426453
 20
799.40000950000001
 11
1556.4288940000001
 21
799.40000950000001
  0
LINE
  8
_0-0_0
  6
CONTINUOUS
 62
    7
 10
1555.4288940000001
 20
799.60002150000003
 11
1556.4288940000001
 21
799.60002150000003
  0
LINE
  8
_0-0_0
  6
CONTINUOUS
 62
    7
 10
1555.3781130000002
 20
798.70002750000003
 11
1556.4288940000001
 21
798.70002750000003
  0
LINE
  8
_0-0_0
  6
CONTINUOUS
 62
    7
 10
1555.3529659999999
 20
798.50001550000002
 11
1556.4288940000001
 21
798.50001550000002
  0
LINE
  8
_0-0_0
  6
CONTINUOUS
 62
    7
 10
1555.3225710000002
 20
798.30000250000001
 11
1556.4288940000001
 21
798.30000250000001
  0
LINE
  8
_0-0_0
  6
CONTINUOUS
 62
    7
 10
1555.1748659999998
 20
797.60002150000003
 11
1556.4288940000001
 21
797.60002150000003
  0
LINE
  8
_0-0_0
  6
CONTINUOUS
 62
    7
 10
1555.120422
 20
797.40000950000001
 11
1556.4288940000001
 21
797.40000950000001
  0
LINE
  8
_0-0_0
  6
CONTINUOUS
 62
    7
 10
1555.0603639999999
 20
797.20002750000003
 11
1556.4288940000001
 21
797.20002750000003
  0
LINE
  8
_0-0_0
  6
CONTINUOUS
 62
    7
 10
1554.8038940000001
 20
796.50001550000002
 11
1556.4288940000001
 21
796.50001550000002
  0
LINE
  8
_0-0_0
  6
CONTINUOUS
 62
    7
 10
1554.7166139999999
 20
796.30000250000001
 11
1556.4288940000001
 21
796.30000250000001
  0
LINE
  8
_0-0_0
  6
CONTINUOUS
 62
    7
 10
1554.6226200000001
 20
796.10002150000003
 11
1556.4288940000001
 21
796.10002150000003
  0
LINE
  8
_0-0_0
  6
CONTINUOUS
 62
    7
 10
1554.2377320000001
 20
795.40000950000001
 11
1556.4288940000001
 21
795.40000950000001
  0
LINE
  8
_0-0_0
  6
CONTINUOUS
 62
    7
 10
1554.2377320000001
 20
803.80000250000001
 11
1556.4288940000001
 21
803.80000250000001
  0
LINE
  8
_0-0_0
  6
CONTINUOUS
 62
    7
 10
1554.6226200000001
 20
803.10002150000003
 11
1556.4288940000001
 21
803.10002150000003
  0
LINE
  8
_0-0_0
  6
CONTINUOUS
 62
    7
 10
1554.7166139999999
 20
802.90000950000001
 11
1556.4288940000001
 21
802.90000950000001
  0
LINE
  8
_0-0_0
  6
CONTINUOUS
 62
    7
 10
1554.8038940000001
 20
802.70002750000003
 11
1556.4288940000001
 21
802.70002750000003
  0
LINE
  8
_0-0_0
  6
CONTINUOUS
 62
    7
 10
1555.0603639999999
 20
802.00001550000002
 11
1556.4288940000001
 21
802.00001550000002
  0
LINE
  8
_0-0_0
  6
CONTINUOUS
 62
    7
 10
1555.120422
 20
801.80000250000001
 11
1556.4288940000001
 21
801.80000250000001
  0
LINE
  8
_0-0_0
  6
CONTINUOUS
 62
    7
 10
1555.1748659999998
 20
801.60002150000003
 11
1556.4288940000001
 21
801.60002150000003
  0
LINE
  8
_0-0_0
  6
CONTINUOUS
 62
    7
 10
1555.3225710000002
 20
800.90000950000001
 11
1556.4288940000001
 21
800.90000950000001
  0
LINE
  8
_0-0_0
  6
CONTINUOUS
 62
    7
 10
1555.3529659999999
 20
800.70002750000003
 11
1556.4288940000001
 21
800.70002750000003
  0
LINE
  8
_0-0_0
  6
CONTINUOUS
 62
    7
 10
1555.3781130000002
 20
800.50001550000002
 11
1556.4288940000001
 21
800.50001550000002
  0
LINE
  8
_0-0_0
  6
CONTINUOUS
 62
    7
 10
1555.426453
 20
799.80000250000001
 11
1556.4288940000001
 21
799.80000250000001
  0
LINE
  8
_0-0_0
  6
CONTINUOUS
 62
    7
 10
1556.9288940000001
 20
783.10002150000003
 11
1556.4288940000001
 21
783.10002150000003
  0
LINE
  8
_0-0_0
  6
CONTINUOUS
 62
    7
 10
1556.4288940000001
 20
785.30000250000001
 11
1556.9288940000001
 21
785.30000250000001
  0
LINE
  8
_0-0_0
  6
CONTINUOUS
 62
    7
 10
1556.9288940000001
 20
787.60002150000003
 11
1556.4288940000001
 21
787.60002150000003
  0
LINE
  8
_0-0_0
  6
CONTINUOUS
 62
    7
 10
-16.571045000000026
 20
787.60002150000003
 11
-17.071045000000026
 21
787.60002150000003
  0
LINE
  8
_0-0_0
  6
CONTINUOUS
 62
    7
 10
1556.4288940000001
 20
789.90000950000001
 11
1556.9288940000001
 21
789.90000950000001
  0
LINE
  8
_0-0_0
  6
CONTINUOUS
 62
    7
 10
1556.9288940000001
 20
810.10002150000003
 11
1556.9288940000001
 21
810.00001550000002
  0
LINE
  8
_0-0_0
  6
CONTINUOUS
 62
    7
 10
-17.071045000000026
 20
810.10002150000003
 11
-17.071045000000026
 21
810.00001550000002
  0
LINE
  8
_0-0_0
  6
CONTINUOUS
 62
    7
 10
-17.071045000000026
 20
789.90000950000001
 11
-16.571045000000026
 21
789.90000950000001
  0
LINE
  8
_0-0_0
  6
CONTINUOUS
 62
    7
 10
-16.571045000000026
 20
809.80000250000001
 11
1556.4288940000001
 21
809.80000250000001
  0
LINE
  8
_0-0_0
  6
CONTINUOUS
 62
    7
 10
-16.571045000000026
 20
809.20603949999997
 11
1556.4288940000001
 21
809.20603949999997
  0
LINE
  8
_0-0_0
  6
CONTINUOUS
 62
    7
 10
1553.9741819999999
 20
804.20002750000003
 11
1556.4288940000001
 21
804.20002750000003
  0
LINE
  8
_0-0_0
  6
CONTINUOUS
 62
    7
 10
-16.571045000000026
 20
804.20002750000003
 11
-14.116271999999981
 21
804.20002750000003
  0
ARC
  8
_0-0_0
  6
CONTINUOUS
 62
    7
 10
-7.5710450000000264
 20
799.60002150000003
 40
8
 50
35.099632
 51
144.900373
  0
LINE
  8
_0-0_0
  6
CONTINUOUS
 62
    7
 10
-1.0258099999999786
 20
804.20002750000003
 11
1540.8836059999999
 21
804.20002750000003
  0
LINE
  8
_0-0_0
  6
CONTINUOUS
 62
    7
 10
-17.071045000000026
 20
783.10002150000003
 11
-16.571045000000026
 21
783.10002150000003
  0
LINE
  8
_0-0_0
  6
CONTINUOUS
 62
    7
 10
-17.071045000000026
 20
785.30000250000001
 11
-16.571045000000026
 21
785.30000250000001
  0
LINE
  8
_0-0_0
  6
CONTINUOUS
 62
    7
 10
-14.116271999999981
 20
804.20002750000003
 11
-14.205245999999988
 21
804.07072449999998
  0
LINE
  8
_0-0_0
  6
CONTINUOUS
 62
    7
 10
-14.29838600000005
 20
803.92930550000005
 11
-14.205245999999988
 21
804.07072449999998
  0
LINE
  8
_0-0_0
  6
CONTINUOUS
 62
    7
 10
-16.571045000000026
 20
803.80000250000001
 11
-14.379852000000028
 21
803.80000250000001
  0
LINE
  8
_0-0_0
  6
CONTINUOUS
 62
    7
 10
-14.29838600000005
 20
803.92930550000005
 11
-14.379852000000028
 21
803.80000250000001
  0
ARC
  8
_0-0_0
  6
CONTINUOUS
 62
    7
 10
-7.5710450000000264
 20
799.60002150000003
 40
8
 50
148.33176499999999
 51
154.05551800000001
  0
LINE
  8
_0-0_0
  6
CONTINUOUS
 62
    7
 10
-16.571045000000026
 20
803.10002150000003
 11
-14.764785999999958
 21
803.10002150000003
  0
LINE
  8
_0-0_0
  6
CONTINUOUS
 62
    7
 10
-14.764785999999958
 20
803.10002150000003
 11
-14.82626300000004
 21
802.97071849999998
  0
LINE
  8
_0-0_0
  6
CONTINUOUS
 62
    7
 10
-14.890305000000012
 20
802.82929950000005
 11
-14.82626300000004
 21
802.97071849999998
  0
LINE
  8
_0-0_0
  6
CONTINUOUS
 62
    7
 10
-16.571045000000026
 20
802.70002750000003
 11
-14.945983999999953
 21
802.70002750000003
  0
LINE
  8
_0-0_0
  6
CONTINUOUS
 62
    7
 10
-14.890305000000012
 20
802.82929950000005
 11
-14.945983999999953
 21
802.70002750000003
  0
ARC
  8
_0-0_0
  6
CONTINUOUS
 62
    7
 10
-7.5710450000000264
 20
799.60002150000003
 40
8
 50
157.20097000000001
 51
162.54239699999999
  0
LINE
  8
_0-0_0
  6
CONTINUOUS
 62
    7
 10
-16.571045000000026
 20
802.00001550000002
 11
-15.202544999999986
 21
802.00001550000002
  0
LINE
  8
_0-0_0
  6
CONTINUOUS
 62
    7
 10
-15.202544999999986
 20
802.00001550000002
 11
-15.242003999999952
 21
801.87074250000001
  0
LINE
  8
_0-0_0
  6
CONTINUOUS
 62
    7
 10
-15.282470999999987
 20
801.72929350000004
 11
-15.242003999999952
 21
801.87074250000001
  0
LINE
  8
_0-0_0
  6
CONTINUOUS
 62
    7
 10
-16.571045000000026
 20
801.60002150000003
 11
-15.317001000000005
 21
801.60002150000003
  0
LINE
  8
_0-0_0
  6
CONTINUOUS
 62
    7
 10
-15.282470999999987
 20
801.72929350000004
 11
-15.317001000000005
 21
801.60002150000003
  0
ARC
  8
_0-0_0
  6
CONTINUOUS
 62
    7
 10
-7.5710450000000264
 20
799.60002150000003
 40
8
 50
165.52249
 51
170.64796000000001
  0
LINE
  8
_0-0_0
  6
CONTINUOUS
 62
    7
 10
-16.571045000000026
 20
800.90000950000001
 11
-15.464705999999978
 21
800.90000950000001
  0
LINE
  8
_0-0_0
  6
CONTINUOUS
 62
    7
 10
-15.464705999999978
 20
800.90000950000001
 11
-15.484923999999978
 21
800.7707365
  0
LINE
  8
_0-0_0
  6
CONTINUOUS
 62
    7
 10
-15.504547000000002
 20
800.62931849999995
 11
-15.484923999999978
 21
800.7707365
  0
LINE
  8
_0-0_0
  6
CONTINUOUS
 62
    7
 10
-16.571045000000026
 20
800.50001550000002
 11
-15.520248000000038
 21
800.50001550000002
  0
LINE
  8
_0-0_0
  6
CONTINUOUS
 62
    7
 10
-15.504547000000002
 20
800.62931849999995
 11
-15.520248000000038
 21
800.50001550000002
  0
ARC
  8
_0-0_0
  6
CONTINUOUS
 62
    7
 10
-7.5710450000000264
 20
799.60002150000003
 40
8
 50
173.54054500000001
 51
178.567455
  0
LINE
  8
_0-0_0
  6
CONTINUOUS
 62
    7
 10
-16.571045000000026
 20
799.80000250000001
 11
-15.568541999999979
 21
799.80000250000001
  0
LINE
  8
_0-0_0
  6
CONTINUOUS
 62
    7
 10
-15.568541999999979
 20
799.80000250000001
 11
-15.570724000000041
 21
799.67073049999999
  0
LINE
  8
_0-0_0
  6
CONTINUOUS
 62
    7
 10
-15.571045000000026
 20
799.60002150000003
 11
-15.570724000000041
 21
799.67073049999999
  0
LINE
  8
_0-0_0
  6
CONTINUOUS
 62
    7
 10
-16.571045000000026
 20
799.40000950000001
 11
-15.568541999999979
 21
799.40000950000001
  0
LINE
  8
_0-0_0
  6
CONTINUOUS
 62
    7
 10
-16.571045000000026
 20
798.70002750000003
 11
-15.520248000000038
 21
798.70002750000003
  0
LINE
  8
_0-0_0
  6
CONTINUOUS
 62
    7
 10
-16.571045000000026
 20
798.30000250000001
 11
-15.464705999999978
 21
798.30000250000001
  0
LINE
  8
_0-0_0
  6
CONTINUOUS
 62
    7
 10
-16.571045000000026
 20
797.60002150000003
 11
-15.317001000000005
 21
797.60002150000003
  0
LINE
  8
_0-0_0
  6
CONTINUOUS
 62
    7
 10
-16.571045000000026
 20
797.20002750000003
 11
-15.202544999999986
 21
797.20002750000003
  0
LINE
  8
_0-0_0
  6
CONTINUOUS
 62
    7
 10
-16.571045000000026
 20
796.50001550000002
 11
-14.945983999999953
 21
796.50001550000002
  0
LINE
  8
_0-0_0
  6
CONTINUOUS
 62
    7
 10
-16.571045000000026
 20
796.10002150000003
 11
-14.764785999999958
 21
796.10002150000003
  0
LINE
  8
_0-0_0
  6
CONTINUOUS
 62
    7
 10
-16.571045000000026
 20
795.40000950000001
 11
-14.379852000000028
 21
795.40000950000001
  0
LINE
  8
_0-0_0
  6
CONTINUOUS
 62
    7
 10
0.4264679999999998
 20
799.80000250000001
 11
0.4289699999999356
 21
799.60002150000003
  0
ARC
  8
_0-0_0
  6
CONTINUOUS
 62
    7
 10
-7.5710450000000264
 20
799.60002150000003
 40
8
 50
1.432544
 51
6.4594489999999993
  0
LINE
  8
_0-0_0
  6
CONTINUOUS
 62
    7
 10
0.3529819999999972
 20
800.70002750000003
 11
0.3781739999999445
 21
800.50001550000002
  0
LINE
  8
_0-0_0
  6
CONTINUOUS
 62
    7
 10
0.3226319999999987
 20
800.90000950000001
 11
0.3529819999999972
 21
800.70002750000003
  0
ARC
  8
_0-0_0
  6
CONTINUOUS
 62
    7
 10
-7.5710450000000264
 20
799.60002150000003
 40
8
 50
9.3520350000000008
 51
14.477510999999998
  0
LINE
  8
_0-0_0
  6
CONTINUOUS
 62
    7
 10
0.1205139999999573
 20
801.80000250000001
 11
0.1749270000000251
 21
801.60002150000003
  0
LINE
  8
_0-0_0
  6
CONTINUOUS
 62
    7
 10
0.0604779999999891
 20
802.00001550000002
 11
0.1205139999999573
 21
801.80000250000001
  0
ARC
  8
_0-0_0
  6
CONTINUOUS
 62
    7
 10
-7.5710450000000264
 20
799.60002150000003
 40
8
 50
17.457602999999999
 51
22.799030999999999
  0
LINE
  8
_0-0_0
  6
CONTINUOUS
 62
    7
 10
-0.283378999999968
 20
802.90000950000001
 11
-0.1960750000000643
 21
802.70002750000003
  0
LINE
  8
_0-0_0
  6
CONTINUOUS
 62
    7
 10
-0.3772890000000188
 20
803.10002150000003
 11
-0.283378999999968
 21
802.90000950000001
  0
ARC
  8
_0-0_0
  6
CONTINUOUS
 62
    7
 10
-7.5710450000000264
 20
799.60002150000003
 40
8
 50
25.944476999999999
 51
31.668240000000001
  0
LINE
  8
_0-0_0
  6
CONTINUOUS
 62
    7
 10
-0.8436890000000403
 20
803.92930550000005
 11
-0.7622220000000652
 21
803.80000250000001
  0
LINE
  8
_0-0_0
  6
CONTINUOUS
 62
    7
 10
-0.8436890000000403
 20
803.92930550000005
 11
-0.9368289999999888
 21
804.07072449999998
  0
LINE
  8
_0-0_0
  6
CONTINUOUS
 62
    7
 10
-1.0258099999999786
 20
804.20002750000003
 11
-0.9368289999999888
 21
804.07072449999998
  0
CIRCLE
  8
_0-0_0
  6
CONTINUOUS
 62
    7
 10
-7.5710450000000264
 20
799.60002150000003
 40
7.5
  0
LINE
  8
_0-0_0
  6
CONTINUOUS
 62
    7
 10
0.4264679999999998
 20
799.80000250000001
 11
1539.4313349999998
 21
799.80000250000001
  0
LINE
  8
_0-0_0
  6
CONTINUOUS
 62
    7
 10
0.3781739999999445
 20
800.50001550000002
 11
1539.479675
 21
800.50001550000002
  0
LINE
  8
_0-0_0
  6
CONTINUOUS
 62
    7
 10
0.3529819999999972
 20
800.70002750000003
 11
1539.5048219999999
 21
800.70002750000003
  0
LINE
  8
_0-0_0
  6
CONTINUOUS
 62
    7
 10
0.3226319999999987
 20
800.90000950000001
 11
1539.5352170000001
 21
800.90000950000001
  0
LINE
  8
_0-0_0
  6
CONTINUOUS
 62
    7
 10
0.1749270000000251
 20
801.60002150000003
 11
1539.682922
 21
801.60002150000003
  0
LINE
  8
_0-0_0
  6
CONTINUOUS
 62
    7
 10
0.1205139999999573
 20
801.80000250000001
 11
1539.7373659999998
 21
801.80000250000001
  0
LINE
  8
_0-0_0
  6
CONTINUOUS
 62
    7
 10
0.0604779999999891
 20
802.00001550000002
 11
1539.7974239999999
 21
802.00001550000002
  0
LINE
  8
_0-0_0
  6
CONTINUOUS
 62
    7
 10
-0.1960750000000643
 20
802.70002750000003
 11
1540.0538940000001
 21
802.70002750000003
  0
LINE
  8
_0-0_0
  6
CONTINUOUS
 62
    7
 10
-0.283378999999968
 20
802.90000950000001
 11
1540.1411739999999
 21
802.90000950000001
  0
LINE
  8
_0-0_0
  6
CONTINUOUS
 62
    7
 10
-0.3772890000000188
 20
803.10002150000003
 11
1540.235169
 21
803.10002150000003
  0
LINE
  8
_0-0_0
  6
CONTINUOUS
 62
    7
 10
-0.7622220000000652
 20
803.80000250000001
 11
1540.6200560000002
 21
803.80000250000001
  0
LINE
  8
_0-0_0
  6
CONTINUOUS
 62
    7
 10
1556.9288940000001
 20
781.60002150000003
 11
1556.4288940000001
 21
781.60002150000003
  0
LINE
  8
_0-0_0
  6
CONTINUOUS
 62
    7
 10
1556.9288940000001
 20
809.20002750000003
 11
1556.9288940000001
 21
810.00001550000002
  0
LINE
  8
_0-0_0
  6
CONTINUOUS
 62
    7
 10
1556.9288940000001
 20
781.40000950000001
 11
1556.9288940000001
 21
809.20002750000003
  0
ARC
  8
_0-0_0
  6
CONTINUOUS
 62
    7
 10
1547.4288940000001
 20
800.30000250000001
 40
12.800000000000001
 50
73.932597000000001
 51
106.06740099999999
  0
LINE
  8
_0-0_0
  6
CONTINUOUS
 62
    7
 10
-17.071045000000026
 20
809.20002750000003
 11
-17.071045000000026
 21
810.00001550000002
  0
LINE
  8
_0-0_0
  6
CONTINUOUS
 62
    7
 10
-17.071045000000026
 20
781.40000950000001
 11
-17.071045000000026
 21
809.20002750000003
  0
ARC
  8
_0-0_0
  6
CONTINUOUS
 62
    7
 10
-7.5710450000000264
 20
800.30000250000001
 40
12.800000000000001
 50
73.932597000000001
 51
106.06740099999999
  0
LINE
  8
_0-0_0
  6
CONTINUOUS
 62
    7
 10
502.92895499999997
 20
812.59999049999999
 11
502.92895499999997
 21
818.23991350000006
  0
LINE
  8
_0-0_0
  6
CONTINUOUS
 62
    7
 10
521.92895499999997
 20
818.23991350000006
 11
521.92895499999997
 21
812.59999049999999
  0
LINE
  8
_0-0_0
  6
CONTINUOUS
 62
    7
 10
1022.928955
 20
812.59999049999999
 11
1022.928955
 21
818.23991350000006
  0
LINE
  8
_0-0_0
  6
CONTINUOUS
 62
    7
 10
1041.9289549999999
 20
818.23991350000006
 11
1041.9289549999999
 21
812.59999049999999
  0
LINE
  8
_0-0_0
  6
CONTINUOUS
 62
    7
 10
1556.9288940000001
 20
810.10002150000003
 11
1556.9288940000001
 21
812.60002150000003
  0
LINE
  8
_0-0_0
  6
CONTINUOUS
 62
    7
 10
-17.071045000000026
 20
812.60002150000003
 11
1556.9288940000001
 21
812.60002150000003
  0
LINE
  8
_0-0_0
  6
CONTINUOUS
 62
    7
 10
-17.071045000000026
 20
810.10002150000003
 11
-17.071045000000026
 21
812.60002150000003
  0
LINE
  8
_0-0_0
  6
CONTINUOUS
 62
    7
 10
-17.071045000000026
 20
781.60002150000003
 11
-16.571045000000026
 21
781.60002150000003
  0
ARC
  8
_0-0_0
  6
CONTINUOUS
 62
    7
 10
1495.2289430000001
 20
786.50001550000002
 40
0.2
 50
339.62356199999999
 51
90.000002999999978
  0
LINE
  8
_0-0_0
  6
CONTINUOUS
 62
    7
 10
1495.4163210000002
 20
786.43037449999997
 11
1494.1163940000001
 21
782.93037449999997
  0
ARC
  8
_0-0_0
  6
CONTINUOUS
 62
    7
 10
1493.9288940000001
 20
783.00001550000002
 40
0.2
 50
200.37643
 51
339.62356199999999
  0
LINE
  8
_0-0_0
  6
CONTINUOUS
 62
    7
 10
1492.4414670000001
 20
786.43037449999997
 11
1493.7413940000001
 21
782.93037449999997
  0
ARC
  8
_0-0_0
  6
CONTINUOUS
 62
    7
 10
1492.6288450000002
 20
786.50001550000002
 40
0.2
 50
90.000003000000007
 51
200.37643
  0
LINE
  8
_0-0_0
  6
CONTINUOUS
 62
    7
 10
1492.6288450000002
 20
786.70002750000003
 11
1495.2289430000001
 21
786.70002750000003
  0
ARC
  8
_0-0_0
  6
CONTINUOUS
 62
    7
 10
55.228958000000034
 20
786.50001550000002
 40
0.2
 50
339.62356199999999
 51
90.000002999999978
  0
LINE
  8
_0-0_0
  6
CONTINUOUS
 62
    7
 10
55.416442999999958
 20
786.43037449999997
 11
54.116440000000011
 21
782.93037449999997
  0
ARC
  8
_0-0_0
  6
CONTINUOUS
 62
    7
 10
53.928954999999974
 20
783.00001550000002
 40
0.2
 50
200.37643
 51
339.62356199999999
  0
LINE
  8
_0-0_0
  6
CONTINUOUS
 62
    7
 10
52.441466999999989
 20
786.43037449999997
 11
53.741469999999936
 21
782.93037449999997
  0
ARC
  8
_0-0_0
  6
CONTINUOUS
 62
    7
 10
52.628952000000027
 20
786.50001550000002
 40
0.2
 50
90.000003000000007
 51
200.37643
  0
LINE
  8
_0-0_0
  6
CONTINUOUS
 62
    7
 10
52.628952000000027
 20
786.70002750000003
 11
55.228958000000034
 21
786.70002750000003
  0
LINE
  8
_0-0_0
  6
CONTINUOUS
 62
    7
 10
1557.9288940000001
 20
809.20002750000003
 11
1556.9288940000001
 21
809.20002750000003
  0
LINE
  8
_0-0_0
  6
CONTINUOUS
 62
    7
 10
1557.9288940000001
 20
810.23701449999999
 11
1556.9288940000001
 21
810.23701449999999
  0
LINE
  8
_0-0_0
  6
CONTINUOUS
 62
    7
 10
1557.9288940000001
 20
781.40000950000001
 11
1556.9288940000001
 21
781.40000950000001
  0
ARC
  8
_0-0_0
  6
CONTINUOUS
 62
    7
 10
1032.4289549999999
 20
800.30000250000001
 40
20.299999
 50
62.096725999999997
 51
117.903272
  0
CIRCLE
  8
_0-0_0
  6
CONTINUOUS
 62
    7
 10
1032.4289549999999
 20
816.60002150000003
 40
2.5
  0
ARC
  8
_0-0_0
  6
CONTINUOUS
 62
    7
 10
512.42895499999997
 20
800.30000250000001
 40
20.299999
 50
62.096725999999997
 51
117.903272
  0
CIRCLE
  8
_0-0_0
  6
CONTINUOUS
 62
    7
 10
512.42895499999997
 20
816.60002150000003
 40
2.5
  0
LINE
  8
_0-0_0
  6
CONTINUOUS
 62
    7
 10
-18.071045000000026
 20
809.20002750000003
 11
-17.071045000000026
 21
809.20002750000003
  0
LINE
  8
_0-0_0
  6
CONTINUOUS
 62
    7
 10
-18.071045000000026
 20
810.20002750000003
 11
-17.071045000000026
 21
810.20002750000003
  0
LINE
  8
_0-0_0
  6
CONTINUOUS
 62
    7
 10
-18.071045000000026
 20
781.40000950000001
 11
-17.071045000000026
 21
781.40000950000001
  0
LINE
  8
_0-0_0
  6
CONTINUOUS
 62
    7
 10
1557.9288940000001
 20
812.40000950000001
 11
1556.9288940000001
 21
812.40000950000001
  0
LINE
  8
_0-0_0
  6
CONTINUOUS
 62
    7
 10
-18.071045000000026
 20
812.40000950000001
 11
-17.071045000000026
 21
812.40000950000001
  0
LINE
  8
_0-0_0
  6
CONTINUOUS
 62
    7
 10
1558.9288940000001
 20
808.78581250000002
 11
1558.9279179999999
 21
808.80430550000005
  0
LINE
  8
_0-0_0
  6
CONTINUOUS
 62
    7
 10
1558.9279179999999
 20
808.80430550000005
 11
1558.9248659999998
 21
808.82273850000001
  0
LINE
  8
_0-0_0
  6
CONTINUOUS
 62
    7
 10
1558.9248659999998
 20
808.82273850000001
 11
1558.919617
 21
808.84187350000002
  0
LINE
  8
_0-0_0
  6
CONTINUOUS
 62
    7
 10
1558.919617
 20
808.84187350000002
 11
1558.9122929999999
 21
808.86091650000003
  0
LINE
  8
_0-0_0
  6
CONTINUOUS
 62
    7
 10
1558.9122929999999
 20
808.86091650000003
 11
1558.8917849999998
 21
808.8976285
  0
LINE
  8
_0-0_0
  6
CONTINUOUS
 62
    7
 10
1558.8917849999998
 20
808.8976285
 11
1558.8633420000001
 21
808.93330349999997
  0
LINE
  8
_0-0_0
  6
CONTINUOUS
 62
    7
 10
1558.8633420000001
 20
808.93330349999997
 11
1558.8274539999998
 21
808.96757449999996
  0
LINE
  8
_0-0_0
  6
CONTINUOUS
 62
    7
 10
1558.8274539999998
 20
808.96757449999996
 11
1558.7788700000001
 21
809.00404349999997
  0
LINE
  8
_0-0_0
  6
CONTINUOUS
 62
    7
 10
1558.7788700000001
 20
809.00404349999997
 11
1558.7221070000001
 21
809.0380705
  0
LINE
  8
_0-0_0
  6
CONTINUOUS
 62
    7
 10
1558.7221070000001
 20
809.0380705
 11
1558.6578979999999
 21
809.0693205
  0
LINE
  8
_0-0_0
  6
CONTINUOUS
 62
    7
 10
1558.6578979999999
 20
809.0693205
 11
1558.587219
 21
809.09754950000001
  0
LINE
  8
_0-0_0
  6
CONTINUOUS
 62
    7
 10
1558.587219
 20
809.09754950000001
 11
1558.5391239999999
 21
809.11390649999998
  0
LINE
  8
_0-0_0
  6
CONTINUOUS
 62
    7
 10
1558.5391239999999
 20
809.11390649999998
 11
1558.489075
 21
809.12892150000005
  0
LINE
  8
_0-0_0
  6
CONTINUOUS
 62
    7
 10
1558.489075
 20
809.12892150000005
 11
1558.4323119999999
 21
809.14369150000005
  0
LINE
  8
_0-0_0
  6
CONTINUOUS
 62
    7
 10
1558.4323119999999
 20
809.14369150000005
 11
1558.3737179999998
 21
809.15678349999996
  0
LINE
  8
_0-0_0
  6
CONTINUOUS
 62
    7
 10
1558.3737179999998
 20
809.15678349999996
 11
1558.2568970000002
 21
809.17707849999999
  0
LINE
  8
_0-0_0
  6
CONTINUOUS
 62
    7
 10
1558.2568970000002
 20
809.17707849999999
 11
1558.1495970000001
 21
809.18980350000004
  0
LINE
  8
_0-0_0
  6
CONTINUOUS
 62
    7
 10
1558.1495970000001
 20
809.18980350000004
 11
1558.039734
 21
809.19746350000003
  0
LINE
  8
_0-0_0
  6
CONTINUOUS
 62
    7
 10
1558.039734
 20
809.19746350000003
 11
1557.9288940000001
 21
809.20002750000003
  0
LINE
  8
_0-0_0
  6
CONTINUOUS
 62
    7
 10
1558.9288940000001
 20
808.78581250000002
 11
1558.9288940000001
 21
809.78587349999998
  0
LINE
  8
_0-0_0
  6
CONTINUOUS
 62
    7
 10
1558.9288940000001
 20
809.78587349999998
 11
1558.925964
 21
809.81742850000001
  0
LINE
  8
_0-0_0
  6
CONTINUOUS
 62
    7
 10
1558.925964
 20
809.81742850000001
 11
1558.917297
 21
809.84950249999997
  0
LINE
  8
_0-0_0
  6
CONTINUOUS
 62
    7
 10
1558.917297
 20
809.84950249999997
 11
1558.902771
 21
809.88179049999997
  0
LINE
  8
_0-0_0
  6
CONTINUOUS
 62
    7
 10
1558.902771
 20
809.88179049999997
 11
1558.8825069999998
 21
809.91395550000004
  0
LINE
  8
_0-0_0
  6
CONTINUOUS
 62
    7
 10
1558.8825069999998
 20
809.91395550000004
 11
1558.865906
 21
809.93516550000004
  0
LINE
  8
_0-0_0
  6
CONTINUOUS
 62
    7
 10
1558.865906
 20
809.93516550000004
 11
1558.8469850000001
 21
809.95613049999997
  0
LINE
  8
_0-0_0
  6
CONTINUOUS
 62
    7
 10
1558.8469850000001
 20
809.95613049999997
 11
1558.802185
 21
809.99690250000003
  0
LINE
  8
_0-0_0
  6
CONTINUOUS
 62
    7
 10
1558.802185
 20
809.99690250000003
 11
1558.7489620000001
 21
810.03565949999995
  0
LINE
  8
_0-0_0
  6
CONTINUOUS
 62
    7
 10
1558.7489620000001
 20
810.03565949999995
 11
1558.699036
 21
810.06587249999995
  0
LINE
  8
_0-0_0
  6
CONTINUOUS
 62
    7
 10
1558.699036
 20
810.06587249999995
 11
1558.6443479999998
 21
810.09407050000004
  0
LINE
  8
_0-0_0
  6
CONTINUOUS
 62
    7
 10
1558.6443479999998
 20
810.09407050000004
 11
1558.585388
 21
810.12013249999995
  0
LINE
  8
_0-0_0
  6
CONTINUOUS
 62
    7
 10
1558.585388
 20
810.12013249999995
 11
1558.5386349999999
 21
810.13810750000005
  0
LINE
  8
_0-0_0
  6
CONTINUOUS
 62
    7
 10
1558.5386349999999
 20
810.13810750000005
 11
1558.4899289999998
 21
810.15470849999997
  0
LINE
  8
_0-0_0
  6
CONTINUOUS
 62
    7
 10
1558.4899289999998
 20
810.15470849999997
 11
1558.3875119999998
 21
810.18360849999999
  0
LINE
  8
_0-0_0
  6
CONTINUOUS
 62
    7
 10
1558.3875119999998
 20
810.18360849999999
 11
1558.2798459999999
 21
810.2064365
  0
LINE
  8
_0-0_0
  6
CONTINUOUS
 62
    7
 10
1558.2798459999999
 20
810.2064365
 11
1558.1681520000002
 21
810.22300749999999
  0
LINE
  8
_0-0_0
  6
CONTINUOUS
 62
    7
 10
1558.1681520000002
 20
810.22300749999999
 11
1558.054138
 21
810.23319949999996
  0
LINE
  8
_0-0_0
  6
CONTINUOUS
 62
    7
 10
1558.054138
 20
810.23319949999996
 11
1557.9288940000001
 21
810.23701449999999
  0
ARC
  8
_0-0_0
  6
CONTINUOUS
 62
    7
 10
1557.9288940000001
 20
782.40000950000001
 40
1
 50
269.99999700000001
 51
0
  0
LINE
  8
_0-0_0
  6
CONTINUOUS
 62
    7
 10
1558.9288940000001
 20
782.40000950000001
 11
1558.9288940000001
 21
808.78581250000002
  0
LINE
  8
_0-0_0
  6
CONTINUOUS
 62
    7
 10
-19.071045000000026
 20
808.78581250000002
 11
-19.070038000000068
 21
808.80430550000005
  0
LINE
  8
_0-0_0
  6
CONTINUOUS
 62
    7
 10
-19.070038000000068
 20
808.80430550000005
 11
-19.067047000000002
 21
808.82273850000001
  0
LINE
  8
_0-0_0
  6
CONTINUOUS
 62
    7
 10
-19.067047000000002
 20
808.82273850000001
 11
-19.061797999999953
 21
808.84187350000002
  0
LINE
  8
_0-0_0
  6
CONTINUOUS
 62
    7
 10
-19.061797999999953
 20
808.84187350000002
 11
-19.05442800000003
 21
808.86091650000003
  0
LINE
  8
_0-0_0
  6
CONTINUOUS
 62
    7
 10
-19.05442800000003
 20
808.86091650000003
 11
-19.033873999999969
 21
808.8976285
  0
LINE
  8
_0-0_0
  6
CONTINUOUS
 62
    7
 10
-19.033873999999969
 20
808.8976285
 11
-19.005478000000039
 21
808.93330349999997
  0
LINE
  8
_0-0_0
  6
CONTINUOUS
 62
    7
 10
-19.005478000000039
 20
808.93330349999997
 11
-18.969604000000004
 21
808.96757449999996
  0
LINE
  8
_0-0_0
  6
CONTINUOUS
 62
    7
 10
-18.969604000000004
 20
808.96757449999996
 11
-18.920974999999999
 21
809.00404349999997
  0
LINE
  8
_0-0_0
  6
CONTINUOUS
 62
    7
 10
-18.920974999999999
 20
809.00404349999997
 11
-18.86419699999999
 21
809.0380705
  0
LINE
  8
_0-0_0
  6
CONTINUOUS
 62
    7
 10
-18.86419699999999
 20
809.0380705
 11
-18.800048999999944
 21
809.0693205
  0
LINE
  8
_0-0_0
  6
CONTINUOUS
 62
    7
 10
-18.800048999999944
 20
809.0693205
 11
-18.729401000000053
 21
809.09754950000001
  0
LINE
  8
_0-0_0
  6
CONTINUOUS
 62
    7
 10
-18.729401000000053
 20
809.09754950000001
 11
-18.681320000000028
 21
809.11390649999998
  0
LINE
  8
_0-0_0
  6
CONTINUOUS
 62
    7
 10
-18.681320000000028
 20
809.11390649999998
 11
-18.631179999999972
 21
809.12892150000005
  0
LINE
  8
_0-0_0
  6
CONTINUOUS
 62
    7
 10
-18.631179999999972
 20
809.12892150000005
 11
-18.574477999999999
 21
809.14369150000005
  0
LINE
  8
_0-0_0
  6
CONTINUOUS
 62
    7
 10
-18.574477999999999
 20
809.14369150000005
 11
-18.515869000000066
 21
809.15678349999996
  0
LINE
  8
_0-0_0
  6
CONTINUOUS
 62
    7
 10
-18.515869000000066
 20
809.15678349999996
 11
-18.399093999999991
 21
809.17707849999999
  0
LINE
  8
_0-0_0
  6
CONTINUOUS
 62
    7
 10
-18.399093999999991
 20
809.17707849999999
 11
-18.291687000000024
 21
809.18980350000004
  0
LINE
  8
_0-0_0
  6
CONTINUOUS
 62
    7
 10
-18.291687000000024
 20
809.18980350000004
 11
-18.181915000000004
 21
809.19746350000003
  0
LINE
  8
_0-0_0
  6
CONTINUOUS
 62
    7
 10
-18.181915000000004
 20
809.19746350000003
 11
-18.071045000000026
 21
809.20002750000003
  0
LINE
  8
_0-0_0
  6
CONTINUOUS
 62
    7
 10
-19.071045000000026
 20
809.75547749999998
 11
-19.06814600000007
 21
809.7863615
  0
LINE
  8
_0-0_0
  6
CONTINUOUS
 62
    7
 10
-19.06814600000007
 20
809.7863615
 11
-19.059447999999975
 21
809.81782550000003
  0
LINE
  8
_0-0_0
  6
CONTINUOUS
 62
    7
 10
-19.059447999999975
 20
809.81782550000003
 11
-19.04496800000004
 21
809.84947150000005
  0
LINE
  8
_0-0_0
  6
CONTINUOUS
 62
    7
 10
-19.04496800000004
 20
809.84947150000005
 11
-19.02479500000004
 21
809.8810575
  0
LINE
  8
_0-0_0
  6
CONTINUOUS
 62
    7
 10
-19.02479500000004
 20
809.8810575
 11
-19.008270000000039
 21
809.90193150000005
  0
LINE
  8
_0-0_0
  6
CONTINUOUS
 62
    7
 10
-19.008270000000039
 20
809.90193150000005
 11
-18.989379999999983
 21
809.92256150000003
  0
LINE
  8
_0-0_0
  6
CONTINUOUS
 62
    7
 10
-18.989379999999983
 20
809.92256150000003
 11
-18.944733000000042
 21
809.96272250000004
  0
LINE
  8
_0-0_0
  6
CONTINUOUS
 62
    7
 10
-18.944733000000042
 20
809.96272250000004
 11
-18.891602000000034
 21
810.00090050000006
  0
LINE
  8
_0-0_0
  6
CONTINUOUS
 62
    7
 10
-18.891602000000034
 20
810.00090050000006
 11
-18.841705000000047
 21
810.03071550000004
  0
LINE
  8
_0-0_0
  6
CONTINUOUS
 62
    7
 10
-18.841705000000047
 20
810.03071550000004
 11
-18.787033000000065
 21
810.05860849999999
  0
LINE
  8
_0-0_0
  6
CONTINUOUS
 62
    7
 10
-18.787033000000065
 20
810.05860849999999
 11
-18.728058000000033
 21
810.08433549999995
  0
LINE
  8
_0-0_0
  6
CONTINUOUS
 62
    7
 10
-18.728058000000033
 20
810.08433549999995
 11
-18.681305000000066
 21
810.10212650000005
  0
LINE
  8
_0-0_0
  6
CONTINUOUS
 62
    7
 10
-18.681305000000066
 20
810.10212650000005
 11
-18.632599000000027
 21
810.11854549999998
  0
LINE
  8
_0-0_0
  6
CONTINUOUS
 62
    7
 10
-18.632599000000027
 20
810.11854549999998
 11
-18.530167000000006
 21
810.14714049999998
  0
LINE
  8
_0-0_0
  6
CONTINUOUS
 62
    7
 10
-18.530167000000006
 20
810.14714049999998
 11
-18.422348000000056
 21
810.16972350000003
  0
LINE
  8
_0-0_0
  6
CONTINUOUS
 62
    7
 10
-18.422348000000056
 20
810.16972350000003
 11
-18.310668999999962
 21
810.18614149999996
  0
LINE
  8
_0-0_0
  6
CONTINUOUS
 62
    7
 10
-18.310668999999962
 20
810.18614149999996
 11
-18.196503000000007
 21
810.19624350000004
  0
LINE
  8
_0-0_0
  6
CONTINUOUS
 62
    7
 10
-18.196503000000007
 20
810.19624350000004
 11
-18.071045000000026
 21
810.20002750000003
  0
LINE
  8
_0-0_0
  6
CONTINUOUS
 62
    7
 10
-19.071045000000026
 20
808.78581250000002
 11
-19.071045000000026
 21
809.75547749999998
  0
ARC
  8
_0-0_0
  6
CONTINUOUS
 62
    7
 10
-18.071045000000026
 20
782.40000950000001
 40
1
 50
180.00000900000003
 51
269.99999700000001
  0
LINE
  8
_0-0_0
  6
CONTINUOUS
 62
    7
 10
-19.071045000000026
 20
782.40000950000001
 11
-19.071045000000026
 21
808.78581250000002
  0
CIRCLE
  8
_0-0_0
  6
CONTINUOUS
 62
    7
 10
-7.5710450000000264
 20
799.60002150000003
 40
5
  0
CIRCLE
  8
_0-0_0
  6
CONTINUOUS
 62
    7
 10
1547.4288940000001
 20
799.60002150000003
 40
5
  0
LINE
  8
_0-0_0
  6
CONTINUOUS
 62
    7
 10
1558.9288940000001
 20
809.78587349999998
 11
1558.9288940000001
 21
811.40000950000001
  0
ARC
  8
_0-0_0
  6
CONTINUOUS
 62
    7
 10
1557.9288940000001
 20
811.40000950000001
 40
1
 50
0
 51
90.000003000000007
  0
ARC
  8
_0-0_0
  6
CONTINUOUS
 62
    7
 10
-18.071045000000026
 20
811.40000950000001
 40
1
 50
90.000003000000007
 51
180.00000900000001
  0
LINE
  8
_0-0_0
  6
CONTINUOUS
 62
    7
 10
-19.071045000000026
 20
809.75547749999998
 11
-19.071045000000026
 21
811.40000950000001
  0
LINE
  8
_0-0_0
  6
CONTINUOUS
 62
    7
 10
-106.88670300000001
 20
779.29994150000005
 11
-106.88670300000001
 21
779.27494750000005
  0
LINE
  8
_0-0_0
  6
CONTINUOUS
 62
    7
 10
-106.88670300000001
 20
776.2228235
 11
-106.88670300000001
 21
776.32493550000004
  0
LINE
  8
_0-0_0
  6
CONTINUOUS
 62
    7
 10
-106.88670300000001
 20
755.19993550000004
 11
-106.88670300000001
 21
755.97706549999998
  0
LINE
  8
_0-0_0
  6
CONTINUOUS
 62
    7
 10
-123.68670700000007
 20
755.19993550000004
 11
-106.88670300000001
 21
755.19993550000004
  0
LINE
  8
_0-0_0
  6
CONTINUOUS
 62
    7
 10
-123.68670700000007
 20
763.09992950000003
 11
-123.68670700000007
 21
755.19993550000004
  0
LINE
  8
_0-0_0
  6
CONTINUOUS
 62
    7
 10
-123.68670700000007
 20
775.55525150000005
 11
-123.68670700000007
 21
769.09992950000003
  0
LINE
  8
_0-0_0
  6
CONTINUOUS
 62
    7
 10
-106.38671900000008
 20
758.69993550000004
 11
-106.18670700000007
 21
758.69993550000004
  0
LINE
  8
_0-0_0
  6
CONTINUOUS
 62
    7
 10
-106.18670700000007
 20
758.69993550000004
 11
-106.18670700000007
 21
761.69993550000004
  0
LINE
  8
_0-0_0
  6
CONTINUOUS
 62
    7
 10
-106.18670700000007
 20
775.29994150000005
 11
-106.18670700000007
 21
761.69993550000004
  0
LINE
  8
_0-0_0
  6
CONTINUOUS
 62
    7
 10
-106.38671900000008
 20
778.29994150000005
 11
-106.18670700000007
 21
778.29994150000005
  0
LINE
  8
_0-0_0
  6
CONTINUOUS
 62
    7
 10
-106.18670700000007
 20
775.29994150000005
 11
-106.18670700000007
 21
778.29994150000005
  0
LINE
  8
_0-0_0
  6
CONTINUOUS
 62
    7
 10
-107.08670000000006
 20
777.59901449999995
 11
-107.08670000000006
 21
776.41981450000003
  0
LINE
  8
_0-0_0
  6
CONTINUOUS
 62
    7
 10
-107.08670000000006
 20
779.79994150000005
 11
-107.08670000000006
 21
779.29994150000005
  0
LINE
  8
_0-0_0
  6
CONTINUOUS
 62
    7
 10
-108.08670000000006
 20
776.88343750000001
 11
-108.08670000000006
 21
777.59992950000003
  0
ARC
  8
_0-0_0
  6
CONTINUOUS
 62
    7
 10
-108.38670300000001
 20
774.89994750000005
 40
2
 50
0
 51
90.000003000000007
  0
LINE
  8
_0-0_0
  6
CONTINUOUS
 62
    7
 10
-106.38670300000001
 20
771.39994750000005
 11
-106.38670300000001
 21
774.39994750000005
  0
LINE
  8
_0-0_0
  6
CONTINUOUS
 62
    7
 10
-106.38670300000001
 20
774.39994750000005
 11
-106.38670300000001
 21
774.89994750000005
  0
LINE
  8
_0-0_0
  6
CONTINUOUS
 62
    7
 10
-106.38670300000001
 20
757.29994150000005
 11
-106.38670300000001
 21
770.89994750000005
  0
LINE
  8
_0-0_0
  6
CONTINUOUS
 62
    7
 10
-106.38670300000001
 20
771.39994750000005
 11
-106.38670300000001
 21
770.89994750000005
  0
ARC
  8
_0-0_0
  6
CONTINUOUS
 62
    7
 10
-108.38670300000001
 20
757.29994150000005
 40
2
 50
273.84026500000004
 51
0.000010000000014
  0
LINE
  8
_0-0_0
  6
CONTINUOUS
 62
    7
 10
-121.68670700000007
 20
776.88343750000001
 11
-121.68670700000007
 21
777.59992950000003
  0
LINE
  8
_0-0_0
  6
CONTINUOUS
 62
    7
 10
-121.68670700000007
 20
776.88343750000001
 11
-121.68670700000007
 21
776.87730350000004
  0
LINE
  8
_0-0_0
  6
CONTINUOUS
 62
    7
 10
-123.68670700000007
 20
775.55525150000005
 11
-123.68670700000007
 21
776.05525150000005
  0
LINE
  8
_0-0_0
  6
CONTINUOUS
 62
    7
 10
-123.38670300000001
 20
774.89994750000005
 11
-123.38670300000001
 21
761.29994150000005
  0
LINE
  8
_0-0_0
  6
CONTINUOUS
 62
    7
 10
-123.38670300000001
 20
760.79994150000005
 11
-123.38670300000001
 21
761.29994150000005
  0
LINE
  8
_0-0_0
  6
CONTINUOUS
 62
    7
 10
-123.38670300000001
 20
757.79994150000005
 11
-123.38670300000001
 21
760.79994150000005
  0
LINE
  8
_0-0_0
  6
CONTINUOUS
 62
    7
 10
-123.38670300000001
 20
757.29994150000005
 11
-123.38670300000001
 21
757.79994150000005
  0
ARC
  8
_0-0_0
  6
CONTINUOUS
 62
    7
 10
-121.38670300000001
 20
774.89994750000005
 40
2
 50
93.840255999999997
 51
180.00000900000001
  0
LINE
  8
_0-0_0
  6
CONTINUOUS
 62
    7
 10
-123.68670700000007
 20
763.09992950000003
 11
-123.68670700000007
 21
769.09992950000003
  0
LINE
  8
_0-0_0
  6
CONTINUOUS
 62
    7
 10
-123.68670700000007
 20
777.59992950000003
 11
-123.68670700000007
 21
776.05525150000005
  0
LINE
  8
_0-0_0
  6
CONTINUOUS
 62
    7
 10
-123.68670700000007
 20
769.09992950000003
 11
-123.38671900000008
 21
769.09992950000003
  0
LINE
  8
_0-0_0
  6
CONTINUOUS
 62
    7
 10
-123.68670700000007
 20
763.09992950000003
 11
-123.38671900000008
 21
763.09992950000003
  0
LINE
  8
_0-0_0
  6
CONTINUOUS
 62
    7
 10
-108.38670300000001
 20
755.29994150000005
 11
-117.38670300000001
 21
755.29994150000005
  0
LINE
  8
_0-0_0
  6
CONTINUOUS
 62
    7
 10
-120.88670300000001
 20
755.29994150000005
 11
-121.38670300000001
 21
755.29994150000005
  0
LINE
  8
_0-0_0
  6
CONTINUOUS
 62
    7
 10
-117.88670300000001
 20
755.29994150000005
 11
-120.88670300000001
 21
755.29994150000005
  0
LINE
  8
_0-0_0
  6
CONTINUOUS
 62
    7
 10
-117.38670300000001
 20
755.29994150000005
 11
-117.88670300000001
 21
755.29994150000005
  0
ARC
  8
_0-0_0
  6
CONTINUOUS
 62
    7
 10
-121.38670300000001
 20
757.29994150000005
 40
2
 50
180.00000900000003
 51
269.99999700000001
  0
ARC
  8
_0-0_0
  6
CONTINUOUS
 62
    7
 10
-107.58670000000006
 20
779.79994150000005
 40
0.5
 50
0
 51
90.000003000000007
  0
LINE
  8
_0-0_0
  6
CONTINUOUS
 62
    7
 10
-109.08670000000006
 20
780.29994150000005
 11
-107.58670000000006
 21
780.29994150000005
  0
ARC
  8
_0-0_0
  6
CONTINUOUS
 62
    7
 10
-109.08670000000006
 20
781.29994150000005
 40
1
 50
180.00000900000003
 51
269.99999700000001
  0
LINE
  8
_0-0_0
  6
CONTINUOUS
 62
    7
 10
-110.08670000000006
 20
781.29994150000005
 11
-110.08670000000006
 21
781.40003950000005
  0
LINE
  8
_0-0_0
  6
CONTINUOUS
 62
    7
 10
-110.58670000000006
 20
780.29994150000005
 11
-110.58670000000006
 21
781.40003950000005
  0
ARC
  8
_0-0_0
  6
CONTINUOUS
 62
    7
 10
-109.58670000000006
 20
780.29994150000005
 40
1
 50
180.00000900000003
 51
269.99999700000001
  0
LINE
  8
_0-0_0
  6
CONTINUOUS
 62
    7
 10
-109.58670000000006
 20
779.29994150000005
 11
-109.78671299999996
 21
779.29994150000005
  0
ARC
  8
_0-0_0
  6
CONTINUOUS
 62
    7
 10
-109.78671299999996
 20
780.29994150000005
 40
1
 50
180.00000900000003
 51
269.99999700000001
  0
ARC
  8
_0-0_0
  6
CONTINUOUS
 62
    7
 10
-119.98671000000002
 20
780.29994150000005
 40
1
 50
269.99999700000001
 51
0
  0
LINE
  8
_0-0_0
  6
CONTINUOUS
 62
    7
 10
-119.98671000000002
 20
779.29994150000005
 11
-120.68670700000007
 21
779.29994150000005
  0
LINE
  8
_0-0_0
  6
CONTINUOUS
 62
    7
 10
-106.88670300000001
 20
779.29994150000005
 11
-107.08670000000006
 21
779.29994150000005
  0
LINE
  8
_0-0_0
  6
CONTINUOUS
 62
    7
 10
-123.68670700000007
 20
777.59992950000003
 11
-106.88670300000001
 21
777.59992950000003
  0
LINE
  8
_0-0_0
  6
CONTINUOUS
 62
    7
 10
-106.88670300000001
 20
777.59992950000003
 11
-106.88670300000001
 21
779.29994150000005
  0
LINE
  8
_0-0_0
  6
CONTINUOUS
 62
    7
 10
-110.78671299999996
 20
781.40003950000005
 11
-110.78671299999996
 21
780.29994150000005
  0
LINE
  8
_0-0_0
  6
CONTINUOUS
 62
    7
 10
-118.98671000000002
 20
780.29994150000005
 11
-118.98671000000002
 21
781.40003950000005
  0
LINE
  8
_0-0_0
  6
CONTINUOUS
 62
    7
 10
-122.68670700000007
 20
779.29994150000005
 11
-123.68670700000007
 21
779.29994150000005
  0
LINE
  8
_0-0_0
  6
CONTINUOUS
 62
    7
 10
-123.68670700000007
 20
777.59992950000003
 11
-123.68670700000007
 21
779.29994150000005
  0
LINE
  8
_0-0_0
  6
CONTINUOUS
 62
    7
 10
-108.38670300000001
 20
776.89994750000005
 11
-108.88670300000001
 21
776.89994750000005
  0
CIRCLE
  8
_0-0_0
  6
CONTINUOUS
 62
    7
 10
-108.88670300000001
 20
774.39994750000005
 40
2.5
  0
LINE
  8
_0-0_0
  6
CONTINUOUS
 62
    7
 10
-121.38670300000001
 20
776.89994750000005
 11
-112.38670300000001
 21
776.89994750000005
  0
LINE
  8
_0-0_0
  6
CONTINUOUS
 62
    7
 10
-108.88670300000001
 20
776.89994750000005
 11
-111.88670300000001
 21
776.89994750000005
  0
LINE
  8
_0-0_0
  6
CONTINUOUS
 62
    7
 10
-112.38670300000001
 20
776.89994750000005
 11
-111.88670300000001
 21
776.89994750000005
  0
ARC
  8
_0-0_0
  6
CONTINUOUS
 62
    7
 10
-106.88670300000001
 20
770.89994750000005
 40
0.5
 50
0
 51
90.000003000000007
  0
LINE
  8
_0-0_0
  6
CONTINUOUS
 62
    7
 10
-108.38670300000001
 20
755.40257250000002
 11
-108.37083400000006
 21
755.37532050000004
  0
LINE
  8
_0-0_0
  6
CONTINUOUS
 62
    7
 10
-108.37083400000006
 20
755.37532050000004
 11
-108.35498000000007
 21
755.35234049999997
  0
LINE
  8
_0-0_0
  6
CONTINUOUS
 62
    7
 10
-108.35498000000007
 20
755.35234049999997
 11
-108.341003
 21
755.33558649999998
  0
LINE
  8
_0-0_0
  6
CONTINUOUS
 62
    7
 10
-108.341003
 20
755.33558649999998
 11
-108.32710300000008
 21
755.3222505
  0
LINE
  8
_0-0_0
  6
CONTINUOUS
 62
    7
 10
-108.32710300000008
 20
755.3222505
 11
-108.31488000000002
 21
755.31333949999998
  0
LINE
  8
_0-0_0
  6
CONTINUOUS
 62
    7
 10
-108.31488000000002
 20
755.31333949999998
 11
-108.30276500000002
 21
755.30711350000001
  0
LINE
  8
_0-0_0
  6
CONTINUOUS
 62
    7
 10
-108.30276500000002
 20
755.30711350000001
 11
-108.29190100000005
 21
755.30384849999996
  0
LINE
  8
_0-0_0
  6
CONTINUOUS
 62
    7
 10
-108.29190100000005
 20
755.30384849999996
 11
-108.28114300000004
 21
755.30278050000004
  0
LINE
  8
_0-0_0
  6
CONTINUOUS
 62
    7
 10
-108.28114300000004
 20
755.30278050000004
 11
-108.27868599999999
 21
755.30287150000004
  0
LINE
  8
_0-0_0
  6
CONTINUOUS
 62
    7
 10
-122.68670700000007
 20
776.41981450000003
 11
-122.68670700000007
 21
777.59901449999995
  0
ARC
  8
_0-0_0
  6
CONTINUOUS
 62
    7
 10
-122.88670300000001
 20
761.29994150000005
 40
0.5
 50
180.00000900000003
 51
269.99999700000001
  0
CIRCLE
  8
_0-0_0
  6
CONTINUOUS
 62
    7
 10
-120.88670300000001
 20
757.79994150000005
 40
2.5
  0
LINE
  8
_0-0_0
  6
CONTINUOUS
 62
    7
 10
-121.38670300000001
 20
776.79731749999996
 11
-121.40258800000004
 21
776.82456950000005
  0
LINE
  8
_0-0_0
  6
CONTINUOUS
 62
    7
 10
-121.40258800000004
 20
776.82456950000005
 11
-121.41842599999995
 21
776.84754950000001
  0
LINE
  8
_0-0_0
  6
CONTINUOUS
 62
    7
 10
-121.41842599999995
 20
776.84754950000001
 11
-121.43241899999998
 21
776.86430350000001
  0
LINE
  8
_0-0_0
  6
CONTINUOUS
 62
    7
 10
-121.43241899999998
 20
776.86430350000001
 11
-121.44632000000001
 21
776.87763949999999
  0
LINE
  8
_0-0_0
  6
CONTINUOUS
 62
    7
 10
-121.44632000000001
 20
776.87763949999999
 11
-121.458527
 21
776.8865505
  0
LINE
  8
_0-0_0
  6
CONTINUOUS
 62
    7
 10
-121.458527
 20
776.8865505
 11
-121.470642
 21
776.89277649999997
  0
LINE
  8
_0-0_0
  6
CONTINUOUS
 62
    7
 10
-121.470642
 20
776.89277649999997
 11
-121.48152200000004
 21
776.89604150000002
  0
LINE
  8
_0-0_0
  6
CONTINUOUS
 62
    7
 10
-121.48152200000004
 20
776.89604150000002
 11
-121.49227900000005
 21
776.89710950000006
  0
LINE
  8
_0-0_0
  6
CONTINUOUS
 62
    7
 10
-121.49227900000005
 20
776.89710950000006
 11
-121.49473599999999
 21
776.89701850000006
  0
LINE
  8
_0-0_0
  6
CONTINUOUS
 62
    7
 10
-123.68670700000007
 20
758.69993550000004
 11
-123.78671299999996
 21
758.69993550000004
  0
LINE
  8
_0-0_0
  6
CONTINUOUS
 62
    7
 10
-123.78671299999996
 20
758.69993550000004
 11
-123.78671299999996
 21
761.69993550000004
  0
LINE
  8
_0-0_0
  6
CONTINUOUS
 62
    7
 10
-123.78671299999996
 20
761.69993550000004
 11
-123.78671299999996
 21
775.29994150000005
  0
LINE
  8
_0-0_0
  6
CONTINUOUS
 62
    7
 10
-123.68670700000007
 20
778.29994150000005
 11
-123.78671299999996
 21
778.29994150000005
  0
LINE
  8
_0-0_0
  6
CONTINUOUS
 62
    7
 10
-123.78671299999996
 20
775.29994150000005
 11
-123.78671299999996
 21
778.29994150000005
  0
ARC
  8
_0-0_0
  6
CONTINUOUS
 62
    7
 10
-117.38670300000001
 20
755.79994150000005
 40
0.5
 50
180.00000900000003
 51
269.99999700000001
  0
ARC
  8
_0-0_0
  6
CONTINUOUS
 62
    7
 10
-120.68670700000007
 20
780.80000250000001
 40
1.5
 50
269.99999700000001
 51
0
  0
ARC
  8
_0-0_0
  6
CONTINUOUS
 62
    7
 10
-122.18670700000007
 20
779.80000250000001
 40
0.5
 50
90.000003000000007
 51
180.00000900000001
  0
LINE
  8
_0-0_0
  6
CONTINUOUS
 62
    7
 10
-122.18670700000007
 20
780.30000250000001
 11
-120.68670700000007
 21
780.30000250000001
  0
ARC
  8
_0-0_0
  6
CONTINUOUS
 62
    7
 10
-120.68670700000007
 20
781.30000250000001
 40
1
 50
269.99999700000001
 51
0
  0
LINE
  8
_0-0_0
  6
CONTINUOUS
 62
    7
 10
-119.68670700000007
 20
781.40003950000005
 11
-119.68670700000007
 21
781.30000250000001
  0
LINE
  8
_0-0_0
  6
CONTINUOUS
 62
    7
 10
-119.18670700000007
 20
781.40003950000005
 11
-119.18670700000007
 21
780.80000250000001
  0
LINE
  8
_0-0_0
  6
CONTINUOUS
 62
    7
 10
-122.68670700000007
 20
779.30000250000001
 11
-122.68670700000007
 21
779.80000250000001
  0
ARC
  8
_0-0_0
  6
CONTINUOUS
 62
    7
 10
-112.38670300000001
 20
776.39994750000005
 40
0.5
 50
0
 51
90.000003000000007
  0
LINE
  8
_0-0_0
  6
CONTINUOUS
 62
    7
 10
-111.88670300000001
 20
776.32295250000004
 11
-111.88670300000001
 21
776.39994750000005
  0
LINE
  8
_0-0_0
  6
CONTINUOUS
 62
    7
 10
-111.88670300000001
 20
774.88145450000002
 11
-111.88670300000001
 21
776.32295250000004
  0
LINE
  8
_0-0_0
  6
CONTINUOUS
 62
    7
 10
-111.88670300000001
 20
774.39994750000005
 11
-111.88670300000001
 21
774.88145450000002
  0
ARC
  8
_0-0_0
  6
CONTINUOUS
 62
    7
 10
-108.88670300000001
 20
774.39994750000005
 40
3
 50
180.00000900000003
 51
269.99999700000001
  0
LINE
  8
_0-0_0
  6
CONTINUOUS
 62
    7
 10
-108.40521200000001
 20
771.39994750000005
 11
-108.88670300000001
 21
771.39994750000005
  0
LINE
  8
_0-0_0
  6
CONTINUOUS
 62
    7
 10
-108.40521200000001
 20
771.39994750000005
 11
-106.96368400000006
 21
771.39994750000005
  0
LINE
  8
_0-0_0
  6
CONTINUOUS
 62
    7
 10
-106.88670300000001
 20
771.39994750000005
 11
-106.96368400000006
 21
771.39994750000005
  0
LINE
  8
_0-0_0
  6
CONTINUOUS
 62
    7
 10
-122.80973800000004
 20
760.79994150000005
 11
-122.88670300000001
 21
760.79994150000005
  0
LINE
  8
_0-0_0
  6
CONTINUOUS
 62
    7
 10
-120.88670300000001
 20
760.79994150000005
 11
-121.36820999999998
 21
760.79994150000005
  0
LINE
  8
_0-0_0
  6
CONTINUOUS
 62
    7
 10
-121.36820999999998
 20
760.79994150000005
 11
-122.80973800000004
 21
760.79994150000005
  0
LINE
  8
_0-0_0
  6
CONTINUOUS
 62
    7
 10
-117.88670300000001
 20
755.79994150000005
 11
-117.88670300000001
 21
755.87690750000002
  0
LINE
  8
_0-0_0
  6
CONTINUOUS
 62
    7
 10
-117.88670300000001
 20
757.31843549999996
 11
-117.88670300000001
 21
755.87690750000002
  0
LINE
  8
_0-0_0
  6
CONTINUOUS
 62
    7
 10
-117.88670300000001
 20
757.31843549999996
 11
-117.88670300000001
 21
757.79994150000005
  0
ARC
  8
_0-0_0
  6
CONTINUOUS
 62
    7
 10
-120.88670300000001
 20
757.79994150000005
 40
3
 50
0
 51
89.999995999999996
  0
LINE
  8
_0-0_0
  6
CONTINUOUS
 62
    7
 10
-106.38670300000001
 20
778.41120850000004
 11
-106.38670300000001
 21
776.52494750000005
  0
LINE
  8
_0-0_0
  6
CONTINUOUS
 62
    7
 10
-106.38670300000001
 20
779.07493550000004
 11
-106.38670300000001
 21
778.41120850000004
  0
ARC
  8
_0-0_0
  6
CONTINUOUS
 62
    7
 10
-111.65658600000006
 20
767.27317749999997
 40
3.063396
 50
19.82113
 51
25.289563000000001
  0
ARC
  8
_0-0_0
  6
CONTINUOUS
 62
    7
 10
-111.65626500000008
 20
764.92655950000005
 40
3.0630519999999999
 50
334.71006
 51
340.17869200000001
  0
ARC
  8
_0-0_0
  6
CONTINUOUS
 62
    7
 10
-118.11682100000007
 20
764.92671150000001
 40
3.063399
 50
199.82113599999997
 51
205.28948099999999
  0
ARC
  8
_0-0_0
  6
CONTINUOUS
 62
    7
 10
-118.11714200000006
 20
767.27333050000004
 40
3.0630549999999999
 50
154.710137
 51
160.17869999999999
  0
ARC
  8
_0-0_0
  6
CONTINUOUS
 62
    7
 10
-114.88670300000001
 20
766.09992950000003
 40
6.5
 50
340.10416099999998
 51
19.895609999999952
  0
ARC
  8
_0-0_0
  6
CONTINUOUS
 62
    7
 10
-114.88670300000001
 20
766.09992950000003
 40
6.5
 50
160.10415599999999
 51
199.895612
  0
LINE
  8
_0-0_0
  6
CONTINUOUS
 62
    7
 10
-123.38670300000001
 20
777.18873550000001
 11
-123.38670300000001
 21
777.59907550000003
  0
LINE
  8
_0-0_0
  6
CONTINUOUS
 62
    7
 10
-123.38670300000001
 20
776.52986150000004
 11
-123.38670300000001
 21
777.18873550000001
  0
LINE
  8
_0-0_0
  6
CONTINUOUS
 62
    7
 10
-115.62837200000001
 20
772.59992950000003
 11
-120.14503500000001
 21
769.9922335
  0
LINE
  8
_0-0_0
  6
CONTINUOUS
 62
    7
 10
-114.14503500000001
 20
772.59992950000003
 11
-115.62837200000001
 21
772.59992950000003
  0
LINE
  8
_0-0_0
  6
CONTINUOUS
 62
    7
 10
-109.62837200000001
 20
769.9922335
 11
-114.14503500000001
 21
772.59992950000003
  0
LINE
  8
_0-0_0
  6
CONTINUOUS
 62
    7
 10
-108.88670300000001
 20
768.70762649999995
 11
-108.88670300000001
 21
763.4922335
  0
LINE
  8
_0-0_0
  6
CONTINUOUS
 62
    7
 10
-109.62837200000001
 20
769.9922335
 11
-108.88670300000001
 21
768.70762649999995
  0
LINE
  8
_0-0_0
  6
CONTINUOUS
 62
    7
 10
-114.14503500000001
 20
759.59992950000003
 11
-109.62837200000001
 21
762.20762649999995
  0
LINE
  8
_0-0_0
  6
CONTINUOUS
 62
    7
 10
-109.33425899999997
 20
762.71708650000005
 11
-108.88670300000001
 21
763.4922335
  0
LINE
  8
_0-0_0
  6
CONTINUOUS
 62
    7
 10
-109.33425899999997
 20
762.71708650000005
 11
-109.62837200000001
 21
762.20762649999995
  0
LINE
  8
_0-0_0
  6
CONTINUOUS
 62
    7
 10
-115.62837200000001
 20
759.59992950000003
 11
-114.14503500000001
 21
759.59992950000003
  0
LINE
  8
_0-0_0
  6
CONTINUOUS
 62
    7
 10
-120.14503500000001
 20
762.20762649999995
 11
-115.62837200000001
 21
759.59992950000003
  0
LINE
  8
_0-0_0
  6
CONTINUOUS
 62
    7
 10
-120.88670300000001
 20
768.70762649999995
 11
-120.88670300000001
 21
763.4922335
  0
LINE
  8
_0-0_0
  6
CONTINUOUS
 62
    7
 10
-120.14503500000001
 20
762.20762649999995
 11
-120.88670300000001
 21
763.4922335
  0
LINE
  8
_0-0_0
  6
CONTINUOUS
 62
    7
 10
-120.43916300000001
 20
769.48280350000005
 11
-120.88670300000001
 21
768.70762649999995
  0
LINE
  8
_0-0_0
  6
CONTINUOUS
 62
    7
 10
-120.43916300000001
 20
769.48280350000005
 11
-120.14503500000001
 21
769.9922335
  0
LINE
  8
_0-0_0
  6
CONTINUOUS
 62
    7
 10
-106.99969499999997
 20
775.6253815
 11
-106.72164900000007
 21
775.64994750000005
  0
LINE
  8
_0-0_0
  6
CONTINUOUS
 62
    7
 10
-106.88194299999998
 20
775.42143250000004
 11
-106.72164900000007
 21
775.64994750000005
  0
LINE
  8
_0-0_0
  6
CONTINUOUS
 62
    7
 10
-107.13812299999995
 20
775.81590249999999
 11
-106.86416600000007
 21
775.86939949999999
  0
LINE
  8
_0-0_0
  6
CONTINUOUS
 62
    7
 10
-106.99969499999997
 20
775.6253815
 11
-106.86416600000007
 21
775.86939949999999
  0
LINE
  8
_0-0_0
  6
CONTINUOUS
 62
    7
 10
-107.29571499999997
 20
775.99092050000002
 11
-107.02883900000006
 21
776.07276950000005
  0
LINE
  8
_0-0_0
  6
CONTINUOUS
 62
    7
 10
-107.13812299999995
 20
775.81590249999999
 11
-107.02883900000006
 21
776.07276950000005
  0
LINE
  8
_0-0_0
  6
CONTINUOUS
 62
    7
 10
-107.47073399999999
 20
776.14851350000004
 11
-107.21388200000001
 21
776.25779750000004
  0
LINE
  8
_0-0_0
  6
CONTINUOUS
 62
    7
 10
-107.29571499999997
 20
775.99092050000002
 11
-107.21388200000001
 21
776.25779750000004
  0
LINE
  8
_0-0_0
  6
CONTINUOUS
 62
    7
 10
-107.66127000000006
 20
776.28694150000001
 11
-107.41725199999996
 21
776.42250049999996
  0
LINE
  8
_0-0_0
  6
CONTINUOUS
 62
    7
 10
-107.47073399999999
 20
776.14851350000004
 11
-107.41725199999996
 21
776.42250049999996
  0
LINE
  8
_0-0_0
  6
CONTINUOUS
 62
    7
 10
-107.86523399999999
 20
776.40470849999997
 11
-107.63670300000001
 21
776.56501749999995
  0
LINE
  8
_0-0_0
  6
CONTINUOUS
 62
    7
 10
-107.66127000000006
 20
776.28694150000001
 11
-107.63670300000001
 21
776.56501749999995
  0
LINE
  8
_0-0_0
  6
CONTINUOUS
 62
    7
 10
-108.08038299999998
 20
776.50050350000004
 11
-107.86987299999998
 21
776.68379149999998
  0
LINE
  8
_0-0_0
  6
CONTINUOUS
 62
    7
 10
-107.86523399999999
 20
776.40470849999997
 11
-107.86987299999998
 21
776.68379149999998
  0
LINE
  8
_0-0_0
  6
CONTINUOUS
 62
    7
 10
-108.30436699999996
 20
776.57328749999999
 11
-108.11416600000007
 21
776.77757250000002
  0
LINE
  8
_0-0_0
  6
CONTINUOUS
 62
    7
 10
-108.08038299999998
 20
776.50050350000004
 11
-108.11416600000007
 21
776.77757250000002
  0
LINE
  8
_0-0_0
  6
CONTINUOUS
 62
    7
 10
-108.53472899999997
 20
776.62223849999998
 11
-108.36692800000003
 21
776.84532149999995
  0
LINE
  8
_0-0_0
  6
CONTINUOUS
 62
    7
 10
-108.30436699999996
 20
776.57328749999999
 11
-108.36692800000003
 21
776.84532149999995
  0
LINE
  8
_0-0_0
  6
CONTINUOUS
 62
    7
 10
-108.76895100000002
 20
776.64686549999999
 11
-108.62538100000006
 21
776.88624549999997
  0
LINE
  8
_0-0_0
  6
CONTINUOUS
 62
    7
 10
-108.53472899999997
 20
776.62223849999998
 11
-108.62538100000006
 21
776.88624549999997
  0
LINE
  8
_0-0_0
  6
CONTINUOUS
 62
    7
 10
-109.00447099999997
 20
776.64686549999999
 11
-108.88670300000001
 21
776.89994750000005
  0
LINE
  8
_0-0_0
  6
CONTINUOUS
 62
    7
 10
-108.76895100000002
 20
776.64686549999999
 11
-108.88670300000001
 21
776.89994750000005
  0
LINE
  8
_0-0_0
  6
CONTINUOUS
 62
    7
 10
-109.23867800000005
 20
776.62223849999998
 11
-109.14802499999996
 21
776.88624549999997
  0
LINE
  8
_0-0_0
  6
CONTINUOUS
 62
    7
 10
-109.00447099999997
 20
776.64686549999999
 11
-109.14802499999996
 21
776.88624549999997
  0
LINE
  8
_0-0_0
  6
CONTINUOUS
 62
    7
 10
-109.46905500000003
 20
776.57328749999999
 11
-109.40649400000007
 21
776.84532149999995
  0
LINE
  8
_0-0_0
  6
CONTINUOUS
 62
    7
 10
-109.23867800000005
 20
776.62223849999998
 11
-109.40649400000007
 21
776.84532149999995
  0
LINE
  8
_0-0_0
  6
CONTINUOUS
 62
    7
 10
-109.693039
 20
776.50050350000004
 11
-109.65925600000003
 21
776.77757250000002
  0
LINE
  8
_0-0_0
  6
CONTINUOUS
 62
    7
 10
-109.46905500000003
 20
776.57328749999999
 11
-109.65925600000003
 21
776.77757250000002
  0
LINE
  8
_0-0_0
  6
CONTINUOUS
 62
    7
 10
-109.908188
 20
776.40470849999997
 11
-109.903549
 21
776.68379149999998
  0
LINE
  8
_0-0_0
  6
CONTINUOUS
 62
    7
 10
-109.693039
 20
776.50050350000004
 11
-109.903549
 21
776.68379149999998
  0
LINE
  8
_0-0_0
  6
CONTINUOUS
 62
    7
 10
-110.02772500000003
 20
776.48857150000003
 11
-110.13670300000001
 21
776.56501749999995
  0
LINE
  8
_0-0_0
  6
CONTINUOUS
 62
    7
 10
-109.908188
 20
776.40470849999997
 11
-110.02772500000003
 21
776.48857150000003
  0
LINE
  8
_0-0_0
  6
CONTINUOUS
 62
    7
 10
-110.11215200000004
 20
776.28694150000001
 11
-110.13670300000001
 21
776.56501749999995
  0
LINE
  8
_0-0_0
  6
CONTINUOUS
 62
    7
 10
-110.30267300000003
 20
776.14851350000004
 11
-110.35617100000002
 21
776.42250049999996
  0
LINE
  8
_0-0_0
  6
CONTINUOUS
 62
    7
 10
-110.11215200000004
 20
776.28694150000001
 11
-110.35617100000002
 21
776.42250049999996
  0
LINE
  8
_0-0_0
  6
CONTINUOUS
 62
    7
 10
-110.47769200000005
 20
775.99092050000002
 11
-110.55953999999997
 21
776.25779750000004
  0
LINE
  8
_0-0_0
  6
CONTINUOUS
 62
    7
 10
-110.30267300000003
 20
776.14851350000004
 11
-110.55953999999997
 21
776.25779750000004
  0
LINE
  8
_0-0_0
  6
CONTINUOUS
 62
    7
 10
-110.63528399999996
 20
775.81590249999999
 11
-110.74456800000007
 21
776.07276950000005
  0
LINE
  8
_0-0_0
  6
CONTINUOUS
 62
    7
 10
-110.47769200000005
 20
775.99092050000002
 11
-110.74456800000007
 21
776.07276950000005
  0
LINE
  8
_0-0_0
  6
CONTINUOUS
 62
    7
 10
-110.77371200000005
 20
775.6253815
 11
-110.90925600000003
 21
775.86939949999999
  0
LINE
  8
_0-0_0
  6
CONTINUOUS
 62
    7
 10
-110.63528399999996
 20
775.81590249999999
 11
-110.90925600000003
 21
775.86939949999999
  0
LINE
  8
_0-0_0
  6
CONTINUOUS
 62
    7
 10
-110.891479
 20
775.42143250000004
 11
-111.05177300000003
 21
775.64994750000005
  0
LINE
  8
_0-0_0
  6
CONTINUOUS
 62
    7
 10
-110.77371200000005
 20
775.6253815
 11
-111.05177300000003
 21
775.64994750000005
  0
LINE
  8
_0-0_0
  6
CONTINUOUS
 62
    7
 10
-110.98725899999999
 20
775.20628350000004
 11
-111.17057799999998
 21
775.41679350000004
  0
LINE
  8
_0-0_0
  6
CONTINUOUS
 62
    7
 10
-110.891479
 20
775.42143250000004
 11
-111.17057799999998
 21
775.41679350000004
  0
LINE
  8
_0-0_0
  6
CONTINUOUS
 62
    7
 10
-111.06004299999995
 20
774.98228449999999
 11
-111.26434300000005
 21
775.17250049999996
  0
LINE
  8
_0-0_0
  6
CONTINUOUS
 62
    7
 10
-110.98725899999999
 20
775.20628350000004
 11
-111.26434300000005
 21
775.17250049999996
  0
LINE
  8
_0-0_0
  6
CONTINUOUS
 62
    7
 10
-111.10900900000001
 20
774.75190750000002
 11
-111.33207700000003
 21
774.91972350000003
  0
LINE
  8
_0-0_0
  6
CONTINUOUS
 62
    7
 10
-111.06004299999995
 20
774.98228449999999
 11
-111.33207700000003
 21
774.91972350000003
  0
LINE
  8
_0-0_0
  6
CONTINUOUS
 62
    7
 10
-111.10900900000001
 20
774.75190750000002
 11
-111.37301600000001
 21
774.6612705
  0
LINE
  8
_0-0_0
  6
CONTINUOUS
 62
    7
 10
-111.13362099999995
 20
774.51768449999997
 11
-111.37301600000001
 21
774.6612705
  0
LINE
  8
_0-0_0
  6
CONTINUOUS
 62
    7
 10
-111.13362099999995
 20
774.28218049999998
 11
-111.38670300000001
 21
774.39994750000005
  0
LINE
  8
_0-0_0
  6
CONTINUOUS
 62
    7
 10
-111.13362099999995
 20
774.51768449999997
 11
-111.38670300000001
 21
774.39994750000005
  0
LINE
  8
_0-0_0
  6
CONTINUOUS
 62
    7
 10
-111.10900900000001
 20
774.04795850000005
 11
-111.37301600000001
 21
774.13862549999999
  0
LINE
  8
_0-0_0
  6
CONTINUOUS
 62
    7
 10
-111.13362099999995
 20
774.28218049999998
 11
-111.37301600000001
 21
774.13862549999999
  0
LINE
  8
_0-0_0
  6
CONTINUOUS
 62
    7
 10
-111.06004299999995
 20
773.8176115
 11
-111.33207700000003
 21
773.88017249999996
  0
LINE
  8
_0-0_0
  6
CONTINUOUS
 62
    7
 10
-111.10900900000001
 20
774.04795850000005
 11
-111.33207700000003
 21
773.88017249999996
  0
LINE
  8
_0-0_0
  6
CONTINUOUS
 62
    7
 10
-110.98725899999999
 20
773.59361249999995
 11
-111.26434300000005
 21
773.62739550000003
  0
LINE
  8
_0-0_0
  6
CONTINUOUS
 62
    7
 10
-111.06004299999995
 20
773.8176115
 11
-111.26434300000005
 21
773.62739550000003
  0
LINE
  8
_0-0_0
  6
CONTINUOUS
 62
    7
 10
-110.891479
 20
773.37846349999995
 11
-111.17057799999998
 21
773.38310249999995
  0
LINE
  8
_0-0_0
  6
CONTINUOUS
 62
    7
 10
-110.98725899999999
 20
773.59361249999995
 11
-111.17057799999998
 21
773.38310249999995
  0
LINE
  8
_0-0_0
  6
CONTINUOUS
 62
    7
 10
-110.77371200000005
 20
773.17451449999999
 11
-111.05177300000003
 21
773.14994750000005
  0
LINE
  8
_0-0_0
  6
CONTINUOUS
 62
    7
 10
-110.891479
 20
773.37846349999995
 11
-111.05177300000003
 21
773.14994750000005
  0
LINE
  8
_0-0_0
  6
CONTINUOUS
 62
    7
 10
-110.63528399999996
 20
772.98396249999996
 11
-110.90925600000003
 21
772.9304965
  0
LINE
  8
_0-0_0
  6
CONTINUOUS
 62
    7
 10
-110.77371200000005
 20
773.17451449999999
 11
-110.90925600000003
 21
772.9304965
  0
LINE
  8
_0-0_0
  6
CONTINUOUS
 62
    7
 10
-110.47769200000005
 20
772.80894450000005
 11
-110.74456800000007
 21
772.72712650000005
  0
LINE
  8
_0-0_0
  6
CONTINUOUS
 62
    7
 10
-110.63528399999996
 20
772.98396249999996
 11
-110.74456800000007
 21
772.72712650000005
  0
LINE
  8
_0-0_0
  6
CONTINUOUS
 62
    7
 10
-110.30267300000003
 20
772.65135150000003
 11
-110.55953999999997
 21
772.54206850000003
  0
LINE
  8
_0-0_0
  6
CONTINUOUS
 62
    7
 10
-110.47769200000005
 20
772.80894450000005
 11
-110.55953999999997
 21
772.54206850000003
  0
LINE
  8
_0-0_0
  6
CONTINUOUS
 62
    7
 10
-110.11215200000004
 20
772.51292450000005
 11
-110.35617100000002
 21
772.37739550000003
  0
LINE
  8
_0-0_0
  6
CONTINUOUS
 62
    7
 10
-110.30267300000003
 20
772.65135150000003
 11
-110.35617100000002
 21
772.37739550000003
  0
LINE
  8
_0-0_0
  6
CONTINUOUS
 62
    7
 10
-109.908188
 20
772.39518750000002
 11
-110.13670300000001
 21
772.23487850000004
  0
LINE
  8
_0-0_0
  6
CONTINUOUS
 62
    7
 10
-110.11215200000004
 20
772.51292450000005
 11
-110.13670300000001
 21
772.23487850000004
  0
LINE
  8
_0-0_0
  6
CONTINUOUS
 62
    7
 10
-109.693039
 20
772.29939249999995
 11
-109.903549
 21
772.11607349999997
  0
LINE
  8
_0-0_0
  6
CONTINUOUS
 62
    7
 10
-109.908188
 20
772.39518750000002
 11
-109.903549
 21
772.11607349999997
  0
LINE
  8
_0-0_0
  6
CONTINUOUS
 62
    7
 10
-109.46905500000003
 20
772.2266085
 11
-109.65925600000003
 21
772.02229250000005
  0
LINE
  8
_0-0_0
  6
CONTINUOUS
 62
    7
 10
-109.693039
 20
772.29939249999995
 11
-109.65925600000003
 21
772.02229250000005
  0
LINE
  8
_0-0_0
  6
CONTINUOUS
 62
    7
 10
-109.23867800000005
 20
772.17765750000001
 11
-109.40649400000007
 21
771.95457450000004
  0
LINE
  8
_0-0_0
  6
CONTINUOUS
 62
    7
 10
-109.46905500000003
 20
772.2266085
 11
-109.40649400000007
 21
771.95457450000004
  0
LINE
  8
_0-0_0
  6
CONTINUOUS
 62
    7
 10
-109.00447099999997
 20
772.1530305
 11
-109.14802499999996
 21
771.91365050000002
  0
LINE
  8
_0-0_0
  6
CONTINUOUS
 62
    7
 10
-109.23867800000005
 20
772.17765750000001
 11
-109.14802499999996
 21
771.91365050000002
  0
LINE
  8
_0-0_0
  6
CONTINUOUS
 62
    7
 10
-108.76895100000002
 20
772.1530305
 11
-108.88670300000001
 21
771.89994750000005
  0
LINE
  8
_0-0_0
  6
CONTINUOUS
 62
    7
 10
-109.00447099999997
 20
772.1530305
 11
-108.88670300000001
 21
771.89994750000005
  0
LINE
  8
_0-0_0
  6
CONTINUOUS
 62
    7
 10
-108.53472899999997
 20
772.17765750000001
 11
-108.62538100000006
 21
771.91365050000002
  0
LINE
  8
_0-0_0
  6
CONTINUOUS
 62
    7
 10
-108.76895100000002
 20
772.1530305
 11
-108.62538100000006
 21
771.91365050000002
  0
LINE
  8
_0-0_0
  6
CONTINUOUS
 62
    7
 10
-108.30436699999996
 20
772.2266085
 11
-108.36692800000003
 21
771.95457450000004
  0
LINE
  8
_0-0_0
  6
CONTINUOUS
 62
    7
 10
-108.53472899999997
 20
772.17765750000001
 11
-108.36692800000003
 21
771.95457450000004
  0
LINE
  8
_0-0_0
  6
CONTINUOUS
 62
    7
 10
-108.08038299999998
 20
772.29939249999995
 11
-108.11416600000007
 21
772.02229250000005
  0
LINE
  8
_0-0_0
  6
CONTINUOUS
 62
    7
 10
-108.30436699999996
 20
772.2266085
 11
-108.11416600000007
 21
772.02229250000005
  0
LINE
  8
_0-0_0
  6
CONTINUOUS
 62
    7
 10
-107.86523399999999
 20
772.39518750000002
 11
-107.86987299999998
 21
772.11607349999997
  0
LINE
  8
_0-0_0
  6
CONTINUOUS
 62
    7
 10
-108.08038299999998
 20
772.29939249999995
 11
-107.86987299999998
 21
772.11607349999997
  0
LINE
  8
_0-0_0
  6
CONTINUOUS
 62
    7
 10
-107.74569700000006
 20
772.31132449999996
 11
-107.63670300000001
 21
772.23487850000004
  0
LINE
  8
_0-0_0
  6
CONTINUOUS
 62
    7
 10
-107.86523399999999
 20
772.39518750000002
 11
-107.74569700000006
 21
772.31132449999996
  0
LINE
  8
_0-0_0
  6
CONTINUOUS
 62
    7
 10
-107.66127000000006
 20
772.51292450000005
 11
-107.63670300000001
 21
772.23487850000004
  0
LINE
  8
_0-0_0
  6
CONTINUOUS
 62
    7
 10
-107.47073399999999
 20
772.65135150000003
 11
-107.41725199999996
 21
772.37739550000003
  0
LINE
  8
_0-0_0
  6
CONTINUOUS
 62
    7
 10
-107.66127000000006
 20
772.51292450000005
 11
-107.41725199999996
 21
772.37739550000003
  0
LINE
  8
_0-0_0
  6
CONTINUOUS
 62
    7
 10
-107.29571499999997
 20
772.80894450000005
 11
-107.21388200000001
 21
772.54206850000003
  0
LINE
  8
_0-0_0
  6
CONTINUOUS
 62
    7
 10
-107.47073399999999
 20
772.65135150000003
 11
-107.21388200000001
 21
772.54206850000003
  0
LINE
  8
_0-0_0
  6
CONTINUOUS
 62
    7
 10
-107.13812299999995
 20
772.98396249999996
 11
-107.02883900000006
 21
772.72712650000005
  0
LINE
  8
_0-0_0
  6
CONTINUOUS
 62
    7
 10
-107.29571499999997
 20
772.80894450000005
 11
-107.02883900000006
 21
772.72712650000005
  0
LINE
  8
_0-0_0
  6
CONTINUOUS
 62
    7
 10
-106.99969499999997
 20
773.17451449999999
 11
-106.86416600000007
 21
772.9304965
  0
LINE
  8
_0-0_0
  6
CONTINUOUS
 62
    7
 10
-107.13812299999995
 20
772.98396249999996
 11
-106.86416600000007
 21
772.9304965
  0
LINE
  8
_0-0_0
  6
CONTINUOUS
 62
    7
 10
-106.88194299999998
 20
773.37846349999995
 11
-106.72164900000007
 21
773.14994750000005
  0
LINE
  8
_0-0_0
  6
CONTINUOUS
 62
    7
 10
-106.99969499999997
 20
773.17451449999999
 11
-106.72164900000007
 21
773.14994750000005
  0
LINE
  8
_0-0_0
  6
CONTINUOUS
 62
    7
 10
-106.78614800000003
 20
773.59361249999995
 11
-106.602844
 21
773.38310249999995
  0
LINE
  8
_0-0_0
  6
CONTINUOUS
 62
    7
 10
-106.88194299999998
 20
773.37846349999995
 11
-106.602844
 21
773.38310249999995
  0
LINE
  8
_0-0_0
  6
CONTINUOUS
 62
    7
 10
-106.71337900000003
 20
773.8176115
 11
-106.50906400000008
 21
773.62739550000003
  0
LINE
  8
_0-0_0
  6
CONTINUOUS
 62
    7
 10
-106.78614800000003
 20
773.59361249999995
 11
-106.50906400000008
 21
773.62739550000003
  0
LINE
  8
_0-0_0
  6
CONTINUOUS
 62
    7
 10
-106.66441299999997
 20
774.04795850000005
 11
-106.44134499999996
 21
773.88017249999996
  0
LINE
  8
_0-0_0
  6
CONTINUOUS
 62
    7
 10
-106.71337900000003
 20
773.8176115
 11
-106.44134499999996
 21
773.88017249999996
  0
LINE
  8
_0-0_0
  6
CONTINUOUS
 62
    7
 10
-106.63980100000003
 20
774.28218049999998
 11
-106.40040599999998
 21
774.13862549999999
  0
LINE
  8
_0-0_0
  6
CONTINUOUS
 62
    7
 10
-106.66441299999997
 20
774.04795850000005
 11
-106.40040599999998
 21
774.13862549999999
  0
LINE
  8
_0-0_0
  6
CONTINUOUS
 62
    7
 10
-106.63980100000003
 20
774.51768449999997
 11
-106.38670300000001
 21
774.39994750000005
  0
LINE
  8
_0-0_0
  6
CONTINUOUS
 62
    7
 10
-106.63980100000003
 20
774.28218049999998
 11
-106.38670300000001
 21
774.39994750000005
  0
LINE
  8
_0-0_0
  6
CONTINUOUS
 62
    7
 10
-106.66441299999997
 20
774.75190750000002
 11
-106.40040599999998
 21
774.6612705
  0
LINE
  8
_0-0_0
  6
CONTINUOUS
 62
    7
 10
-106.63980100000003
 20
774.51768449999997
 11
-106.40040599999998
 21
774.6612705
  0
LINE
  8
_0-0_0
  6
CONTINUOUS
 62
    7
 10
-106.71337900000003
 20
774.98228449999999
 11
-106.44134499999996
 21
774.91972350000003
  0
LINE
  8
_0-0_0
  6
CONTINUOUS
 62
    7
 10
-106.66441299999997
 20
774.75190750000002
 11
-106.44134499999996
 21
774.91972350000003
  0
LINE
  8
_0-0_0
  6
CONTINUOUS
 62
    7
 10
-106.78614800000003
 20
775.20628350000004
 11
-106.50906400000008
 21
775.17250049999996
  0
LINE
  8
_0-0_0
  6
CONTINUOUS
 62
    7
 10
-106.71337900000003
 20
774.98228449999999
 11
-106.50906400000008
 21
775.17250049999996
  0
LINE
  8
_0-0_0
  6
CONTINUOUS
 62
    7
 10
-106.88194299999998
 20
775.42143250000004
 11
-106.602844
 21
775.41679350000004
  0
LINE
  8
_0-0_0
  6
CONTINUOUS
 62
    7
 10
-106.78614800000003
 20
775.20628350000004
 11
-106.602844
 21
775.41679350000004
  0
CIRCLE
  8
_0-0_0
  6
CONTINUOUS
 62
    7
 10
-114.88670300000001
 20
766.09992950000003
 40
5.25
  0
LINE
  8
_0-0_0
  6
CONTINUOUS
 62
    7
 10
-118.99969499999997
 20
759.0253755
 11
-118.72164900000007
 21
759.04994150000005
  0
LINE
  8
_0-0_0
  6
CONTINUOUS
 62
    7
 10
-118.88194299999998
 20
758.82142650000003
 11
-118.72164900000007
 21
759.04994150000005
  0
LINE
  8
_0-0_0
  6
CONTINUOUS
 62
    7
 10
-119.13812299999995
 20
759.21592650000002
 11
-118.86416600000007
 21
759.26939349999998
  0
LINE
  8
_0-0_0
  6
CONTINUOUS
 62
    7
 10
-118.99969499999997
 20
759.0253755
 11
-118.86416600000007
 21
759.26939349999998
  0
LINE
  8
_0-0_0
  6
CONTINUOUS
 62
    7
 10
-119.29571499999997
 20
759.39094550000004
 11
-119.02883900000006
 21
759.47276250000004
  0
LINE
  8
_0-0_0
  6
CONTINUOUS
 62
    7
 10
-119.13812299999995
 20
759.21592650000002
 11
-119.02883900000006
 21
759.47276250000004
  0
LINE
  8
_0-0_0
  6
CONTINUOUS
 62
    7
 10
-119.47073399999999
 20
759.54850750000003
 11
-119.21388200000001
 21
759.65779150000003
  0
LINE
  8
_0-0_0
  6
CONTINUOUS
 62
    7
 10
-119.29571499999997
 20
759.39094550000004
 11
-119.21388200000001
 21
759.65779150000003
  0
LINE
  8
_0-0_0
  6
CONTINUOUS
 62
    7
 10
-119.66127000000006
 20
759.68696550000004
 11
-119.41725199999996
 21
759.82249449999995
  0
LINE
  8
_0-0_0
  6
CONTINUOUS
 62
    7
 10
-119.47073399999999
 20
759.54850750000003
 11
-119.41725199999996
 21
759.82249449999995
  0
LINE
  8
_0-0_0
  6
CONTINUOUS
 62
    7
 10
-119.86523399999999
 20
759.80470249999996
 11
-119.63670300000001
 21
759.96501150000006
  0
LINE
  8
_0-0_0
  6
CONTINUOUS
 62
    7
 10
-119.66127000000006
 20
759.68696550000004
 11
-119.63670300000001
 21
759.96501150000006
  0
LINE
  8
_0-0_0
  6
CONTINUOUS
 62
    7
 10
-120.08038299999998
 20
759.90049750000003
 11
-119.86987299999998
 21
760.08381650000001
  0
LINE
  8
_0-0_0
  6
CONTINUOUS
 62
    7
 10
-119.86523399999999
 20
759.80470249999996
 11
-119.86987299999998
 21
760.08381650000001
  0
LINE
  8
_0-0_0
  6
CONTINUOUS
 62
    7
 10
-120.30436699999996
 20
759.97328149999998
 11
-120.11416600000007
 21
760.17759650000005
  0
LINE
  8
_0-0_0
  6
CONTINUOUS
 62
    7
 10
-120.08038299999998
 20
759.90049750000003
 11
-120.11416600000007
 21
760.17759650000005
  0
LINE
  8
_0-0_0
  6
CONTINUOUS
 62
    7
 10
-120.53472899999997
 20
760.02223149999998
 11
-120.36692800000003
 21
760.24531549999995
  0
LINE
  8
_0-0_0
  6
CONTINUOUS
 62
    7
 10
-120.30436699999996
 20
759.97328149999998
 11
-120.36692800000003
 21
760.24531549999995
  0
LINE
  8
_0-0_0
  6
CONTINUOUS
 62
    7
 10
-120.76895100000002
 20
760.04685949999998
 11
-120.62538100000006
 21
760.28623949999997
  0
LINE
  8
_0-0_0
  6
CONTINUOUS
 62
    7
 10
-120.53472899999997
 20
760.02223149999998
 11
-120.62538100000006
 21
760.28623949999997
  0
LINE
  8
_0-0_0
  6
CONTINUOUS
 62
    7
 10
-121.00447099999997
 20
760.04685949999998
 11
-120.88670300000001
 21
760.29994150000005
  0
LINE
  8
_0-0_0
  6
CONTINUOUS
 62
    7
 10
-120.76895100000002
 20
760.04685949999998
 11
-120.88670300000001
 21
760.29994150000005
  0
LINE
  8
_0-0_0
  6
CONTINUOUS
 62
    7
 10
-121.23869300000001
 20
760.02223149999998
 11
-121.14802499999996
 21
760.28623949999997
  0
LINE
  8
_0-0_0
  6
CONTINUOUS
 62
    7
 10
-121.00447099999997
 20
760.04685949999998
 11
-121.14802499999996
 21
760.28623949999997
  0
LINE
  8
_0-0_0
  6
CONTINUOUS
 62
    7
 10
-121.46905500000003
 20
759.97328149999998
 11
-121.40649400000007
 21
760.24531549999995
  0
LINE
  8
_0-0_0
  6
CONTINUOUS
 62
    7
 10
-121.23869300000001
 20
760.02223149999998
 11
-121.40649400000007
 21
760.24531549999995
  0
LINE
  8
_0-0_0
  6
CONTINUOUS
 62
    7
 10
-121.693039
 20
759.90049750000003
 11
-121.65925600000003
 21
760.17759650000005
  0
LINE
  8
_0-0_0
  6
CONTINUOUS
 62
    7
 10
-121.46905500000003
 20
759.97328149999998
 11
-121.65925600000003
 21
760.17759650000005
  0
LINE
  8
_0-0_0
  6
CONTINUOUS
 62
    7
 10
-121.908188
 20
759.80470249999996
 11
-121.903549
 21
760.08381650000001
  0
LINE
  8
_0-0_0
  6
CONTINUOUS
 62
    7
 10
-121.693039
 20
759.90049750000003
 11
-121.903549
 21
760.08381650000001
  0
LINE
  8
_0-0_0
  6
CONTINUOUS
 62
    7
 10
-122.02772500000003
 20
759.88856450000003
 11
-122.13670300000001
 21
759.96501150000006
  0
LINE
  8
_0-0_0
  6
CONTINUOUS
 62
    7
 10
-121.908188
 20
759.80470249999996
 11
-122.02772500000003
 21
759.88856450000003
  0
LINE
  8
_0-0_0
  6
CONTINUOUS
 62
    7
 10
-122.11215200000004
 20
759.68696550000004
 11
-122.13670300000001
 21
759.96501150000006
  0
LINE
  8
_0-0_0
  6
CONTINUOUS
 62
    7
 10
-122.30267300000003
 20
759.54850750000003
 11
-122.35617100000002
 21
759.82249449999995
  0
LINE
  8
_0-0_0
  6
CONTINUOUS
 62
    7
 10
-122.11215200000004
 20
759.68696550000004
 11
-122.35617100000002
 21
759.82249449999995
  0
LINE
  8
_0-0_0
  6
CONTINUOUS
 62
    7
 10
-122.47769200000005
 20
759.39094550000004
 11
-122.55953999999997
 21
759.65779150000003
  0
LINE
  8
_0-0_0
  6
CONTINUOUS
 62
    7
 10
-122.30267300000003
 20
759.54850750000003
 11
-122.55953999999997
 21
759.65779150000003
  0
LINE
  8
_0-0_0
  6
CONTINUOUS
 62
    7
 10
-122.63528399999996
 20
759.21592650000002
 11
-122.74456800000007
 21
759.47276250000004
  0
LINE
  8
_0-0_0
  6
CONTINUOUS
 62
    7
 10
-122.47769200000005
 20
759.39094550000004
 11
-122.74456800000007
 21
759.47276250000004
  0
LINE
  8
_0-0_0
  6
CONTINUOUS
 62
    7
 10
-122.77371200000005
 20
759.0253755
 11
-122.90925600000003
 21
759.26939349999998
  0
LINE
  8
_0-0_0
  6
CONTINUOUS
 62
    7
 10
-122.63528399999996
 20
759.21592650000002
 11
-122.90925600000003
 21
759.26939349999998
  0
LINE
  8
_0-0_0
  6
CONTINUOUS
 62
    7
 10
-122.891479
 20
758.82142650000003
 11
-123.05177300000003
 21
759.04994150000005
  0
LINE
  8
_0-0_0
  6
CONTINUOUS
 62
    7
 10
-122.77371200000005
 20
759.0253755
 11
-123.05177300000003
 21
759.04994150000005
  0
LINE
  8
_0-0_0
  6
CONTINUOUS
 62
    7
 10
-122.98725899999999
 20
758.60627750000003
 11
-123.17057799999998
 21
758.81678750000003
  0
LINE
  8
_0-0_0
  6
CONTINUOUS
 62
    7
 10
-122.891479
 20
758.82142650000003
 11
-123.17057799999998
 21
758.81678750000003
  0
LINE
  8
_0-0_0
  6
CONTINUOUS
 62
    7
 10
-123.06004299999995
 20
758.38227849999998
 11
-123.26434300000005
 21
758.57249449999995
  0
LINE
  8
_0-0_0
  6
CONTINUOUS
 62
    7
 10
-122.98725899999999
 20
758.60627750000003
 11
-123.26434300000005
 21
758.57249449999995
  0
LINE
  8
_0-0_0
  6
CONTINUOUS
 62
    7
 10
-123.10900900000001
 20
758.15193150000005
 11
-123.33207700000003
 21
758.31971750000002
  0
LINE
  8
_0-0_0
  6
CONTINUOUS
 62
    7
 10
-123.06004299999995
 20
758.38227849999998
 11
-123.33207700000003
 21
758.31971750000002
  0
LINE
  8
_0-0_0
  6
CONTINUOUS
 62
    7
 10
-123.10900900000001
 20
758.15193150000005
 11
-123.37301600000001
 21
758.0612635
  0
LINE
  8
_0-0_0
  6
CONTINUOUS
 62
    7
 10
-123.13362099999995
 20
757.9177095
 11
-123.37301600000001
 21
758.0612635
  0
LINE
  8
_0-0_0
  6
CONTINUOUS
 62
    7
 10
-123.13362099999995
 20
757.68217449999997
 11
-123.38670300000001
 21
757.79994150000005
  0
LINE
  8
_0-0_0
  6
CONTINUOUS
 62
    7
 10
-123.13362099999995
 20
757.9177095
 11
-123.38670300000001
 21
757.79994150000005
  0
LINE
  8
_0-0_0
  6
CONTINUOUS
 62
    7
 10
-123.10900900000001
 20
757.44795250000004
 11
-123.37301600000001
 21
757.53861949999998
  0
LINE
  8
_0-0_0
  6
CONTINUOUS
 62
    7
 10
-123.13362099999995
 20
757.68217449999997
 11
-123.37301600000001
 21
757.53861949999998
  0
LINE
  8
_0-0_0
  6
CONTINUOUS
 62
    7
 10
-123.06004299999995
 20
757.21760549999999
 11
-123.33207700000003
 21
757.28016649999995
  0
LINE
  8
_0-0_0
  6
CONTINUOUS
 62
    7
 10
-123.10900900000001
 20
757.44795250000004
 11
-123.33207700000003
 21
757.28016649999995
  0
LINE
  8
_0-0_0
  6
CONTINUOUS
 62
    7
 10
-122.98725899999999
 20
756.99360650000006
 11
-123.26434300000005
 21
757.02738950000003
  0
LINE
  8
_0-0_0
  6
CONTINUOUS
 62
    7
 10
-123.06004299999995
 20
757.21760549999999
 11
-123.26434300000005
 21
757.02738950000003
  0
LINE
  8
_0-0_0
  6
CONTINUOUS
 62
    7
 10
-122.891479
 20
756.77845750000006
 11
-123.17057799999998
 21
756.78309650000006
  0
LINE
  8
_0-0_0
  6
CONTINUOUS
 62
    7
 10
-122.98725899999999
 20
756.99360650000006
 11
-123.17057799999998
 21
756.78309650000006
  0
LINE
  8
_0-0_0
  6
CONTINUOUS
 62
    7
 10
-122.77371200000005
 20
756.57450849999998
 11
-123.05177300000003
 21
756.54994150000005
  0
LINE
  8
_0-0_0
  6
CONTINUOUS
 62
    7
 10
-122.891479
 20
756.77845750000006
 11
-123.05177300000003
 21
756.54994150000005
  0
LINE
  8
_0-0_0
  6
CONTINUOUS
 62
    7
 10
-122.63528399999996
 20
756.38398749999999
 11
-122.90925600000003
 21
756.3304895
  0
LINE
  8
_0-0_0
  6
CONTINUOUS
 62
    7
 10
-122.77371200000005
 20
756.57450849999998
 11
-122.90925600000003
 21
756.3304895
  0
LINE
  8
_0-0_0
  6
CONTINUOUS
 62
    7
 10
-122.47769200000005
 20
756.20896849999997
 11
-122.74456800000007
 21
756.12712050000005
  0
LINE
  8
_0-0_0
  6
CONTINUOUS
 62
    7
 10
-122.63528399999996
 20
756.38398749999999
 11
-122.74456800000007
 21
756.12712050000005
  0
LINE
  8
_0-0_0
  6
CONTINUOUS
 62
    7
 10
-122.30267300000003
 20
756.05137649999995
 11
-122.55953999999997
 21
755.94209250000006
  0
LINE
  8
_0-0_0
  6
CONTINUOUS
 62
    7
 10
-122.47769200000005
 20
756.20896849999997
 11
-122.55953999999997
 21
755.94209250000006
  0
LINE
  8
_0-0_0
  6
CONTINUOUS
 62
    7
 10
-122.11215200000004
 20
755.91291750000005
 11
-122.35617100000002
 21
755.77738950000003
  0
LINE
  8
_0-0_0
  6
CONTINUOUS
 62
    7
 10
-122.30267300000003
 20
756.05137649999995
 11
-122.35617100000002
 21
755.77738950000003
  0
LINE
  8
_0-0_0
  6
CONTINUOUS
 62
    7
 10
-121.908188
 20
755.79518150000001
 11
-122.13670300000001
 21
755.63487250000003
  0
LINE
  8
_0-0_0
  6
CONTINUOUS
 62
    7
 10
-122.11215200000004
 20
755.91291750000005
 11
-122.13670300000001
 21
755.63487250000003
  0
LINE
  8
_0-0_0
  6
CONTINUOUS
 62
    7
 10
-121.693039
 20
755.69938650000006
 11
-121.903549
 21
755.51606749999996
  0
LINE
  8
_0-0_0
  6
CONTINUOUS
 62
    7
 10
-121.908188
 20
755.79518150000001
 11
-121.903549
 21
755.51606749999996
  0
LINE
  8
_0-0_0
  6
CONTINUOUS
 62
    7
 10
-121.46905500000003
 20
755.62660249999999
 11
-121.65925600000003
 21
755.42228650000004
  0
LINE
  8
_0-0_0
  6
CONTINUOUS
 62
    7
 10
-121.693039
 20
755.69938650000006
 11
-121.65925600000003
 21
755.42228650000004
  0
LINE
  8
_0-0_0
  6
CONTINUOUS
 62
    7
 10
-121.23869300000001
 20
755.5776515
 11
-121.40649400000007
 21
755.35456850000003
  0
LINE
  8
_0-0_0
  6
CONTINUOUS
 62
    7
 10
-121.46905500000003
 20
755.62660249999999
 11
-121.40649400000007
 21
755.35456850000003
  0
LINE
  8
_0-0_0
  6
CONTINUOUS
 62
    7
 10
-121.00447099999997
 20
755.55302449999999
 11
-121.14802499999996
 21
755.31364450000001
  0
LINE
  8
_0-0_0
  6
CONTINUOUS
 62
    7
 10
-121.23869300000001
 20
755.5776515
 11
-121.14802499999996
 21
755.31364450000001
  0
LINE
  8
_0-0_0
  6
CONTINUOUS
 62
    7
 10
-120.76895100000002
 20
755.55302449999999
 11
-120.88670300000001
 21
755.29994150000005
  0
LINE
  8
_0-0_0
  6
CONTINUOUS
 62
    7
 10
-121.00447099999997
 20
755.55302449999999
 11
-120.88670300000001
 21
755.29994150000005
  0
LINE
  8
_0-0_0
  6
CONTINUOUS
 62
    7
 10
-120.53472899999997
 20
755.5776515
 11
-120.62538100000006
 21
755.31364450000001
  0
LINE
  8
_0-0_0
  6
CONTINUOUS
 62
    7
 10
-120.76895100000002
 20
755.55302449999999
 11
-120.62538100000006
 21
755.31364450000001
  0
LINE
  8
_0-0_0
  6
CONTINUOUS
 62
    7
 10
-120.30436699999996
 20
755.62660249999999
 11
-120.36692800000003
 21
755.35456850000003
  0
LINE
  8
_0-0_0
  6
CONTINUOUS
 62
    7
 10
-120.53472899999997
 20
755.5776515
 11
-120.36692800000003
 21
755.35456850000003
  0
LINE
  8
_0-0_0
  6
CONTINUOUS
 62
    7
 10
-120.08038299999998
 20
755.69938650000006
 11
-120.11416600000007
 21
755.42228650000004
  0
LINE
  8
_0-0_0
  6
CONTINUOUS
 62
    7
 10
-120.30436699999996
 20
755.62660249999999
 11
-120.11416600000007
 21
755.42228650000004
  0
LINE
  8
_0-0_0
  6
CONTINUOUS
 62
    7
 10
-119.86523399999999
 20
755.79518150000001
 11
-119.86987299999998
 21
755.51606749999996
  0
LINE
  8
_0-0_0
  6
CONTINUOUS
 62
    7
 10
-120.08038299999998
 20
755.69938650000006
 11
-119.86987299999998
 21
755.51606749999996
  0
LINE
  8
_0-0_0
  6
CONTINUOUS
 62
    7
 10
-119.74569700000006
 20
755.71131849999995
 11
-119.63670300000001
 21
755.63487250000003
  0
LINE
  8
_0-0_0
  6
CONTINUOUS
 62
    7
 10
-119.86523399999999
 20
755.79518150000001
 11
-119.74569700000006
 21
755.71131849999995
  0
LINE
  8
_0-0_0
  6
CONTINUOUS
 62
    7
 10
-119.66127000000006
 20
755.91291750000005
 11
-119.63670300000001
 21
755.63487250000003
  0
LINE
  8
_0-0_0
  6
CONTINUOUS
 62
    7
 10
-119.47073399999999
 20
756.05137649999995
 11
-119.41725199999996
 21
755.77738950000003
  0
LINE
  8
_0-0_0
  6
CONTINUOUS
 62
    7
 10
-119.66127000000006
 20
755.91291750000005
 11
-119.41725199999996
 21
755.77738950000003
  0
LINE
  8
_0-0_0
  6
CONTINUOUS
 62
    7
 10
-119.29571499999997
 20
756.20896849999997
 11
-119.21388200000001
 21
755.94209250000006
  0
LINE
  8
_0-0_0
  6
CONTINUOUS
 62
    7
 10
-119.47073399999999
 20
756.05137649999995
 11
-119.21388200000001
 21
755.94209250000006
  0
LINE
  8
_0-0_0
  6
CONTINUOUS
 62
    7
 10
-119.13812299999995
 20
756.38398749999999
 11
-119.02883900000006
 21
756.12712050000005
  0
LINE
  8
_0-0_0
  6
CONTINUOUS
 62
    7
 10
-119.29571499999997
 20
756.20896849999997
 11
-119.02883900000006
 21
756.12712050000005
  0
LINE
  8
_0-0_0
  6
CONTINUOUS
 62
    7
 10
-118.99969499999997
 20
756.57450849999998
 11
-118.86416600000007
 21
756.3304895
  0
LINE
  8
_0-0_0
  6
CONTINUOUS
 62
    7
 10
-119.13812299999995
 20
756.38398749999999
 11
-118.86416600000007
 21
756.3304895
  0
LINE
  8
_0-0_0
  6
CONTINUOUS
 62
    7
 10
-118.88194299999998
 20
756.77845750000006
 11
-118.72164900000007
 21
756.54994150000005
  0
LINE
  8
_0-0_0
  6
CONTINUOUS
 62
    7
 10
-118.99969499999997
 20
756.57450849999998
 11
-118.72164900000007
 21
756.54994150000005
  0
LINE
  8
_0-0_0
  6
CONTINUOUS
 62
    7
 10
-118.78614800000003
 20
756.99360650000006
 11
-118.602844
 21
756.78309650000006
  0
LINE
  8
_0-0_0
  6
CONTINUOUS
 62
    7
 10
-118.88194299999998
 20
756.77845750000006
 11
-118.602844
 21
756.78309650000006
  0
LINE
  8
_0-0_0
  6
CONTINUOUS
 62
    7
 10
-118.71337900000003
 20
757.21760549999999
 11
-118.50906400000008
 21
757.02738950000003
  0
LINE
  8
_0-0_0
  6
CONTINUOUS
 62
    7
 10
-118.78614800000003
 20
756.99360650000006
 11
-118.50906400000008
 21
757.02738950000003
  0
LINE
  8
_0-0_0
  6
CONTINUOUS
 62
    7
 10
-118.66441299999997
 20
757.44795250000004
 11
-118.44134499999996
 21
757.28016649999995
  0
LINE
  8
_0-0_0
  6
CONTINUOUS
 62
    7
 10
-118.71337900000003
 20
757.21760549999999
 11
-118.44134499999996
 21
757.28016649999995
  0
LINE
  8
_0-0_0
  6
CONTINUOUS
 62
    7
 10
-118.63978599999996
 20
757.68217449999997
 11
-118.40040599999998
 21
757.53861949999998
  0
LINE
  8
_0-0_0
  6
CONTINUOUS
 62
    7
 10
-118.66441299999997
 20
757.44795250000004
 11
-118.40040599999998
 21
757.53861949999998
  0
LINE
  8
_0-0_0
  6
CONTINUOUS
 62
    7
 10
-118.63978599999996
 20
757.9177095
 11
-118.38670300000001
 21
757.79994150000005
  0
LINE
  8
_0-0_0
  6
CONTINUOUS
 62
    7
 10
-118.63978599999996
 20
757.68217449999997
 11
-118.38670300000001
 21
757.79994150000005
  0
LINE
  8
_0-0_0
  6
CONTINUOUS
 62
    7
 10
-118.66441299999997
 20
758.15193150000005
 11
-118.40040599999998
 21
758.0612635
  0
LINE
  8
_0-0_0
  6
CONTINUOUS
 62
    7
 10
-118.63978599999996
 20
757.9177095
 11
-118.40040599999998
 21
758.0612635
  0
LINE
  8
_0-0_0
  6
CONTINUOUS
 62
    7
 10
-118.71337900000003
 20
758.38227849999998
 11
-118.44134499999996
 21
758.31971750000002
  0
LINE
  8
_0-0_0
  6
CONTINUOUS
 62
    7
 10
-118.66441299999997
 20
758.15193150000005
 11
-118.44134499999996
 21
758.31971750000002
  0
LINE
  8
_0-0_0
  6
CONTINUOUS
 62
    7
 10
-118.78614800000003
 20
758.60627750000003
 11
-118.50906400000008
 21
758.57249449999995
  0
LINE
  8
_0-0_0
  6
CONTINUOUS
 62
    7
 10
-118.71337900000003
 20
758.38227849999998
 11
-118.50906400000008
 21
758.57249449999995
  0
LINE
  8
_0-0_0
  6
CONTINUOUS
 62
    7
 10
-118.88194299999998
 20
758.82142650000003
 11
-118.602844
 21
758.81678750000003
  0
LINE
  8
_0-0_0
  6
CONTINUOUS
 62
    7
 10
-118.78614800000003
 20
758.60627750000003
 11
-118.602844
 21
758.81678750000003
  0
CIRCLE
  8
_0-0_0
  6
CONTINUOUS
 62
    7
 10
-108.88670300000001
 20
774.39994750000005
 40
2
  0
CIRCLE
  8
_0-0_0
  6
CONTINUOUS
 62
    7
 10
-120.88670300000001
 20
757.79994150000005
 40
2
  0
LINE
  8
_0-0_0
  6
CONTINUOUS
 62
    7
 10
-108.30459599999995
 20
773.39994750000005
 11
-109.46881099999996
 21
773.39994750000005
  0
LINE
  8
_0-0_0
  6
CONTINUOUS
 62
    7
 10
-109.46881099999996
 20
773.39994750000005
 11
-110.03671299999996
 21
774.39994750000005
  0
LINE
  8
_0-0_0
  6
CONTINUOUS
 62
    7
 10
-110.03671299999996
 20
774.39994750000005
 11
-109.46881099999996
 21
775.39994750000005
  0
LINE
  8
_0-0_0
  6
CONTINUOUS
 62
    7
 10
-109.46881099999996
 20
775.39994750000005
 11
-108.30459599999995
 21
775.39994750000005
  0
LINE
  8
_0-0_0
  6
CONTINUOUS
 62
    7
 10
-108.30459599999995
 20
775.39994750000005
 11
-107.73671000000002
 21
774.39994750000005
  0
LINE
  8
_0-0_0
  6
CONTINUOUS
 62
    7
 10
-107.73671000000002
 20
774.39994750000005
 11
-108.30459599999995
 21
773.39994750000005
  0
CIRCLE
  8
_0-0_0
  6
CONTINUOUS
 62
    7
 10
-114.88670300000001
 20
766.09992950000003
 40
5
  0
LINE
  8
_0-0_0
  6
CONTINUOUS
 62
    7
 10
-120.30459599999995
 20
756.79994150000005
 11
-121.46881099999996
 21
756.79994150000005
  0
LINE
  8
_0-0_0
  6
CONTINUOUS
 62
    7
 10
-121.46881099999996
 20
756.79994150000005
 11
-122.03671299999996
 21
757.79994150000005
  0
LINE
  8
_0-0_0
  6
CONTINUOUS
 62
    7
 10
-122.03671299999996
 20
757.79994150000005
 11
-121.46881099999996
 21
758.79994150000005
  0
LINE
  8
_0-0_0
  6
CONTINUOUS
 62
    7
 10
-121.46881099999996
 20
758.79994150000005
 11
-120.30459599999995
 21
758.79994150000005
  0
LINE
  8
_0-0_0
  6
CONTINUOUS
 62
    7
 10
-120.30459599999995
 20
758.79994150000005
 11
-119.73671000000002
 21
757.79994150000005
  0
LINE
  8
_0-0_0
  6
CONTINUOUS
 62
    7
 10
-119.73671000000002
 20
757.79994150000005
 11
-120.30459599999995
 21
756.79994150000005
  0
CIRCLE
  8
_0-0_0
  6
CONTINUOUS
 62
    7
 10
-114.88670300000001
 20
766.09992950000003
 40
4.5381200000000002
  0
CIRCLE
  8
_0-0_0
  6
CONTINUOUS
 62
    7
 10
-114.88670300000001
 20
766.09992950000003
 40
4
  0
LINE
  8
_0-0_0
  6
CONTINUOUS
 62
    7
 10
-123.01928700000008
 20
776.05525150000005
 11
-123.68670700000007
 21
776.05525150000005
  0
ARC
  8
_0-0_0
  6
CONTINUOUS
 62
    7
 10
-106.88670300000001
 20
776.52494750000005
 40
0.2
 50
179.94055499999999
 51
269.99997000000002
  0
ARC
  8
_0-0_0
  6
CONTINUOUS
 62
    7
 10
-108.38670300000001
 20
757.29994150000005
 40
2
 50
269.99999700000001
 51
273.84026499999999
  0
ARC
  8
_0-0_0
  6
CONTINUOUS
 62
    7
 10
-121.38670300000001
 20
774.89994750000005
 40
2
 50
90.000003000000007
 51
93.840255999999997
  0
LINE
  8
_0-0_0
  6
CONTINUOUS
 62
    7
 10
-106.58670000000006
 20
776.32493550000004
 11
-106.88670300000001
 21
776.32493550000004
  0
LINE
  8
_0-0_0
  6
CONTINUOUS
 62
    7
 10
-106.58670000000006
 20
779.27494750000005
 11
-106.88670300000001
 21
779.27494750000005
  0
ARC
  8
_0-0_0
  6
CONTINUOUS
 62
    7
 10
-122.88670300000001
 20
776.52500950000001
 40
0.2
 50
270.00002499999994
 51
0.0594439999999606
  0
ARC
  8
_0-0_0
  6
CONTINUOUS
 62
    7
 10
-106.58674599999995
 20
776.52497849999997
 40
0.200055
 50
270.00964199999999
 51
1.3705509999999435
  0
ARC
  8
_0-0_0
  6
CONTINUOUS
 62
    7
 10
-106.58671600000002
 20
779.07493550000004
 40
0.2
 50
359.91222800000003
 51
89.999948000000003
  0
LINE
  8
_0-0_0
  6
CONTINUOUS
 62
    7
 10
-123.18670700000007
 20
776.32502750000003
 11
-122.88670300000001
 21
776.32502750000003
  0
ARC
  8
_0-0_0
  6
CONTINUOUS
 62
    7
 10
-123.18667600000003
 20
776.52507049999997
 40
0.200055
 50
178.629446
 51
269.99035300000003
  0
LINE
  8
_0-0_0
  6
CONTINUOUS
 62
    7
 10
-106.18670700000007
 20
781.80000250000001
 11
-106.18670700000007
 21
795.00001550000002
  0
ARC
  8
_0-0_0
  6
CONTINUOUS
 62
    7
 10
-106.68670700000007
 20
781.80000250000001
 40
0.5
 50
269.99999700000001
 51
0
  0
ARC
  8
_0-0_0
  6
CONTINUOUS
 62
    7
 10
-106.24528499999997
 20
795.20002750000003
 40
0.1
 50
135
 51
225
  0
LINE
  8
_0-0_0
  6
CONTINUOUS
 62
    7
 10
-106.31599400000005
 20
795.12931849999995
 11
-106.18670700000007
 21
795.00001550000002
  0
LINE
  8
_0-0_0
  6
CONTINUOUS
 62
    7
 10
-106.68670700000007
 20
781.30000250000001
 11
-108.58670000000006
 21
781.30000250000001
  0
ARC
  8
_0-0_0
  6
CONTINUOUS
 62
    7
 10
-108.58670000000006
 20
781.80000250000001
 40
0.5
 50
233.12990600000001
 51
269.99999700000001
  0
ARC
  8
_0-0_0
  6
CONTINUOUS
 62
    7
 10
-121.28671299999996
 20
781.80000250000001
 40
0.5
 50
269.99999700000001
 51
306.87009999999998
  0
LINE
  8
_0-0_0
  6
CONTINUOUS
 62
    7
 10
-121.28671299999996
 20
781.30000250000001
 11
-123.18670700000007
 21
781.30000250000001
  0
ARC
  8
_0-0_0
  6
CONTINUOUS
 62
    7
 10
-123.18670700000007
 20
781.80000250000001
 40
0.5
 50
180.00000900000003
 51
269.99999700000001
  0
LINE
  8
_0-0_0
  6
CONTINUOUS
 62
    7
 10
-123.68670700000007
 20
791.23500049999996
 11
-123.68670700000007
 21
781.80000250000001
  0
LINE
  8
_0-0_0
  6
CONTINUOUS
 62
    7
 10
-123.68670700000007
 20
791.23500049999996
 11
-122.98671000000002
 21
791.23500049999996
  0
LINE
  8
_0-0_0
  6
CONTINUOUS
 62
    7
 10
-106.98671000000002
 20
809.80000250000001
 11
-106.78066999999999
 21
809.80000250000001
  0
LINE
  8
_0-0_0
  6
CONTINUOUS
 62
    7
 10
-106.78066999999999
 20
809.80000250000001
 11
-106.18670700000007
 21
809.20603949999997
  0
LINE
  8
_0-0_0
  6
CONTINUOUS
 62
    7
 10
-106.18670700000007
 20
804.20002750000003
 11
-106.18670700000007
 21
809.20603949999997
  0
LINE
  8
_0-0_0
  6
CONTINUOUS
 62
    7
 10
-106.31599400000005
 20
804.07072449999998
 11
-106.18670700000007
 21
804.20002750000003
  0
ARC
  8
_0-0_0
  6
CONTINUOUS
 62
    7
 10
-106.24528499999997
 20
804.00001550000002
 40
0.1
 50
135
 51
225
  0
LINE
  8
_0-0_0
  6
CONTINUOUS
 62
    7
 10
-106.31599400000005
 20
803.92930550000005
 11
-106.18670700000007
 21
803.80000250000001
  0
LINE
  8
_0-0_0
  6
CONTINUOUS
 62
    7
 10
-106.18670700000007
 20
803.10002150000003
 11
-106.18670700000007
 21
803.80000250000001
  0
LINE
  8
_0-0_0
  6
CONTINUOUS
 62
    7
 10
-106.31599400000005
 20
802.97071849999998
 11
-106.18670700000007
 21
803.10002150000003
  0
ARC
  8
_0-0_0
  6
CONTINUOUS
 62
    7
 10
-106.24528499999997
 20
802.90000950000001
 40
0.1
 50
135
 51
225
  0
LINE
  8
_0-0_0
  6
CONTINUOUS
 62
    7
 10
-106.31599400000005
 20
802.82929950000005
 11
-106.18670700000007
 21
802.70002750000003
  0
LINE
  8
_0-0_0
  6
CONTINUOUS
 62
    7
 10
-106.18670700000007
 20
802.00001550000002
 11
-106.18670700000007
 21
802.70002750000003
  0
LINE
  8
_0-0_0
  6
CONTINUOUS
 62
    7
 10
-106.31599400000005
 20
801.87074250000001
 11
-106.18670700000007
 21
802.00001550000002
  0
ARC
  8
_0-0_0
  6
CONTINUOUS
 62
    7
 10
-106.24528499999997
 20
801.80000250000001
 40
0.1
 50
135
 51
225
  0
LINE
  8
_0-0_0
  6
CONTINUOUS
 62
    7
 10
-106.31599400000005
 20
801.72929350000004
 11
-106.18670700000007
 21
801.60002150000003
  0
LINE
  8
_0-0_0
  6
CONTINUOUS
 62
    7
 10
-106.18670700000007
 20
800.90000950000001
 11
-106.18670700000007
 21
801.60002150000003
  0
LINE
  8
_0-0_0
  6
CONTINUOUS
 62
    7
 10
-106.31599400000005
 20
800.7707365
 11
-106.18670700000007
 21
800.90000950000001
  0
ARC
  8
_0-0_0
  6
CONTINUOUS
 62
    7
 10
-106.24528499999997
 20
800.70002750000003
 40
0.1
 50
135
 51
225
  0
LINE
  8
_0-0_0
  6
CONTINUOUS
 62
    7
 10
-106.31599400000005
 20
800.62931849999995
 11
-106.18670700000007
 21
800.50001550000002
  0
LINE
  8
_0-0_0
  6
CONTINUOUS
 62
    7
 10
-106.18670700000007
 20
799.80000250000001
 11
-106.18670700000007
 21
800.50001550000002
  0
LINE
  8
_0-0_0
  6
CONTINUOUS
 62
    7
 10
-106.31599400000005
 20
799.67073049999999
 11
-106.18670700000007
 21
799.80000250000001
  0
ARC
  8
_0-0_0
  6
CONTINUOUS
 62
    7
 10
-106.24528499999997
 20
799.60002150000003
 40
0.1
 50
135
 51
225
  0
LINE
  8
_0-0_0
  6
CONTINUOUS
 62
    7
 10
-106.31599400000005
 20
799.52931149999995
 11
-106.18670700000007
 21
799.40000950000001
  0
LINE
  8
_0-0_0
  6
CONTINUOUS
 62
    7
 10
-106.18670700000007
 20
798.70002750000003
 11
-106.18670700000007
 21
799.40000950000001
  0
LINE
  8
_0-0_0
  6
CONTINUOUS
 62
    7
 10
-106.31599400000005
 20
798.57072449999998
 11
-106.18670700000007
 21
798.70002750000003
  0
ARC
  8
_0-0_0
  6
CONTINUOUS
 62
    7
 10
-106.24528499999997
 20
798.50001550000002
 40
0.1
 50
135
 51
225
  0
LINE
  8
_0-0_0
  6
CONTINUOUS
 62
    7
 10
-106.31599400000005
 20
798.42930550000005
 11
-106.18670700000007
 21
798.30000250000001
  0
LINE
  8
_0-0_0
  6
CONTINUOUS
 62
    7
 10
-106.18670700000007
 20
797.60002150000003
 11
-106.18670700000007
 21
798.30000250000001
  0
LINE
  8
_0-0_0
  6
CONTINUOUS
 62
    7
 10
-106.31599400000005
 20
797.47071849999998
 11
-106.18670700000007
 21
797.60002150000003
  0
ARC
  8
_0-0_0
  6
CONTINUOUS
 62
    7
 10
-106.24528499999997
 20
797.40000950000001
 40
0.1
 50
135
 51
225
  0
LINE
  8
_0-0_0
  6
CONTINUOUS
 62
    7
 10
-106.31599400000005
 20
797.32929950000005
 11
-106.18670700000007
 21
797.20002750000003
  0
LINE
  8
_0-0_0
  6
CONTINUOUS
 62
    7
 10
-106.18670700000007
 20
796.50001550000002
 11
-106.18670700000007
 21
797.20002750000003
  0
LINE
  8
_0-0_0
  6
CONTINUOUS
 62
    7
 10
-106.31599400000005
 20
796.37074250000001
 11
-106.18670700000007
 21
796.50001550000002
  0
ARC
  8
_0-0_0
  6
CONTINUOUS
 62
    7
 10
-106.24528499999997
 20
796.30000250000001
 40
0.1
 50
135
 51
225
  0
LINE
  8
_0-0_0
  6
CONTINUOUS
 62
    7
 10
-106.31599400000005
 20
796.22929350000004
 11
-106.18670700000007
 21
796.10002150000003
  0
LINE
  8
_0-0_0
  6
CONTINUOUS
 62
    7
 10
-106.18670700000007
 20
795.40000950000001
 11
-106.18670700000007
 21
796.10002150000003
  0
LINE
  8
_0-0_0
  6
CONTINUOUS
 62
    7
 10
-106.31599400000005
 20
795.2707365
 11
-106.18670700000007
 21
795.40000950000001
  0
LINE
  8
_0-0_0
  6
CONTINUOUS
 62
    7
 10
-106.18670700000007
 20
787.30000250000001
 11
-106.08670000000006
 21
787.30000250000001
  0
LINE
  8
_0-0_0
  6
CONTINUOUS
 62
    7
 10
-106.08670000000006
 20
786.80000250000001
 11
-106.08670000000006
 21
787.30000250000001
  0
LINE
  8
_0-0_0
  6
CONTINUOUS
 62
    7
 10
-106.08670000000006
 20
786.80000250000001
 11
-106.08670000000006
 21
782.80000250000001
  0
LINE
  8
_0-0_0
  6
CONTINUOUS
 62
    7
 10
-106.18670700000007
 20
782.30000250000001
 11
-106.08670000000006
 21
782.30000250000001
  0
LINE
  8
_0-0_0
  6
CONTINUOUS
 62
    7
 10
-106.08670000000006
 20
782.30000250000001
 11
-106.08670000000006
 21
782.80000250000001
  0
LINE
  8
_0-0_0
  6
CONTINUOUS
 62
    7
 10
-123.68670700000007
 20
791.30003350000004
 11
-123.68670700000007
 21
791.23500049999996
  0
LINE
  8
_0-0_0
  6
CONTINUOUS
 62
    7
 10
-107.18670700000007
 20
810.10002150000003
 11
-107.18670700000007
 21
810.00001550000002
  0
ARC
  8
_0-0_0
  6
CONTINUOUS
 62
    7
 10
-119.68670700000007
 20
810.10002150000003
 40
2.5
 50
90.000003000000007
 51
180.00000900000001
  0
LINE
  8
_0-0_0
  6
CONTINUOUS
 62
    7
 10
-123.78671299999996
 20
791.30000250000001
 11
-122.98671000000002
 21
791.30000250000001
  0
LINE
  8
_0-0_0
  6
CONTINUOUS
 62
    7
 10
-123.28671299999996
 20
813.10002150000003
 11
-123.28671299999996
 21
808.87849449999999
  0
LINE
  8
_0-0_0
  6
CONTINUOUS
 62
    7
 10
-122.18670700000007
 20
813.10002150000003
 11
-122.18670700000007
 21
810.10002150000003
  0
LINE
  8
_0-0_0
  6
CONTINUOUS
 62
    7
 10
-123.28671299999996
 20
808.87849449999999
 11
-122.98671000000002
 21
808.87849449999999
  0
LINE
  8
_0-0_0
  6
CONTINUOUS
 62
    7
 10
-123.28671299999996
 20
818.23991350000006
 11
-122.18670700000007
 21
818.23991350000006
  0
LINE
  8
_0-0_0
  6
CONTINUOUS
 62
    7
 10
-122.18670700000007
 20
813.10038750000001
 11
-122.18670700000007
 21
818.23991350000006
  0
LINE
  8
_0-0_0
  6
CONTINUOUS
 62
    7
 10
-123.78671299999996
 20
812.60072349999996
 11
-123.78671299999996
 21
817.67213449999997
  0
LINE
  8
_0-0_0
  6
CONTINUOUS
 62
    7
 10
-123.28671299999996
 20
818.23991350000006
 11
-123.78671299999996
 21
817.67213449999997
  0
ARC
  8
_0-0_0
  6
CONTINUOUS
 62
    7
 10
-109.68670700000007
 20
810.10002150000003
 40
2.5
 50
0
 51
90.000003000000007
  0
LINE
  8
_0-0_0
  6
CONTINUOUS
 62
    7
 10
-122.18670700000007
 20
810.00001550000002
 11
-122.18670700000007
 21
810.10002150000003
  0
LINE
  8
_0-0_0
  6
CONTINUOUS
 62
    7
 10
-109.68670700000007
 20
812.60002150000003
 11
-119.68670700000007
 21
812.60002150000003
  0
LINE
  8
_0-0_0
  6
CONTINUOUS
 62
    7
 10
-105.98671000000002
 20
782.80000250000001
 11
-105.98671000000002
 21
782.93037449999997
  0
LINE
  8
_0-0_0
  6
CONTINUOUS
 62
    7
 10
-105.98671000000002
 20
786.43037449999997
 11
-105.98671000000002
 21
782.93037449999997
  0
LINE
  8
_0-0_0
  6
CONTINUOUS
 62
    7
 10
-106.08670000000006
 20
786.70002750000003
 11
-105.98671000000002
 21
786.70002750000003
  0
LINE
  8
_0-0_0
  6
CONTINUOUS
 62
    7
 10
-105.98671000000002
 20
786.43037449999997
 11
-105.98671000000002
 21
786.70002750000003
  0
LINE
  8
_0-0_0
  6
CONTINUOUS
 62
    7
 10
-122.18670700000007
 20
820.60002150000003
 11
-122.18670700000007
 21
818.23991350000006
  0
LINE
  8
_0-0_0
  6
CONTINUOUS
 62
    7
 10
-106.38670300000001
 20
809.20002750000003
 11
-107.38670300000001
 21
810.20002750000003
  0
LINE
  8
_0-0_0
  6
CONTINUOUS
 62
    7
 10
-106.38670300000001
 20
781.40000950000001
 11
-106.38670300000001
 21
809.20002750000003
  0
LINE
  8
_0-0_0
  6
CONTINUOUS
 62
    7
 10
-122.98671000000002
 20
781.40000950000001
 11
-106.38670300000001
 21
781.40000950000001
  0
LINE
  8
_0-0_0
  6
CONTINUOUS
 62
    7
 10
-122.98671000000002
 20
809.20002750000003
 11
-122.98671000000002
 21
781.40000950000001
  0
LINE
  8
_0-0_0
  6
CONTINUOUS
 62
    7
 10
-123.78671299999996
 20
791.30000250000001
 11
-123.78671299999996
 21
808.11283849999995
  0
LINE
  8
_0-0_0
  6
CONTINUOUS
 62
    7
 10
-123.78671299999996
 20
812.60002150000003
 11
-123.78671299999996
 21
808.11283849999995
  0
ARC
  8
_0-0_0
  6
CONTINUOUS
 62
    7
 10
-92.334961000000021
 20
788.11784350000005
 40
37.269466000000001
 50
146.14857699999999
 51
147.55443399999999
  0
LINE
  8
_0-0_0
  6
CONTINUOUS
 62
    7
 10
-123.28671299999996
 20
820.60002150000003
 11
-123.28671299999996
 21
818.23991350000006
  0
LINE
  8
_0-0_0
  6
CONTINUOUS
 62
    7
 10
-123.78671299999996
 20
820.10002150000003
 11
-123.78671299999996
 21
817.67213449999997
  0
ARC
  8
_0-0_0
  6
CONTINUOUS
 62
    7
 10
-109.95574899999997
 20
809.80000250000001
 40
2.6000000000000001
 50
8.8498839999999994
 51
90.000002999999992
  0
LINE
  8
_0-0_0
  6
CONTINUOUS
 62
    7
 10
-109.95574899999997
 20
812.40000950000001
 11
-119.41766400000006
 21
812.40000950000001
  0
ARC
  8
_0-0_0
  6
CONTINUOUS
 62
    7
 10
-119.41766400000006
 20
809.80000250000001
 40
2.6000000000000001
 50
90.000003000000007
 51
171.150115
  0
LINE
  8
_0-0_0
  6
CONTINUOUS
 62
    7
 10
-122.98671000000002
 20
809.20002750000003
 11
-121.98671000000002
 21
810.20002750000003
  0
LINE
  8
_0-0_0
  6
CONTINUOUS
 62
    7
 10
-107.38670300000001
 20
808.78581250000002
 11
-106.38670300000001
 21
809.20002750000003
  0
ARC
  8
_0-0_0
  6
CONTINUOUS
 62
    7
 10
-112.92892500000005
 20
820.98545850000005
 40
12.125811000000001
 50
292.15487000000002
 51
297.19688200000002
  0
LINE
  8
_0-0_0
  6
CONTINUOUS
 62
    7
 10
-107.38670300000001
 20
782.40000950000001
 11
-106.38670300000001
 21
781.40000950000001
  0
LINE
  8
_0-0_0
  6
CONTINUOUS
 62
    7
 10
-121.98671000000002
 20
782.40000950000001
 11
-122.98671000000002
 21
781.40000950000001
  0
LINE
  8
_0-0_0
  6
CONTINUOUS
 62
    7
 10
-121.98671000000002
 20
808.78581250000002
 11
-122.98671000000002
 21
809.20002750000003
  0
ARC
  8
_0-0_0
  6
CONTINUOUS
 62
    7
 10
-116.44448799999998
 20
820.98545850000005
 40
12.125813000000001
 50
242.80312000000004
 51
247.84513800000002
  0
CIRCLE
  8
_0-0_0
  6
CONTINUOUS
 62
    7
 10
-114.68670700000007
 20
789.60002150000003
 40
2.0670000000000002
  0
LINE
  8
_0-0_0
  6
CONTINUOUS
 62
    7
 10
-122.18670700000007
 20
813.10002150000003
 11
-123.28671299999996
 21
813.10002150000003
  0
LINE
  8
_0-0_0
  6
CONTINUOUS
 62
    7
 10
-106.08670000000006
 20
782.80000250000001
 11
-105.98671000000002
 21
782.80000250000001
  0
LINE
  8
_0-0_0
  6
CONTINUOUS
 62
    7
 10
-106.08670000000006
 20
782.80000250000001
 11
-105.98671000000002
 21
782.80000250000001
  0
LINE
  8
_0-0_0
  6
CONTINUOUS
 62
    7
 10
-123.78671299999996
 20
812.60002150000003
 11
-123.28671299999996
 21
813.10002150000003
  0
LINE
  8
_0-0_0
  6
CONTINUOUS
 62
    7
 10
-122.18670700000007
 20
820.60002150000003
 11
-123.28671299999996
 21
820.60002150000003
  0
LINE
  8
_0-0_0
  6
CONTINUOUS
 62
    7
 10
-123.78671299999996
 20
820.10002150000003
 11
-123.28671299999996
 21
820.60002150000003
  0
ENDSEC
  0
EOF
