  0
SECTION
  2
HEADER
  9
$ACADVER
  1
AC1009
  9
$INSBASE
 10
0
 20
0
 30
0
  9
$EXTMIN
 10
0
 20
0
  9
$EXTMAX
 10
841
 20
594
  9
$LIMMIN
 10
0
 20
0
  9
$LIMMAX
 10
841
 20
594
  9
$LTSCALE
 40
1
  0
ENDSEC
  0
SECTION
  2
TABLES
  0
TABLE
  2
LTYPE
 70
     9
  0
LTYPE
  2
CONTINUOUS
 70
    64
  3
実線
 72
    65
 73
     0
 40
0.0
  0
LTYPE
  2
DASHED1
 70
    64
  3
--  --  --  --  --  --  --  --  
 72
    65
 73
     2
 40
2.5
 49
1.25
 49
-1.25
  0
LTYPE
  2
DASHED2
 70
    64
  3
----    ----    ----    ----    
 72
    65
 73
     2
 40
5.0
 49
2.5
 49
-2.5
  0
LTYPE
  2
DASHED3
 70
    64
  3
------  ------  ------  ------  
 72
    65
 73
     2
 40
5.0
 49
3.75
 49
-1.25
  0
LTYPE
  2
CENTER1
 70
    64
  3
----- - ----- - ----- - ----- - 
 72
    65
 73
     4
 40
10.0
 49
6.25
 49
-1.25
 49
1.25
 49
-1.25
  0
LTYPE
  2
CENTER2
 70
    64
  3
----------  --  ----------  --  
 72
    65
 73
     4
 40
20.0
 49
12.5
 49
-2.5
 49
2.5
 49
-2.5
  0
LTYPE
  2
PHANTOM1
 70
    64
  3
--- - - --- - - --- - - --- - - 
 72
    65
 73
     6
 40
10.0
 49
3.25
 49
-1.25
 49
1.25
 49
-1.25
 49
1.25
 49
-1.25
  0
LTYPE
  2
PHANTOM2
 70
    64
  3
--------  -  -  --------  -  -  
 72
    65
 73
     6
 40
20.0
 49
10.0
 49
-2.5
 49
1.25
 49
-2.5
 49
1.25
 49
-2.5
  0
LTYPE
  2
DOT
 70
    64
  3
-   -   -   -   -   -   -   -   
 72
    65
 73
     2
 40
2.5
 49
0.625
 49
-1.875
  0
LTYPE
  2
DUMMY
 70
    64
  3
ダミー
 72
    65
 73
     0
 40
0.0
  0
LTYPE
  2
RAND1
 70
    64
  3
ランダム線1
 72
    65
 73
     4
 40
10.0
 49
1.0
 49
-2.0
 49
3.0
 49
-4.0
  0
LTYPE
  2
RAND2
 70
    64
  3
ランダム線2
 72
    65
 73
     4
 40
14.0
 49
2.0
 49
-3.0
 49
4.0
 49
-5.0
  0
LTYPE
  2
RAND3
 70
    64
  3
ランダム線3
 72
    65
 73
     4
 40
18.0
 49
3.0
 49
-4.0
 49
5.0
 49
-6.0
  0
LTYPE
  2
RAND4
 70
    64
  3
ランダム線4
 72
    65
 73
     4
 40
22.0
 49
4.0
 49
-5.0
 49
6.0
 49
-7.0
  0
LTYPE
  2
RAND5
 70
    64
  3
ランダム線5
 72
    65
 73
     4
 40
26.0
 49
5.0
 49
-6.0
 49
7.0
 49
-8.0
  0
LTYPE
  2
LONG1
 70
    64
  3
----------  --  ----------  --  
 72
    65
 73
     4
 40
40.0
 49
32.5
 49
-2.5
 49
2.5
 49
-2.5
  0
LTYPE
  2
LONG2
 70
    64
  3
--------  -  -  --------  -  -  
 72
    65
 73
     6
 40
40.0
 49
30.0
 49
-2.5
 49
1.25
 49
-2.5
 49
1.25
 49
-2.5
  0
LTYPE
  2
LONG3
 70
    64
  3
+++++++++++++++..+++++++++++++++
 72
    65
 73
     2
 40
40.0
 49
37.5
 49
-2.5
  0
LTYPE
  2
LONG4
 70
    64
  3
+++++++++++++++..+++++++++++++++
 72
    65
 73
     2
 40
80.0
 49
75.0
 49
-5.0
  0
LTYPE
  2
LONG5
 70
    64
  3
----------  --  ----------  --  
 72
    65
 73
     4
 40
60.0
 49
37.5
 49
-7.5
 49
7.5
 49
-7.5
  0
LTYPE
  2
dashed
 70
   64
  3
-------   -------------   ------
 72
   65
 73
    2
 40
7.5
 49
6
 49
-1.5
  0
LTYPE
  2
dashed_spaced
 70
   64
  3
----        --------        ----
 72
   65
 73
    2
 40
12
 49
6
 49
-6
  0
LTYPE
  2
long_dashed_dotted
 70
   64
  3
------------- --- --------------
 72
   65
 73
    4
 40
15.25
 49
12
 49
-1.5
 49
0.25
 49
-1.5
  0
LTYPE
  2
long_dashed_double-dotted
 70
   64
  3
----------- --- --- ------------
 72
   65
 73
    6
 40
17
 49
12
 49
-1.5
 49
0.25
 49
-1.5
 49
0.25
 49
-1.5
  0
LTYPE
  2
long_dashed_triplicate-dotted
 70
   64
  3
--------- --- --- --- ----------
 72
   65
 73
    8
 40
18.75
 49
12
 49
-1.5
 49
0.25
 49
-1.5
 49
0.25
 49
-1.5
 49
0.25
 49
-1.5
  0
LTYPE
  2
dotted
 70
   64
  3
   -       -       -       -    
 72
   65
 73
    2
 40
1.75
 49
0.25
 49
-1.5
  0
LTYPE
  2
chain
 70
   64
  3
-------------- -- --------------
 72
   65
 73
    4
 40
18.5
 49
12
 49
-1.5
 49
3.5
 49
-1.5
  0
LTYPE
  2
chain_double_dash
 70
   64
  3
------------ -- -- -------------
 72
   65
 73
    6
 40
23.5
 49
12
 49
-1.5
 49
3.5
 49
-1.5
 49
3.5
 49
-1.5
  0
LTYPE
  2
dashed_dotted
 70
   64
  3
-----------     -     ----------
 72
   65
 73
    4
 40
9.25
 49
6
 49
-1.5
 49
0.25
 49
-1.5
  0
LTYPE
  2
double-dashed_dotted
 70
   64
  3
------   -----------   -   -----
 72
   65
 73
    6
 40
16.75
 49
6
 49
-1.5
 49
6
 49
-1.5
 49
0.25
 49
-1.5
  0
LTYPE
  2
dashed_double-dotted
 70
   64
  3
---------    -    -    ---------
 72
   65
 73
    6
 40
11
 49
6
 49
-1.5
 49
0.25
 49
-1.5
 49
0.25
 49
-1.5
  0
LTYPE
  2
double-dashed_double-dotted
 70
   64
  3
-----   ---------   -   -   ----
 72
   65
 73
    8
 40
18.5
 49
6
 49
-1.5
 49
6
 49
-1.5
 49
0.25
 49
-1.5
 49
0.25
 49
-1.5
  0
LTYPE
  2
dashed_triplicate-dotted
 70
   64
  3
-------    -    -    -    ------
 72
   65
 73
    8
 40
12.75
 49
6
 49
-1.5
 49
0.25
 49
-1.5
 49
0.25
 49
-1.5
 49
0.25
 49
-1.5
  0
LTYPE
  2
double-dashed_triplicate-dotted
 70
   64
  3
-----  ---------  -  -  -  -----
 72
   65
 73
   10
 40
20.25
 49
6
 49
-1.5
 49
6
 49
-1.5
 49
0.25
 49
-1.5
 49
0.25
 49
-1.5
 49
0.25
 49
-1.5
  0
LTYPE
  2
undefined
 70
   64
  3
--------------------------------
 72
   65
 73
    0
 40
0
  0
ENDTAB
  0
TABLE
  2
STYLE
  5
3
100
AcDbSymbolTable
 70
     1
  0
STYLE
  5
10
100
AcDbSymbolTableRecord
100
AcDbTextStyleTableRecord
  2
STANDARD
 70
     0
 40
0.0
 41
1.0
 50
0.0
 71
     0
 42
0.2
  3
txt
  4
bigfont.shx
  0
STYLE
  5
26
100
AcDbSymbolTableRecord
100
AcDbTextStyleTableRecord
  2
TATEGAKI
 70
    68
 40
0.0
 41
1.0
 50
0.0
 71
     0
 42
1.0
  3
txt
  4
bigfont.shx
  0
ENDTAB
  0
TABLE
  2
LAYER
 70
    2
  0
LAYER
  2
_0-0_0
 70
   64
 62
    7
  6
CONTINUOUS
  0
LAYER
  2
ADD_LINE
 70
   64
 62
    7
  6
CONTINUOUS
  0
ENDTAB
  0
ENDSEC
  0
SECTION
  2
BLOCKS
  0
ENDSEC
  0
SECTION
  2
ENTITIES
  0
LINE
  8
_0-0_0
  6
CONTINUOUS
 62
    7
 10
-204.57103700000005
 20
516.90052749999995
 11
-204.57103700000005
 21
516.89952049999999
  0
LINE
  8
_0-0_0
  6
CONTINUOUS
 62
    7
 10
-51.758530000000007
 20
477.96958949999998
 11
-53.058533000000011
 21
474.46958949999998
  0
ARC
  8
_0-0_0
  6
CONTINUOUS
 62
    7
 10
-51.571045000000026
 20
477.89994750000005
 40
0.2
 50
20.376434999999997
 51
159.62357000000003
  0
ARC
  8
_0-0_0
  6
CONTINUOUS
 62
    7
 10
-13.571045000000026
 20
480.79994150000005
 40
2.2000000000000002
 50
180.00000900000003
 51
303.74900400000001
  0
LINE
  8
_0-0_0
  6
CONTINUOUS
 62
    7
 10
-15.771042000000023
 20
482.29994150000005
 11
-15.771042000000023
 21
480.79994150000005
  0
LINE
  8
_0-0_0
  6
CONTINUOUS
 62
    7
 10
-15.771042000000023
 20
482.29994150000005
 11
-90.371033000000011
 21
482.29994150000005
  0
LINE
  8
_0-0_0
  6
CONTINUOUS
 62
    7
 10
-90.371033000000011
 20
482.29994150000005
 11
-90.371033000000011
 21
480.79994150000005
  0
ARC
  8
_0-0_0
  6
CONTINUOUS
 62
    7
 10
-92.571045000000026
 20
480.79994150000005
 40
2.2000000000000002
 50
236.25102899999999
 51
0
  0
ARC
  8
_0-0_0
  6
CONTINUOUS
 62
    7
 10
-94.071045000000026
 20
478.55494650000003
 40
0.5
 50
56.251010000000008
 51
180.00000900000001
  0
LINE
  8
_0-0_0
  6
CONTINUOUS
 62
    7
 10
-94.571045000000026
 20
458.19993550000004
 11
-94.571045000000026
 21
458.97706549999998
  0
LINE
  8
_0-0_0
  6
CONTINUOUS
 62
    7
 10
-94.571045000000026
 20
458.19993550000004
 11
-84.771042000000023
 21
458.19993550000004
  0
ARC
  8
_0-0_0
  6
CONTINUOUS
 62
    7
 10
-84.771042000000023
 20
458.39994750000005
 40
0.2
 50
269.99999700000001
 51
0
  0
LINE
  8
_0-0_0
  6
CONTINUOUS
 62
    7
 10
-84.571045000000026
 20
460.09992950000003
 11
-84.571045000000026
 21
458.39994750000005
  0
ARC
  8
_0-0_0
  6
CONTINUOUS
 62
    7
 10
-84.371033000000011
 20
460.09992950000003
 40
0.2
 50
90.000003000000007
 51
180.00000900000001
  0
LINE
  8
_0-0_0
  6
CONTINUOUS
 62
    7
 10
-83.871033000000011
 20
460.29994150000005
 11
-84.371033000000011
 21
460.29994150000005
  0
ARC
  8
_0-0_0
  6
CONTINUOUS
 62
    7
 10
-83.871033000000011
 20
459.79994150000005
 40
0.5
 50
90.000003000000007
 51
180.00000900000001
  0
LINE
  8
_0-0_0
  6
CONTINUOUS
 62
    7
 10
-84.371033000000011
 20
458.29994150000005
 11
-84.371033000000011
 21
459.79994150000005
  0
LINE
  8
_0-0_0
  6
CONTINUOUS
 62
    7
 10
-14.771042000000023
 20
458.29994150000005
 11
-84.371033000000011
 21
458.29994150000005
  0
LINE
  8
_0-0_0
  6
CONTINUOUS
 62
    7
 10
-14.771042000000023
 20
458.29994150000005
 11
-14.771042000000023
 21
459.79994150000005
  0
ARC
  8
_0-0_0
  6
CONTINUOUS
 62
    7
 10
-15.271042000000023
 20
459.79994150000005
 40
0.5
 50
0
 51
90.000003000000007
  0
LINE
  8
_0-0_0
  6
CONTINUOUS
 62
    7
 10
-14.771042000000023
 20
460.29994150000005
 11
-15.271042000000023
 21
460.29994150000005
  0
ARC
  8
_0-0_0
  6
CONTINUOUS
 62
    7
 10
-14.771042000000023
 20
460.09992950000003
 40
0.2
 50
0
 51
90.000003000000007
  0
LINE
  8
_0-0_0
  6
CONTINUOUS
 62
    7
 10
-14.571045000000026
 20
458.39994750000005
 11
-14.571045000000026
 21
460.09992950000003
  0
ARC
  8
_0-0_0
  6
CONTINUOUS
 62
    7
 10
-14.371047999999973
 20
458.39994750000005
 40
0.2
 50
180.00000900000003
 51
269.99999700000001
  0
LINE
  8
_0-0_0
  6
CONTINUOUS
 62
    7
 10
-14.371047999999973
 20
458.19993550000004
 11
-13.571045000000026
 21
458.19993550000004
  0
ARC
  8
_0-0_0
  6
CONTINUOUS
 62
    7
 10
-13.571045000000026
 20
460.19993550000004
 40
2
 50
269.99999700000001
 51
0.0000099999999886
  0
LINE
  8
_0-0_0
  6
CONTINUOUS
 62
    7
 10
-11.571045000000026
 20
478.55494650000003
 11
-11.571045000000026
 21
460.19993550000004
  0
ARC
  8
_0-0_0
  6
CONTINUOUS
 62
    7
 10
-12.071045000000026
 20
478.55494650000003
 40
0.5
 50
0
 51
123.74898500000002
  0
LINE
  8
_0-0_0
  6
CONTINUOUS
 62
    7
 10
-83.071045000000026
 20
460.49995450000006
 11
-83.071045000000026
 21
460.69993550000004
  0
LINE
  8
_0-0_0
  6
CONTINUOUS
 62
    7
 10
-83.071045000000026
 20
460.69993550000004
 11
-16.071045000000026
 21
460.69993550000004
  0
LINE
  8
_0-0_0
  6
CONTINUOUS
 62
    7
 10
-16.071045000000026
 20
460.49995450000006
 11
-16.071045000000026
 21
460.69993550000004
  0
ARC
  8
_0-0_0
  6
CONTINUOUS
 62
    7
 10
-15.871047999999973
 20
460.49995450000006
 40
0.2
 50
180.00000900000003
 51
269.99999700000001
  0
LINE
  8
_0-0_0
  6
CONTINUOUS
 62
    7
 10
-15.871047999999973
 20
460.29994150000005
 11
-83.271042000000023
 21
460.29994150000005
  0
ARC
  8
_0-0_0
  6
CONTINUOUS
 62
    7
 10
-83.271042000000023
 20
460.49995450000006
 40
0.2
 50
269.99999700000001
 51
0
  0
ARC
  8
_0-0_0
  6
CONTINUOUS
 62
    7
 10
-52.871047999999973
 20
474.39994750000005
 40
0.2
 50
159.62357
 51
269.99999700000001
  0
LINE
  8
_0-0_0
  6
CONTINUOUS
 62
    7
 10
-52.871047999999973
 20
474.19993550000004
 11
-50.271042000000023
 21
474.19993550000004
  0
ARC
  8
_0-0_0
  6
CONTINUOUS
 62
    7
 10
-50.271042000000023
 20
474.39994750000005
 40
0.2
 50
269.99999700000001
 51
20.376435000000019
  0
LINE
  8
_0-0_0
  6
CONTINUOUS
 62
    7
 10
-50.083557000000042
 20
474.46958949999998
 11
-51.383559999999989
 21
477.96958949999998
  0
LINE
  8
_0-0_0
  6
CONTINUOUS
 62
    7
 10
-94.571045000000026
 20
477.89994750000005
 11
-94.571045000000026
 21
479.87730350000004
  0
LINE
  8
_0-0_0
  6
CONTINUOUS
 62
    7
 10
-94.571045000000026
 20
477.89994750000005
 11
-94.571045000000026
 21
460.29994150000005
  0
LINE
  8
_0-0_0
  6
CONTINUOUS
 62
    7
 10
-94.571045000000026
 20
458.97706549999998
 11
-94.571045000000026
 21
460.29994150000005
  0
LINE
  8
_0-0_0
  6
CONTINUOUS
 62
    7
 10
-11.571045000000026
 20
484.29994150000005
 11
-11.571045000000026
 21
483.29994150000005
  0
LINE
  8
_0-0_0
  6
CONTINUOUS
 62
    7
 10
-11.571045000000026
 20
483.29994150000005
 11
-11.571045000000026
 21
482.79994150000005
  0
LINE
  8
_0-0_0
  6
CONTINUOUS
 62
    7
 10
-11.571045000000026
 20
482.79994150000005
 11
-11.571045000000026
 21
480.79994150000005
  0
LINE
  8
_0-0_0
  6
CONTINUOUS
 62
    7
 10
-11.571045000000026
 20
480.79994150000005
 11
-11.571045000000026
 21
478.55494650000003
  0
LINE
  8
_0-0_0
  6
CONTINUOUS
 62
    7
 10
-33.571045000000026
 20
478.29994150000005
 11
-33.571045000000026
 21
464.69993550000004
  0
ARC
  8
_0-0_0
  6
CONTINUOUS
 62
    7
 10
-30.571045000000026
 20
478.29994150000005
 40
3
 50
90.000003000000007
 51
180.00000900000001
  0
LINE
  8
_0-0_0
  6
CONTINUOUS
 62
    7
 10
-17.23710600000004
 20
481.29994150000005
 11
-30.571045000000026
 21
481.29994150000005
  0
ARC
  8
_0-0_0
  6
CONTINUOUS
 62
    7
 10
-17.23710600000004
 20
480.29994150000005
 40
1
 50
7.7664340000000012
 51
90.000002999999992
  0
ARC
  8
_0-0_0
  6
CONTINUOUS
 62
    7
 10
-13.571045000000026
 20
480.79994150000005
 40
2.7000000000000002
 50
187.76643899999999
 51
254.31966600000001
  0
ARC
  8
_0-0_0
  6
CONTINUOUS
 62
    7
 10
-14.571045000000026
 20
477.23762450000004
 40
1
 50
0
 51
74.319649999999996
  0
LINE
  8
_0-0_0
  6
CONTINUOUS
 62
    7
 10
-13.571045000000026
 20
464.69993550000004
 11
-13.571045000000026
 21
477.23762450000004
  0
ARC
  8
_0-0_0
  6
CONTINUOUS
 62
    7
 10
-16.571045000000026
 20
464.69993550000004
 40
3
 50
269.99999700000001
 51
0.0000099999999886
  0
LINE
  8
_0-0_0
  6
CONTINUOUS
 62
    7
 10
-30.571045000000026
 20
461.69993550000004
 11
-16.571045000000026
 21
461.69993550000004
  0
ARC
  8
_0-0_0
  6
CONTINUOUS
 62
    7
 10
-30.571045000000026
 20
464.69993550000004
 40
3
 50
180.00000900000003
 51
269.99999700000001
  0
LINE
  8
_0-0_0
  6
CONTINUOUS
 62
    7
 10
-87.571045000000026
 20
461.69993550000004
 11
-72.571045000000026
 21
461.69993550000004
  0
ARC
  8
_0-0_0
  6
CONTINUOUS
 62
    7
 10
-87.571045000000026
 20
464.69993550000004
 40
3
 50
180.00000900000003
 51
269.99999700000001
  0
LINE
  8
_0-0_0
  6
CONTINUOUS
 62
    7
 10
-90.571045000000026
 20
478.29994150000005
 11
-90.571045000000026
 21
464.69993550000004
  0
ARC
  8
_0-0_0
  6
CONTINUOUS
 62
    7
 10
-87.571045000000026
 20
478.29994150000005
 40
3
 50
90.000003000000007
 51
180.00000900000001
  0
LINE
  8
_0-0_0
  6
CONTINUOUS
 62
    7
 10
-72.571045000000026
 20
481.29994150000005
 11
-87.571045000000026
 21
481.29994150000005
  0
ARC
  8
_0-0_0
  6
CONTINUOUS
 62
    7
 10
-72.571045000000026
 20
478.29994150000005
 40
3
 50
0
 51
90.000003000000007
  0
LINE
  8
_0-0_0
  6
CONTINUOUS
 62
    7
 10
-69.571045000000026
 20
464.69993550000004
 11
-69.571045000000026
 21
478.29994150000005
  0
ARC
  8
_0-0_0
  6
CONTINUOUS
 62
    7
 10
-72.571045000000026
 20
464.69993550000004
 40
3
 50
269.99999700000001
 51
0.0000099999999886
  0
LINE
  8
_0-0_0
  6
CONTINUOUS
 62
    7
 10
-15.571045000000026
 20
482.29994150000005
 11
-15.771042000000023
 21
482.29994150000005
  0
ARC
  8
_0-0_0
  6
CONTINUOUS
 62
    7
 10
-13.571045000000026
 20
480.79994150000005
 40
2
 50
180.00000900000003
 51
0.0000000000000254
  0
LINE
  8
_0-0_0
  6
CONTINUOUS
 62
    7
 10
-15.571045000000026
 20
482.29994150000005
 11
-15.571045000000026
 21
480.79994150000005
  0
LINE
  8
_0-0_0
  6
CONTINUOUS
 62
    7
 10
-90.371033000000011
 20
482.29994150000005
 11
-90.571045000000026
 21
482.29994150000005
  0
LINE
  8
_0-0_0
  6
CONTINUOUS
 62
    7
 10
-90.571045000000026
 20
482.29994150000005
 11
-90.571045000000026
 21
480.79994150000005
  0
ARC
  8
_0-0_0
  6
CONTINUOUS
 62
    7
 10
-92.571045000000026
 20
480.79994150000005
 40
2
 50
180.00000900000003
 51
0.0000000000000254
  0
LINE
  8
_0-0_0
  6
CONTINUOUS
 62
    7
 10
-108.07103700000005
 20
482.79994150000005
 11
-108.07103700000005
 21
482.29994150000005
  0
LINE
  8
_0-0_0
  6
CONTINUOUS
 62
    7
 10
-94.571045000000026
 20
479.88343750000001
 11
-94.571045000000026
 21
480.59992950000003
  0
LINE
  8
_0-0_0
  6
CONTINUOUS
 62
    7
 10
-94.571045000000026
 20
479.88343750000001
 11
-94.571045000000026
 21
479.87730350000004
  0
LINE
  8
_0-0_0
  6
CONTINUOUS
 62
    7
 10
-94.571045000000026
 20
478.66880749999996
 11
-94.571045000000026
 21
478.55494650000003
  0
LINE
  8
_0-0_0
  6
CONTINUOUS
 62
    7
 10
-106.57103700000005
 20
479.89994750000005
 11
-106.57103700000005
 21
477.89994750000005
  0
LINE
  8
_0-0_0
  6
CONTINUOUS
 62
    7
 10
-94.571045000000026
 20
479.89994750000005
 11
-106.57103700000005
 21
479.89994750000005
  0
LINE
  8
_0-0_0
  6
CONTINUOUS
 62
    7
 10
-106.57103700000005
 20
474.39994750000005
 11
-106.57103700000005
 21
477.39994750000005
  0
LINE
  8
_0-0_0
  6
CONTINUOUS
 62
    7
 10
-106.57103700000005
 20
477.39994750000005
 11
-106.57103700000005
 21
477.89994750000005
  0
LINE
  8
_0-0_0
  6
CONTINUOUS
 62
    7
 10
-106.57103700000005
 20
474.39994750000005
 11
-106.57103700000005
 21
473.89994750000005
  0
ARC
  8
_0-0_0
  6
CONTINUOUS
 62
    7
 10
-100.57103000000006
 20
474.59992950000003
 40
0.500016
 50
0.001164
 51
179.99560600000004
  0
LINE
  8
_0-0_0
  6
CONTINUOUS
 62
    7
 10
-101.07104500000003
 20
474.59992950000003
 11
-101.07104500000003
 21
462.59992950000003
  0
ARC
  8
_0-0_0
  6
CONTINUOUS
 62
    7
 10
-100.57103000000006
 20
462.59996049999995
 40
0.500016
 50
180.00117
 51
359.995611
  0
LINE
  8
_0-0_0
  6
CONTINUOUS
 62
    7
 10
-100.07104500000003
 20
474.59992950000003
 11
-100.07104500000003
 21
462.59992950000003
  0
ARC
  8
_0-0_0
  6
CONTINUOUS
 62
    7
 10
-102.07103000000006
 20
474.59992950000003
 40
0.500016
 50
0.001164
 51
179.99560600000004
  0
LINE
  8
_0-0_0
  6
CONTINUOUS
 62
    7
 10
-102.57104500000003
 20
474.59992950000003
 11
-102.57104500000003
 21
462.59992950000003
  0
ARC
  8
_0-0_0
  6
CONTINUOUS
 62
    7
 10
-102.07103000000006
 20
462.59996049999995
 40
0.500016
 50
180.00117
 51
359.995611
  0
LINE
  8
_0-0_0
  6
CONTINUOUS
 62
    7
 10
-101.57104500000003
 20
474.59992950000003
 11
-101.57104500000003
 21
462.59992950000003
  0
ARC
  8
_0-0_0
  6
CONTINUOUS
 62
    7
 10
-103.57103000000006
 20
474.59992950000003
 40
0.500016
 50
0.001164
 51
179.99560600000004
  0
LINE
  8
_0-0_0
  6
CONTINUOUS
 62
    7
 10
-104.07104500000003
 20
474.59992950000003
 11
-104.07104500000003
 21
462.59992950000003
  0
ARC
  8
_0-0_0
  6
CONTINUOUS
 62
    7
 10
-103.57103000000006
 20
462.59996049999995
 40
0.500016
 50
180.00117
 51
359.995611
  0
LINE
  8
_0-0_0
  6
CONTINUOUS
 62
    7
 10
-103.07104500000003
 20
474.59992950000003
 11
-103.07104500000003
 21
462.59992950000003
  0
ARC
  8
_0-0_0
  6
CONTINUOUS
 62
    7
 10
-105.07103000000006
 20
474.59992950000003
 40
0.500016
 50
0.001164
 51
179.99560600000004
  0
LINE
  8
_0-0_0
  6
CONTINUOUS
 62
    7
 10
-105.57103700000005
 20
474.59992950000003
 11
-105.57103700000005
 21
462.59992950000003
  0
ARC
  8
_0-0_0
  6
CONTINUOUS
 62
    7
 10
-105.07103000000006
 20
462.59996049999995
 40
0.500016
 50
180.00117
 51
359.995611
  0
LINE
  8
_0-0_0
  6
CONTINUOUS
 62
    7
 10
-104.57104500000003
 20
474.59992950000003
 11
-104.57104500000003
 21
462.59992950000003
  0
LINE
  8
_0-0_0
  6
CONTINUOUS
 62
    7
 10
-94.571045000000026
 20
458.29994150000005
 11
-111.24648300000001
 21
458.29994150000005
  0
LINE
  8
_0-0_0
  6
CONTINUOUS
 62
    7
 10
-84.021042000000023
 20
460.27690150000001
 11
-84.021042000000023
 21
460.29994150000005
  0
LINE
  8
_0-0_0
  6
CONTINUOUS
 62
    7
 10
-15.121047999999973
 20
460.27690150000001
 11
-15.121047999999973
 21
460.29994150000005
  0
LINE
  8
_0-0_0
  6
CONTINUOUS
 62
    7
 10
-108.07103700000005
 20
482.79994150000005
 11
-108.07103700000005
 21
483.29994150000005
  0
LINE
  8
_0-0_0
  6
CONTINUOUS
 62
    7
 10
-11.571045000000026
 20
483.29994150000005
 11
-108.07103700000005
 21
483.29994150000005
  0
LINE
  8
_0-0_0
  6
CONTINUOUS
 62
    7
 10
-108.07103700000005
 20
483.29994150000005
 11
-108.07103700000005
 21
484.29994150000005
  0
LINE
  8
_0-0_0
  6
CONTINUOUS
 62
    7
 10
-11.570908000000031
 20
484.30000250000001
 11
-11.570908000000031
 21
483.80000250000001
  0
LINE
  8
_0-0_0
  6
CONTINUOUS
 62
    7
 10
-11.570908000000031
 20
483.80000250000001
 11
-11.570908000000031
 21
482.30000250000001
  0
ARC
  8
_0-0_0
  6
CONTINUOUS
 62
    7
 10
-21.071045000000026
 20
473.89994750000005
 40
4.5
 50
269.99999700000001
 51
90.000002999999992
  0
LINE
  8
_0-0_0
  6
CONTINUOUS
 62
    7
 10
-21.071045000000026
 20
469.39994750000005
 11
-26.071045000000026
 21
469.39994750000005
  0
ARC
  8
_0-0_0
  6
CONTINUOUS
 62
    7
 10
-26.071045000000026
 20
473.89994750000005
 40
4.5
 50
90.000003000000007
 51
269.99999700000006
  0
LINE
  8
_0-0_0
  6
CONTINUOUS
 62
    7
 10
-26.071045000000026
 20
478.39994750000005
 11
-21.071045000000026
 21
478.39994750000005
  0
ARC
  8
_0-0_0
  6
CONTINUOUS
 62
    7
 10
-77.071045000000026
 20
473.89994750000005
 40
4.5
 50
269.99999700000001
 51
90.000002999999992
  0
LINE
  8
_0-0_0
  6
CONTINUOUS
 62
    7
 10
-77.071045000000026
 20
469.39994750000005
 11
-82.071045000000026
 21
469.39994750000005
  0
ARC
  8
_0-0_0
  6
CONTINUOUS
 62
    7
 10
-82.071045000000026
 20
473.89994750000005
 40
4.5
 50
90.000003000000007
 51
269.99999700000006
  0
LINE
  8
_0-0_0
  6
CONTINUOUS
 62
    7
 10
-82.071045000000026
 20
478.39994750000005
 11
-77.071045000000026
 21
478.39994750000005
  0
LINE
  8
_0-0_0
  6
CONTINUOUS
 62
    7
 10
-94.571045000000026
 20
480.59992950000003
 11
-94.571045000000026
 21
482.29994150000005
  0
LINE
  8
_0-0_0
  6
CONTINUOUS
 62
    7
 10
-94.571045000000026
 20
482.29994150000005
 11
-108.07103700000005
 21
482.29994150000005
  0
LINE
  8
_0-0_0
  6
CONTINUOUS
 62
    7
 10
-108.07103700000005
 20
480.59992950000003
 11
-108.07103700000005
 21
482.29994150000005
  0
LINE
  8
_0-0_0
  6
CONTINUOUS
 62
    7
 10
-106.57103700000005
 20
479.89994750000005
 11
-111.24648300000001
 21
479.89994750000005
  0
LINE
  8
_0-0_0
  6
CONTINUOUS
 62
    7
 10
-106.57103700000005
 20
474.39994750000005
 11
-111.24648300000001
 21
474.39994750000005
  0
LINE
  8
_0-0_0
  6
CONTINUOUS
 62
    7
 10
-111.87893699999995
 20
458.40257250000002
 11
-111.75943800000005
 21
458.36695850000001
  0
LINE
  8
_0-0_0
  6
CONTINUOUS
 62
    7
 10
-111.75943800000005
 20
458.36695850000001
 11
-111.63788599999998
 21
458.33906549999995
  0
LINE
  8
_0-0_0
  6
CONTINUOUS
 62
    7
 10
-111.63788599999998
 20
458.33906549999995
 11
-111.51475500000004
 21
458.31904550000002
  0
LINE
  8
_0-0_0
  6
CONTINUOUS
 62
    7
 10
-111.51475500000004
 20
458.31904550000002
 11
-111.39052600000002
 21
458.30693050000002
  0
LINE
  8
_0-0_0
  6
CONTINUOUS
 62
    7
 10
-111.39052600000002
 20
458.30693050000002
 11
-111.26570900000002
 21
458.30278050000004
  0
LINE
  8
_0-0_0
  6
CONTINUOUS
 62
    7
 10
-111.26570900000002
 20
458.30278050000004
 11
-111.24648300000001
 21
458.30287150000004
  0
ARC
  8
_0-0_0
  6
CONTINUOUS
 62
    7
 10
-111.24648300000001
 20
460.29994150000005
 40
2
 50
251.56498899999997
 51
269.99999700000001
  0
LINE
  8
_0-0_0
  6
CONTINUOUS
 62
    7
 10
-108.07103700000005
 20
480.59992950000003
 11
-94.571045000000026
 21
480.59992950000003
  0
CIRCLE
  8
_0-0_0
  6
CONTINUOUS
 62
    7
 10
-13.571045000000026
 20
480.79994150000005
 40
1.4750000000000001
  0
CIRCLE
  8
_0-0_0
  6
CONTINUOUS
 62
    7
 10
-92.571045000000026
 20
480.79994150000005
 40
1.4750000000000001
  0
ARC
  8
_0-0_0
  6
CONTINUOUS
 62
    7
 10
-111.24648300000001
 20
477.89994750000005
 40
2
 50
90.000003000000007
 51
108.434997
  0
LINE
  8
_0-0_0
  6
CONTINUOUS
 62
    7
 10
-116.04538000000002
 20
474.39994750000005
 11
-116.73873900000001
 21
474.39994750000005
  0
LINE
  8
_0-0_0
  6
CONTINUOUS
 62
    7
 10
-116.04538000000002
 20
474.39994750000005
 11
-111.72082499999999
 21
474.39994750000005
  0
LINE
  8
_0-0_0
  6
CONTINUOUS
 62
    7
 10
-111.24648300000001
 20
474.39994750000005
 11
-111.72082499999999
 21
474.39994750000005
  0
LINE
  8
_0-0_0
  6
CONTINUOUS
 62
    7
 10
-116.20349099999999
 20
459.84410049999997
 11
-111.87893699999995
 21
458.40257250000002
  0
LINE
  8
_0-0_0
  6
CONTINUOUS
 62
    7
 10
-17.021042000000023
 20
473.89994750000005
 11
-19.330444
 21
469.89994750000005
  0
LINE
  8
_0-0_0
  6
CONTINUOUS
 62
    7
 10
-27.811644999999999
 20
469.89994750000005
 11
-19.330444
 21
469.89994750000005
  0
LINE
  8
_0-0_0
  6
CONTINUOUS
 62
    7
 10
-27.811644999999999
 20
469.89994750000005
 11
-30.121047999999973
 21
473.89994750000005
  0
LINE
  8
_0-0_0
  6
CONTINUOUS
 62
    7
 10
-30.121047999999973
 20
473.89994750000005
 11
-27.811644999999999
 21
477.89994750000005
  0
LINE
  8
_0-0_0
  6
CONTINUOUS
 62
    7
 10
-19.330444
 20
477.89994750000005
 11
-27.811644999999999
 21
477.89994750000005
  0
LINE
  8
_0-0_0
  6
CONTINUOUS
 62
    7
 10
-19.330444
 20
477.89994750000005
 11
-17.021042000000023
 21
473.89994750000005
  0
LINE
  8
_0-0_0
  6
CONTINUOUS
 62
    7
 10
-83.811644999999999
 20
477.89994750000005
 11
-86.121033000000011
 21
473.89994750000005
  0
LINE
  8
_0-0_0
  6
CONTINUOUS
 62
    7
 10
-75.330444
 20
477.89994750000005
 11
-83.811644999999999
 21
477.89994750000005
  0
LINE
  8
_0-0_0
  6
CONTINUOUS
 62
    7
 10
-73.021042000000023
 20
473.89994750000005
 11
-75.330444
 21
477.89994750000005
  0
LINE
  8
_0-0_0
  6
CONTINUOUS
 62
    7
 10
-75.330444
 20
469.89994750000005
 11
-73.021042000000023
 21
473.89994750000005
  0
LINE
  8
_0-0_0
  6
CONTINUOUS
 62
    7
 10
-83.811644999999999
 20
469.89994750000005
 11
-75.330444
 21
469.89994750000005
  0
LINE
  8
_0-0_0
  6
CONTINUOUS
 62
    7
 10
-86.121033000000011
 20
473.89994750000005
 11
-83.811644999999999
 21
469.89994750000005
  0
LINE
  8
_0-0_0
  6
CONTINUOUS
 62
    7
 10
-112.32104500000003
 20
479.64994750000005
 11
-111.87893699999995
 21
479.79731749999996
  0
LINE
  8
_0-0_0
  6
CONTINUOUS
 62
    7
 10
-117.57103700000005
 20
475.14997849999997
 11
-117.57103700000005
 21
474.02894549999996
  0
LINE
  8
_0-0_0
  6
CONTINUOUS
 62
    7
 10
-117.57103700000005
 20
473.10762050000005
 11
-117.57103700000005
 21
474.02894549999996
  0
LINE
  8
_0-0_0
  6
CONTINUOUS
 62
    7
 10
-117.27103399999999
 20
471.3119355
 11
-117.32983400000001
 21
471.55876150000006
  0
LINE
  8
_0-0_0
  6
CONTINUOUS
 62
    7
 10
-117.32983400000001
 20
471.55876150000006
 11
-117.37959999999998
 21
471.75111349999997
  0
LINE
  8
_0-0_0
  6
CONTINUOUS
 62
    7
 10
-117.37959999999998
 20
471.75111349999997
 11
-117.45072900000002
 21
472.01692149999997
  0
LINE
  8
_0-0_0
  6
CONTINUOUS
 62
    7
 10
-117.45072900000002
 20
472.01692149999997
 11
-117.48368800000003
 21
472.14363049999997
  0
LINE
  8
_0-0_0
  6
CONTINUOUS
 62
    7
 10
-117.48368800000003
 20
472.14363049999997
 11
-117.50894900000003
 21
472.24705449999999
  0
LINE
  8
_0-0_0
  6
CONTINUOUS
 62
    7
 10
-117.50894900000003
 20
472.24705449999999
 11
-117.53097500000001
 21
472.3469695
  0
LINE
  8
_0-0_0
  6
CONTINUOUS
 62
    7
 10
-117.53097500000001
 20
472.3469695
 11
-117.55235300000004
 21
472.4646755
  0
LINE
  8
_0-0_0
  6
CONTINUOUS
 62
    7
 10
-117.55235300000004
 20
472.4646755
 11
-117.56092799999999
 21
472.52680950000001
  0
LINE
  8
_0-0_0
  6
CONTINUOUS
 62
    7
 10
-117.56092799999999
 20
472.52680950000001
 11
-117.56700899999998
 21
472.58741750000002
  0
LINE
  8
_0-0_0
  6
CONTINUOUS
 62
    7
 10
-117.56700899999998
 20
472.58741750000002
 11
-117.57001500000001
 21
472.63667250000003
  0
LINE
  8
_0-0_0
  6
CONTINUOUS
 62
    7
 10
-117.57001500000001
 20
472.63667250000003
 11
-117.57103700000005
 21
472.68489050000005
  0
LINE
  8
_0-0_0
  6
CONTINUOUS
 62
    7
 10
-117.27103399999999
 20
466.88792450000005
 11
-117.18757600000004
 21
467.26661650000005
  0
LINE
  8
_0-0_0
  6
CONTINUOUS
 62
    7
 10
-117.18757600000004
 20
467.26661650000005
 11
-117.14748400000008
 21
467.4581455
  0
LINE
  8
_0-0_0
  6
CONTINUOUS
 62
    7
 10
-117.14748400000008
 20
467.4581455
 11
-117.09140000000002
 21
467.74815350000006
  0
LINE
  8
_0-0_0
  6
CONTINUOUS
 62
    7
 10
-117.09140000000002
 20
467.74815350000006
 11
-117.05380200000002
 21
467.96772750000002
  0
LINE
  8
_0-0_0
  6
CONTINUOUS
 62
    7
 10
-117.05380200000002
 20
467.96772750000002
 11
-117.02115600000002
 21
468.18897949999996
  0
LINE
  8
_0-0_0
  6
CONTINUOUS
 62
    7
 10
-117.02115600000002
 20
468.18897949999996
 11
-116.99399600000004
 21
468.41578649999997
  0
LINE
  8
_0-0_0
  6
CONTINUOUS
 62
    7
 10
-116.99399600000004
 20
468.41578649999997
 11
-116.97393
 21
468.64317349999999
  0
LINE
  8
_0-0_0
  6
CONTINUOUS
 62
    7
 10
-116.97393
 20
468.64317349999999
 11
-116.96677399999999
 21
468.7569125
  0
LINE
  8
_0-0_0
  6
CONTINUOUS
 62
    7
 10
-116.96677399999999
 20
468.7569125
 11
-116.96161600000005
 21
468.87059050000005
  0
LINE
  8
_0-0_0
  6
CONTINUOUS
 62
    7
 10
-116.96161600000005
 20
468.87059050000005
 11
-116.95790099999999
 21
469.02201850000006
  0
LINE
  8
_0-0_0
  6
CONTINUOUS
 62
    7
 10
-116.95790099999999
 20
469.02201850000006
 11
-116.95784000000003
 21
469.1732935
  0
LINE
  8
_0-0_0
  6
CONTINUOUS
 62
    7
 10
-116.95784000000003
 20
469.1732935
 11
-116.96142600000007
 21
469.32435550000002
  0
LINE
  8
_0-0_0
  6
CONTINUOUS
 62
    7
 10
-116.96142600000007
 20
469.32435550000002
 11
-116.97092399999997
 21
469.51289350000002
  0
LINE
  8
_0-0_0
  6
CONTINUOUS
 62
    7
 10
-116.97092399999997
 20
469.51289350000002
 11
-116.98579400000006
 21
469.70112549999999
  0
LINE
  8
_0-0_0
  6
CONTINUOUS
 62
    7
 10
-116.98579400000006
 20
469.70112549999999
 11
-117.00571400000001
 21
469.88908349999997
  0
LINE
  8
_0-0_0
  6
CONTINUOUS
 62
    7
 10
-117.00571400000001
 20
469.88908349999997
 11
-117.02210200000002
 21
470.01795949999996
  0
LINE
  8
_0-0_0
  6
CONTINUOUS
 62
    7
 10
-117.02210200000002
 20
470.01795949999996
 11
-117.04051200000004
 21
470.1465915
  0
LINE
  8
_0-0_0
  6
CONTINUOUS
 62
    7
 10
-117.04051200000004
 20
470.1465915
 11
-117.06467399999997
 21
470.29853849999995
  0
LINE
  8
_0-0_0
  6
CONTINUOUS
 62
    7
 10
-117.06467399999997
 20
470.29853849999995
 11
-117.09107200000005
 21
470.44987449999996
  0
LINE
  8
_0-0_0
  6
CONTINUOUS
 62
    7
 10
-117.09107200000005
 20
470.44987449999996
 11
-117.14724000000001
 21
470.74049349999996
  0
LINE
  8
_0-0_0
  6
CONTINUOUS
 62
    7
 10
-117.14724000000001
 20
470.74049349999996
 11
-117.18740100000002
 21
470.93244949999996
  0
LINE
  8
_0-0_0
  6
CONTINUOUS
 62
    7
 10
-117.18740100000002
 20
470.93244949999996
 11
-117.27103399999999
 21
471.3119355
  0
LINE
  8
_0-0_0
  6
CONTINUOUS
 62
    7
 10
-117.27104199999997
 20
466.88792450000005
 11
-117.32984199999999
 21
466.64106749999996
  0
LINE
  8
_0-0_0
  6
CONTINUOUS
 62
    7
 10
-117.32984199999999
 20
466.64106749999996
 11
-117.37959999999998
 21
466.44874549999997
  0
LINE
  8
_0-0_0
  6
CONTINUOUS
 62
    7
 10
-117.37959999999998
 20
466.44874549999997
 11
-117.45072200000004
 21
466.18299850000005
  0
LINE
  8
_0-0_0
  6
CONTINUOUS
 62
    7
 10
-117.45072200000004
 20
466.18299850000005
 11
-117.48368100000005
 21
466.05632049999997
  0
LINE
  8
_0-0_0
  6
CONTINUOUS
 62
    7
 10
-117.48368100000005
 20
466.05632049999997
 11
-117.50894200000005
 21
465.95286550000003
  0
LINE
  8
_0-0_0
  6
CONTINUOUS
 62
    7
 10
-117.50894200000005
 20
465.95286550000003
 11
-117.53097500000001
 21
465.85288949999995
  0
LINE
  8
_0-0_0
  6
CONTINUOUS
 62
    7
 10
-117.53097500000001
 20
465.85288949999995
 11
-117.55236000000002
 21
465.73518349999995
  0
LINE
  8
_0-0_0
  6
CONTINUOUS
 62
    7
 10
-117.55236000000002
 20
465.73518349999995
 11
-117.56092799999999
 21
465.67304950000005
  0
LINE
  8
_0-0_0
  6
CONTINUOUS
 62
    7
 10
-117.56092799999999
 20
465.67304950000005
 11
-117.56700899999998
 21
465.61244150000005
  0
LINE
  8
_0-0_0
  6
CONTINUOUS
 62
    7
 10
-117.56700899999998
 20
465.61244150000005
 11
-117.57001500000001
 21
465.56321749999995
  0
LINE
  8
_0-0_0
  6
CONTINUOUS
 62
    7
 10
-117.57001500000001
 20
465.56321749999995
 11
-117.57103700000005
 21
465.51499950000004
  0
LINE
  8
_0-0_0
  6
CONTINUOUS
 62
    7
 10
-117.57103700000005
 20
461.74147049999999
 11
-117.57103700000005
 21
465.09223950000001
  0
ARC
  8
_0-0_0
  6
CONTINUOUS
 62
    7
 10
-115.57103700000005
 20
461.74147049999999
 40
2
 50
180.00000900000003
 51
251.56498900000003
  0
LINE
  8
_0-0_0
  6
CONTINUOUS
 62
    7
 10
-13.121047999999973
 20
480.59992950000003
 11
-12.471039000000019
 21
480.59992950000003
  0
ARC
  8
_0-0_0
  6
CONTINUOUS
 62
    7
 10
-13.121047999999973
 20
480.34992950000003
 40
0.25
 50
90.000003000000007
 51
180.00000900000001
  0
LINE
  8
_0-0_0
  6
CONTINUOUS
 62
    7
 10
-13.371047999999973
 20
480.34992950000003
 11
-13.371047999999973
 21
479.69993550000004
  0
LINE
  8
_0-0_0
  6
CONTINUOUS
 62
    7
 10
-13.771042000000023
 20
479.69993550000004
 11
-13.371047999999973
 21
479.69993550000004
  0
LINE
  8
_0-0_0
  6
CONTINUOUS
 62
    7
 10
-13.771042000000023
 20
479.69993550000004
 11
-13.771042000000023
 21
480.34992950000003
  0
ARC
  8
_0-0_0
  6
CONTINUOUS
 62
    7
 10
-14.021042000000023
 20
480.34992950000003
 40
0.25
 50
0
 51
90.000003000000007
  0
LINE
  8
_0-0_0
  6
CONTINUOUS
 62
    7
 10
-14.671036000000015
 20
480.59992950000003
 11
-14.021042000000023
 21
480.59992950000003
  0
LINE
  8
_0-0_0
  6
CONTINUOUS
 62
    7
 10
-14.671036000000015
 20
480.59992950000003
 11
-14.671036000000015
 21
480.99995450000006
  0
LINE
  8
_0-0_0
  6
CONTINUOUS
 62
    7
 10
-14.021042000000023
 20
480.99995450000006
 11
-14.671036000000015
 21
480.99995450000006
  0
ARC
  8
_0-0_0
  6
CONTINUOUS
 62
    7
 10
-14.021042000000023
 20
481.24995450000006
 40
0.25
 50
269.99999700000001
 51
0
  0
LINE
  8
_0-0_0
  6
CONTINUOUS
 62
    7
 10
-13.771042000000023
 20
481.24995450000006
 11
-13.771042000000023
 21
481.89994750000005
  0
LINE
  8
_0-0_0
  6
CONTINUOUS
 62
    7
 10
-13.371047999999973
 20
481.89994750000005
 11
-13.771042000000023
 21
481.89994750000005
  0
LINE
  8
_0-0_0
  6
CONTINUOUS
 62
    7
 10
-13.371047999999973
 20
481.89994750000005
 11
-13.371047999999973
 21
481.24995450000006
  0
ARC
  8
_0-0_0
  6
CONTINUOUS
 62
    7
 10
-13.121047999999973
 20
481.24995450000006
 40
0.25
 50
180.00000900000003
 51
269.99999700000001
  0
LINE
  8
_0-0_0
  6
CONTINUOUS
 62
    7
 10
-12.471039000000019
 20
480.99995450000006
 11
-13.121047999999973
 21
480.99995450000006
  0
LINE
  8
_0-0_0
  6
CONTINUOUS
 62
    7
 10
-12.471039000000019
 20
480.99995450000006
 11
-12.471039000000019
 21
480.59992950000003
  0
LINE
  8
_0-0_0
  6
CONTINUOUS
 62
    7
 10
-92.121033000000011
 20
480.59992950000003
 11
-91.471039000000019
 21
480.59992950000003
  0
ARC
  8
_0-0_0
  6
CONTINUOUS
 62
    7
 10
-92.121033000000011
 20
480.34992950000003
 40
0.25
 50
90.000003000000007
 51
180.00000900000001
  0
LINE
  8
_0-0_0
  6
CONTINUOUS
 62
    7
 10
-92.371033000000011
 20
480.34992950000003
 11
-92.371033000000011
 21
479.69993550000004
  0
LINE
  8
_0-0_0
  6
CONTINUOUS
 62
    7
 10
-92.771041999999966
 20
479.69993550000004
 11
-92.371033000000011
 21
479.69993550000004
  0
LINE
  8
_0-0_0
  6
CONTINUOUS
 62
    7
 10
-92.771041999999966
 20
479.69993550000004
 11
-92.771041999999966
 21
480.34992950000003
  0
ARC
  8
_0-0_0
  6
CONTINUOUS
 62
    7
 10
-93.021041999999966
 20
480.34992950000003
 40
0.25
 50
0
 51
90.000003000000007
  0
LINE
  8
_0-0_0
  6
CONTINUOUS
 62
    7
 10
-93.671035999999958
 20
480.59992950000003
 11
-93.021041999999966
 21
480.59992950000003
  0
LINE
  8
_0-0_0
  6
CONTINUOUS
 62
    7
 10
-93.671035999999958
 20
480.59992950000003
 11
-93.671035999999958
 21
480.99995450000006
  0
LINE
  8
_0-0_0
  6
CONTINUOUS
 62
    7
 10
-93.021041999999966
 20
480.99995450000006
 11
-93.671035999999958
 21
480.99995450000006
  0
ARC
  8
_0-0_0
  6
CONTINUOUS
 62
    7
 10
-93.021041999999966
 20
481.24995450000006
 40
0.25
 50
269.99999700000001
 51
0
  0
LINE
  8
_0-0_0
  6
CONTINUOUS
 62
    7
 10
-92.771041999999966
 20
481.24995450000006
 11
-92.771041999999966
 21
481.89994750000005
  0
LINE
  8
_0-0_0
  6
CONTINUOUS
 62
    7
 10
-92.371033000000011
 20
481.89994750000005
 11
-92.771041999999966
 21
481.89994750000005
  0
LINE
  8
_0-0_0
  6
CONTINUOUS
 62
    7
 10
-92.371033000000011
 20
481.89994750000005
 11
-92.371033000000011
 21
481.24995450000006
  0
ARC
  8
_0-0_0
  6
CONTINUOUS
 62
    7
 10
-92.121033000000011
 20
481.24995450000006
 40
0.25
 50
180.00000900000003
 51
269.99999700000001
  0
LINE
  8
_0-0_0
  6
CONTINUOUS
 62
    7
 10
-91.471039000000019
 20
480.99995450000006
 11
-92.121033000000011
 21
480.99995450000006
  0
LINE
  8
_0-0_0
  6
CONTINUOUS
 62
    7
 10
-91.471039000000019
 20
480.99995450000006
 11
-91.471039000000019
 21
480.59992950000003
  0
LINE
  8
_0-0_0
  6
CONTINUOUS
 62
    7
 10
-132.57103700000005
 20
478.6253815
 11
-132.57103700000005
 21
478.47865249999995
  0
LINE
  8
_0-0_0
  6
CONTINUOUS
 62
    7
 10
-132.57103700000005
 20
478.81590249999999
 11
-132.57103700000005
 21
478.6253815
  0
LINE
  8
_0-0_0
  6
CONTINUOUS
 62
    7
 10
-132.57103700000005
 20
478.99092050000002
 11
-132.57103700000005
 21
478.81590249999999
  0
LINE
  8
_0-0_0
  6
CONTINUOUS
 62
    7
 10
-132.57103700000005
 20
479.14851350000004
 11
-132.57103700000005
 21
478.99092050000002
  0
LINE
  8
_0-0_0
  6
CONTINUOUS
 62
    7
 10
-132.57103700000005
 20
479.28694150000001
 11
-132.57103700000005
 21
479.14851350000004
  0
LINE
  8
_0-0_0
  6
CONTINUOUS
 62
    7
 10
-132.57103700000005
 20
479.40470849999997
 11
-132.57103700000005
 21
479.28694150000001
  0
LINE
  8
_0-0_0
  6
CONTINUOUS
 62
    7
 10
-132.57103700000005
 20
479.50050350000004
 11
-132.57103700000005
 21
479.40470849999997
  0
LINE
  8
_0-0_0
  6
CONTINUOUS
 62
    7
 10
-132.57103700000005
 20
479.57328749999999
 11
-132.57103700000005
 21
479.50050350000004
  0
LINE
  8
_0-0_0
  6
CONTINUOUS
 62
    7
 10
-132.57103700000005
 20
479.62223849999998
 11
-132.57103700000005
 21
479.57328749999999
  0
LINE
  8
_0-0_0
  6
CONTINUOUS
 62
    7
 10
-132.57103700000005
 20
479.64994750000005
 11
-132.57103700000005
 21
479.62223849999998
  0
LINE
  8
_0-0_0
  6
CONTINUOUS
 62
    7
 10
-132.57103700000005
 20
479.64994750000005
 11
-132.57103700000005
 21
479.64686549999999
  0
LINE
  8
_0-0_0
  6
CONTINUOUS
 62
    7
 10
-132.57103700000005
 20
475.1530305
 11
-132.57103700000005
 21
475.14994750000005
  0
LINE
  8
_0-0_0
  6
CONTINUOUS
 62
    7
 10
-132.57103700000005
 20
475.17765750000001
 11
-132.57103700000005
 21
475.1530305
  0
LINE
  8
_0-0_0
  6
CONTINUOUS
 62
    7
 10
-132.57103700000005
 20
475.2266085
 11
-132.57103700000005
 21
475.17765750000001
  0
LINE
  8
_0-0_0
  6
CONTINUOUS
 62
    7
 10
-132.57103700000005
 20
475.29939249999995
 11
-132.57103700000005
 21
475.2266085
  0
LINE
  8
_0-0_0
  6
CONTINUOUS
 62
    7
 10
-132.57103700000005
 20
475.39518750000002
 11
-132.57103700000005
 21
475.29939249999995
  0
LINE
  8
_0-0_0
  6
CONTINUOUS
 62
    7
 10
-132.57103700000005
 20
475.42536949999999
 11
-132.57103700000005
 21
475.39518750000002
  0
LINE
  8
_0-0_0
  6
CONTINUOUS
 62
    7
 10
-132.57103700000005
 20
475.51292450000005
 11
-132.57103700000005
 21
475.42536949999999
  0
LINE
  8
_0-0_0
  6
CONTINUOUS
 62
    7
 10
-132.57103700000005
 20
475.65135150000003
 11
-132.57103700000005
 21
475.51292450000005
  0
LINE
  8
_0-0_0
  6
CONTINUOUS
 62
    7
 10
-132.57103700000005
 20
475.80894450000005
 11
-132.57103700000005
 21
475.65135150000003
  0
LINE
  8
_0-0_0
  6
CONTINUOUS
 62
    7
 10
-132.57103700000005
 20
475.98396249999996
 11
-132.57103700000005
 21
475.80894450000005
  0
LINE
  8
_0-0_0
  6
CONTINUOUS
 62
    7
 10
-132.57103700000005
 20
476.17451449999999
 11
-132.57103700000005
 21
475.98396249999996
  0
LINE
  8
_0-0_0
  6
CONTINUOUS
 62
    7
 10
-132.57103700000005
 20
476.37846349999995
 11
-132.57103700000005
 21
476.17451449999999
  0
LINE
  8
_0-0_0
  6
CONTINUOUS
 62
    7
 10
-132.57103700000005
 20
476.59361249999995
 11
-132.57103700000005
 21
476.37846349999995
  0
LINE
  8
_0-0_0
  6
CONTINUOUS
 62
    7
 10
-132.57103700000005
 20
476.8176115
 11
-132.57103700000005
 21
476.59361249999995
  0
LINE
  8
_0-0_0
  6
CONTINUOUS
 62
    7
 10
-132.57103700000005
 20
477.04795850000005
 11
-132.57103700000005
 21
476.8176115
  0
LINE
  8
_0-0_0
  6
CONTINUOUS
 62
    7
 10
-132.57103700000005
 20
477.28218049999998
 11
-132.57103700000005
 21
477.04795850000005
  0
LINE
  8
_0-0_0
  6
CONTINUOUS
 62
    7
 10
-132.57103700000005
 20
477.51771550000001
 11
-132.57103700000005
 21
477.28218049999998
  0
LINE
  8
_0-0_0
  6
CONTINUOUS
 62
    7
 10
-132.57103700000005
 20
477.75190750000002
 11
-132.57103700000005
 21
477.51771550000001
  0
LINE
  8
_0-0_0
  6
CONTINUOUS
 62
    7
 10
-132.57103700000005
 20
477.98228449999999
 11
-132.57103700000005
 21
477.75190750000002
  0
LINE
  8
_0-0_0
  6
CONTINUOUS
 62
    7
 10
-132.57103700000005
 20
478.20628350000004
 11
-132.57103700000005
 21
477.98228449999999
  0
LINE
  8
_0-0_0
  6
CONTINUOUS
 62
    7
 10
-132.57103700000005
 20
478.42143250000004
 11
-132.57103700000005
 21
478.20628350000004
  0
LINE
  8
_0-0_0
  6
CONTINUOUS
 62
    7
 10
-132.57103700000005
 20
478.47865249999995
 11
-132.57103700000005
 21
478.42143250000004
  0
LINE
  8
_0-0_0
  6
CONTINUOUS
 62
    7
 10
-117.57103700000005
 20
470.66200249999997
 11
-117.57103700000005
 21
471.70762649999995
  0
LINE
  8
_0-0_0
  6
CONTINUOUS
 62
    7
 10
-117.57103700000005
 20
472.9922335
 11
-117.57103700000005
 21
471.70762649999995
  0
LINE
  8
_0-0_0
  6
CONTINUOUS
 62
    7
 10
-117.57103700000005
 20
473.10762050000005
 11
-117.57103700000005
 21
472.9922335
  0
LINE
  8
_0-0_0
  6
CONTINUOUS
 62
    7
 10
-117.57103700000005
 20
470.66200249999997
 11
-117.57103700000005
 21
467.53788750000001
  0
LINE
  8
_0-0_0
  6
CONTINUOUS
 62
    7
 10
-117.57103700000005
 20
465.09223950000001
 11
-117.57103700000005
 21
465.20762649999995
  0
LINE
  8
_0-0_0
  6
CONTINUOUS
 62
    7
 10
-117.57103700000005
 20
466.4922335
 11
-117.57103700000005
 21
465.20762649999995
  0
LINE
  8
_0-0_0
  6
CONTINUOUS
 62
    7
 10
-117.57103700000005
 20
466.4922335
 11
-117.57103700000005
 21
467.53788750000001
  0
LINE
  8
_0-0_0
  6
CONTINUOUS
 62
    7
 10
-132.57103700000005
 20
462.0253755
 11
-132.57103700000005
 21
461.87864650000006
  0
LINE
  8
_0-0_0
  6
CONTINUOUS
 62
    7
 10
-132.57103700000005
 20
462.21592650000002
 11
-132.57103700000005
 21
462.0253755
  0
LINE
  8
_0-0_0
  6
CONTINUOUS
 62
    7
 10
-132.57103700000005
 20
462.39094550000004
 11
-132.57103700000005
 21
462.21592650000002
  0
LINE
  8
_0-0_0
  6
CONTINUOUS
 62
    7
 10
-132.57103700000005
 20
462.54850750000003
 11
-132.57103700000005
 21
462.39094550000004
  0
LINE
  8
_0-0_0
  6
CONTINUOUS
 62
    7
 10
-132.57103700000005
 20
462.68696550000004
 11
-132.57103700000005
 21
462.54850750000003
  0
LINE
  8
_0-0_0
  6
CONTINUOUS
 62
    7
 10
-132.57103700000005
 20
462.80470249999996
 11
-132.57103700000005
 21
462.68696550000004
  0
LINE
  8
_0-0_0
  6
CONTINUOUS
 62
    7
 10
-132.57103700000005
 20
462.90049750000003
 11
-132.57103700000005
 21
462.80470249999996
  0
LINE
  8
_0-0_0
  6
CONTINUOUS
 62
    7
 10
-132.57103700000005
 20
462.97328149999998
 11
-132.57103700000005
 21
462.90049750000003
  0
LINE
  8
_0-0_0
  6
CONTINUOUS
 62
    7
 10
-132.57103700000005
 20
463.02223149999998
 11
-132.57103700000005
 21
462.97328149999998
  0
LINE
  8
_0-0_0
  6
CONTINUOUS
 62
    7
 10
-132.57103700000005
 20
463.04994150000005
 11
-132.57103700000005
 21
463.02223149999998
  0
LINE
  8
_0-0_0
  6
CONTINUOUS
 62
    7
 10
-132.57103700000005
 20
463.04994150000005
 11
-132.57103700000005
 21
463.04685949999998
  0
LINE
  8
_0-0_0
  6
CONTINUOUS
 62
    7
 10
-132.57103700000005
 20
458.55302449999999
 11
-132.57103700000005
 21
458.54994150000005
  0
LINE
  8
_0-0_0
  6
CONTINUOUS
 62
    7
 10
-132.57103700000005
 20
458.5776515
 11
-132.57103700000005
 21
458.55302449999999
  0
LINE
  8
_0-0_0
  6
CONTINUOUS
 62
    7
 10
-132.57103700000005
 20
458.62660249999999
 11
-132.57103700000005
 21
458.5776515
  0
LINE
  8
_0-0_0
  6
CONTINUOUS
 62
    7
 10
-132.57103700000005
 20
458.69938650000006
 11
-132.57103700000005
 21
458.62660249999999
  0
LINE
  8
_0-0_0
  6
CONTINUOUS
 62
    7
 10
-132.57103700000005
 20
458.79518150000001
 11
-132.57103700000005
 21
458.69938650000006
  0
LINE
  8
_0-0_0
  6
CONTINUOUS
 62
    7
 10
-132.57103700000005
 20
458.82539350000002
 11
-132.57103700000005
 21
458.79518150000001
  0
LINE
  8
_0-0_0
  6
CONTINUOUS
 62
    7
 10
-132.57103700000005
 20
458.91291750000005
 11
-132.57103700000005
 21
458.82539350000002
  0
LINE
  8
_0-0_0
  6
CONTINUOUS
 62
    7
 10
-132.57103700000005
 20
459.05137649999995
 11
-132.57103700000005
 21
458.91291750000005
  0
LINE
  8
_0-0_0
  6
CONTINUOUS
 62
    7
 10
-132.57103700000005
 20
459.20896849999997
 11
-132.57103700000005
 21
459.05137649999995
  0
LINE
  8
_0-0_0
  6
CONTINUOUS
 62
    7
 10
-132.57103700000005
 20
459.38398749999999
 11
-132.57103700000005
 21
459.20896849999997
  0
LINE
  8
_0-0_0
  6
CONTINUOUS
 62
    7
 10
-132.57103700000005
 20
459.57450849999998
 11
-132.57103700000005
 21
459.38398749999999
  0
LINE
  8
_0-0_0
  6
CONTINUOUS
 62
    7
 10
-132.57103700000005
 20
459.77845750000006
 11
-132.57103700000005
 21
459.57450849999998
  0
LINE
  8
_0-0_0
  6
CONTINUOUS
 62
    7
 10
-132.57103700000005
 20
459.99360650000006
 11
-132.57103700000005
 21
459.77845750000006
  0
LINE
  8
_0-0_0
  6
CONTINUOUS
 62
    7
 10
-132.57103700000005
 20
460.21760549999999
 11
-132.57103700000005
 21
459.99360650000006
  0
LINE
  8
_0-0_0
  6
CONTINUOUS
 62
    7
 10
-132.57103700000005
 20
460.44795250000004
 11
-132.57103700000005
 21
460.21760549999999
  0
LINE
  8
_0-0_0
  6
CONTINUOUS
 62
    7
 10
-132.57103700000005
 20
460.68217449999997
 11
-132.57103700000005
 21
460.44795250000004
  0
LINE
  8
_0-0_0
  6
CONTINUOUS
 62
    7
 10
-132.57103700000005
 20
460.9177095
 11
-132.57103700000005
 21
460.68217449999997
  0
LINE
  8
_0-0_0
  6
CONTINUOUS
 62
    7
 10
-132.57103700000005
 20
461.15193150000005
 11
-132.57103700000005
 21
460.9177095
  0
LINE
  8
_0-0_0
  6
CONTINUOUS
 62
    7
 10
-132.57103700000005
 20
461.38227849999998
 11
-132.57103700000005
 21
461.15193150000005
  0
LINE
  8
_0-0_0
  6
CONTINUOUS
 62
    7
 10
-132.57103700000005
 20
461.60627750000003
 11
-132.57103700000005
 21
461.38227849999998
  0
LINE
  8
_0-0_0
  6
CONTINUOUS
 62
    7
 10
-132.57103700000005
 20
461.82142650000003
 11
-132.57103700000005
 21
461.60627750000003
  0
LINE
  8
_0-0_0
  6
CONTINUOUS
 62
    7
 10
-132.57103700000005
 20
461.87864650000006
 11
-132.57103700000005
 21
461.82142650000003
  0
LINE
  8
_0-0_0
  6
CONTINUOUS
 62
    7
 10
-21.571045000000026
 20
471.64994750000005
 11
-25.571045000000026
 21
471.64994750000005
  0
ARC
  8
_0-0_0
  6
CONTINUOUS
 62
    7
 10
-25.571045000000026
 20
473.89994750000005
 40
2.25
 50
90.000003000000007
 51
269.99999700000006
  0
LINE
  8
_0-0_0
  6
CONTINUOUS
 62
    7
 10
-25.571045000000026
 20
476.14994750000005
 11
-21.571045000000026
 21
476.14994750000005
  0
ARC
  8
_0-0_0
  6
CONTINUOUS
 62
    7
 10
-21.571045000000026
 20
473.89994750000005
 40
2.25
 50
269.99999700000001
 51
90.000002999999992
  0
ARC
  8
_0-0_0
  6
CONTINUOUS
 62
    7
 10
-81.571045000000026
 20
473.89994750000005
 40
2.25
 50
90.000003000000007
 51
269.99999700000006
  0
LINE
  8
_0-0_0
  6
CONTINUOUS
 62
    7
 10
-81.571045000000026
 20
476.14994750000005
 11
-77.571045000000026
 21
476.14994750000005
  0
ARC
  8
_0-0_0
  6
CONTINUOUS
 62
    7
 10
-77.571045000000026
 20
473.89994750000005
 40
2.25
 50
269.99999700000001
 51
90.000002999999992
  0
LINE
  8
_0-0_0
  6
CONTINUOUS
 62
    7
 10
-77.571045000000026
 20
471.64994750000005
 11
-81.571045000000026
 21
471.64994750000005
  0
LINE
  8
_0-0_0
  6
CONTINUOUS
 62
    7
 10
-132.57103700000005
 20
478.6253815
 11
-132.82103700000005
 21
478.64994750000005
  0
LINE
  8
_0-0_0
  6
CONTINUOUS
 62
    7
 10
-132.57103700000005
 20
478.42143250000004
 11
-132.82103700000005
 21
478.64994750000005
  0
LINE
  8
_0-0_0
  6
CONTINUOUS
 62
    7
 10
-132.57103700000005
 20
478.81590249999999
 11
-132.82103700000005
 21
478.86939949999999
  0
LINE
  8
_0-0_0
  6
CONTINUOUS
 62
    7
 10
-132.57103700000005
 20
478.6253815
 11
-132.82103700000005
 21
478.86939949999999
  0
LINE
  8
_0-0_0
  6
CONTINUOUS
 62
    7
 10
-132.57103700000005
 20
478.99092050000002
 11
-132.82103700000005
 21
479.07276950000005
  0
LINE
  8
_0-0_0
  6
CONTINUOUS
 62
    7
 10
-132.57103700000005
 20
478.81590249999999
 11
-132.82103700000005
 21
479.07276950000005
  0
LINE
  8
_0-0_0
  6
CONTINUOUS
 62
    7
 10
-132.57103700000005
 20
479.14851350000004
 11
-132.82103700000005
 21
479.25779750000004
  0
LINE
  8
_0-0_0
  6
CONTINUOUS
 62
    7
 10
-132.57103700000005
 20
478.99092050000002
 11
-132.82103700000005
 21
479.25779750000004
  0
LINE
  8
_0-0_0
  6
CONTINUOUS
 62
    7
 10
-132.57103700000005
 20
479.28694150000001
 11
-132.82103700000005
 21
479.42250049999996
  0
LINE
  8
_0-0_0
  6
CONTINUOUS
 62
    7
 10
-132.57103700000005
 20
479.14851350000004
 11
-132.82103700000005
 21
479.42250049999996
  0
LINE
  8
_0-0_0
  6
CONTINUOUS
 62
    7
 10
-132.57103700000005
 20
479.40470849999997
 11
-132.82103700000005
 21
479.56501749999995
  0
LINE
  8
_0-0_0
  6
CONTINUOUS
 62
    7
 10
-132.57103700000005
 20
479.28694150000001
 11
-132.82103700000005
 21
479.56501749999995
  0
LINE
  8
_0-0_0
  6
CONTINUOUS
 62
    7
 10
-132.57103700000005
 20
479.50050350000004
 11
-132.82103700000005
 21
479.68379149999998
  0
LINE
  8
_0-0_0
  6
CONTINUOUS
 62
    7
 10
-132.57103700000005
 20
479.40470849999997
 11
-132.82103700000005
 21
479.68379149999998
  0
LINE
  8
_0-0_0
  6
CONTINUOUS
 62
    7
 10
-132.57103700000005
 20
479.57328749999999
 11
-132.82103700000005
 21
479.77757250000002
  0
LINE
  8
_0-0_0
  6
CONTINUOUS
 62
    7
 10
-132.57103700000005
 20
479.50050350000004
 11
-132.82103700000005
 21
479.77757250000002
  0
LINE
  8
_0-0_0
  6
CONTINUOUS
 62
    7
 10
-132.57103700000005
 20
479.62223849999998
 11
-132.82103700000005
 21
479.84532149999995
  0
LINE
  8
_0-0_0
  6
CONTINUOUS
 62
    7
 10
-132.57103700000005
 20
479.57328749999999
 11
-132.82103700000005
 21
479.84532149999995
  0
LINE
  8
_0-0_0
  6
CONTINUOUS
 62
    7
 10
-132.57103700000005
 20
479.64686549999999
 11
-132.82103700000005
 21
479.88624549999997
  0
LINE
  8
_0-0_0
  6
CONTINUOUS
 62
    7
 10
-132.57103700000005
 20
479.62223849999998
 11
-132.82103700000005
 21
479.88624549999997
  0
LINE
  8
_0-0_0
  6
CONTINUOUS
 62
    7
 10
-132.57103700000005
 20
479.64686549999999
 11
-132.82103700000005
 21
479.89994750000005
  0
LINE
  8
_0-0_0
  6
CONTINUOUS
 62
    7
 10
-132.57103700000005
 20
475.1530305
 11
-132.82103700000005
 21
474.89994750000005
  0
LINE
  8
_0-0_0
  6
CONTINUOUS
 62
    7
 10
-132.57103700000005
 20
475.17765750000001
 11
-132.82103700000005
 21
474.91365050000002
  0
LINE
  8
_0-0_0
  6
CONTINUOUS
 62
    7
 10
-132.57103700000005
 20
475.1530305
 11
-132.82103700000005
 21
474.91365050000002
  0
LINE
  8
_0-0_0
  6
CONTINUOUS
 62
    7
 10
-132.57103700000005
 20
475.2266085
 11
-132.82103700000005
 21
474.95457450000004
  0
LINE
  8
_0-0_0
  6
CONTINUOUS
 62
    7
 10
-132.57103700000005
 20
475.17765750000001
 11
-132.82103700000005
 21
474.95457450000004
  0
LINE
  8
_0-0_0
  6
CONTINUOUS
 62
    7
 10
-132.57103700000005
 20
475.29939249999995
 11
-132.82103700000005
 21
475.02229250000005
  0
LINE
  8
_0-0_0
  6
CONTINUOUS
 62
    7
 10
-132.57103700000005
 20
475.2266085
 11
-132.82103700000005
 21
475.02229250000005
  0
LINE
  8
_0-0_0
  6
CONTINUOUS
 62
    7
 10
-132.57103700000005
 20
475.39518750000002
 11
-132.82103700000005
 21
475.11607349999997
  0
LINE
  8
_0-0_0
  6
CONTINUOUS
 62
    7
 10
-132.57103700000005
 20
475.29939249999995
 11
-132.82103700000005
 21
475.11607349999997
  0
LINE
  8
_0-0_0
  6
CONTINUOUS
 62
    7
 10
-132.57103700000005
 20
475.39518750000002
 11
-132.70100400000001
 21
475.31132449999996
  0
LINE
  8
_0-0_0
  6
CONTINUOUS
 62
    7
 10
-132.57103700000005
 20
475.51292450000005
 11
-132.82103700000005
 21
475.23487850000004
  0
LINE
  8
_0-0_0
  6
CONTINUOUS
 62
    7
 10
-132.70100400000001
 20
475.31132449999996
 11
-132.82103700000005
 21
475.23487850000004
  0
LINE
  8
_0-0_0
  6
CONTINUOUS
 62
    7
 10
-132.57103700000005
 20
475.65135150000003
 11
-132.82103700000005
 21
475.37739550000003
  0
LINE
  8
_0-0_0
  6
CONTINUOUS
 62
    7
 10
-132.57103700000005
 20
475.51292450000005
 11
-132.82103700000005
 21
475.37739550000003
  0
LINE
  8
_0-0_0
  6
CONTINUOUS
 62
    7
 10
-132.57103700000005
 20
475.80894450000005
 11
-132.82103700000005
 21
475.54206850000003
  0
LINE
  8
_0-0_0
  6
CONTINUOUS
 62
    7
 10
-132.57103700000005
 20
475.65135150000003
 11
-132.82103700000005
 21
475.54206850000003
  0
LINE
  8
_0-0_0
  6
CONTINUOUS
 62
    7
 10
-132.57103700000005
 20
475.98396249999996
 11
-132.82103700000005
 21
475.72712650000005
  0
LINE
  8
_0-0_0
  6
CONTINUOUS
 62
    7
 10
-132.57103700000005
 20
475.80894450000005
 11
-132.82103700000005
 21
475.72712650000005
  0
LINE
  8
_0-0_0
  6
CONTINUOUS
 62
    7
 10
-132.57103700000005
 20
476.17451449999999
 11
-132.82103700000005
 21
475.9304965
  0
LINE
  8
_0-0_0
  6
CONTINUOUS
 62
    7
 10
-132.57103700000005
 20
475.98396249999996
 11
-132.82103700000005
 21
475.9304965
  0
LINE
  8
_0-0_0
  6
CONTINUOUS
 62
    7
 10
-132.57103700000005
 20
476.37846349999995
 11
-132.82103700000005
 21
476.14994750000005
  0
LINE
  8
_0-0_0
  6
CONTINUOUS
 62
    7
 10
-132.57103700000005
 20
476.17451449999999
 11
-132.82103700000005
 21
476.14994750000005
  0
LINE
  8
_0-0_0
  6
CONTINUOUS
 62
    7
 10
-132.57103700000005
 20
476.59361249999995
 11
-132.82103700000005
 21
476.38310249999995
  0
LINE
  8
_0-0_0
  6
CONTINUOUS
 62
    7
 10
-132.57103700000005
 20
476.37846349999995
 11
-132.82103700000005
 21
476.38310249999995
  0
LINE
  8
_0-0_0
  6
CONTINUOUS
 62
    7
 10
-132.57103700000005
 20
476.8176115
 11
-132.82103700000005
 21
476.62739550000003
  0
LINE
  8
_0-0_0
  6
CONTINUOUS
 62
    7
 10
-132.57103700000005
 20
476.59361249999995
 11
-132.82103700000005
 21
476.62739550000003
  0
LINE
  8
_0-0_0
  6
CONTINUOUS
 62
    7
 10
-132.57103700000005
 20
477.04795850000005
 11
-132.82103700000005
 21
476.88017249999996
  0
LINE
  8
_0-0_0
  6
CONTINUOUS
 62
    7
 10
-132.57103700000005
 20
476.8176115
 11
-132.82103700000005
 21
476.88017249999996
  0
LINE
  8
_0-0_0
  6
CONTINUOUS
 62
    7
 10
-132.57103700000005
 20
477.28218049999998
 11
-132.82103700000005
 21
477.13862549999999
  0
LINE
  8
_0-0_0
  6
CONTINUOUS
 62
    7
 10
-132.57103700000005
 20
477.04795850000005
 11
-132.82103700000005
 21
477.13862549999999
  0
LINE
  8
_0-0_0
  6
CONTINUOUS
 62
    7
 10
-132.57103700000005
 20
477.51771550000001
 11
-132.82103700000005
 21
477.39994750000005
  0
LINE
  8
_0-0_0
  6
CONTINUOUS
 62
    7
 10
-132.57103700000005
 20
477.28218049999998
 11
-132.82103700000005
 21
477.39994750000005
  0
LINE
  8
_0-0_0
  6
CONTINUOUS
 62
    7
 10
-132.57103700000005
 20
477.75190750000002
 11
-132.82103700000005
 21
477.6612705
  0
LINE
  8
_0-0_0
  6
CONTINUOUS
 62
    7
 10
-132.57103700000005
 20
477.51771550000001
 11
-132.82103700000005
 21
477.6612705
  0
LINE
  8
_0-0_0
  6
CONTINUOUS
 62
    7
 10
-132.57103700000005
 20
477.98228449999999
 11
-132.82103700000005
 21
477.91972350000003
  0
LINE
  8
_0-0_0
  6
CONTINUOUS
 62
    7
 10
-132.57103700000005
 20
477.75190750000002
 11
-132.82103700000005
 21
477.91972350000003
  0
LINE
  8
_0-0_0
  6
CONTINUOUS
 62
    7
 10
-132.57103700000005
 20
478.20628350000004
 11
-132.82103700000005
 21
478.17250049999996
  0
LINE
  8
_0-0_0
  6
CONTINUOUS
 62
    7
 10
-132.57103700000005
 20
477.98228449999999
 11
-132.82103700000005
 21
478.17250049999996
  0
LINE
  8
_0-0_0
  6
CONTINUOUS
 62
    7
 10
-132.57103700000005
 20
478.42143250000004
 11
-132.82103700000005
 21
478.41679350000004
  0
LINE
  8
_0-0_0
  6
CONTINUOUS
 62
    7
 10
-132.57103700000005
 20
478.20628350000004
 11
-132.82103700000005
 21
478.41679350000004
  0
LINE
  8
_0-0_0
  6
CONTINUOUS
 62
    7
 10
-117.57103700000005
 20
472.9922335
 11
-127.278862
 21
472.9922335
  0
LINE
  8
_0-0_0
  6
CONTINUOUS
 62
    7
 10
-127.278862
 20
472.9922335
 11
-127.33334300000001
 21
473.06217949999996
  0
LINE
  8
_0-0_0
  6
CONTINUOUS
 62
    7
 10
-127.33334300000001
 20
473.06217949999996
 11
-127.38444500000003
 21
473.13099650000004
  0
LINE
  8
_0-0_0
  6
CONTINUOUS
 62
    7
 10
-127.38444500000003
 20
473.13099650000004
 11
-127.43208300000003
 21
473.19850150000002
  0
LINE
  8
_0-0_0
  6
CONTINUOUS
 62
    7
 10
-127.43208300000003
 20
473.19850150000002
 11
-127.476585
 21
473.2650605
  0
LINE
  8
_0-0_0
  6
CONTINUOUS
 62
    7
 10
-127.476585
 20
473.2650605
 11
-127.53131099999996
 21
473.35261549999996
  0
LINE
  8
_0-0_0
  6
CONTINUOUS
 62
    7
 10
-127.53131099999996
 20
473.35261549999996
 11
-127.58081100000004
 21
473.43870549999997
  0
LINE
  8
_0-0_0
  6
CONTINUOUS
 62
    7
 10
-127.58081100000004
 20
473.43870549999997
 11
-127.62528199999997
 21
473.52354449999996
  0
LINE
  8
_0-0_0
  6
CONTINUOUS
 62
    7
 10
-127.62528199999997
 20
473.52354449999996
 11
-127.67224899999997
 21
473.62385549999999
  0
LINE
  8
_0-0_0
  6
CONTINUOUS
 62
    7
 10
-127.67224899999997
 20
473.62385549999999
 11
-127.71245599999997
 21
473.72279349999997
  0
LINE
  8
_0-0_0
  6
CONTINUOUS
 62
    7
 10
-127.71245599999997
 20
473.72279349999997
 11
-127.74612400000001
 21
473.82054149999999
  0
LINE
  8
_0-0_0
  6
CONTINUOUS
 62
    7
 10
-127.74612400000001
 20
473.82054149999999
 11
-127.77340700000002
 21
473.91734350000002
  0
LINE
  8
_0-0_0
  6
CONTINUOUS
 62
    7
 10
-127.77340700000002
 20
473.91734350000002
 11
-127.79445599999997
 21
474.01338150000004
  0
LINE
  8
_0-0_0
  6
CONTINUOUS
 62
    7
 10
-127.79445599999997
 20
474.01338150000004
 11
-127.81038699999999
 21
474.11726350000004
  0
LINE
  8
_0-0_0
  6
CONTINUOUS
 62
    7
 10
-127.81038699999999
 20
474.11726350000004
 11
-127.81914500000005
 21
474.22068750000005
  0
LINE
  8
_0-0_0
  6
CONTINUOUS
 62
    7
 10
-127.81914500000005
 20
474.22068750000005
 11
-127.82077800000002
 21
474.32392849999997
  0
LINE
  8
_0-0_0
  6
CONTINUOUS
 62
    7
 10
-127.82077800000002
 20
474.32392849999997
 11
-127.81530799999996
 21
474.42720050000003
  0
LINE
  8
_0-0_0
  6
CONTINUOUS
 62
    7
 10
-127.81530799999996
 20
474.42720050000003
 11
-127.80270400000006
 21
474.53080750000004
  0
LINE
  8
_0-0_0
  6
CONTINUOUS
 62
    7
 10
-127.80270400000006
 20
474.53080750000004
 11
-127.78288299999997
 21
474.63493349999999
  0
LINE
  8
_0-0_0
  6
CONTINUOUS
 62
    7
 10
-127.78288299999997
 20
474.63493349999999
 11
-127.75573699999995
 21
474.73991350000006
  0
LINE
  8
_0-0_0
  6
CONTINUOUS
 62
    7
 10
-127.75573699999995
 20
474.73991350000006
 11
-127.721092
 21
474.84593150000001
  0
LINE
  8
_0-0_0
  6
CONTINUOUS
 62
    7
 10
-127.721092
 20
474.84593150000001
 11
-127.67874900000004
 21
474.95332350000001
  0
LINE
  8
_0-0_0
  6
CONTINUOUS
 62
    7
 10
-127.67874900000004
 20
474.95332350000001
 11
-127.62843299999997
 21
475.06233250000002
  0
LINE
  8
_0-0_0
  6
CONTINUOUS
 62
    7
 10
-127.62843299999997
 20
475.06233250000002
 11
-127.58273299999996
 21
475.14997849999997
  0
LINE
  8
_0-0_0
  6
CONTINUOUS
 62
    7
 10
-117.57103700000005
 20
471.70762649999995
 11
-127.278862
 21
471.70762649999995
  0
LINE
  8
_0-0_0
  6
CONTINUOUS
 62
    7
 10
-127.278862
 20
471.70762649999995
 11
-127.373199
 21
471.46101350000004
  0
LINE
  8
_0-0_0
  6
CONTINUOUS
 62
    7
 10
-127.373199
 20
471.46101350000004
 11
-127.45714599999997
 21
471.22105350000004
  0
LINE
  8
_0-0_0
  6
CONTINUOUS
 62
    7
 10
-127.45714599999997
 20
471.22105350000004
 11
-127.53131099999996
 21
470.98692349999999
  0
LINE
  8
_0-0_0
  6
CONTINUOUS
 62
    7
 10
-127.53131099999996
 20
470.98692349999999
 11
-127.59618399999999
 21
470.75788850000004
  0
LINE
  8
_0-0_0
  6
CONTINUOUS
 62
    7
 10
-127.59618399999999
 20
470.75788850000004
 11
-127.65222200000005
 21
470.53321849999998
  0
LINE
  8
_0-0_0
  6
CONTINUOUS
 62
    7
 10
-127.65222200000005
 20
470.53321849999998
 11
-127.699791
 21
470.31224050000003
  0
LINE
  8
_0-0_0
  6
CONTINUOUS
 62
    7
 10
-127.699791
 20
470.31224050000003
 11
-127.73919699999999
 21
470.0943145
  0
LINE
  8
_0-0_0
  6
CONTINUOUS
 62
    7
 10
-127.73919699999999
 20
470.0943145
 11
-127.77069100000006
 21
469.87886049999997
  0
LINE
  8
_0-0_0
  6
CONTINUOUS
 62
    7
 10
-127.77069100000006
 20
469.87886049999997
 11
-127.79445599999997
 21
469.66532849999999
  0
LINE
  8
_0-0_0
  6
CONTINUOUS
 62
    7
 10
-127.79445599999997
 20
469.66532849999999
 11
-127.81038699999999
 21
469.45762649999995
  0
LINE
  8
_0-0_0
  6
CONTINUOUS
 62
    7
 10
-127.81038699999999
 20
469.45762649999995
 11
-127.81914500000005
 21
469.25077850000002
  0
LINE
  8
_0-0_0
  6
CONTINUOUS
 62
    7
 10
-127.81914500000005
 20
469.25077850000002
 11
-127.82077800000002
 21
469.04429649999997
  0
LINE
  8
_0-0_0
  6
CONTINUOUS
 62
    7
 10
-127.82077800000002
 20
469.04429649999997
 11
-127.81530799999996
 21
468.83772250000004
  0
LINE
  8
_0-0_0
  6
CONTINUOUS
 62
    7
 10
-127.81530799999996
 20
468.83772250000004
 11
-127.80270400000006
 21
468.63053850000006
  0
LINE
  8
_0-0_0
  6
CONTINUOUS
 62
    7
 10
-127.80270400000006
 20
468.63053850000006
 11
-127.78288299999997
 21
468.4222565
  0
LINE
  8
_0-0_0
  6
CONTINUOUS
 62
    7
 10
-127.78288299999997
 20
468.4222565
 11
-127.75573699999995
 21
468.21232550000002
  0
LINE
  8
_0-0_0
  6
CONTINUOUS
 62
    7
 10
-127.75573699999995
 20
468.21232550000002
 11
-127.721092
 21
468.00025949999997
  0
LINE
  8
_0-0_0
  6
CONTINUOUS
 62
    7
 10
-127.721092
 20
468.00025949999997
 11
-127.67874900000004
 21
467.78550749999999
  0
LINE
  8
_0-0_0
  6
CONTINUOUS
 62
    7
 10
-127.67874900000004
 20
467.78550749999999
 11
-127.62843299999997
 21
467.56748949999997
  0
LINE
  8
_0-0_0
  6
CONTINUOUS
 62
    7
 10
-127.62843299999997
 20
467.56748949999997
 11
-127.57418099999995
 21
467.36122150000006
  0
LINE
  8
_0-0_0
  6
CONTINUOUS
 62
    7
 10
-127.57418099999995
 20
467.36122150000006
 11
-127.512474
 21
467.15110749999997
  0
LINE
  8
_0-0_0
  6
CONTINUOUS
 62
    7
 10
-127.512474
 20
467.15110749999997
 11
-127.44295499999998
 21
466.93663049999998
  0
LINE
  8
_0-0_0
  6
CONTINUOUS
 62
    7
 10
-127.44295499999998
 20
466.93663049999998
 11
-127.36524199999997
 21
466.71723950000001
  0
LINE
  8
_0-0_0
  6
CONTINUOUS
 62
    7
 10
-127.36524199999997
 20
466.71723950000001
 11
-127.278862
 21
466.4922335
  0
LINE
  8
_0-0_0
  6
CONTINUOUS
 62
    7
 10
-117.57103700000005
 20
466.4922335
 11
-127.278862
 21
466.4922335
  0
ARC
  8
_0-0_0
  6
CONTINUOUS
 62
    7
 10
-122.40731000000005
 20
472.34992950000003
 40
4.9136889999999998
 50
172.48898299999999
 51
187.51101699999998
  0
LINE
  8
_0-0_0
  6
CONTINUOUS
 62
    7
 10
-117.57103700000005
 20
465.20762649999995
 11
-127.278862
 21
465.20762649999995
  0
LINE
  8
_0-0_0
  6
CONTINUOUS
 62
    7
 10
-127.278862
 20
462.59992950000003
 11
-127.33334300000001
 21
462.66987549999999
  0
LINE
  8
_0-0_0
  6
CONTINUOUS
 62
    7
 10
-127.33334300000001
 20
462.66987549999999
 11
-127.38444500000003
 21
462.73869349999995
  0
LINE
  8
_0-0_0
  6
CONTINUOUS
 62
    7
 10
-127.38444500000003
 20
462.73869349999995
 11
-127.43208300000003
 21
462.80619750000005
  0
LINE
  8
_0-0_0
  6
CONTINUOUS
 62
    7
 10
-127.43208300000003
 20
462.80619750000005
 11
-127.476585
 21
462.87275650000004
  0
LINE
  8
_0-0_0
  6
CONTINUOUS
 62
    7
 10
-127.476585
 20
462.87275650000004
 11
-127.53131099999996
 21
462.96031149999999
  0
LINE
  8
_0-0_0
  6
CONTINUOUS
 62
    7
 10
-127.53131099999996
 20
462.96031149999999
 11
-127.58081100000004
 21
463.0464015
  0
LINE
  8
_0-0_0
  6
CONTINUOUS
 62
    7
 10
-127.58081100000004
 20
463.0464015
 11
-127.62528199999997
 21
463.13124049999999
  0
LINE
  8
_0-0_0
  6
CONTINUOUS
 62
    7
 10
-127.62528199999997
 20
463.13124049999999
 11
-127.67224899999997
 21
463.23155150000002
  0
LINE
  8
_0-0_0
  6
CONTINUOUS
 62
    7
 10
-127.67224899999997
 20
463.23155150000002
 11
-127.71245599999997
 21
463.3304895
  0
LINE
  8
_0-0_0
  6
CONTINUOUS
 62
    7
 10
-127.71245599999997
 20
463.3304895
 11
-127.74612400000001
 21
463.42823750000002
  0
LINE
  8
_0-0_0
  6
CONTINUOUS
 62
    7
 10
-127.74612400000001
 20
463.42823750000002
 11
-127.77340700000002
 21
463.52503950000005
  0
LINE
  8
_0-0_0
  6
CONTINUOUS
 62
    7
 10
-127.77340700000002
 20
463.52503950000005
 11
-127.79445599999997
 21
463.62107849999995
  0
LINE
  8
_0-0_0
  6
CONTINUOUS
 62
    7
 10
-127.79445599999997
 20
463.62107849999995
 11
-127.81038699999999
 21
463.72496049999995
  0
LINE
  8
_0-0_0
  6
CONTINUOUS
 62
    7
 10
-127.81038699999999
 20
463.72496049999995
 11
-127.81914500000005
 21
463.82838449999997
  0
LINE
  8
_0-0_0
  6
CONTINUOUS
 62
    7
 10
-127.81914500000005
 20
463.82838449999997
 11
-127.82077800000002
 21
463.93159449999996
  0
LINE
  8
_0-0_0
  6
CONTINUOUS
 62
    7
 10
-127.82077800000002
 20
463.93159449999996
 11
-127.81530799999996
 21
464.03489650000006
  0
LINE
  8
_0-0_0
  6
CONTINUOUS
 62
    7
 10
-127.81530799999996
 20
464.03489650000006
 11
-127.80270400000006
 21
464.13850349999996
  0
LINE
  8
_0-0_0
  6
CONTINUOUS
 62
    7
 10
-127.80270400000006
 20
464.13850349999996
 11
-127.78288299999997
 21
464.24262950000002
  0
LINE
  8
_0-0_0
  6
CONTINUOUS
 62
    7
 10
-127.78288299999997
 20
464.24262950000002
 11
-127.75573699999995
 21
464.34761049999997
  0
LINE
  8
_0-0_0
  6
CONTINUOUS
 62
    7
 10
-127.75573699999995
 20
464.34761049999997
 11
-127.721092
 21
464.45362850000004
  0
LINE
  8
_0-0_0
  6
CONTINUOUS
 62
    7
 10
-127.721092
 20
464.45362850000004
 11
-127.67874900000004
 21
464.56101950000004
  0
LINE
  8
_0-0_0
  6
CONTINUOUS
 62
    7
 10
-127.67874900000004
 20
464.56101950000004
 11
-127.62843299999997
 21
464.66999850000002
  0
LINE
  8
_0-0_0
  6
CONTINUOUS
 62
    7
 10
-127.62843299999997
 20
464.66999850000002
 11
-127.57418099999995
 21
464.77314750000005
  0
LINE
  8
_0-0_0
  6
CONTINUOUS
 62
    7
 10
-127.57418099999995
 20
464.77314750000005
 11
-127.512474
 21
464.8782195
  0
LINE
  8
_0-0_0
  6
CONTINUOUS
 62
    7
 10
-127.512474
 20
464.8782195
 11
-127.44295499999998
 21
464.98542750000001
  0
LINE
  8
_0-0_0
  6
CONTINUOUS
 62
    7
 10
-127.44295499999998
 20
464.98542750000001
 11
-127.36524199999997
 21
465.09513849999996
  0
LINE
  8
_0-0_0
  6
CONTINUOUS
 62
    7
 10
-127.36524199999997
 20
465.09513849999996
 11
-127.278862
 21
465.20762649999995
  0
LINE
  8
_0-0_0
  6
CONTINUOUS
 62
    7
 10
-117.57103700000005
 20
462.59992950000003
 11
-127.278862
 21
462.59992950000003
  0
ARC
  8
_0-0_0
  6
CONTINUOUS
 62
    7
 10
-122.39714800000002
 20
465.84904449999999
 40
4.9238749999999998
 50
172.49424200000001
 51
181.535968
  0
ARC
  8
_0-0_0
  6
CONTINUOUS
 62
    7
 10
-122.35912299999995
 20
465.85401950000005
 40
4.9620009999999999
 50
181.58130700000004
 51
187.48478900000003
  0
LINE
  8
_0-0_0
  6
CONTINUOUS
 62
    7
 10
-127.32103700000005
 20
462.59992950000003
 11
-127.278862
 21
462.59992950000003
  0
LINE
  8
_0-0_0
  6
CONTINUOUS
 62
    7
 10
-132.57103700000005
 20
462.0253755
 11
-132.82103700000005
 21
462.04994150000005
  0
LINE
  8
_0-0_0
  6
CONTINUOUS
 62
    7
 10
-132.57103700000005
 20
461.82142650000003
 11
-132.82103700000005
 21
462.04994150000005
  0
LINE
  8
_0-0_0
  6
CONTINUOUS
 62
    7
 10
-132.57103700000005
 20
462.21592650000002
 11
-132.82103700000005
 21
462.26939349999998
  0
LINE
  8
_0-0_0
  6
CONTINUOUS
 62
    7
 10
-132.57103700000005
 20
462.0253755
 11
-132.82103700000005
 21
462.26939349999998
  0
LINE
  8
_0-0_0
  6
CONTINUOUS
 62
    7
 10
-132.57103700000005
 20
462.39094550000004
 11
-132.82103700000005
 21
462.47276250000004
  0
LINE
  8
_0-0_0
  6
CONTINUOUS
 62
    7
 10
-132.57103700000005
 20
462.21592650000002
 11
-132.82103700000005
 21
462.47276250000004
  0
LINE
  8
_0-0_0
  6
CONTINUOUS
 62
    7
 10
-132.57103700000005
 20
462.54850750000003
 11
-132.82103700000005
 21
462.65779150000003
  0
LINE
  8
_0-0_0
  6
CONTINUOUS
 62
    7
 10
-132.57103700000005
 20
462.39094550000004
 11
-132.82103700000005
 21
462.65779150000003
  0
LINE
  8
_0-0_0
  6
CONTINUOUS
 62
    7
 10
-132.57103700000005
 20
462.68696550000004
 11
-132.82103700000005
 21
462.82249449999995
  0
LINE
  8
_0-0_0
  6
CONTINUOUS
 62
    7
 10
-132.57103700000005
 20
462.54850750000003
 11
-132.82103700000005
 21
462.82249449999995
  0
LINE
  8
_0-0_0
  6
CONTINUOUS
 62
    7
 10
-132.57103700000005
 20
462.80470249999996
 11
-132.82103700000005
 21
462.96501150000006
  0
LINE
  8
_0-0_0
  6
CONTINUOUS
 62
    7
 10
-132.57103700000005
 20
462.68696550000004
 11
-132.82103700000005
 21
462.96501150000006
  0
LINE
  8
_0-0_0
  6
CONTINUOUS
 62
    7
 10
-132.57103700000005
 20
462.90049750000003
 11
-132.82103700000005
 21
463.08381650000001
  0
LINE
  8
_0-0_0
  6
CONTINUOUS
 62
    7
 10
-132.57103700000005
 20
462.80470249999996
 11
-132.82103700000005
 21
463.08381650000001
  0
LINE
  8
_0-0_0
  6
CONTINUOUS
 62
    7
 10
-132.57103700000005
 20
462.97328149999998
 11
-132.82103700000005
 21
463.17759650000005
  0
LINE
  8
_0-0_0
  6
CONTINUOUS
 62
    7
 10
-132.57103700000005
 20
462.90049750000003
 11
-132.82103700000005
 21
463.17759650000005
  0
LINE
  8
_0-0_0
  6
CONTINUOUS
 62
    7
 10
-132.57103700000005
 20
463.02223149999998
 11
-132.82103700000005
 21
463.24531549999995
  0
LINE
  8
_0-0_0
  6
CONTINUOUS
 62
    7
 10
-132.57103700000005
 20
462.97328149999998
 11
-132.82103700000005
 21
463.24531549999995
  0
LINE
  8
_0-0_0
  6
CONTINUOUS
 62
    7
 10
-132.57103700000005
 20
463.04685949999998
 11
-132.82103700000005
 21
463.28623949999997
  0
LINE
  8
_0-0_0
  6
CONTINUOUS
 62
    7
 10
-132.57103700000005
 20
463.02223149999998
 11
-132.82103700000005
 21
463.28623949999997
  0
LINE
  8
_0-0_0
  6
CONTINUOUS
 62
    7
 10
-132.57103700000005
 20
463.04685949999998
 11
-132.82103700000005
 21
463.29994150000005
  0
LINE
  8
_0-0_0
  6
CONTINUOUS
 62
    7
 10
-132.57103700000005
 20
458.55302449999999
 11
-132.82103700000005
 21
458.29994150000005
  0
LINE
  8
_0-0_0
  6
CONTINUOUS
 62
    7
 10
-132.57103700000005
 20
458.5776515
 11
-132.82103700000005
 21
458.31364450000001
  0
LINE
  8
_0-0_0
  6
CONTINUOUS
 62
    7
 10
-132.57103700000005
 20
458.55302449999999
 11
-132.57426399999997
 21
458.54994150000005
  0
LINE
  8
_0-0_0
  6
CONTINUOUS
 62
    7
 10
-132.57103700000005
 20
458.62660249999999
 11
-132.82103700000005
 21
458.35456850000003
  0
LINE
  8
_0-0_0
  6
CONTINUOUS
 62
    7
 10
-132.57103700000005
 20
458.5776515
 11
-132.82103700000005
 21
458.35456850000003
  0
LINE
  8
_0-0_0
  6
CONTINUOUS
 62
    7
 10
-132.57103700000005
 20
458.69938650000006
 11
-132.82103700000005
 21
458.42228650000004
  0
LINE
  8
_0-0_0
  6
CONTINUOUS
 62
    7
 10
-132.57103700000005
 20
458.62660249999999
 11
-132.82103700000005
 21
458.42228650000004
  0
LINE
  8
_0-0_0
  6
CONTINUOUS
 62
    7
 10
-132.57103700000005
 20
458.79518150000001
 11
-132.82103700000005
 21
458.51606749999996
  0
LINE
  8
_0-0_0
  6
CONTINUOUS
 62
    7
 10
-132.57103700000005
 20
458.69938650000006
 11
-132.82103700000005
 21
458.51606749999996
  0
LINE
  8
_0-0_0
  6
CONTINUOUS
 62
    7
 10
-132.57103700000005
 20
458.79518150000001
 11
-132.70100400000001
 21
458.71131849999995
  0
LINE
  8
_0-0_0
  6
CONTINUOUS
 62
    7
 10
-132.57103700000005
 20
458.91291750000005
 11
-132.82103700000005
 21
458.63487250000003
  0
LINE
  8
_0-0_0
  6
CONTINUOUS
 62
    7
 10
-132.70100400000001
 20
458.71131849999995
 11
-132.82103700000005
 21
458.63487250000003
  0
LINE
  8
_0-0_0
  6
CONTINUOUS
 62
    7
 10
-132.57103700000005
 20
459.05137649999995
 11
-132.82103700000005
 21
458.77738950000003
  0
LINE
  8
_0-0_0
  6
CONTINUOUS
 62
    7
 10
-132.57103700000005
 20
458.91291750000005
 11
-132.82103700000005
 21
458.77738950000003
  0
LINE
  8
_0-0_0
  6
CONTINUOUS
 62
    7
 10
-132.57103700000005
 20
459.20896849999997
 11
-132.82103700000005
 21
458.94209250000006
  0
LINE
  8
_0-0_0
  6
CONTINUOUS
 62
    7
 10
-132.57103700000005
 20
459.05137649999995
 11
-132.82103700000005
 21
458.94209250000006
  0
LINE
  8
_0-0_0
  6
CONTINUOUS
 62
    7
 10
-132.57103700000005
 20
459.38398749999999
 11
-132.82103700000005
 21
459.12712050000005
  0
LINE
  8
_0-0_0
  6
CONTINUOUS
 62
    7
 10
-132.57103700000005
 20
459.20896849999997
 11
-132.82103700000005
 21
459.12712050000005
  0
LINE
  8
_0-0_0
  6
CONTINUOUS
 62
    7
 10
-132.57103700000005
 20
459.57450849999998
 11
-132.82103700000005
 21
459.3304895
  0
LINE
  8
_0-0_0
  6
CONTINUOUS
 62
    7
 10
-132.57103700000005
 20
459.38398749999999
 11
-132.82103700000005
 21
459.3304895
  0
LINE
  8
_0-0_0
  6
CONTINUOUS
 62
    7
 10
-132.57103700000005
 20
459.77845750000006
 11
-132.82103700000005
 21
459.54994150000005
  0
LINE
  8
_0-0_0
  6
CONTINUOUS
 62
    7
 10
-132.57103700000005
 20
459.57450849999998
 11
-132.82103700000005
 21
459.54994150000005
  0
LINE
  8
_0-0_0
  6
CONTINUOUS
 62
    7
 10
-132.57103700000005
 20
459.99360650000006
 11
-132.82103700000005
 21
459.78309650000006
  0
LINE
  8
_0-0_0
  6
CONTINUOUS
 62
    7
 10
-132.57103700000005
 20
459.77845750000006
 11
-132.82103700000005
 21
459.78309650000006
  0
LINE
  8
_0-0_0
  6
CONTINUOUS
 62
    7
 10
-132.57103700000005
 20
460.21760549999999
 11
-132.82103700000005
 21
460.02738950000003
  0
LINE
  8
_0-0_0
  6
CONTINUOUS
 62
    7
 10
-132.57103700000005
 20
459.99360650000006
 11
-132.82103700000005
 21
460.02738950000003
  0
LINE
  8
_0-0_0
  6
CONTINUOUS
 62
    7
 10
-132.57103700000005
 20
460.44795250000004
 11
-132.82103700000005
 21
460.28016649999995
  0
LINE
  8
_0-0_0
  6
CONTINUOUS
 62
    7
 10
-132.57103700000005
 20
460.21760549999999
 11
-132.82103700000005
 21
460.28016649999995
  0
LINE
  8
_0-0_0
  6
CONTINUOUS
 62
    7
 10
-132.57103700000005
 20
460.68217449999997
 11
-132.82103700000005
 21
460.53861949999998
  0
LINE
  8
_0-0_0
  6
CONTINUOUS
 62
    7
 10
-132.57103700000005
 20
460.44795250000004
 11
-132.82103700000005
 21
460.53861949999998
  0
LINE
  8
_0-0_0
  6
CONTINUOUS
 62
    7
 10
-132.57103700000005
 20
460.9177095
 11
-132.82103700000005
 21
460.79994150000005
  0
LINE
  8
_0-0_0
  6
CONTINUOUS
 62
    7
 10
-132.57103700000005
 20
460.68217449999997
 11
-132.82103700000005
 21
460.79994150000005
  0
LINE
  8
_0-0_0
  6
CONTINUOUS
 62
    7
 10
-132.57103700000005
 20
461.15193150000005
 11
-132.82103700000005
 21
461.0612635
  0
LINE
  8
_0-0_0
  6
CONTINUOUS
 62
    7
 10
-132.57103700000005
 20
460.9177095
 11
-132.82103700000005
 21
461.0612635
  0
LINE
  8
_0-0_0
  6
CONTINUOUS
 62
    7
 10
-132.57103700000005
 20
461.38227849999998
 11
-132.82103700000005
 21
461.31971750000002
  0
LINE
  8
_0-0_0
  6
CONTINUOUS
 62
    7
 10
-132.57103700000005
 20
461.15193150000005
 11
-132.82103700000005
 21
461.31971750000002
  0
LINE
  8
_0-0_0
  6
CONTINUOUS
 62
    7
 10
-132.57103700000005
 20
461.60627750000003
 11
-132.82103700000005
 21
461.57249449999995
  0
LINE
  8
_0-0_0
  6
CONTINUOUS
 62
    7
 10
-132.57103700000005
 20
461.38227849999998
 11
-132.82103700000005
 21
461.57249449999995
  0
LINE
  8
_0-0_0
  6
CONTINUOUS
 62
    7
 10
-132.57103700000005
 20
461.82142650000003
 11
-132.82103700000005
 21
461.81678750000003
  0
LINE
  8
_0-0_0
  6
CONTINUOUS
 62
    7
 10
-132.57103700000005
 20
461.60627750000003
 11
-132.82103700000005
 21
461.81678750000003
  0
LINE
  8
_0-0_0
  6
CONTINUOUS
 62
    7
 10
-142.32103700000005
 20
478.6253815
 11
-142.07103700000005
 21
478.64994750000005
  0
LINE
  8
_0-0_0
  6
CONTINUOUS
 62
    7
 10
-142.07103700000005
 20
478.64994750000005
 11
-132.82103700000005
 21
478.64994750000005
  0
LINE
  8
_0-0_0
  6
CONTINUOUS
 62
    7
 10
-142.32103700000005
 20
478.42143250000004
 11
-142.07103700000005
 21
478.64994750000005
  0
LINE
  8
_0-0_0
  6
CONTINUOUS
 62
    7
 10
-142.32103700000005
 20
478.42143250000004
 11
-132.57103700000005
 21
478.42143250000004
  0
LINE
  8
_0-0_0
  6
CONTINUOUS
 62
    7
 10
-142.32103700000005
 20
478.81590249999999
 11
-142.07103700000005
 21
478.86939949999999
  0
LINE
  8
_0-0_0
  6
CONTINUOUS
 62
    7
 10
-142.07103700000005
 20
478.86939949999999
 11
-132.82103700000005
 21
478.86939949999999
  0
LINE
  8
_0-0_0
  6
CONTINUOUS
 62
    7
 10
-142.32103700000005
 20
478.6253815
 11
-142.07103700000005
 21
478.86939949999999
  0
LINE
  8
_0-0_0
  6
CONTINUOUS
 62
    7
 10
-142.32103700000005
 20
478.99092050000002
 11
-142.07103700000005
 21
479.07276950000005
  0
LINE
  8
_0-0_0
  6
CONTINUOUS
 62
    7
 10
-142.07103700000005
 20
479.07276950000005
 11
-132.82103700000005
 21
479.07276950000005
  0
LINE
  8
_0-0_0
  6
CONTINUOUS
 62
    7
 10
-142.32103700000005
 20
478.81590249999999
 11
-142.07103700000005
 21
479.07276950000005
  0
LINE
  8
_0-0_0
  6
CONTINUOUS
 62
    7
 10
-142.32103700000005
 20
479.14851350000004
 11
-142.07103700000005
 21
479.25779750000004
  0
LINE
  8
_0-0_0
  6
CONTINUOUS
 62
    7
 10
-142.07103700000005
 20
479.25779750000004
 11
-132.82103700000005
 21
479.25779750000004
  0
LINE
  8
_0-0_0
  6
CONTINUOUS
 62
    7
 10
-142.32103700000005
 20
478.99092050000002
 11
-142.07103700000005
 21
479.25779750000004
  0
LINE
  8
_0-0_0
  6
CONTINUOUS
 62
    7
 10
-142.32103700000005
 20
479.28694150000001
 11
-142.07103700000005
 21
479.42250049999996
  0
LINE
  8
_0-0_0
  6
CONTINUOUS
 62
    7
 10
-142.07103700000005
 20
479.42250049999996
 11
-132.82103700000005
 21
479.42250049999996
  0
LINE
  8
_0-0_0
  6
CONTINUOUS
 62
    7
 10
-142.32103700000005
 20
479.14851350000004
 11
-142.07103700000005
 21
479.42250049999996
  0
LINE
  8
_0-0_0
  6
CONTINUOUS
 62
    7
 10
-142.32103700000005
 20
479.40470849999997
 11
-142.07103700000005
 21
479.56501749999995
  0
LINE
  8
_0-0_0
  6
CONTINUOUS
 62
    7
 10
-142.07103700000005
 20
479.56501749999995
 11
-132.82103700000005
 21
479.56501749999995
  0
LINE
  8
_0-0_0
  6
CONTINUOUS
 62
    7
 10
-142.32103700000005
 20
479.28694150000001
 11
-142.07103700000005
 21
479.56501749999995
  0
LINE
  8
_0-0_0
  6
CONTINUOUS
 62
    7
 10
-142.32103700000005
 20
479.50050350000004
 11
-142.07103700000005
 21
479.68379149999998
  0
LINE
  8
_0-0_0
  6
CONTINUOUS
 62
    7
 10
-142.07103700000005
 20
479.68379149999998
 11
-132.82103700000005
 21
479.68379149999998
  0
LINE
  8
_0-0_0
  6
CONTINUOUS
 62
    7
 10
-142.32103700000005
 20
479.40470849999997
 11
-142.07103700000005
 21
479.68379149999998
  0
LINE
  8
_0-0_0
  6
CONTINUOUS
 62
    7
 10
-142.32103700000005
 20
479.57328749999999
 11
-142.07103700000005
 21
479.77757250000002
  0
LINE
  8
_0-0_0
  6
CONTINUOUS
 62
    7
 10
-142.07103700000005
 20
479.77757250000002
 11
-132.82103700000005
 21
479.77757250000002
  0
LINE
  8
_0-0_0
  6
CONTINUOUS
 62
    7
 10
-142.32103700000005
 20
479.50050350000004
 11
-142.07103700000005
 21
479.77757250000002
  0
LINE
  8
_0-0_0
  6
CONTINUOUS
 62
    7
 10
-142.32103700000005
 20
479.62223849999998
 11
-142.07103700000005
 21
479.84532149999995
  0
LINE
  8
_0-0_0
  6
CONTINUOUS
 62
    7
 10
-142.07103700000005
 20
479.84532149999995
 11
-132.82103700000005
 21
479.84532149999995
  0
LINE
  8
_0-0_0
  6
CONTINUOUS
 62
    7
 10
-142.32103700000005
 20
479.57328749999999
 11
-142.07103700000005
 21
479.84532149999995
  0
LINE
  8
_0-0_0
  6
CONTINUOUS
 62
    7
 10
-142.32103700000005
 20
479.64686549999999
 11
-142.07103700000005
 21
479.88624549999997
  0
LINE
  8
_0-0_0
  6
CONTINUOUS
 62
    7
 10
-142.07103700000005
 20
479.88624549999997
 11
-132.82103700000005
 21
479.88624549999997
  0
LINE
  8
_0-0_0
  6
CONTINUOUS
 62
    7
 10
-142.32103700000005
 20
479.62223849999998
 11
-142.07103700000005
 21
479.88624549999997
  0
LINE
  8
_0-0_0
  6
CONTINUOUS
 62
    7
 10
-142.07103700000005
 20
479.89994750000005
 11
-132.82103700000005
 21
479.89994750000005
  0
LINE
  8
_0-0_0
  6
CONTINUOUS
 62
    7
 10
-142.32103700000005
 20
479.64686549999999
 11
-142.07103700000005
 21
479.89994750000005
  0
LINE
  8
_0-0_0
  6
CONTINUOUS
 62
    7
 10
-142.32103700000005
 20
475.1530305
 11
-142.07103700000005
 21
474.89994750000005
  0
LINE
  8
_0-0_0
  6
CONTINUOUS
 62
    7
 10
-142.07103700000005
 20
474.89994750000005
 11
-132.82103700000005
 21
474.89994750000005
  0
LINE
  8
_0-0_0
  6
CONTINUOUS
 62
    7
 10
-142.32103700000005
 20
475.17765750000001
 11
-142.07103700000005
 21
474.91365050000002
  0
LINE
  8
_0-0_0
  6
CONTINUOUS
 62
    7
 10
-142.07103700000005
 20
474.91365050000002
 11
-132.82103700000005
 21
474.91365050000002
  0
LINE
  8
_0-0_0
  6
CONTINUOUS
 62
    7
 10
-142.32103700000005
 20
475.1530305
 11
-142.07103700000005
 21
474.91365050000002
  0
LINE
  8
_0-0_0
  6
CONTINUOUS
 62
    7
 10
-142.32103700000005
 20
475.2266085
 11
-142.07103700000005
 21
474.95457450000004
  0
LINE
  8
_0-0_0
  6
CONTINUOUS
 62
    7
 10
-142.07103700000005
 20
474.95457450000004
 11
-132.82103700000005
 21
474.95457450000004
  0
LINE
  8
_0-0_0
  6
CONTINUOUS
 62
    7
 10
-142.32103700000005
 20
475.17765750000001
 11
-142.07103700000005
 21
474.95457450000004
  0
LINE
  8
_0-0_0
  6
CONTINUOUS
 62
    7
 10
-142.32103700000005
 20
475.29939249999995
 11
-142.07103700000005
 21
475.02229250000005
  0
LINE
  8
_0-0_0
  6
CONTINUOUS
 62
    7
 10
-142.07103700000005
 20
475.02229250000005
 11
-132.82103700000005
 21
475.02229250000005
  0
LINE
  8
_0-0_0
  6
CONTINUOUS
 62
    7
 10
-142.32103700000005
 20
475.2266085
 11
-142.07103700000005
 21
475.02229250000005
  0
LINE
  8
_0-0_0
  6
CONTINUOUS
 62
    7
 10
-142.32103700000005
 20
475.39518750000002
 11
-142.07103700000005
 21
475.11607349999997
  0
LINE
  8
_0-0_0
  6
CONTINUOUS
 62
    7
 10
-142.07103700000005
 20
475.11607349999997
 11
-132.82103700000005
 21
475.11607349999997
  0
LINE
  8
_0-0_0
  6
CONTINUOUS
 62
    7
 10
-142.32103700000005
 20
475.29939249999995
 11
-142.07103700000005
 21
475.11607349999997
  0
LINE
  8
_0-0_0
  6
CONTINUOUS
 62
    7
 10
-142.07103700000005
 20
475.23487850000004
 11
-132.82103700000005
 21
475.23487850000004
  0
LINE
  8
_0-0_0
  6
CONTINUOUS
 62
    7
 10
-142.19107099999997
 20
475.31132449999996
 11
-142.07103700000005
 21
475.23487850000004
  0
LINE
  8
_0-0_0
  6
CONTINUOUS
 62
    7
 10
-142.32103700000005
 20
475.39518750000002
 11
-142.19107099999997
 21
475.31132449999996
  0
LINE
  8
_0-0_0
  6
CONTINUOUS
 62
    7
 10
-142.32103700000005
 20
475.51292450000005
 11
-142.07103700000005
 21
475.23487850000004
  0
LINE
  8
_0-0_0
  6
CONTINUOUS
 62
    7
 10
-142.32103700000005
 20
475.65135150000003
 11
-142.07103700000005
 21
475.37739550000003
  0
LINE
  8
_0-0_0
  6
CONTINUOUS
 62
    7
 10
-142.07103700000005
 20
475.37739550000003
 11
-132.82103700000005
 21
475.37739550000003
  0
LINE
  8
_0-0_0
  6
CONTINUOUS
 62
    7
 10
-142.32103700000005
 20
475.51292450000005
 11
-142.07103700000005
 21
475.37739550000003
  0
LINE
  8
_0-0_0
  6
CONTINUOUS
 62
    7
 10
-142.32103700000005
 20
475.80894450000005
 11
-142.07103700000005
 21
475.54206850000003
  0
LINE
  8
_0-0_0
  6
CONTINUOUS
 62
    7
 10
-142.07103700000005
 20
475.54206850000003
 11
-132.82103700000005
 21
475.54206850000003
  0
LINE
  8
_0-0_0
  6
CONTINUOUS
 62
    7
 10
-142.32103700000005
 20
475.65135150000003
 11
-142.07103700000005
 21
475.54206850000003
  0
LINE
  8
_0-0_0
  6
CONTINUOUS
 62
    7
 10
-142.32103700000005
 20
475.98396249999996
 11
-142.07103700000005
 21
475.72712650000005
  0
LINE
  8
_0-0_0
  6
CONTINUOUS
 62
    7
 10
-142.07103700000005
 20
475.72712650000005
 11
-132.82103700000005
 21
475.72712650000005
  0
LINE
  8
_0-0_0
  6
CONTINUOUS
 62
    7
 10
-142.32103700000005
 20
475.80894450000005
 11
-142.07103700000005
 21
475.72712650000005
  0
LINE
  8
_0-0_0
  6
CONTINUOUS
 62
    7
 10
-142.32103700000005
 20
476.17451449999999
 11
-142.07103700000005
 21
475.9304965
  0
LINE
  8
_0-0_0
  6
CONTINUOUS
 62
    7
 10
-142.07103700000005
 20
475.9304965
 11
-132.82103700000005
 21
475.9304965
  0
LINE
  8
_0-0_0
  6
CONTINUOUS
 62
    7
 10
-142.32103700000005
 20
475.98396249999996
 11
-142.07103700000005
 21
475.9304965
  0
LINE
  8
_0-0_0
  6
CONTINUOUS
 62
    7
 10
-142.32103700000005
 20
476.37846349999995
 11
-142.07103700000005
 21
476.14994750000005
  0
LINE
  8
_0-0_0
  6
CONTINUOUS
 62
    7
 10
-142.07103700000005
 20
476.14994750000005
 11
-132.82103700000005
 21
476.14994750000005
  0
LINE
  8
_0-0_0
  6
CONTINUOUS
 62
    7
 10
-142.32103700000005
 20
476.37846349999995
 11
-132.57103700000005
 21
476.37846349999995
  0
LINE
  8
_0-0_0
  6
CONTINUOUS
 62
    7
 10
-142.32103700000005
 20
476.17451449999999
 11
-142.07103700000005
 21
476.14994750000005
  0
LINE
  8
_0-0_0
  6
CONTINUOUS
 62
    7
 10
-142.32103700000005
 20
476.59361249999995
 11
-142.07103700000005
 21
476.38310249999995
  0
LINE
  8
_0-0_0
  6
CONTINUOUS
 62
    7
 10
-142.07103700000005
 20
476.38310249999995
 11
-132.82103700000005
 21
476.38310249999995
  0
LINE
  8
_0-0_0
  6
CONTINUOUS
 62
    7
 10
-142.32103700000005
 20
476.59361249999995
 11
-132.57103700000005
 21
476.59361249999995
  0
LINE
  8
_0-0_0
  6
CONTINUOUS
 62
    7
 10
-142.32103700000005
 20
476.37846349999995
 11
-142.07103700000005
 21
476.38310249999995
  0
LINE
  8
_0-0_0
  6
CONTINUOUS
 62
    7
 10
-142.32103700000005
 20
476.8176115
 11
-142.07103700000005
 21
476.62739550000003
  0
LINE
  8
_0-0_0
  6
CONTINUOUS
 62
    7
 10
-142.07103700000005
 20
476.62739550000003
 11
-132.82103700000005
 21
476.62739550000003
  0
LINE
  8
_0-0_0
  6
CONTINUOUS
 62
    7
 10
-142.32103700000005
 20
476.8176115
 11
-132.57103700000005
 21
476.8176115
  0
LINE
  8
_0-0_0
  6
CONTINUOUS
 62
    7
 10
-142.32103700000005
 20
476.59361249999995
 11
-142.07103700000005
 21
476.62739550000003
  0
LINE
  8
_0-0_0
  6
CONTINUOUS
 62
    7
 10
-142.32103700000005
 20
477.04795850000005
 11
-142.07103700000005
 21
476.88017249999996
  0
LINE
  8
_0-0_0
  6
CONTINUOUS
 62
    7
 10
-142.07103700000005
 20
476.88017249999996
 11
-132.82103700000005
 21
476.88017249999996
  0
LINE
  8
_0-0_0
  6
CONTINUOUS
 62
    7
 10
-142.32103700000005
 20
477.04795850000005
 11
-132.57103700000005
 21
477.04795850000005
  0
LINE
  8
_0-0_0
  6
CONTINUOUS
 62
    7
 10
-142.32103700000005
 20
476.8176115
 11
-142.07103700000005
 21
476.88017249999996
  0
LINE
  8
_0-0_0
  6
CONTINUOUS
 62
    7
 10
-142.32103700000005
 20
477.28218049999998
 11
-142.07103700000005
 21
477.13862549999999
  0
LINE
  8
_0-0_0
  6
CONTINUOUS
 62
    7
 10
-142.07103700000005
 20
477.13862549999999
 11
-132.82103700000005
 21
477.13862549999999
  0
LINE
  8
_0-0_0
  6
CONTINUOUS
 62
    7
 10
-142.32103700000005
 20
477.28218049999998
 11
-132.57103700000005
 21
477.28218049999998
  0
LINE
  8
_0-0_0
  6
CONTINUOUS
 62
    7
 10
-142.32103700000005
 20
477.04795850000005
 11
-142.07103700000005
 21
477.13862549999999
  0
LINE
  8
_0-0_0
  6
CONTINUOUS
 62
    7
 10
-142.32103700000005
 20
477.51771550000001
 11
-142.07103700000005
 21
477.39994750000005
  0
LINE
  8
_0-0_0
  6
CONTINUOUS
 62
    7
 10
-142.07103700000005
 20
477.39994750000005
 11
-132.82103700000005
 21
477.39994750000005
  0
LINE
  8
_0-0_0
  6
CONTINUOUS
 62
    7
 10
-142.32103700000005
 20
477.51771550000001
 11
-132.57103700000005
 21
477.51771550000001
  0
LINE
  8
_0-0_0
  6
CONTINUOUS
 62
    7
 10
-142.32103700000005
 20
477.28218049999998
 11
-142.07103700000005
 21
477.39994750000005
  0
LINE
  8
_0-0_0
  6
CONTINUOUS
 62
    7
 10
-142.32103700000005
 20
477.75190750000002
 11
-142.07103700000005
 21
477.6612705
  0
LINE
  8
_0-0_0
  6
CONTINUOUS
 62
    7
 10
-142.07103700000005
 20
477.6612705
 11
-132.82103700000005
 21
477.6612705
  0
LINE
  8
_0-0_0
  6
CONTINUOUS
 62
    7
 10
-142.32103700000005
 20
477.75190750000002
 11
-132.57103700000005
 21
477.75190750000002
  0
LINE
  8
_0-0_0
  6
CONTINUOUS
 62
    7
 10
-142.32103700000005
 20
477.51771550000001
 11
-142.07103700000005
 21
477.6612705
  0
LINE
  8
_0-0_0
  6
CONTINUOUS
 62
    7
 10
-142.32103700000005
 20
477.98228449999999
 11
-142.07103700000005
 21
477.91972350000003
  0
LINE
  8
_0-0_0
  6
CONTINUOUS
 62
    7
 10
-142.07103700000005
 20
477.91972350000003
 11
-132.82103700000005
 21
477.91972350000003
  0
LINE
  8
_0-0_0
  6
CONTINUOUS
 62
    7
 10
-142.32103700000005
 20
477.98228449999999
 11
-132.57103700000005
 21
477.98228449999999
  0
LINE
  8
_0-0_0
  6
CONTINUOUS
 62
    7
 10
-142.32103700000005
 20
477.75190750000002
 11
-142.07103700000005
 21
477.91972350000003
  0
LINE
  8
_0-0_0
  6
CONTINUOUS
 62
    7
 10
-142.32103700000005
 20
478.20628350000004
 11
-142.07103700000005
 21
478.17250049999996
  0
LINE
  8
_0-0_0
  6
CONTINUOUS
 62
    7
 10
-142.07103700000005
 20
478.17250049999996
 11
-132.82103700000005
 21
478.17250049999996
  0
LINE
  8
_0-0_0
  6
CONTINUOUS
 62
    7
 10
-142.32103700000005
 20
478.20628350000004
 11
-132.57103700000005
 21
478.20628350000004
  0
LINE
  8
_0-0_0
  6
CONTINUOUS
 62
    7
 10
-142.32103700000005
 20
477.98228449999999
 11
-142.07103700000005
 21
478.17250049999996
  0
LINE
  8
_0-0_0
  6
CONTINUOUS
 62
    7
 10
-142.32103700000005
 20
478.42143250000004
 11
-142.07103700000005
 21
478.41679350000004
  0
LINE
  8
_0-0_0
  6
CONTINUOUS
 62
    7
 10
-142.07103700000005
 20
478.41679350000004
 11
-132.82103700000005
 21
478.41679350000004
  0
LINE
  8
_0-0_0
  6
CONTINUOUS
 62
    7
 10
-142.32103700000005
 20
478.20628350000004
 11
-142.07103700000005
 21
478.41679350000004
  0
LINE
  8
_0-0_0
  6
CONTINUOUS
 62
    7
 10
-128.57103700000005
 20
474.34992950000003
 11
-128.57103700000005
 21
466.36839250000003
  0
LINE
  8
_0-0_0
  6
CONTINUOUS
 62
    7
 10
-128.57103700000005
 20
466.36839250000003
 11
-128.57103700000005
 21
463.84992950000003
  0
LINE
  8
_0-0_0
  6
CONTINUOUS
 62
    7
 10
-142.32103700000005
 20
462.0253755
 11
-142.07103700000005
 21
462.04994150000005
  0
LINE
  8
_0-0_0
  6
CONTINUOUS
 62
    7
 10
-142.07103700000005
 20
462.04994150000005
 11
-132.82103700000005
 21
462.04994150000005
  0
LINE
  8
_0-0_0
  6
CONTINUOUS
 62
    7
 10
-142.32103700000005
 20
461.82142650000003
 11
-142.07103700000005
 21
462.04994150000005
  0
LINE
  8
_0-0_0
  6
CONTINUOUS
 62
    7
 10
-142.32103700000005
 20
461.82142650000003
 11
-132.57103700000005
 21
461.82142650000003
  0
LINE
  8
_0-0_0
  6
CONTINUOUS
 62
    7
 10
-142.32103700000005
 20
462.21592650000002
 11
-142.07103700000005
 21
462.26939349999998
  0
LINE
  8
_0-0_0
  6
CONTINUOUS
 62
    7
 10
-142.07103700000005
 20
462.26939349999998
 11
-132.82103700000005
 21
462.26939349999998
  0
LINE
  8
_0-0_0
  6
CONTINUOUS
 62
    7
 10
-142.32103700000005
 20
462.0253755
 11
-142.07103700000005
 21
462.26939349999998
  0
LINE
  8
_0-0_0
  6
CONTINUOUS
 62
    7
 10
-142.32103700000005
 20
462.39094550000004
 11
-142.07103700000005
 21
462.47276250000004
  0
LINE
  8
_0-0_0
  6
CONTINUOUS
 62
    7
 10
-142.07103700000005
 20
462.47276250000004
 11
-132.82103700000005
 21
462.47276250000004
  0
LINE
  8
_0-0_0
  6
CONTINUOUS
 62
    7
 10
-142.32103700000005
 20
462.21592650000002
 11
-142.07103700000005
 21
462.47276250000004
  0
LINE
  8
_0-0_0
  6
CONTINUOUS
 62
    7
 10
-142.32103700000005
 20
462.54850750000003
 11
-142.07103700000005
 21
462.65779150000003
  0
LINE
  8
_0-0_0
  6
CONTINUOUS
 62
    7
 10
-142.07103700000005
 20
462.65779150000003
 11
-132.82103700000005
 21
462.65779150000003
  0
LINE
  8
_0-0_0
  6
CONTINUOUS
 62
    7
 10
-142.32103700000005
 20
462.39094550000004
 11
-142.07103700000005
 21
462.65779150000003
  0
LINE
  8
_0-0_0
  6
CONTINUOUS
 62
    7
 10
-142.32103700000005
 20
462.68696550000004
 11
-142.07103700000005
 21
462.82249449999995
  0
LINE
  8
_0-0_0
  6
CONTINUOUS
 62
    7
 10
-142.07103700000005
 20
462.82249449999995
 11
-132.82103700000005
 21
462.82249449999995
  0
LINE
  8
_0-0_0
  6
CONTINUOUS
 62
    7
 10
-142.32103700000005
 20
462.54850750000003
 11
-142.07103700000005
 21
462.82249449999995
  0
LINE
  8
_0-0_0
  6
CONTINUOUS
 62
    7
 10
-142.32103700000005
 20
462.80470249999996
 11
-142.07103700000005
 21
462.96501150000006
  0
LINE
  8
_0-0_0
  6
CONTINUOUS
 62
    7
 10
-142.07103700000005
 20
462.96501150000006
 11
-132.82103700000005
 21
462.96501150000006
  0
LINE
  8
_0-0_0
  6
CONTINUOUS
 62
    7
 10
-142.32103700000005
 20
462.68696550000004
 11
-142.07103700000005
 21
462.96501150000006
  0
LINE
  8
_0-0_0
  6
CONTINUOUS
 62
    7
 10
-142.32103700000005
 20
462.90049750000003
 11
-142.07103700000005
 21
463.08381650000001
  0
LINE
  8
_0-0_0
  6
CONTINUOUS
 62
    7
 10
-142.07103700000005
 20
463.08381650000001
 11
-132.82103700000005
 21
463.08381650000001
  0
LINE
  8
_0-0_0
  6
CONTINUOUS
 62
    7
 10
-142.32103700000005
 20
462.80470249999996
 11
-142.07103700000005
 21
463.08381650000001
  0
LINE
  8
_0-0_0
  6
CONTINUOUS
 62
    7
 10
-142.32103700000005
 20
462.97328149999998
 11
-142.07103700000005
 21
463.17759650000005
  0
LINE
  8
_0-0_0
  6
CONTINUOUS
 62
    7
 10
-142.07103700000005
 20
463.17759650000005
 11
-132.82103700000005
 21
463.17759650000005
  0
LINE
  8
_0-0_0
  6
CONTINUOUS
 62
    7
 10
-142.32103700000005
 20
462.90049750000003
 11
-142.07103700000005
 21
463.17759650000005
  0
LINE
  8
_0-0_0
  6
CONTINUOUS
 62
    7
 10
-142.32103700000005
 20
463.02223149999998
 11
-142.07103700000005
 21
463.24531549999995
  0
LINE
  8
_0-0_0
  6
CONTINUOUS
 62
    7
 10
-142.07103700000005
 20
463.24531549999995
 11
-132.82103700000005
 21
463.24531549999995
  0
LINE
  8
_0-0_0
  6
CONTINUOUS
 62
    7
 10
-142.32103700000005
 20
462.97328149999998
 11
-142.07103700000005
 21
463.24531549999995
  0
LINE
  8
_0-0_0
  6
CONTINUOUS
 62
    7
 10
-142.32103700000005
 20
463.04685949999998
 11
-142.07103700000005
 21
463.28623949999997
  0
LINE
  8
_0-0_0
  6
CONTINUOUS
 62
    7
 10
-142.07103700000005
 20
463.28623949999997
 11
-132.82103700000005
 21
463.28623949999997
  0
LINE
  8
_0-0_0
  6
CONTINUOUS
 62
    7
 10
-142.32103700000005
 20
463.02223149999998
 11
-142.07103700000005
 21
463.28623949999997
  0
LINE
  8
_0-0_0
  6
CONTINUOUS
 62
    7
 10
-142.07103700000005
 20
463.29994150000005
 11
-132.82103700000005
 21
463.29994150000005
  0
LINE
  8
_0-0_0
  6
CONTINUOUS
 62
    7
 10
-142.32103700000005
 20
463.04685949999998
 11
-142.07103700000005
 21
463.29994150000005
  0
LINE
  8
_0-0_0
  6
CONTINUOUS
 62
    7
 10
-142.32103700000005
 20
458.55302449999999
 11
-142.07103700000005
 21
458.29994150000005
  0
LINE
  8
_0-0_0
  6
CONTINUOUS
 62
    7
 10
-142.07103700000005
 20
458.29994150000005
 11
-132.82103700000005
 21
458.29994150000005
  0
LINE
  8
_0-0_0
  6
CONTINUOUS
 62
    7
 10
-142.32103700000005
 20
458.5776515
 11
-142.07103700000005
 21
458.31364450000001
  0
LINE
  8
_0-0_0
  6
CONTINUOUS
 62
    7
 10
-142.07103700000005
 20
458.31364450000001
 11
-132.82103700000005
 21
458.31364450000001
  0
LINE
  8
_0-0_0
  6
CONTINUOUS
 62
    7
 10
-142.32103700000005
 20
458.55302449999999
 11
-142.07103700000005
 21
458.31364450000001
  0
LINE
  8
_0-0_0
  6
CONTINUOUS
 62
    7
 10
-142.32103700000005
 20
458.62660249999999
 11
-142.07103700000005
 21
458.35456850000003
  0
LINE
  8
_0-0_0
  6
CONTINUOUS
 62
    7
 10
-142.07103700000005
 20
458.35456850000003
 11
-132.82103700000005
 21
458.35456850000003
  0
LINE
  8
_0-0_0
  6
CONTINUOUS
 62
    7
 10
-142.32103700000005
 20
458.5776515
 11
-142.07103700000005
 21
458.35456850000003
  0
LINE
  8
_0-0_0
  6
CONTINUOUS
 62
    7
 10
-142.32103700000005
 20
458.69938650000006
 11
-142.07103700000005
 21
458.42228650000004
  0
LINE
  8
_0-0_0
  6
CONTINUOUS
 62
    7
 10
-142.07103700000005
 20
458.42228650000004
 11
-132.82103700000005
 21
458.42228650000004
  0
LINE
  8
_0-0_0
  6
CONTINUOUS
 62
    7
 10
-142.32103700000005
 20
458.62660249999999
 11
-142.07103700000005
 21
458.42228650000004
  0
LINE
  8
_0-0_0
  6
CONTINUOUS
 62
    7
 10
-142.32103700000005
 20
458.79518150000001
 11
-142.07103700000005
 21
458.51606749999996
  0
LINE
  8
_0-0_0
  6
CONTINUOUS
 62
    7
 10
-142.07103700000005
 20
458.51606749999996
 11
-132.82103700000005
 21
458.51606749999996
  0
LINE
  8
_0-0_0
  6
CONTINUOUS
 62
    7
 10
-142.32103700000005
 20
458.69938650000006
 11
-142.07103700000005
 21
458.51606749999996
  0
LINE
  8
_0-0_0
  6
CONTINUOUS
 62
    7
 10
-142.07103700000005
 20
458.63487250000003
 11
-132.82103700000005
 21
458.63487250000003
  0
LINE
  8
_0-0_0
  6
CONTINUOUS
 62
    7
 10
-142.19107099999997
 20
458.71131849999995
 11
-142.07103700000005
 21
458.63487250000003
  0
LINE
  8
_0-0_0
  6
CONTINUOUS
 62
    7
 10
-142.32103700000005
 20
458.79518150000001
 11
-142.19107099999997
 21
458.71131849999995
  0
LINE
  8
_0-0_0
  6
CONTINUOUS
 62
    7
 10
-142.32103700000005
 20
458.91291750000005
 11
-142.07103700000005
 21
458.63487250000003
  0
LINE
  8
_0-0_0
  6
CONTINUOUS
 62
    7
 10
-142.32103700000005
 20
459.05137649999995
 11
-142.07103700000005
 21
458.77738950000003
  0
LINE
  8
_0-0_0
  6
CONTINUOUS
 62
    7
 10
-142.07103700000005
 20
458.77738950000003
 11
-132.82103700000005
 21
458.77738950000003
  0
LINE
  8
_0-0_0
  6
CONTINUOUS
 62
    7
 10
-142.32103700000005
 20
458.91291750000005
 11
-142.07103700000005
 21
458.77738950000003
  0
LINE
  8
_0-0_0
  6
CONTINUOUS
 62
    7
 10
-142.32103700000005
 20
459.20896849999997
 11
-142.07103700000005
 21
458.94209250000006
  0
LINE
  8
_0-0_0
  6
CONTINUOUS
 62
    7
 10
-142.07103700000005
 20
458.94209250000006
 11
-132.82103700000005
 21
458.94209250000006
  0
LINE
  8
_0-0_0
  6
CONTINUOUS
 62
    7
 10
-142.32103700000005
 20
459.05137649999995
 11
-142.07103700000005
 21
458.94209250000006
  0
LINE
  8
_0-0_0
  6
CONTINUOUS
 62
    7
 10
-142.32103700000005
 20
459.38398749999999
 11
-142.07103700000005
 21
459.12712050000005
  0
LINE
  8
_0-0_0
  6
CONTINUOUS
 62
    7
 10
-142.07103700000005
 20
459.12712050000005
 11
-132.82103700000005
 21
459.12712050000005
  0
LINE
  8
_0-0_0
  6
CONTINUOUS
 62
    7
 10
-142.32103700000005
 20
459.20896849999997
 11
-142.07103700000005
 21
459.12712050000005
  0
LINE
  8
_0-0_0
  6
CONTINUOUS
 62
    7
 10
-142.32103700000005
 20
459.57450849999998
 11
-142.07103700000005
 21
459.3304895
  0
LINE
  8
_0-0_0
  6
CONTINUOUS
 62
    7
 10
-142.07103700000005
 20
459.3304895
 11
-132.82103700000005
 21
459.3304895
  0
LINE
  8
_0-0_0
  6
CONTINUOUS
 62
    7
 10
-142.32103700000005
 20
459.38398749999999
 11
-142.07103700000005
 21
459.3304895
  0
LINE
  8
_0-0_0
  6
CONTINUOUS
 62
    7
 10
-142.32103700000005
 20
459.77845750000006
 11
-142.07103700000005
 21
459.54994150000005
  0
LINE
  8
_0-0_0
  6
CONTINUOUS
 62
    7
 10
-142.07103700000005
 20
459.54994150000005
 11
-132.82103700000005
 21
459.54994150000005
  0
LINE
  8
_0-0_0
  6
CONTINUOUS
 62
    7
 10
-142.32103700000005
 20
459.77845750000006
 11
-132.57103700000005
 21
459.77845750000006
  0
LINE
  8
_0-0_0
  6
CONTINUOUS
 62
    7
 10
-142.32103700000005
 20
459.57450849999998
 11
-142.07103700000005
 21
459.54994150000005
  0
LINE
  8
_0-0_0
  6
CONTINUOUS
 62
    7
 10
-142.32103700000005
 20
459.99360650000006
 11
-142.07103700000005
 21
459.78309650000006
  0
LINE
  8
_0-0_0
  6
CONTINUOUS
 62
    7
 10
-142.07103700000005
 20
459.78309650000006
 11
-132.82103700000005
 21
459.78309650000006
  0
LINE
  8
_0-0_0
  6
CONTINUOUS
 62
    7
 10
-142.32103700000005
 20
459.99360650000006
 11
-132.57103700000005
 21
459.99360650000006
  0
LINE
  8
_0-0_0
  6
CONTINUOUS
 62
    7
 10
-142.32103700000005
 20
459.77845750000006
 11
-142.07103700000005
 21
459.78309650000006
  0
LINE
  8
_0-0_0
  6
CONTINUOUS
 62
    7
 10
-142.32103700000005
 20
460.21760549999999
 11
-142.07103700000005
 21
460.02738950000003
  0
LINE
  8
_0-0_0
  6
CONTINUOUS
 62
    7
 10
-142.07103700000005
 20
460.02738950000003
 11
-132.82103700000005
 21
460.02738950000003
  0
LINE
  8
_0-0_0
  6
CONTINUOUS
 62
    7
 10
-142.32103700000005
 20
460.21760549999999
 11
-132.57103700000005
 21
460.21760549999999
  0
LINE
  8
_0-0_0
  6
CONTINUOUS
 62
    7
 10
-142.32103700000005
 20
459.99360650000006
 11
-142.07103700000005
 21
460.02738950000003
  0
LINE
  8
_0-0_0
  6
CONTINUOUS
 62
    7
 10
-142.32103700000005
 20
460.44795250000004
 11
-142.07103700000005
 21
460.28016649999995
  0
LINE
  8
_0-0_0
  6
CONTINUOUS
 62
    7
 10
-142.07103700000005
 20
460.28016649999995
 11
-132.82103700000005
 21
460.28016649999995
  0
LINE
  8
_0-0_0
  6
CONTINUOUS
 62
    7
 10
-142.32103700000005
 20
460.44795250000004
 11
-132.57103700000005
 21
460.44795250000004
  0
LINE
  8
_0-0_0
  6
CONTINUOUS
 62
    7
 10
-142.32103700000005
 20
460.21760549999999
 11
-142.07103700000005
 21
460.28016649999995
  0
LINE
  8
_0-0_0
  6
CONTINUOUS
 62
    7
 10
-142.32103700000005
 20
460.68217449999997
 11
-142.07103700000005
 21
460.53861949999998
  0
LINE
  8
_0-0_0
  6
CONTINUOUS
 62
    7
 10
-142.07103700000005
 20
460.53861949999998
 11
-132.82103700000005
 21
460.53861949999998
  0
LINE
  8
_0-0_0
  6
CONTINUOUS
 62
    7
 10
-142.32103700000005
 20
460.68217449999997
 11
-132.57103700000005
 21
460.68217449999997
  0
LINE
  8
_0-0_0
  6
CONTINUOUS
 62
    7
 10
-142.32103700000005
 20
460.44795250000004
 11
-142.07103700000005
 21
460.53861949999998
  0
LINE
  8
_0-0_0
  6
CONTINUOUS
 62
    7
 10
-142.32103700000005
 20
460.9177095
 11
-142.07103700000005
 21
460.79994150000005
  0
LINE
  8
_0-0_0
  6
CONTINUOUS
 62
    7
 10
-142.07103700000005
 20
460.79994150000005
 11
-132.82103700000005
 21
460.79994150000005
  0
LINE
  8
_0-0_0
  6
CONTINUOUS
 62
    7
 10
-142.32103700000005
 20
460.9177095
 11
-132.57103700000005
 21
460.9177095
  0
LINE
  8
_0-0_0
  6
CONTINUOUS
 62
    7
 10
-142.32103700000005
 20
460.68217449999997
 11
-142.07103700000005
 21
460.79994150000005
  0
LINE
  8
_0-0_0
  6
CONTINUOUS
 62
    7
 10
-142.32103700000005
 20
461.15193150000005
 11
-142.07103700000005
 21
461.0612635
  0
LINE
  8
_0-0_0
  6
CONTINUOUS
 62
    7
 10
-142.07103700000005
 20
461.0612635
 11
-132.82103700000005
 21
461.0612635
  0
LINE
  8
_0-0_0
  6
CONTINUOUS
 62
    7
 10
-142.32103700000005
 20
461.15193150000005
 11
-132.57103700000005
 21
461.15193150000005
  0
LINE
  8
_0-0_0
  6
CONTINUOUS
 62
    7
 10
-142.32103700000005
 20
460.9177095
 11
-142.07103700000005
 21
461.0612635
  0
LINE
  8
_0-0_0
  6
CONTINUOUS
 62
    7
 10
-142.32103700000005
 20
461.38227849999998
 11
-142.07103700000005
 21
461.31971750000002
  0
LINE
  8
_0-0_0
  6
CONTINUOUS
 62
    7
 10
-142.07103700000005
 20
461.31971750000002
 11
-132.82103700000005
 21
461.31971750000002
  0
LINE
  8
_0-0_0
  6
CONTINUOUS
 62
    7
 10
-142.32103700000005
 20
461.38227849999998
 11
-132.57103700000005
 21
461.38227849999998
  0
LINE
  8
_0-0_0
  6
CONTINUOUS
 62
    7
 10
-142.32103700000005
 20
461.15193150000005
 11
-142.07103700000005
 21
461.31971750000002
  0
LINE
  8
_0-0_0
  6
CONTINUOUS
 62
    7
 10
-142.32103700000005
 20
461.60627750000003
 11
-142.07103700000005
 21
461.57249449999995
  0
LINE
  8
_0-0_0
  6
CONTINUOUS
 62
    7
 10
-142.07103700000005
 20
461.57249449999995
 11
-132.82103700000005
 21
461.57249449999995
  0
LINE
  8
_0-0_0
  6
CONTINUOUS
 62
    7
 10
-142.32103700000005
 20
461.60627750000003
 11
-132.57103700000005
 21
461.60627750000003
  0
LINE
  8
_0-0_0
  6
CONTINUOUS
 62
    7
 10
-142.32103700000005
 20
461.38227849999998
 11
-142.07103700000005
 21
461.57249449999995
  0
LINE
  8
_0-0_0
  6
CONTINUOUS
 62
    7
 10
-142.32103700000005
 20
461.82142650000003
 11
-142.07103700000005
 21
461.81678750000003
  0
LINE
  8
_0-0_0
  6
CONTINUOUS
 62
    7
 10
-142.07103700000005
 20
461.81678750000003
 11
-132.82103700000005
 21
461.81678750000003
  0
LINE
  8
_0-0_0
  6
CONTINUOUS
 62
    7
 10
-142.32103700000005
 20
461.60627750000003
 11
-142.07103700000005
 21
461.81678750000003
  0
LINE
  8
_0-0_0
  6
CONTINUOUS
 62
    7
 10
-142.57103700000005
 20
479.39994750000005
 11
-142.57103700000005
 21
475.6447905
  0
LINE
  8
_0-0_0
  6
CONTINUOUS
 62
    7
 10
-142.57103700000005
 20
475.6447905
 11
-142.57103700000005
 21
475.39994750000005
  0
LINE
  8
_0-0_0
  6
CONTINUOUS
 62
    7
 10
-142.57103700000005
 20
462.79994150000005
 11
-142.57103700000005
 21
459.04478449999999
  0
LINE
  8
_0-0_0
  6
CONTINUOUS
 62
    7
 10
-142.57103700000005
 20
459.04478449999999
 11
-142.57103700000005
 21
458.79994150000005
  0
LINE
  8
_0-0_0
  6
CONTINUOUS
 62
    7
 10
-128.97103900000002
 20
474.09992950000003
 11
-128.97103900000002
 21
471.59992950000003
  0
LINE
  8
_0-0_0
  6
CONTINUOUS
 62
    7
 10
-128.97103900000002
 20
471.59992950000003
 11
-128.97103900000002
 21
464.09992950000003
  0
LINE
  8
_0-0_0
  6
CONTINUOUS
 62
    7
 10
-129.77103399999999
 20
473.63807650000001
 11
-129.77103399999999
 21
471.36900349999996
  0
LINE
  8
_0-0_0
  6
CONTINUOUS
 62
    7
 10
-129.77103399999999
 20
471.36900349999996
 11
-129.77103399999999
 21
464.56181349999997
  0
LINE
  8
_0-0_0
  6
CONTINUOUS
 62
    7
 10
-187.77103799999998
 20
473.09992950000003
 11
-187.77103799999998
 21
473.09858650000001
  0
LINE
  8
_0-0_0
  6
CONTINUOUS
 62
    7
 10
-187.77103799999998
 20
473.09858650000001
 11
-187.77103799999998
 21
465.09992950000003
  0
LINE
  8
_0-0_0
  6
CONTINUOUS
 62
    7
 10
-106.57103700000005
 20
479.64994750000005
 11
-132.57103700000005
 21
479.64994750000005
  0
LINE
  8
_0-0_0
  6
CONTINUOUS
 62
    7
 10
-106.57103700000005
 20
475.14994750000005
 11
-132.57103700000005
 21
475.14994750000005
  0
LINE
  8
_0-0_0
  6
CONTINUOUS
 62
    7
 10
-127.77104900000006
 20
463.04994150000005
 11
-132.57103700000005
 21
463.04994150000005
  0
LINE
  8
_0-0_0
  6
CONTINUOUS
 62
    7
 10
-112.32106799999997
 20
458.54994150000005
 11
-132.57426399999997
 21
458.54994150000005
  0
LINE
  8
_0-0_0
  6
CONTINUOUS
 62
    7
 10
-132.57103700000005
 20
479.64994750000005
 11
-132.82103700000005
 21
479.89994750000005
  0
LINE
  8
_0-0_0
  6
CONTINUOUS
 62
    7
 10
-132.57103700000005
 20
463.04994150000005
 11
-132.82103700000005
 21
463.29994150000005
  0
LINE
  8
_0-0_0
  6
CONTINUOUS
 62
    7
 10
-132.57103700000005
 20
458.54994150000005
 11
-132.82103700000005
 21
458.29994150000005
  0
LINE
  8
_0-0_0
  6
CONTINUOUS
 62
    7
 10
-128.57103700000005
 20
474.34992950000003
 11
-127.77104199999997
 21
475.14994750000005
  0
LINE
  8
_0-0_0
  6
CONTINUOUS
 62
    7
 10
-128.57103700000005
 20
463.84992950000003
 11
-127.32103700000005
 21
462.59992950000003
  0
LINE
  8
_0-0_0
  6
CONTINUOUS
 62
    7
 10
-142.57103700000005
 20
479.39994750000005
 11
-142.07119
 21
479.89979549999998
  0
LINE
  8
_0-0_0
  6
CONTINUOUS
 62
    7
 10
-142.57103700000005
 20
475.39994750000005
 11
-142.07119
 21
474.90010050000001
  0
LINE
  8
_0-0_0
  6
CONTINUOUS
 62
    7
 10
-142.57103700000005
 20
462.79994150000005
 11
-142.07119
 21
463.29978949999997
  0
LINE
  8
_0-0_0
  6
CONTINUOUS
 62
    7
 10
-142.57103700000005
 20
458.79994150000005
 11
-142.07119
 21
458.3000945
  0
LINE
  8
_0-0_0
  6
CONTINUOUS
 62
    7
 10
-128.57103700000005
 20
474.09992950000003
 11
-128.97103900000002
 21
474.09992950000003
  0
LINE
  8
_0-0_0
  6
CONTINUOUS
 62
    7
 10
-128.57103700000005
 20
464.09992950000003
 11
-128.97103900000002
 21
464.09992950000003
  0
LINE
  8
_0-0_0
  6
CONTINUOUS
 62
    7
 10
-129.77103399999999
 20
473.63807650000001
 11
-128.97103900000002
 21
474.09992950000003
  0
LINE
  8
_0-0_0
  6
CONTINUOUS
 62
    7
 10
-129.77103399999999
 20
464.56181349999997
 11
-128.97103900000002
 21
464.09992950000003
  0
LINE
  8
_0-0_0
  6
CONTINUOUS
 62
    7
 10
-129.77103399999999
 20
473.09992950000003
 11
-187.77103799999998
 21
473.09992950000003
  0
LINE
  8
_0-0_0
  6
CONTINUOUS
 62
    7
 10
-129.77103399999999
 20
465.09992950000003
 11
-187.77103799999998
 21
465.09992950000003
  0
ARC
  8
_0-0_0
  6
CONTINUOUS
 62
    7
 10
-113.07103700000005
 20
502.60002150000003
 40
8
 50
215.099627
 51
324.90037799999999
  0
LINE
  8
_0-0_0
  6
CONTINUOUS
 62
    7
 10
-122.07103700000005
 20
498.00001550000002
 11
-119.616264
 21
498.00001550000002
  0
LINE
  8
_0-0_0
  6
CONTINUOUS
 62
    7
 10
-122.07103700000005
 20
484.80000250000001
 11
-122.07103700000005
 21
498.00001550000002
  0
LINE
  8
_0-0_0
  6
CONTINUOUS
 62
    7
 10
1030.9288940000001
 20
484.80000250000001
 11
1030.9288940000001
 21
498.00001550000002
  0
LINE
  8
_0-0_0
  6
CONTINUOUS
 62
    7
 10
1028.4741819999999
 20
498.00001550000002
 11
1030.9288940000001
 21
498.00001550000002
  0
ARC
  8
_0-0_0
  6
CONTINUOUS
 62
    7
 10
1021.928894
 20
502.60002150000003
 40
8
 50
215.099627
 51
324.90037799999999
  0
LINE
  8
_0-0_0
  6
CONTINUOUS
 62
    7
 10
-106.52580999999998
 20
498.00001550000002
 11
1015.383606
 21
498.00001550000002
  0
LINE
  8
_0-0_0
  6
CONTINUOUS
 62
    7
 10
-106.52580999999998
 20
498.00001550000002
 11
-106.43682899999999
 21
498.12931849999995
  0
LINE
  8
_0-0_0
  6
CONTINUOUS
 62
    7
 10
1015.383606
 20
498.00001550000002
 11
1015.294739
 21
498.12931849999995
  0
LINE
  8
_0-0_0
  6
CONTINUOUS
 62
    7
 10
1028.6561889999998
 20
498.2707365
 11
1028.7377320000001
 21
498.40000950000001
  0
ARC
  8
_0-0_0
  6
CONTINUOUS
 62
    7
 10
1021.928894
 20
502.60002150000003
 40
8
 50
328.33175599999993
 51
334.05550899999992
  0
LINE
  8
_0-0_0
  6
CONTINUOUS
 62
    7
 10
1029.1226200000001
 20
499.10002150000003
 11
1029.2166139999999
 21
499.30000250000001
  0
LINE
  8
_0-0_0
  6
CONTINUOUS
 62
    7
 10
1029.2166139999999
 20
499.30000250000001
 11
1029.3038940000001
 21
499.50001550000002
  0
ARC
  8
_0-0_0
  6
CONTINUOUS
 62
    7
 10
1021.928894
 20
502.60002150000003
 40
8
 50
337.20097500000003
 51
342.54240199999998
  0
LINE
  8
_0-0_0
  6
CONTINUOUS
 62
    7
 10
1029.5603639999999
 20
500.20002750000003
 11
1029.620422
 21
500.40000950000001
  0
LINE
  8
_0-0_0
  6
CONTINUOUS
 62
    7
 10
1029.620422
 20
500.40000950000001
 11
1029.6748659999998
 21
500.60002150000003
  0
ARC
  8
_0-0_0
  6
CONTINUOUS
 62
    7
 10
1021.928894
 20
502.60002150000003
 40
8
 50
345.52249499999999
 51
350.64797900000002
  0
LINE
  8
_0-0_0
  6
CONTINUOUS
 62
    7
 10
1029.8225710000002
 20
501.30000250000001
 11
1029.8529659999999
 21
501.50001550000002
  0
LINE
  8
_0-0_0
  6
CONTINUOUS
 62
    7
 10
1029.8529659999999
 20
501.50001550000002
 11
1029.8781130000002
 21
501.70002750000003
  0
ARC
  8
_0-0_0
  6
CONTINUOUS
 62
    7
 10
1021.928894
 20
502.60002150000003
 40
8
 50
353.54056400000002
 51
358.56744600000002
  0
LINE
  8
_0-0_0
  6
CONTINUOUS
 62
    7
 10
1029.926453
 20
502.40000950000001
 11
1029.9288940000001
 21
502.60002150000003
  0
LINE
  8
_0-0_0
  6
CONTINUOUS
 62
    7
 10
1013.9313349999999
 20
502.40000950000001
 11
1013.928894
 21
502.60002150000003
  0
ARC
  8
_0-0_0
  6
CONTINUOUS
 62
    7
 10
1021.928894
 20
502.60002150000003
 40
8
 50
181.432545
 51
186.45945499999999
  0
LINE
  8
_0-0_0
  6
CONTINUOUS
 62
    7
 10
1014.004822
 20
501.50001550000002
 11
1013.9796749999999
 21
501.70002750000003
  0
LINE
  8
_0-0_0
  6
CONTINUOUS
 62
    7
 10
1014.035217
 20
501.30000250000001
 11
1014.004822
 21
501.50001550000002
  0
ARC
  8
_0-0_0
  6
CONTINUOUS
 62
    7
 10
1021.928894
 20
502.60002150000003
 40
8
 50
189.35203999999999
 51
194.47751
  0
LINE
  8
_0-0_0
  6
CONTINUOUS
 62
    7
 10
1014.237366
 20
500.40000950000001
 11
1014.1829220000001
 21
500.60002150000003
  0
LINE
  8
_0-0_0
  6
CONTINUOUS
 62
    7
 10
1014.297424
 20
500.20002750000003
 11
1014.237366
 21
500.40000950000001
  0
ARC
  8
_0-0_0
  6
CONTINUOUS
 62
    7
 10
1021.928894
 20
502.60002150000003
 40
8
 50
197.45760300000001
 51
202.79902999999999
  0
LINE
  8
_0-0_0
  6
CONTINUOUS
 62
    7
 10
1014.641174
 20
499.30000250000001
 11
1014.553894
 21
499.50001550000002
  0
LINE
  8
_0-0_0
  6
CONTINUOUS
 62
    7
 10
1014.7351689999999
 20
499.10002150000003
 11
1014.641174
 21
499.30000250000001
  0
ARC
  8
_0-0_0
  6
CONTINUOUS
 62
    7
 10
1021.928894
 20
502.60002150000003
 40
8
 50
205.94448199999999
 51
211.66823500000001
  0
LINE
  8
_0-0_0
  6
CONTINUOUS
 62
    7
 10
1015.2015989999999
 20
498.2707365
 11
1015.1200560000001
 21
498.40000950000001
  0
LINE
  8
_0-0_0
  6
CONTINUOUS
 62
    7
 10
1015.2015989999999
 20
498.2707365
 11
1015.294739
 21
498.12931849999995
  0
LINE
  8
_0-0_0
  6
CONTINUOUS
 62
    7
 10
1028.4741819999999
 20
498.00001550000002
 11
1028.5630489999999
 21
498.12931849999995
  0
LINE
  8
_0-0_0
  6
CONTINUOUS
 62
    7
 10
1028.6561889999998
 20
498.2707365
 11
1028.5630489999999
 21
498.12931849999995
  0
LINE
  8
_0-0_0
  6
CONTINUOUS
 62
    7
 10
1030.9288940000001
 20
498.12931849999995
 11
1030.9288940000001
 21
498.00001550000002
  0
LINE
  8
_0-0_0
  6
CONTINUOUS
 62
    7
 10
1030.9288940000001
 20
506.92930550000005
 11
1030.9288940000001
 21
507.07072449999998
  0
LINE
  8
_0-0_0
  6
CONTINUOUS
 62
    7
 10
1030.9288940000001
 20
506.92930550000005
 11
1030.9288940000001
 21
506.80000250000001
  0
LINE
  8
_0-0_0
  6
CONTINUOUS
 62
    7
 10
1030.9288940000001
 20
506.10002150000003
 11
1030.9288940000001
 21
506.80000250000001
  0
LINE
  8
_0-0_0
  6
CONTINUOUS
 62
    7
 10
1030.9288940000001
 20
505.90000950000001
 11
1030.9288940000001
 21
506.10002150000003
  0
LINE
  8
_0-0_0
  6
CONTINUOUS
 62
    7
 10
1030.9288940000001
 20
505.90000950000001
 11
1030.9288940000001
 21
505.70002750000003
  0
LINE
  8
_0-0_0
  6
CONTINUOUS
 62
    7
 10
1030.9288940000001
 20
505.00001550000002
 11
1030.9288940000001
 21
505.70002750000003
  0
LINE
  8
_0-0_0
  6
CONTINUOUS
 62
    7
 10
1030.9288940000001
 20
504.80000250000001
 11
1030.9288940000001
 21
505.00001550000002
  0
LINE
  8
_0-0_0
  6
CONTINUOUS
 62
    7
 10
1030.9288940000001
 20
504.80000250000001
 11
1030.9288940000001
 21
504.60002150000003
  0
LINE
  8
_0-0_0
  6
CONTINUOUS
 62
    7
 10
1030.9288940000001
 20
503.90000950000001
 11
1030.9288940000001
 21
504.60002150000003
  0
LINE
  8
_0-0_0
  6
CONTINUOUS
 62
    7
 10
1030.9288940000001
 20
503.70002750000003
 11
1030.9288940000001
 21
503.90000950000001
  0
LINE
  8
_0-0_0
  6
CONTINUOUS
 62
    7
 10
1030.9288940000001
 20
503.70002750000003
 11
1030.9288940000001
 21
503.50001550000002
  0
LINE
  8
_0-0_0
  6
CONTINUOUS
 62
    7
 10
1030.9288940000001
 20
502.80000250000001
 11
1030.9288940000001
 21
503.50001550000002
  0
LINE
  8
_0-0_0
  6
CONTINUOUS
 62
    7
 10
1030.9288940000001
 20
502.60002150000003
 11
1030.9288940000001
 21
502.80000250000001
  0
LINE
  8
_0-0_0
  6
CONTINUOUS
 62
    7
 10
1030.9288940000001
 20
502.60002150000003
 11
1030.9288940000001
 21
502.40000950000001
  0
LINE
  8
_0-0_0
  6
CONTINUOUS
 62
    7
 10
1030.9288940000001
 20
501.70002750000003
 11
1030.9288940000001
 21
502.40000950000001
  0
LINE
  8
_0-0_0
  6
CONTINUOUS
 62
    7
 10
1030.9288940000001
 20
501.50001550000002
 11
1030.9288940000001
 21
501.70002750000003
  0
LINE
  8
_0-0_0
  6
CONTINUOUS
 62
    7
 10
1030.9288940000001
 20
501.50001550000002
 11
1030.9288940000001
 21
501.30000250000001
  0
LINE
  8
_0-0_0
  6
CONTINUOUS
 62
    7
 10
1030.9288940000001
 20
500.60002150000003
 11
1030.9288940000001
 21
501.30000250000001
  0
LINE
  8
_0-0_0
  6
CONTINUOUS
 62
    7
 10
1030.9288940000001
 20
500.40000950000001
 11
1030.9288940000001
 21
500.60002150000003
  0
LINE
  8
_0-0_0
  6
CONTINUOUS
 62
    7
 10
1030.9288940000001
 20
500.40000950000001
 11
1030.9288940000001
 21
500.20002750000003
  0
LINE
  8
_0-0_0
  6
CONTINUOUS
 62
    7
 10
1030.9288940000001
 20
499.50001550000002
 11
1030.9288940000001
 21
500.20002750000003
  0
LINE
  8
_0-0_0
  6
CONTINUOUS
 62
    7
 10
1030.9288940000001
 20
499.30000250000001
 11
1030.9288940000001
 21
499.50001550000002
  0
LINE
  8
_0-0_0
  6
CONTINUOUS
 62
    7
 10
1030.9288940000001
 20
499.30000250000001
 11
1030.9288940000001
 21
499.10002150000003
  0
LINE
  8
_0-0_0
  6
CONTINUOUS
 62
    7
 10
1030.9288940000001
 20
498.40000950000001
 11
1030.9288940000001
 21
499.10002150000003
  0
LINE
  8
_0-0_0
  6
CONTINUOUS
 62
    7
 10
1030.9288940000001
 20
498.2707365
 11
1030.9288940000001
 21
498.40000950000001
  0
LINE
  8
_0-0_0
  6
CONTINUOUS
 62
    7
 10
1030.9288940000001
 20
498.12931849999995
 11
1030.9288940000001
 21
498.2707365
  0
LINE
  8
_0-0_0
  6
CONTINUOUS
 62
    7
 10
1030.9288940000001
 20
484.30000250000001
 11
1030.9288940000001
 21
484.80000250000001
  0
LINE
  8
_0-0_0
  6
CONTINUOUS
 62
    7
 10
1030.9288940000001
 20
512.80000250000001
 11
1030.9288940000001
 21
512.20603949999997
  0
LINE
  8
_0-0_0
  6
CONTINUOUS
 62
    7
 10
1030.9288940000001
 20
507.20002750000003
 11
1030.9288940000001
 21
512.20603949999997
  0
LINE
  8
_0-0_0
  6
CONTINUOUS
 62
    7
 10
1030.9288940000001
 20
507.07072449999998
 11
1030.9288940000001
 21
507.20002750000003
  0
LINE
  8
_0-0_0
  6
CONTINUOUS
 62
    7
 10
-122.07103700000005
 20
484.30000250000001
 11
-122.07103700000005
 21
484.80000250000001
  0
LINE
  8
_0-0_0
  6
CONTINUOUS
 62
    7
 10
-122.07103700000005
 20
484.30000250000001
 11
1030.9288940000001
 21
484.30000250000001
  0
LINE
  8
_0-0_0
  6
CONTINUOUS
 62
    7
 10
-122.07103700000005
 20
498.12931849999995
 11
-122.07103700000005
 21
498.2707365
  0
LINE
  8
_0-0_0
  6
CONTINUOUS
 62
    7
 10
-122.07103700000005
 20
498.12931849999995
 11
-122.07103700000005
 21
498.00001550000002
  0
LINE
  8
_0-0_0
  6
CONTINUOUS
 62
    7
 10
-122.07103700000005
 20
512.80000250000001
 11
-122.07103700000005
 21
512.20603949999997
  0
LINE
  8
_0-0_0
  6
CONTINUOUS
 62
    7
 10
-122.07103700000005
 20
507.20002750000003
 11
-122.07103700000005
 21
512.20603949999997
  0
LINE
  8
_0-0_0
  6
CONTINUOUS
 62
    7
 10
-122.07103700000005
 20
507.07072449999998
 11
-122.07103700000005
 21
507.20002750000003
  0
LINE
  8
_0-0_0
  6
CONTINUOUS
 62
    7
 10
-122.07103700000005
 20
506.92930550000005
 11
-122.07103700000005
 21
507.07072449999998
  0
LINE
  8
_0-0_0
  6
CONTINUOUS
 62
    7
 10
-122.07103700000005
 20
506.92930550000005
 11
-122.07103700000005
 21
506.80000250000001
  0
LINE
  8
_0-0_0
  6
CONTINUOUS
 62
    7
 10
-122.07103700000005
 20
506.10002150000003
 11
-122.07103700000005
 21
506.80000250000001
  0
LINE
  8
_0-0_0
  6
CONTINUOUS
 62
    7
 10
-122.07103700000005
 20
505.97071849999998
 11
-122.07103700000005
 21
506.10002150000003
  0
LINE
  8
_0-0_0
  6
CONTINUOUS
 62
    7
 10
-122.07103700000005
 20
505.82929950000005
 11
-122.07103700000005
 21
505.97071849999998
  0
LINE
  8
_0-0_0
  6
CONTINUOUS
 62
    7
 10
-122.07103700000005
 20
505.82929950000005
 11
-122.07103700000005
 21
505.70002750000003
  0
LINE
  8
_0-0_0
  6
CONTINUOUS
 62
    7
 10
-122.07103700000005
 20
505.00001550000002
 11
-122.07103700000005
 21
505.70002750000003
  0
LINE
  8
_0-0_0
  6
CONTINUOUS
 62
    7
 10
-122.07103700000005
 20
504.87074250000001
 11
-122.07103700000005
 21
505.00001550000002
  0
LINE
  8
_0-0_0
  6
CONTINUOUS
 62
    7
 10
-122.07103700000005
 20
504.72929350000004
 11
-122.07103700000005
 21
504.87074250000001
  0
LINE
  8
_0-0_0
  6
CONTINUOUS
 62
    7
 10
-122.07103700000005
 20
504.72929350000004
 11
-122.07103700000005
 21
504.60002150000003
  0
LINE
  8
_0-0_0
  6
CONTINUOUS
 62
    7
 10
-122.07103700000005
 20
503.90000950000001
 11
-122.07103700000005
 21
504.60002150000003
  0
LINE
  8
_0-0_0
  6
CONTINUOUS
 62
    7
 10
-122.07103700000005
 20
503.7707365
 11
-122.07103700000005
 21
503.90000950000001
  0
LINE
  8
_0-0_0
  6
CONTINUOUS
 62
    7
 10
-122.07103700000005
 20
503.62931849999995
 11
-122.07103700000005
 21
503.7707365
  0
LINE
  8
_0-0_0
  6
CONTINUOUS
 62
    7
 10
-122.07103700000005
 20
503.62931849999995
 11
-122.07103700000005
 21
503.50001550000002
  0
LINE
  8
_0-0_0
  6
CONTINUOUS
 62
    7
 10
-122.07103700000005
 20
502.80000250000001
 11
-122.07103700000005
 21
503.50001550000002
  0
LINE
  8
_0-0_0
  6
CONTINUOUS
 62
    7
 10
-122.07103700000005
 20
502.67073049999999
 11
-122.07103700000005
 21
502.80000250000001
  0
LINE
  8
_0-0_0
  6
CONTINUOUS
 62
    7
 10
-122.07103700000005
 20
502.52931149999995
 11
-122.07103700000005
 21
502.67073049999999
  0
LINE
  8
_0-0_0
  6
CONTINUOUS
 62
    7
 10
-122.07103700000005
 20
502.52931149999995
 11
-122.07103700000005
 21
502.40000950000001
  0
LINE
  8
_0-0_0
  6
CONTINUOUS
 62
    7
 10
-122.07103700000005
 20
501.70002750000003
 11
-122.07103700000005
 21
502.40000950000001
  0
LINE
  8
_0-0_0
  6
CONTINUOUS
 62
    7
 10
-122.07103700000005
 20
501.57072449999998
 11
-122.07103700000005
 21
501.70002750000003
  0
LINE
  8
_0-0_0
  6
CONTINUOUS
 62
    7
 10
-122.07103700000005
 20
501.42930550000005
 11
-122.07103700000005
 21
501.57072449999998
  0
LINE
  8
_0-0_0
  6
CONTINUOUS
 62
    7
 10
-122.07103700000005
 20
501.42930550000005
 11
-122.07103700000005
 21
501.30000250000001
  0
LINE
  8
_0-0_0
  6
CONTINUOUS
 62
    7
 10
-122.07103700000005
 20
500.60002150000003
 11
-122.07103700000005
 21
501.30000250000001
  0
LINE
  8
_0-0_0
  6
CONTINUOUS
 62
    7
 10
-122.07103700000005
 20
500.47071849999998
 11
-122.07103700000005
 21
500.60002150000003
  0
LINE
  8
_0-0_0
  6
CONTINUOUS
 62
    7
 10
-122.07103700000005
 20
500.32929950000005
 11
-122.07103700000005
 21
500.47071849999998
  0
LINE
  8
_0-0_0
  6
CONTINUOUS
 62
    7
 10
-122.07103700000005
 20
500.32929950000005
 11
-122.07103700000005
 21
500.20002750000003
  0
LINE
  8
_0-0_0
  6
CONTINUOUS
 62
    7
 10
-122.07103700000005
 20
499.50001550000002
 11
-122.07103700000005
 21
500.20002750000003
  0
LINE
  8
_0-0_0
  6
CONTINUOUS
 62
    7
 10
-122.07103700000005
 20
499.37074250000001
 11
-122.07103700000005
 21
499.50001550000002
  0
LINE
  8
_0-0_0
  6
CONTINUOUS
 62
    7
 10
-122.07103700000005
 20
499.22929350000004
 11
-122.07103700000005
 21
499.37074250000001
  0
LINE
  8
_0-0_0
  6
CONTINUOUS
 62
    7
 10
-122.07103700000005
 20
499.22929350000004
 11
-122.07103700000005
 21
499.10002150000003
  0
LINE
  8
_0-0_0
  6
CONTINUOUS
 62
    7
 10
-122.07103700000005
 20
498.40000950000001
 11
-122.07103700000005
 21
499.10002150000003
  0
LINE
  8
_0-0_0
  6
CONTINUOUS
 62
    7
 10
-122.07103700000005
 20
498.2707365
 11
-122.07103700000005
 21
498.40000950000001
  0
LINE
  8
_0-0_0
  6
CONTINUOUS
 62
    7
 10
-119.616264
 20
498.00001550000002
 11
-119.70524599999999
 21
498.12931849999995
  0
LINE
  8
_0-0_0
  6
CONTINUOUS
 62
    7
 10
-106.34368900000004
 20
498.2707365
 11
-106.43682899999999
 21
498.12931849999995
  0
LINE
  8
_0-0_0
  6
CONTINUOUS
 62
    7
 10
-106.34368900000004
 20
498.2707365
 11
-106.26222200000007
 21
498.40000950000001
  0
ARC
  8
_0-0_0
  6
CONTINUOUS
 62
    7
 10
-113.07103700000005
 20
502.60002150000003
 40
8
 50
328.33175599999993
 51
334.05550899999992
  0
LINE
  8
_0-0_0
  6
CONTINUOUS
 62
    7
 10
-105.87728900000002
 20
499.10002150000003
 11
-105.78337899999997
 21
499.30000250000001
  0
LINE
  8
_0-0_0
  6
CONTINUOUS
 62
    7
 10
-105.78337899999997
 20
499.30000250000001
 11
-105.69607500000006
 21
499.50001550000002
  0
ARC
  8
_0-0_0
  6
CONTINUOUS
 62
    7
 10
-113.07103700000005
 20
502.60002150000003
 40
8
 50
337.20097500000003
 51
342.54240199999998
  0
LINE
  8
_0-0_0
  6
CONTINUOUS
 62
    7
 10
-105.43952200000001
 20
500.20002750000003
 11
-105.37948600000004
 21
500.40000950000001
  0
LINE
  8
_0-0_0
  6
CONTINUOUS
 62
    7
 10
-105.37948600000004
 20
500.40000950000001
 11
-105.32507299999997
 21
500.60002150000003
  0
ARC
  8
_0-0_0
  6
CONTINUOUS
 62
    7
 10
-113.07103700000005
 20
502.60002150000003
 40
8
 50
345.52249499999999
 51
350.64797900000002
  0
LINE
  8
_0-0_0
  6
CONTINUOUS
 62
    7
 10
-105.177368
 20
501.30000250000001
 11
-105.147018
 21
501.50001550000002
  0
LINE
  8
_0-0_0
  6
CONTINUOUS
 62
    7
 10
-105.147018
 20
501.50001550000002
 11
-105.12182600000006
 21
501.70002750000003
  0
ARC
  8
_0-0_0
  6
CONTINUOUS
 62
    7
 10
-113.07103700000005
 20
502.60002150000003
 40
8
 50
353.54056400000002
 51
358.56744600000002
  0
LINE
  8
_0-0_0
  6
CONTINUOUS
 62
    7
 10
-105.073532
 20
502.40000950000001
 11
-105.07103000000006
 21
502.60002150000003
  0
LINE
  8
_0-0_0
  6
CONTINUOUS
 62
    7
 10
-121.07072400000004
 20
502.52931149999995
 11
-121.07103700000005
 21
502.60002150000003
  0
LINE
  8
_0-0_0
  6
CONTINUOUS
 62
    7
 10
-121.068535
 20
502.40000950000001
 11
-121.07072400000004
 21
502.52931149999995
  0
ARC
  8
_0-0_0
  6
CONTINUOUS
 62
    7
 10
-113.07103700000005
 20
502.60002150000003
 40
8
 50
181.432545
 51
186.45945499999999
  0
LINE
  8
_0-0_0
  6
CONTINUOUS
 62
    7
 10
-121.004547
 20
501.57072449999998
 11
-121.02024800000004
 21
501.70002750000003
  0
LINE
  8
_0-0_0
  6
CONTINUOUS
 62
    7
 10
-121.004547
 20
501.57072449999998
 11
-120.984917
 21
501.42930550000005
  0
LINE
  8
_0-0_0
  6
CONTINUOUS
 62
    7
 10
-120.96470599999998
 20
501.30000250000001
 11
-120.984917
 21
501.42930550000005
  0
ARC
  8
_0-0_0
  6
CONTINUOUS
 62
    7
 10
-113.07103700000005
 20
502.60002150000003
 40
8
 50
189.35203999999999
 51
194.47751
  0
LINE
  8
_0-0_0
  6
CONTINUOUS
 62
    7
 10
-120.78246300000001
 20
500.47071849999998
 11
-120.817001
 21
500.60002150000003
  0
LINE
  8
_0-0_0
  6
CONTINUOUS
 62
    7
 10
-120.78246300000001
 20
500.47071849999998
 11
-120.74201200000005
 21
500.32929950000005
  0
LINE
  8
_0-0_0
  6
CONTINUOUS
 62
    7
 10
-120.70255299999997
 20
500.20002750000003
 11
-120.74201200000005
 21
500.32929950000005
  0
ARC
  8
_0-0_0
  6
CONTINUOUS
 62
    7
 10
-113.07103700000005
 20
502.60002150000003
 40
8
 50
197.45760300000001
 51
202.79902999999999
  0
LINE
  8
_0-0_0
  6
CONTINUOUS
 62
    7
 10
-120.39030500000001
 20
499.37074250000001
 11
-120.44599100000005
 21
499.50001550000002
  0
LINE
  8
_0-0_0
  6
CONTINUOUS
 62
    7
 10
-120.39030500000001
 20
499.37074250000001
 11
-120.32626300000004
 21
499.22929350000004
  0
LINE
  8
_0-0_0
  6
CONTINUOUS
 62
    7
 10
-120.26478599999996
 20
499.10002150000003
 11
-120.32626300000004
 21
499.22929350000004
  0
ARC
  8
_0-0_0
  6
CONTINUOUS
 62
    7
 10
-113.07103700000005
 20
502.60002150000003
 40
8
 50
205.94448199999999
 51
211.66823500000001
  0
LINE
  8
_0-0_0
  6
CONTINUOUS
 62
    7
 10
-119.79838600000005
 20
498.2707365
 11
-119.87985200000003
 21
498.40000950000001
  0
LINE
  8
_0-0_0
  6
CONTINUOUS
 62
    7
 10
-119.79838600000005
 20
498.2707365
 11
-119.70524599999999
 21
498.12931849999995
  0
LINE
  8
_0-0_0
  6
CONTINUOUS
 62
    7
 10
964.92889400000001
 20
490.30000250000001
 11
971.92889400000001
 21
490.30000250000001
  0
ARC
  8
_0-0_0
  6
CONTINUOUS
 62
    7
 10
964.92889400000001
 20
489.80000250000001
 40
0.5
 50
90.000003000000007
 51
180.00000900000001
  0
LINE
  8
_0-0_0
  6
CONTINUOUS
 62
    7
 10
964.42889400000001
 20
489.80000250000001
 11
964.42889400000001
 21
485.80000250000001
  0
ARC
  8
_0-0_0
  6
CONTINUOUS
 62
    7
 10
964.92889400000001
 20
485.80000250000001
 40
0.5
 50
180.00000900000003
 51
269.99999700000001
  0
LINE
  8
_0-0_0
  6
CONTINUOUS
 62
    7
 10
971.92889400000001
 20
485.30000250000001
 11
964.92889400000001
 21
485.30000250000001
  0
ARC
  8
_0-0_0
  6
CONTINUOUS
 62
    7
 10
971.92889400000001
 20
485.80000250000001
 40
0.5
 50
269.99999700000001
 51
0
  0
LINE
  8
_0-0_0
  6
CONTINUOUS
 62
    7
 10
972.42889400000001
 20
485.80000250000001
 11
972.42889400000001
 21
489.80000250000001
  0
ARC
  8
_0-0_0
  6
CONTINUOUS
 62
    7
 10
971.92889400000001
 20
489.80000250000001
 40
0.5
 50
0
 51
90.000003000000007
  0
ARC
  8
_0-0_0
  6
CONTINUOUS
 62
    7
 10
-55.071045000000026
 20
489.80000250000001
 40
0.5
 50
90.000003000000007
 51
180.00000900000001
  0
LINE
  8
_0-0_0
  6
CONTINUOUS
 62
    7
 10
-55.571045000000026
 20
489.80000250000001
 11
-55.571045000000026
 21
485.80000250000001
  0
ARC
  8
_0-0_0
  6
CONTINUOUS
 62
    7
 10
-55.071045000000026
 20
485.80000250000001
 40
0.5
 50
180.00000900000003
 51
269.99999700000001
  0
LINE
  8
_0-0_0
  6
CONTINUOUS
 62
    7
 10
-48.071045000000026
 20
485.30000250000001
 11
-55.071045000000026
 21
485.30000250000001
  0
ARC
  8
_0-0_0
  6
CONTINUOUS
 62
    7
 10
-48.071045000000026
 20
485.80000250000001
 40
0.5
 50
269.99999700000001
 51
0
  0
LINE
  8
_0-0_0
  6
CONTINUOUS
 62
    7
 10
-47.571045000000026
 20
485.80000250000001
 11
-47.571045000000026
 21
489.80000250000001
  0
ARC
  8
_0-0_0
  6
CONTINUOUS
 62
    7
 10
-48.071045000000026
 20
489.80000250000001
 40
0.5
 50
0
 51
90.000003000000007
  0
LINE
  8
_0-0_0
  6
CONTINUOUS
 62
    7
 10
-55.071045000000026
 20
490.30000250000001
 11
-48.071045000000026
 21
490.30000250000001
  0
LINE
  8
_0-0_0
  6
CONTINUOUS
 62
    7
 10
-106.26222200000007
 20
498.40000950000001
 11
1015.1200560000001
 21
498.40000950000001
  0
LINE
  8
_0-0_0
  6
CONTINUOUS
 62
    7
 10
-105.87728900000002
 20
499.10002150000003
 11
1014.7351689999999
 21
499.10002150000003
  0
LINE
  8
_0-0_0
  6
CONTINUOUS
 62
    7
 10
-105.78337899999997
 20
499.30000250000001
 11
1014.641174
 21
499.30000250000001
  0
LINE
  8
_0-0_0
  6
CONTINUOUS
 62
    7
 10
-105.69607500000006
 20
499.50001550000002
 11
1014.553894
 21
499.50001550000002
  0
LINE
  8
_0-0_0
  6
CONTINUOUS
 62
    7
 10
-105.43952200000001
 20
500.20002750000003
 11
1014.297424
 21
500.20002750000003
  0
LINE
  8
_0-0_0
  6
CONTINUOUS
 62
    7
 10
-105.37948600000004
 20
500.40000950000001
 11
1014.237366
 21
500.40000950000001
  0
LINE
  8
_0-0_0
  6
CONTINUOUS
 62
    7
 10
-105.32507299999997
 20
500.60002150000003
 11
1014.1829220000001
 21
500.60002150000003
  0
LINE
  8
_0-0_0
  6
CONTINUOUS
 62
    7
 10
-105.177368
 20
501.30000250000001
 11
1014.035217
 21
501.30000250000001
  0
LINE
  8
_0-0_0
  6
CONTINUOUS
 62
    7
 10
-105.147018
 20
501.50001550000002
 11
1014.004822
 21
501.50001550000002
  0
LINE
  8
_0-0_0
  6
CONTINUOUS
 62
    7
 10
-105.12182600000006
 20
501.70002750000003
 11
1013.9796749999999
 21
501.70002750000003
  0
LINE
  8
_0-0_0
  6
CONTINUOUS
 62
    7
 10
-105.073532
 20
502.40000950000001
 11
1013.9313349999999
 21
502.40000950000001
  0
LINE
  8
_0-0_0
  6
CONTINUOUS
 62
    7
 10
-105.07103000000006
 20
502.60002150000003
 11
1013.928894
 21
502.60002150000003
  0
LINE
  8
_0-0_0
  6
CONTINUOUS
 62
    7
 10
1028.4741819999999
 20
507.20002750000003
 11
1028.5630489999999
 21
507.07072449999998
  0
ARC
  8
_0-0_0
  6
CONTINUOUS
 62
    7
 10
1021.928894
 20
502.60002150000003
 40
8
 50
35.099632
 51
144.900373
  0
LINE
  8
_0-0_0
  6
CONTINUOUS
 62
    7
 10
1015.383606
 20
507.20002750000003
 11
1015.294739
 21
507.07072449999998
  0
LINE
  8
_0-0_0
  6
CONTINUOUS
 62
    7
 10
1015.2015989999999
 20
506.92930550000005
 11
1015.294739
 21
507.07072449999998
  0
LINE
  8
_0-0_0
  6
CONTINUOUS
 62
    7
 10
1015.2015989999999
 20
506.92930550000005
 11
1015.1200560000001
 21
506.80000250000001
  0
ARC
  8
_0-0_0
  6
CONTINUOUS
 62
    7
 10
1021.928894
 20
502.60002150000003
 40
8
 50
148.33176499999999
 51
154.05551800000001
  0
LINE
  8
_0-0_0
  6
CONTINUOUS
 62
    7
 10
1014.7351689999999
 20
506.10002150000003
 11
1014.641174
 21
505.90000950000001
  0
LINE
  8
_0-0_0
  6
CONTINUOUS
 62
    7
 10
1014.641174
 20
505.90000950000001
 11
1014.553894
 21
505.70002750000003
  0
ARC
  8
_0-0_0
  6
CONTINUOUS
 62
    7
 10
1021.928894
 20
502.60002150000003
 40
8
 50
157.20097000000001
 51
162.54239699999999
  0
LINE
  8
_0-0_0
  6
CONTINUOUS
 62
    7
 10
1014.297424
 20
505.00001550000002
 11
1014.237366
 21
504.80000250000001
  0
LINE
  8
_0-0_0
  6
CONTINUOUS
 62
    7
 10
1014.237366
 20
504.80000250000001
 11
1014.1829220000001
 21
504.60002150000003
  0
ARC
  8
_0-0_0
  6
CONTINUOUS
 62
    7
 10
1021.928894
 20
502.60002150000003
 40
8
 50
165.52249
 51
170.64796000000001
  0
LINE
  8
_0-0_0
  6
CONTINUOUS
 62
    7
 10
1014.035217
 20
503.90000950000001
 11
1014.004822
 21
503.70002750000003
  0
LINE
  8
_0-0_0
  6
CONTINUOUS
 62
    7
 10
1014.004822
 20
503.70002750000003
 11
1013.9796749999999
 21
503.50001550000002
  0
ARC
  8
_0-0_0
  6
CONTINUOUS
 62
    7
 10
1021.928894
 20
502.60002150000003
 40
8
 50
173.54054500000001
 51
178.567455
  0
LINE
  8
_0-0_0
  6
CONTINUOUS
 62
    7
 10
1013.9313349999999
 20
502.80000250000001
 11
1013.928894
 21
502.60002150000003
  0
LINE
  8
_0-0_0
  6
CONTINUOUS
 62
    7
 10
1029.926453
 20
502.80000250000001
 11
1029.9288940000001
 21
502.60002150000003
  0
ARC
  8
_0-0_0
  6
CONTINUOUS
 62
    7
 10
1021.928894
 20
502.60002150000003
 40
8
 50
1.432544
 51
6.4594489999999993
  0
LINE
  8
_0-0_0
  6
CONTINUOUS
 62
    7
 10
1029.8529659999999
 20
503.70002750000003
 11
1029.8781130000002
 21
503.50001550000002
  0
LINE
  8
_0-0_0
  6
CONTINUOUS
 62
    7
 10
1029.8225710000002
 20
503.90000950000001
 11
1029.8529659999999
 21
503.70002750000003
  0
ARC
  8
_0-0_0
  6
CONTINUOUS
 62
    7
 10
1021.928894
 20
502.60002150000003
 40
8
 50
9.3520350000000008
 51
14.477510999999998
  0
LINE
  8
_0-0_0
  6
CONTINUOUS
 62
    7
 10
1029.620422
 20
504.80000250000001
 11
1029.6748659999998
 21
504.60002150000003
  0
LINE
  8
_0-0_0
  6
CONTINUOUS
 62
    7
 10
1029.5603639999999
 20
505.00001550000002
 11
1029.620422
 21
504.80000250000001
  0
ARC
  8
_0-0_0
  6
CONTINUOUS
 62
    7
 10
1021.928894
 20
502.60002150000003
 40
8
 50
17.457602999999999
 51
22.799030999999999
  0
LINE
  8
_0-0_0
  6
CONTINUOUS
 62
    7
 10
1029.2166139999999
 20
505.90000950000001
 11
1029.3038940000001
 21
505.70002750000003
  0
LINE
  8
_0-0_0
  6
CONTINUOUS
 62
    7
 10
1029.1226200000001
 20
506.10002150000003
 11
1029.2166139999999
 21
505.90000950000001
  0
ARC
  8
_0-0_0
  6
CONTINUOUS
 62
    7
 10
1021.928894
 20
502.60002150000003
 40
8
 50
25.944476999999999
 51
31.668240000000001
  0
LINE
  8
_0-0_0
  6
CONTINUOUS
 62
    7
 10
1028.6561889999998
 20
506.92930550000005
 11
1028.7377320000001
 21
506.80000250000001
  0
LINE
  8
_0-0_0
  6
CONTINUOUS
 62
    7
 10
1028.6561889999998
 20
506.92930550000005
 11
1028.5630489999999
 21
507.07072449999998
  0
CIRCLE
  8
_0-0_0
  6
CONTINUOUS
 62
    7
 10
1021.928894
 20
502.60002150000003
 40
7.5
  0
LINE
  8
_0-0_0
  6
CONTINUOUS
 62
    7
 10
1029.926453
 20
502.40000950000001
 11
1030.9288940000001
 21
502.40000950000001
  0
LINE
  8
_0-0_0
  6
CONTINUOUS
 62
    7
 10
1029.9288940000001
 20
502.60002150000003
 11
1030.9288940000001
 21
502.60002150000003
  0
LINE
  8
_0-0_0
  6
CONTINUOUS
 62
    7
 10
1029.8781130000002
 20
501.70002750000003
 11
1030.9288940000001
 21
501.70002750000003
  0
LINE
  8
_0-0_0
  6
CONTINUOUS
 62
    7
 10
1029.8529659999999
 20
501.50001550000002
 11
1030.9288940000001
 21
501.50001550000002
  0
LINE
  8
_0-0_0
  6
CONTINUOUS
 62
    7
 10
1029.8225710000002
 20
501.30000250000001
 11
1030.9288940000001
 21
501.30000250000001
  0
LINE
  8
_0-0_0
  6
CONTINUOUS
 62
    7
 10
1029.6748659999998
 20
500.60002150000003
 11
1030.9288940000001
 21
500.60002150000003
  0
LINE
  8
_0-0_0
  6
CONTINUOUS
 62
    7
 10
1029.620422
 20
500.40000950000001
 11
1030.9288940000001
 21
500.40000950000001
  0
LINE
  8
_0-0_0
  6
CONTINUOUS
 62
    7
 10
1029.5603639999999
 20
500.20002750000003
 11
1030.9288940000001
 21
500.20002750000003
  0
LINE
  8
_0-0_0
  6
CONTINUOUS
 62
    7
 10
1029.3038940000001
 20
499.50001550000002
 11
1030.9288940000001
 21
499.50001550000002
  0
LINE
  8
_0-0_0
  6
CONTINUOUS
 62
    7
 10
1029.2166139999999
 20
499.30000250000001
 11
1030.9288940000001
 21
499.30000250000001
  0
LINE
  8
_0-0_0
  6
CONTINUOUS
 62
    7
 10
1029.1226200000001
 20
499.10002150000003
 11
1030.9288940000001
 21
499.10002150000003
  0
LINE
  8
_0-0_0
  6
CONTINUOUS
 62
    7
 10
1028.7377320000001
 20
498.40000950000001
 11
1030.9288940000001
 21
498.40000950000001
  0
LINE
  8
_0-0_0
  6
CONTINUOUS
 62
    7
 10
1028.7377320000001
 20
506.80000250000001
 11
1030.9288940000001
 21
506.80000250000001
  0
LINE
  8
_0-0_0
  6
CONTINUOUS
 62
    7
 10
1029.1226200000001
 20
506.10002150000003
 11
1030.9288940000001
 21
506.10002150000003
  0
LINE
  8
_0-0_0
  6
CONTINUOUS
 62
    7
 10
1029.2166139999999
 20
505.90000950000001
 11
1030.9288940000001
 21
505.90000950000001
  0
LINE
  8
_0-0_0
  6
CONTINUOUS
 62
    7
 10
1029.3038940000001
 20
505.70002750000003
 11
1030.9288940000001
 21
505.70002750000003
  0
LINE
  8
_0-0_0
  6
CONTINUOUS
 62
    7
 10
1029.5603639999999
 20
505.00001550000002
 11
1030.9288940000001
 21
505.00001550000002
  0
LINE
  8
_0-0_0
  6
CONTINUOUS
 62
    7
 10
1029.620422
 20
504.80000250000001
 11
1030.9288940000001
 21
504.80000250000001
  0
LINE
  8
_0-0_0
  6
CONTINUOUS
 62
    7
 10
1029.6748659999998
 20
504.60002150000003
 11
1030.9288940000001
 21
504.60002150000003
  0
LINE
  8
_0-0_0
  6
CONTINUOUS
 62
    7
 10
1029.8225710000002
 20
503.90000950000001
 11
1030.9288940000001
 21
503.90000950000001
  0
LINE
  8
_0-0_0
  6
CONTINUOUS
 62
    7
 10
1029.8529659999999
 20
503.70002750000003
 11
1030.9288940000001
 21
503.70002750000003
  0
LINE
  8
_0-0_0
  6
CONTINUOUS
 62
    7
 10
1029.8781130000002
 20
503.50001550000002
 11
1030.9288940000001
 21
503.50001550000002
  0
LINE
  8
_0-0_0
  6
CONTINUOUS
 62
    7
 10
1029.926453
 20
502.80000250000001
 11
1030.9288940000001
 21
502.80000250000001
  0
LINE
  8
_0-0_0
  6
CONTINUOUS
 62
    7
 10
1031.4288940000001
 20
486.10002150000003
 11
1030.9288940000001
 21
486.10002150000003
  0
LINE
  8
_0-0_0
  6
CONTINUOUS
 62
    7
 10
1031.4288940000001
 20
488.30000250000001
 11
1030.9288940000001
 21
488.30000250000001
  0
LINE
  8
_0-0_0
  6
CONTINUOUS
 62
    7
 10
1031.4288940000001
 20
490.60002150000003
 11
1030.9288940000001
 21
490.60002150000003
  0
LINE
  8
_0-0_0
  6
CONTINUOUS
 62
    7
 10
-122.07103700000005
 20
490.60002150000003
 11
-122.57103700000005
 21
490.60002150000003
  0
LINE
  8
_0-0_0
  6
CONTINUOUS
 62
    7
 10
1030.9288940000001
 20
492.90000950000001
 11
1031.4288940000001
 21
492.90000950000001
  0
LINE
  8
_0-0_0
  6
CONTINUOUS
 62
    7
 10
1031.4288940000001
 20
513.10002150000003
 11
1031.4288940000001
 21
513.00001550000002
  0
LINE
  8
_0-0_0
  6
CONTINUOUS
 62
    7
 10
-122.57103700000005
 20
513.10002150000003
 11
-122.57103700000005
 21
513.00001550000002
  0
LINE
  8
_0-0_0
  6
CONTINUOUS
 62
    7
 10
-122.57103700000005
 20
492.90000950000001
 11
-122.07103700000005
 21
492.90000950000001
  0
LINE
  8
_0-0_0
  6
CONTINUOUS
 62
    7
 10
-122.07103700000005
 20
512.80000250000001
 11
1030.9288940000001
 21
512.80000250000001
  0
LINE
  8
_0-0_0
  6
CONTINUOUS
 62
    7
 10
-122.07103700000005
 20
512.20603949999997
 11
1030.9288940000001
 21
512.20603949999997
  0
LINE
  8
_0-0_0
  6
CONTINUOUS
 62
    7
 10
1028.4741819999999
 20
507.20002750000003
 11
1030.9288940000001
 21
507.20002750000003
  0
LINE
  8
_0-0_0
  6
CONTINUOUS
 62
    7
 10
-122.07103700000005
 20
507.20002750000003
 11
-119.616264
 21
507.20002750000003
  0
ARC
  8
_0-0_0
  6
CONTINUOUS
 62
    7
 10
-113.07103700000005
 20
502.60002150000003
 40
8
 50
35.099632
 51
144.900373
  0
LINE
  8
_0-0_0
  6
CONTINUOUS
 62
    7
 10
-106.52580999999998
 20
507.20002750000003
 11
1015.383606
 21
507.20002750000003
  0
LINE
  8
_0-0_0
  6
CONTINUOUS
 62
    7
 10
-122.57103700000005
 20
486.10002150000003
 11
-122.07103700000005
 21
486.10002150000003
  0
LINE
  8
_0-0_0
  6
CONTINUOUS
 62
    7
 10
-122.07103700000005
 20
488.30000250000001
 11
-122.57103700000005
 21
488.30000250000001
  0
LINE
  8
_0-0_0
  6
CONTINUOUS
 62
    7
 10
-119.616264
 20
507.20002750000003
 11
-119.70524599999999
 21
507.07072449999998
  0
LINE
  8
_0-0_0
  6
CONTINUOUS
 62
    7
 10
-119.79838600000005
 20
506.92930550000005
 11
-119.70524599999999
 21
507.07072449999998
  0
LINE
  8
_0-0_0
  6
CONTINUOUS
 62
    7
 10
-122.07103700000005
 20
506.80000250000001
 11
-119.87985200000003
 21
506.80000250000001
  0
LINE
  8
_0-0_0
  6
CONTINUOUS
 62
    7
 10
-119.79838600000005
 20
506.92930550000005
 11
-119.87985200000003
 21
506.80000250000001
  0
ARC
  8
_0-0_0
  6
CONTINUOUS
 62
    7
 10
-113.07103700000005
 20
502.60002150000003
 40
8
 50
148.33176499999999
 51
154.05551800000001
  0
LINE
  8
_0-0_0
  6
CONTINUOUS
 62
    7
 10
-122.07103700000005
 20
506.10002150000003
 11
-120.26478599999996
 21
506.10002150000003
  0
LINE
  8
_0-0_0
  6
CONTINUOUS
 62
    7
 10
-120.26478599999996
 20
506.10002150000003
 11
-120.32626300000004
 21
505.97071849999998
  0
LINE
  8
_0-0_0
  6
CONTINUOUS
 62
    7
 10
-120.39030500000001
 20
505.82929950000005
 11
-120.32626300000004
 21
505.97071849999998
  0
LINE
  8
_0-0_0
  6
CONTINUOUS
 62
    7
 10
-122.07103700000005
 20
505.70002750000003
 11
-120.44599100000005
 21
505.70002750000003
  0
LINE
  8
_0-0_0
  6
CONTINUOUS
 62
    7
 10
-120.39030500000001
 20
505.82929950000005
 11
-120.44599100000005
 21
505.70002750000003
  0
ARC
  8
_0-0_0
  6
CONTINUOUS
 62
    7
 10
-113.07103700000005
 20
502.60002150000003
 40
8
 50
157.20097000000001
 51
162.54239699999999
  0
LINE
  8
_0-0_0
  6
CONTINUOUS
 62
    7
 10
-122.07103700000005
 20
505.00001550000002
 11
-120.70255299999997
 21
505.00001550000002
  0
LINE
  8
_0-0_0
  6
CONTINUOUS
 62
    7
 10
-120.70255299999997
 20
505.00001550000002
 11
-120.74201200000005
 21
504.87074250000001
  0
LINE
  8
_0-0_0
  6
CONTINUOUS
 62
    7
 10
-120.78246300000001
 20
504.72929350000004
 11
-120.74201200000005
 21
504.87074250000001
  0
LINE
  8
_0-0_0
  6
CONTINUOUS
 62
    7
 10
-122.07103700000005
 20
504.60002150000003
 11
-120.817001
 21
504.60002150000003
  0
LINE
  8
_0-0_0
  6
CONTINUOUS
 62
    7
 10
-120.78246300000001
 20
504.72929350000004
 11
-120.817001
 21
504.60002150000003
  0
ARC
  8
_0-0_0
  6
CONTINUOUS
 62
    7
 10
-113.07103700000005
 20
502.60002150000003
 40
8
 50
165.52249
 51
170.64796000000001
  0
LINE
  8
_0-0_0
  6
CONTINUOUS
 62
    7
 10
-122.07103700000005
 20
503.90000950000001
 11
-120.96470599999998
 21
503.90000950000001
  0
LINE
  8
_0-0_0
  6
CONTINUOUS
 62
    7
 10
-120.96470599999998
 20
503.90000950000001
 11
-120.984917
 21
503.7707365
  0
LINE
  8
_0-0_0
  6
CONTINUOUS
 62
    7
 10
-121.004547
 20
503.62931849999995
 11
-120.984917
 21
503.7707365
  0
LINE
  8
_0-0_0
  6
CONTINUOUS
 62
    7
 10
-122.07103700000005
 20
503.50001550000002
 11
-121.02024800000004
 21
503.50001550000002
  0
LINE
  8
_0-0_0
  6
CONTINUOUS
 62
    7
 10
-121.004547
 20
503.62931849999995
 11
-121.02024800000004
 21
503.50001550000002
  0
ARC
  8
_0-0_0
  6
CONTINUOUS
 62
    7
 10
-113.07103700000005
 20
502.60002150000003
 40
8
 50
173.54054500000001
 51
178.567455
  0
LINE
  8
_0-0_0
  6
CONTINUOUS
 62
    7
 10
-122.07103700000005
 20
502.80000250000001
 11
-121.068535
 21
502.80000250000001
  0
LINE
  8
_0-0_0
  6
CONTINUOUS
 62
    7
 10
-121.068535
 20
502.80000250000001
 11
-121.07072400000004
 21
502.67073049999999
  0
LINE
  8
_0-0_0
  6
CONTINUOUS
 62
    7
 10
-121.07103700000005
 20
502.60002150000003
 11
-121.07072400000004
 21
502.67073049999999
  0
LINE
  8
_0-0_0
  6
CONTINUOUS
 62
    7
 10
-122.07103700000005
 20
502.40000950000001
 11
-121.068535
 21
502.40000950000001
  0
LINE
  8
_0-0_0
  6
CONTINUOUS
 62
    7
 10
-122.07103700000005
 20
501.70002750000003
 11
-121.02024800000004
 21
501.70002750000003
  0
LINE
  8
_0-0_0
  6
CONTINUOUS
 62
    7
 10
-122.07103700000005
 20
501.30000250000001
 11
-120.96470599999998
 21
501.30000250000001
  0
LINE
  8
_0-0_0
  6
CONTINUOUS
 62
    7
 10
-122.07103700000005
 20
500.60002150000003
 11
-120.817001
 21
500.60002150000003
  0
LINE
  8
_0-0_0
  6
CONTINUOUS
 62
    7
 10
-122.07103700000005
 20
500.20002750000003
 11
-120.70255299999997
 21
500.20002750000003
  0
LINE
  8
_0-0_0
  6
CONTINUOUS
 62
    7
 10
-122.07103700000005
 20
499.50001550000002
 11
-120.44599100000005
 21
499.50001550000002
  0
LINE
  8
_0-0_0
  6
CONTINUOUS
 62
    7
 10
-122.07103700000005
 20
499.10002150000003
 11
-120.26478599999996
 21
499.10002150000003
  0
LINE
  8
_0-0_0
  6
CONTINUOUS
 62
    7
 10
-122.07103700000005
 20
498.40000950000001
 11
-119.87985200000003
 21
498.40000950000001
  0
LINE
  8
_0-0_0
  6
CONTINUOUS
 62
    7
 10
-105.073532
 20
502.80000250000001
 11
-105.07103000000006
 21
502.60002150000003
  0
ARC
  8
_0-0_0
  6
CONTINUOUS
 62
    7
 10
-113.07103700000005
 20
502.60002150000003
 40
8
 50
1.432544
 51
6.4594489999999993
  0
LINE
  8
_0-0_0
  6
CONTINUOUS
 62
    7
 10
-105.147018
 20
503.70002750000003
 11
-105.12182600000006
 21
503.50001550000002
  0
LINE
  8
_0-0_0
  6
CONTINUOUS
 62
    7
 10
-105.177368
 20
503.90000950000001
 11
-105.147018
 21
503.70002750000003
  0
ARC
  8
_0-0_0
  6
CONTINUOUS
 62
    7
 10
-113.07103700000005
 20
502.60002150000003
 40
8
 50
9.3520350000000008
 51
14.477510999999998
  0
LINE
  8
_0-0_0
  6
CONTINUOUS
 62
    7
 10
-105.37948600000004
 20
504.80000250000001
 11
-105.32507299999997
 21
504.60002150000003
  0
LINE
  8
_0-0_0
  6
CONTINUOUS
 62
    7
 10
-105.43952200000001
 20
505.00001550000002
 11
-105.37948600000004
 21
504.80000250000001
  0
ARC
  8
_0-0_0
  6
CONTINUOUS
 62
    7
 10
-113.07103700000005
 20
502.60002150000003
 40
8
 50
17.457602999999999
 51
22.799030999999999
  0
LINE
  8
_0-0_0
  6
CONTINUOUS
 62
    7
 10
-105.78337899999997
 20
505.90000950000001
 11
-105.69607500000006
 21
505.70002750000003
  0
LINE
  8
_0-0_0
  6
CONTINUOUS
 62
    7
 10
-105.87728900000002
 20
506.10002150000003
 11
-105.78337899999997
 21
505.90000950000001
  0
ARC
  8
_0-0_0
  6
CONTINUOUS
 62
    7
 10
-113.07103700000005
 20
502.60002150000003
 40
8
 50
25.944476999999999
 51
31.668240000000001
  0
LINE
  8
_0-0_0
  6
CONTINUOUS
 62
    7
 10
-106.34368900000004
 20
506.92930550000005
 11
-106.26222200000007
 21
506.80000250000001
  0
LINE
  8
_0-0_0
  6
CONTINUOUS
 62
    7
 10
-106.34368900000004
 20
506.92930550000005
 11
-106.43682899999999
 21
507.07072449999998
  0
LINE
  8
_0-0_0
  6
CONTINUOUS
 62
    7
 10
-106.52580999999998
 20
507.20002750000003
 11
-106.43682899999999
 21
507.07072449999998
  0
CIRCLE
  8
_0-0_0
  6
CONTINUOUS
 62
    7
 10
-113.07103700000005
 20
502.60002150000003
 40
7.5
  0
LINE
  8
_0-0_0
  6
CONTINUOUS
 62
    7
 10
-105.073532
 20
502.80000250000001
 11
1013.9313349999999
 21
502.80000250000001
  0
LINE
  8
_0-0_0
  6
CONTINUOUS
 62
    7
 10
-105.12182600000006
 20
503.50001550000002
 11
1013.9796749999999
 21
503.50001550000002
  0
LINE
  8
_0-0_0
  6
CONTINUOUS
 62
    7
 10
-105.147018
 20
503.70002750000003
 11
1014.004822
 21
503.70002750000003
  0
LINE
  8
_0-0_0
  6
CONTINUOUS
 62
    7
 10
-105.177368
 20
503.90000950000001
 11
1014.035217
 21
503.90000950000001
  0
LINE
  8
_0-0_0
  6
CONTINUOUS
 62
    7
 10
-105.32507299999997
 20
504.60002150000003
 11
1014.1829220000001
 21
504.60002150000003
  0
LINE
  8
_0-0_0
  6
CONTINUOUS
 62
    7
 10
-105.37948600000004
 20
504.80000250000001
 11
1014.237366
 21
504.80000250000001
  0
LINE
  8
_0-0_0
  6
CONTINUOUS
 62
    7
 10
-105.43952200000001
 20
505.00001550000002
 11
1014.297424
 21
505.00001550000002
  0
LINE
  8
_0-0_0
  6
CONTINUOUS
 62
    7
 10
-105.69607500000006
 20
505.70002750000003
 11
1014.553894
 21
505.70002750000003
  0
LINE
  8
_0-0_0
  6
CONTINUOUS
 62
    7
 10
-105.78337899999997
 20
505.90000950000001
 11
1014.641174
 21
505.90000950000001
  0
LINE
  8
_0-0_0
  6
CONTINUOUS
 62
    7
 10
-105.87728900000002
 20
506.10002150000003
 11
1014.7351689999999
 21
506.10002150000003
  0
LINE
  8
_0-0_0
  6
CONTINUOUS
 62
    7
 10
-106.26222200000007
 20
506.80000250000001
 11
1015.1200560000001
 21
506.80000250000001
  0
LINE
  8
_0-0_0
  6
CONTINUOUS
 62
    7
 10
1031.4288940000001
 20
484.60002150000003
 11
1030.9288940000001
 21
484.60002150000003
  0
LINE
  8
_0-0_0
  6
CONTINUOUS
 62
    7
 10
1031.4288940000001
 20
512.20002750000003
 11
1031.4288940000001
 21
513.00001550000002
  0
LINE
  8
_0-0_0
  6
CONTINUOUS
 62
    7
 10
1031.4288940000001
 20
484.40000950000001
 11
1031.4288940000001
 21
512.20002750000003
  0
ARC
  8
_0-0_0
  6
CONTINUOUS
 62
    7
 10
1021.928894
 20
503.30000250000001
 40
12.800000000000001
 50
73.932597000000001
 51
106.06740099999999
  0
LINE
  8
_0-0_0
  6
CONTINUOUS
 62
    7
 10
-122.57103700000005
 20
512.20002750000003
 11
-122.57103700000005
 21
513.00001550000002
  0
LINE
  8
_0-0_0
  6
CONTINUOUS
 62
    7
 10
-122.57103700000005
 20
484.40000950000001
 11
-122.57103700000005
 21
512.20002750000003
  0
ARC
  8
_0-0_0
  6
CONTINUOUS
 62
    7
 10
-113.07103700000005
 20
503.30000250000001
 40
12.800000000000001
 50
73.932597000000001
 51
106.06740099999999
  0
LINE
  8
_0-0_0
  6
CONTINUOUS
 62
    7
 10
444.92895499999997
 20
515.59999049999999
 11
444.92895499999997
 21
521.23991350000006
  0
LINE
  8
_0-0_0
  6
CONTINUOUS
 62
    7
 10
463.92895499999997
 20
521.23991350000006
 11
463.92895499999997
 21
515.59999049999999
  0
LINE
  8
_0-0_0
  6
CONTINUOUS
 62
    7
 10
1031.4288940000001
 20
513.10002150000003
 11
1031.4288940000001
 21
515.60002150000003
  0
LINE
  8
_0-0_0
  6
CONTINUOUS
 62
    7
 10
-122.57103700000005
 20
515.60002150000003
 11
1031.4288940000001
 21
515.60002150000003
  0
LINE
  8
_0-0_0
  6
CONTINUOUS
 62
    7
 10
-122.57103700000005
 20
513.10002150000003
 11
-122.57103700000005
 21
515.60002150000003
  0
LINE
  8
_0-0_0
  6
CONTINUOUS
 62
    7
 10
-122.57103700000005
 20
484.60002150000003
 11
-122.07103700000005
 21
484.60002150000003
  0
ARC
  8
_0-0_0
  6
CONTINUOUS
 62
    7
 10
969.72894299999996
 20
489.50001550000002
 40
0.2
 50
339.62356199999999
 51
90.000002999999978
  0
LINE
  8
_0-0_0
  6
CONTINUOUS
 62
    7
 10
969.91632100000004
 20
489.43037449999997
 11
968.61639400000001
 21
485.93037449999997
  0
ARC
  8
_0-0_0
  6
CONTINUOUS
 62
    7
 10
968.42889400000001
 20
486.00001550000002
 40
0.2
 50
200.37643
 51
339.62356199999999
  0
LINE
  8
_0-0_0
  6
CONTINUOUS
 62
    7
 10
966.94146699999999
 20
489.43037449999997
 11
968.24139400000001
 21
485.93037449999997
  0
ARC
  8
_0-0_0
  6
CONTINUOUS
 62
    7
 10
967.12884500000007
 20
489.50001550000002
 40
0.2
 50
90.000003000000007
 51
200.37643
  0
LINE
  8
_0-0_0
  6
CONTINUOUS
 62
    7
 10
967.12884500000007
 20
489.70002750000003
 11
969.72894299999996
 21
489.70002750000003
  0
ARC
  8
_0-0_0
  6
CONTINUOUS
 62
    7
 10
-50.271042000000023
 20
489.50001550000002
 40
0.2
 50
339.62356199999999
 51
90.000002999999978
  0
LINE
  8
_0-0_0
  6
CONTINUOUS
 62
    7
 10
-50.083557000000042
 20
489.43037449999997
 11
-51.383559999999989
 21
485.93037449999997
  0
ARC
  8
_0-0_0
  6
CONTINUOUS
 62
    7
 10
-51.571045000000026
 20
486.00001550000002
 40
0.2
 50
200.37643
 51
339.62356199999999
  0
LINE
  8
_0-0_0
  6
CONTINUOUS
 62
    7
 10
-53.058533000000011
 20
489.43037449999997
 11
-51.758530000000007
 21
485.93037449999997
  0
ARC
  8
_0-0_0
  6
CONTINUOUS
 62
    7
 10
-52.871047999999973
 20
489.50001550000002
 40
0.2
 50
90.000003000000007
 51
200.37643
  0
LINE
  8
_0-0_0
  6
CONTINUOUS
 62
    7
 10
-52.871047999999973
 20
489.70002750000003
 11
-50.271042000000023
 21
489.70002750000003
  0
LINE
  8
_0-0_0
  6
CONTINUOUS
 62
    7
 10
1032.4288940000001
 20
512.20002750000003
 11
1031.4288940000001
 21
512.20002750000003
  0
LINE
  8
_0-0_0
  6
CONTINUOUS
 62
    7
 10
1032.4288940000001
 20
513.23701449999999
 11
1031.4288940000001
 21
513.23701449999999
  0
LINE
  8
_0-0_0
  6
CONTINUOUS
 62
    7
 10
1032.4288940000001
 20
484.40000950000001
 11
1031.4288940000001
 21
484.40000950000001
  0
ARC
  8
_0-0_0
  6
CONTINUOUS
 62
    7
 10
454.42895499999997
 20
503.30000250000001
 40
20.299999
 50
62.096725999999997
 51
117.903272
  0
CIRCLE
  8
_0-0_0
  6
CONTINUOUS
 62
    7
 10
454.42895499999997
 20
519.60002150000003
 40
2.5
  0
LINE
  8
_0-0_0
  6
CONTINUOUS
 62
    7
 10
-123.57103700000005
 20
512.20002750000003
 11
-122.57103700000005
 21
512.20002750000003
  0
LINE
  8
_0-0_0
  6
CONTINUOUS
 62
    7
 10
-123.57103700000005
 20
513.20002750000003
 11
-122.57103700000005
 21
513.20002750000003
  0
LINE
  8
_0-0_0
  6
CONTINUOUS
 62
    7
 10
-123.57103700000005
 20
484.40000950000001
 11
-122.57103700000005
 21
484.40000950000001
  0
LINE
  8
_0-0_0
  6
CONTINUOUS
 62
    7
 10
1032.4288940000001
 20
515.40000950000001
 11
1031.4288940000001
 21
515.40000950000001
  0
LINE
  8
_0-0_0
  6
CONTINUOUS
 62
    7
 10
-123.57103700000005
 20
515.40000950000001
 11
-122.57103700000005
 21
515.40000950000001
  0
LINE
  8
_0-0_0
  6
CONTINUOUS
 62
    7
 10
1033.4288940000001
 20
511.78581250000002
 11
1033.4279179999999
 21
511.80430550000005
  0
LINE
  8
_0-0_0
  6
CONTINUOUS
 62
    7
 10
1033.4279179999999
 20
511.80430550000005
 11
1033.4248659999998
 21
511.82273850000001
  0
LINE
  8
_0-0_0
  6
CONTINUOUS
 62
    7
 10
1033.4248659999998
 20
511.82273850000001
 11
1033.419617
 21
511.84187350000002
  0
LINE
  8
_0-0_0
  6
CONTINUOUS
 62
    7
 10
1033.419617
 20
511.84187350000002
 11
1033.4122929999999
 21
511.86091650000003
  0
LINE
  8
_0-0_0
  6
CONTINUOUS
 62
    7
 10
1033.4122929999999
 20
511.86091650000003
 11
1033.3917849999998
 21
511.8976285
  0
LINE
  8
_0-0_0
  6
CONTINUOUS
 62
    7
 10
1033.3917849999998
 20
511.8976285
 11
1033.3633420000001
 21
511.93330349999997
  0
LINE
  8
_0-0_0
  6
CONTINUOUS
 62
    7
 10
1033.3633420000001
 20
511.93330349999997
 11
1033.3274539999998
 21
511.96757449999996
  0
LINE
  8
_0-0_0
  6
CONTINUOUS
 62
    7
 10
1033.3274539999998
 20
511.96757449999996
 11
1033.2788700000001
 21
512.00404349999997
  0
LINE
  8
_0-0_0
  6
CONTINUOUS
 62
    7
 10
1033.2788700000001
 20
512.00404349999997
 11
1033.2221070000001
 21
512.0380705
  0
LINE
  8
_0-0_0
  6
CONTINUOUS
 62
    7
 10
1033.2221070000001
 20
512.0380705
 11
1033.1578979999999
 21
512.0693205
  0
LINE
  8
_0-0_0
  6
CONTINUOUS
 62
    7
 10
1033.1578979999999
 20
512.0693205
 11
1033.087219
 21
512.09754950000001
  0
LINE
  8
_0-0_0
  6
CONTINUOUS
 62
    7
 10
1033.087219
 20
512.09754950000001
 11
1033.0391239999999
 21
512.11390649999998
  0
LINE
  8
_0-0_0
  6
CONTINUOUS
 62
    7
 10
1033.0391239999999
 20
512.11390649999998
 11
1032.989075
 21
512.12892150000005
  0
LINE
  8
_0-0_0
  6
CONTINUOUS
 62
    7
 10
1032.989075
 20
512.12892150000005
 11
1032.9323119999999
 21
512.14369150000005
  0
LINE
  8
_0-0_0
  6
CONTINUOUS
 62
    7
 10
1032.9323119999999
 20
512.14369150000005
 11
1032.8737179999998
 21
512.15678349999996
  0
LINE
  8
_0-0_0
  6
CONTINUOUS
 62
    7
 10
1032.8737179999998
 20
512.15678349999996
 11
1032.7568970000002
 21
512.17707849999999
  0
LINE
  8
_0-0_0
  6
CONTINUOUS
 62
    7
 10
1032.7568970000002
 20
512.17707849999999
 11
1032.6495970000001
 21
512.18980350000004
  0
LINE
  8
_0-0_0
  6
CONTINUOUS
 62
    7
 10
1032.6495970000001
 20
512.18980350000004
 11
1032.539734
 21
512.19746350000003
  0
LINE
  8
_0-0_0
  6
CONTINUOUS
 62
    7
 10
1032.539734
 20
512.19746350000003
 11
1032.4288940000001
 21
512.20002750000003
  0
LINE
  8
_0-0_0
  6
CONTINUOUS
 62
    7
 10
1033.4288940000001
 20
511.78581250000002
 11
1033.4288940000001
 21
512.78587349999998
  0
LINE
  8
_0-0_0
  6
CONTINUOUS
 62
    7
 10
1033.4288940000001
 20
512.78587349999998
 11
1033.425964
 21
512.81742850000001
  0
LINE
  8
_0-0_0
  6
CONTINUOUS
 62
    7
 10
1033.425964
 20
512.81742850000001
 11
1033.417297
 21
512.84950249999997
  0
LINE
  8
_0-0_0
  6
CONTINUOUS
 62
    7
 10
1033.417297
 20
512.84950249999997
 11
1033.402771
 21
512.88179049999997
  0
LINE
  8
_0-0_0
  6
CONTINUOUS
 62
    7
 10
1033.402771
 20
512.88179049999997
 11
1033.3825069999998
 21
512.91395550000004
  0
LINE
  8
_0-0_0
  6
CONTINUOUS
 62
    7
 10
1033.3825069999998
 20
512.91395550000004
 11
1033.365906
 21
512.93516550000004
  0
LINE
  8
_0-0_0
  6
CONTINUOUS
 62
    7
 10
1033.365906
 20
512.93516550000004
 11
1033.3469850000001
 21
512.95613049999997
  0
LINE
  8
_0-0_0
  6
CONTINUOUS
 62
    7
 10
1033.3469850000001
 20
512.95613049999997
 11
1033.302185
 21
512.99690250000003
  0
LINE
  8
_0-0_0
  6
CONTINUOUS
 62
    7
 10
1033.302185
 20
512.99690250000003
 11
1033.2489620000001
 21
513.03565949999995
  0
LINE
  8
_0-0_0
  6
CONTINUOUS
 62
    7
 10
1033.2489620000001
 20
513.03565949999995
 11
1033.199036
 21
513.06587249999995
  0
LINE
  8
_0-0_0
  6
CONTINUOUS
 62
    7
 10
1033.199036
 20
513.06587249999995
 11
1033.1443479999998
 21
513.09407050000004
  0
LINE
  8
_0-0_0
  6
CONTINUOUS
 62
    7
 10
1033.1443479999998
 20
513.09407050000004
 11
1033.085388
 21
513.12013249999995
  0
LINE
  8
_0-0_0
  6
CONTINUOUS
 62
    7
 10
1033.085388
 20
513.12013249999995
 11
1033.0386349999999
 21
513.13810750000005
  0
LINE
  8
_0-0_0
  6
CONTINUOUS
 62
    7
 10
1033.0386349999999
 20
513.13810750000005
 11
1032.9899289999998
 21
513.15470849999997
  0
LINE
  8
_0-0_0
  6
CONTINUOUS
 62
    7
 10
1032.9899289999998
 20
513.15470849999997
 11
1032.8875119999998
 21
513.18360849999999
  0
LINE
  8
_0-0_0
  6
CONTINUOUS
 62
    7
 10
1032.8875119999998
 20
513.18360849999999
 11
1032.7798459999999
 21
513.2064365
  0
LINE
  8
_0-0_0
  6
CONTINUOUS
 62
    7
 10
1032.7798459999999
 20
513.2064365
 11
1032.6681520000002
 21
513.22300749999999
  0
LINE
  8
_0-0_0
  6
CONTINUOUS
 62
    7
 10
1032.6681520000002
 20
513.22300749999999
 11
1032.554138
 21
513.23319949999996
  0
LINE
  8
_0-0_0
  6
CONTINUOUS
 62
    7
 10
1032.554138
 20
513.23319949999996
 11
1032.4288940000001
 21
513.23701449999999
  0
ARC
  8
_0-0_0
  6
CONTINUOUS
 62
    7
 10
1032.4288940000001
 20
485.40000950000001
 40
1
 50
269.99999700000001
 51
0
  0
LINE
  8
_0-0_0
  6
CONTINUOUS
 62
    7
 10
1033.4288940000001
 20
485.40000950000001
 11
1033.4288940000001
 21
511.78581250000002
  0
LINE
  8
_0-0_0
  6
CONTINUOUS
 62
    7
 10
-124.57103700000005
 20
511.78581250000002
 11
-124.57003800000007
 21
511.80430550000005
  0
LINE
  8
_0-0_0
  6
CONTINUOUS
 62
    7
 10
-124.57003800000007
 20
511.80430550000005
 11
-124.56703900000002
 21
511.82273850000001
  0
LINE
  8
_0-0_0
  6
CONTINUOUS
 62
    7
 10
-124.56703900000002
 20
511.82273850000001
 11
-124.56180600000005
 21
511.84187350000002
  0
LINE
  8
_0-0_0
  6
CONTINUOUS
 62
    7
 10
-124.56180600000005
 20
511.84187350000002
 11
-124.55442800000003
 21
511.86091650000003
  0
LINE
  8
_0-0_0
  6
CONTINUOUS
 62
    7
 10
-124.55442800000003
 20
511.86091650000003
 11
-124.53387399999997
 21
511.8976285
  0
LINE
  8
_0-0_0
  6
CONTINUOUS
 62
    7
 10
-124.53387399999997
 20
511.8976285
 11
-124.50547800000004
 21
511.93330349999997
  0
LINE
  8
_0-0_0
  6
CONTINUOUS
 62
    7
 10
-124.50547800000004
 20
511.93330349999997
 11
-124.46959700000002
 21
511.96757449999996
  0
LINE
  8
_0-0_0
  6
CONTINUOUS
 62
    7
 10
-124.46959700000002
 20
511.96757449999996
 11
-124.420975
 21
512.00404349999997
  0
LINE
  8
_0-0_0
  6
CONTINUOUS
 62
    7
 10
-124.420975
 20
512.00404349999997
 11
-124.36418900000001
 21
512.0380705
  0
LINE
  8
_0-0_0
  6
CONTINUOUS
 62
    7
 10
-124.36418900000001
 20
512.0380705
 11
-124.30004900000006
 21
512.0693205
  0
LINE
  8
_0-0_0
  6
CONTINUOUS
 62
    7
 10
-124.30004900000006
 20
512.0693205
 11
-124.22940100000005
 21
512.09754950000001
  0
LINE
  8
_0-0_0
  6
CONTINUOUS
 62
    7
 10
-124.22940100000005
 20
512.09754950000001
 11
-124.18132000000003
 21
512.11390649999998
  0
LINE
  8
_0-0_0
  6
CONTINUOUS
 62
    7
 10
-124.18132000000003
 20
512.11390649999998
 11
-124.13117999999997
 21
512.12892150000005
  0
LINE
  8
_0-0_0
  6
CONTINUOUS
 62
    7
 10
-124.13117999999997
 20
512.12892150000005
 11
-124.074478
 21
512.14369150000005
  0
LINE
  8
_0-0_0
  6
CONTINUOUS
 62
    7
 10
-124.074478
 20
512.14369150000005
 11
-124.01587700000005
 21
512.15678349999996
  0
LINE
  8
_0-0_0
  6
CONTINUOUS
 62
    7
 10
-124.01587700000005
 20
512.15678349999996
 11
-123.89909399999999
 21
512.17707849999999
  0
LINE
  8
_0-0_0
  6
CONTINUOUS
 62
    7
 10
-123.89909399999999
 20
512.17707849999999
 11
-123.79168700000002
 21
512.18980350000004
  0
LINE
  8
_0-0_0
  6
CONTINUOUS
 62
    7
 10
-123.79168700000002
 20
512.18980350000004
 11
-123.68192299999998
 21
512.19746350000003
  0
LINE
  8
_0-0_0
  6
CONTINUOUS
 62
    7
 10
-123.68192299999998
 20
512.19746350000003
 11
-123.57103700000005
 21
512.20002750000003
  0
LINE
  8
_0-0_0
  6
CONTINUOUS
 62
    7
 10
-124.57103700000005
 20
512.75547749999998
 11
-124.56814600000007
 21
512.7863615
  0
LINE
  8
_0-0_0
  6
CONTINUOUS
 62
    7
 10
-124.56814600000007
 20
512.7863615
 11
-124.55944799999997
 21
512.81782550000003
  0
LINE
  8
_0-0_0
  6
CONTINUOUS
 62
    7
 10
-124.55944799999997
 20
512.81782550000003
 11
-124.54496800000004
 21
512.84947150000005
  0
LINE
  8
_0-0_0
  6
CONTINUOUS
 62
    7
 10
-124.54496800000004
 20
512.84947150000005
 11
-124.52479500000004
 21
512.8810575
  0
LINE
  8
_0-0_0
  6
CONTINUOUS
 62
    7
 10
-124.52479500000004
 20
512.8810575
 11
-124.50827800000002
 21
512.90193150000005
  0
LINE
  8
_0-0_0
  6
CONTINUOUS
 62
    7
 10
-124.50827800000002
 20
512.90193150000005
 11
-124.489372
 21
512.92256150000003
  0
LINE
  8
_0-0_0
  6
CONTINUOUS
 62
    7
 10
-124.489372
 20
512.92256150000003
 11
-124.44473300000004
 21
512.96272250000004
  0
LINE
  8
_0-0_0
  6
CONTINUOUS
 62
    7
 10
-124.44473300000004
 20
512.96272250000004
 11
-124.39160200000003
 21
513.00090050000006
  0
LINE
  8
_0-0_0
  6
CONTINUOUS
 62
    7
 10
-124.39160200000003
 20
513.00090050000006
 11
-124.34170500000005
 21
513.03071550000004
  0
LINE
  8
_0-0_0
  6
CONTINUOUS
 62
    7
 10
-124.34170500000005
 20
513.03071550000004
 11
-124.28703300000006
 21
513.05860849999999
  0
LINE
  8
_0-0_0
  6
CONTINUOUS
 62
    7
 10
-124.28703300000006
 20
513.05860849999999
 11
-124.22806500000002
 21
513.08433549999995
  0
LINE
  8
_0-0_0
  6
CONTINUOUS
 62
    7
 10
-124.22806500000002
 20
513.08433549999995
 11
-124.18130500000007
 21
513.10212650000005
  0
LINE
  8
_0-0_0
  6
CONTINUOUS
 62
    7
 10
-124.18130500000007
 20
513.10212650000005
 11
-124.13259900000003
 21
513.11854549999998
  0
LINE
  8
_0-0_0
  6
CONTINUOUS
 62
    7
 10
-124.13259900000003
 20
513.11854549999998
 11
-124.03016700000001
 21
513.14714049999998
  0
LINE
  8
_0-0_0
  6
CONTINUOUS
 62
    7
 10
-124.03016700000001
 20
513.14714049999998
 11
-123.92234800000006
 21
513.16972350000003
  0
LINE
  8
_0-0_0
  6
CONTINUOUS
 62
    7
 10
-123.92234800000006
 20
513.16972350000003
 11
-123.81066099999998
 21
513.18614149999996
  0
LINE
  8
_0-0_0
  6
CONTINUOUS
 62
    7
 10
-123.81066099999998
 20
513.18614149999996
 11
-123.69650300000001
 21
513.19624350000004
  0
LINE
  8
_0-0_0
  6
CONTINUOUS
 62
    7
 10
-123.69650300000001
 20
513.19624350000004
 11
-123.57103700000005
 21
513.20002750000003
  0
LINE
  8
_0-0_0
  6
CONTINUOUS
 62
    7
 10
-124.57103700000005
 20
511.78581250000002
 11
-124.57103700000005
 21
512.75547749999998
  0
ARC
  8
_0-0_0
  6
CONTINUOUS
 62
    7
 10
-123.57103700000005
 20
485.40000950000001
 40
1
 50
180.00000900000003
 51
269.99999700000001
  0
LINE
  8
_0-0_0
  6
CONTINUOUS
 62
    7
 10
-124.57103700000005
 20
485.40000950000001
 11
-124.57103700000005
 21
511.78581250000002
  0
CIRCLE
  8
_0-0_0
  6
CONTINUOUS
 62
    7
 10
-113.07103700000005
 20
502.60002150000003
 40
5
  0
CIRCLE
  8
_0-0_0
  6
CONTINUOUS
 62
    7
 10
1021.928894
 20
502.60002150000003
 40
5
  0
LINE
  8
_0-0_0
  6
CONTINUOUS
 62
    7
 10
1033.4288940000001
 20
512.78587349999998
 11
1033.4288940000001
 21
514.40000950000001
  0
ARC
  8
_0-0_0
  6
CONTINUOUS
 62
    7
 10
1032.4288940000001
 20
514.40000950000001
 40
1
 50
0
 51
90.000003000000007
  0
ARC
  8
_0-0_0
  6
CONTINUOUS
 62
    7
 10
-123.57103700000005
 20
514.40000950000001
 40
1
 50
90.000003000000007
 51
180.00000900000001
  0
LINE
  8
_0-0_0
  6
CONTINUOUS
 62
    7
 10
-124.57103700000005
 20
512.75547749999998
 11
-124.57103700000005
 21
514.40000950000001
  0
LINE
  8
_0-0_0
  6
CONTINUOUS
 62
    7
 10
-212.386709
 20
482.29994150000005
 11
-212.386709
 21
482.27494750000005
  0
LINE
  8
_0-0_0
  6
CONTINUOUS
 62
    7
 10
-212.386709
 20
479.2228235
 11
-212.386709
 21
479.32493550000004
  0
LINE
  8
_0-0_0
  6
CONTINUOUS
 62
    7
 10
-212.386709
 20
458.19993550000004
 11
-212.386709
 21
458.97706549999998
  0
LINE
  8
_0-0_0
  6
CONTINUOUS
 62
    7
 10
-229.18670700000007
 20
458.19993550000004
 11
-212.386709
 21
458.19993550000004
  0
LINE
  8
_0-0_0
  6
CONTINUOUS
 62
    7
 10
-229.18670700000007
 20
466.09992950000003
 11
-229.18670700000007
 21
458.19993550000004
  0
LINE
  8
_0-0_0
  6
CONTINUOUS
 62
    7
 10
-229.18670700000007
 20
478.55525150000005
 11
-229.18670700000007
 21
472.09992950000003
  0
LINE
  8
_0-0_0
  6
CONTINUOUS
 62
    7
 10
-211.88672399999996
 20
461.69993550000004
 11
-211.68670800000007
 21
461.69993550000004
  0
LINE
  8
_0-0_0
  6
CONTINUOUS
 62
    7
 10
-211.68670800000007
 20
461.69993550000004
 11
-211.68670800000007
 21
464.69993550000004
  0
LINE
  8
_0-0_0
  6
CONTINUOUS
 62
    7
 10
-211.68670800000007
 20
478.29994150000005
 11
-211.68670800000007
 21
464.69993550000004
  0
LINE
  8
_0-0_0
  6
CONTINUOUS
 62
    7
 10
-211.88671299999999
 20
481.29994150000005
 11
-211.68670800000007
 21
481.29994150000005
  0
LINE
  8
_0-0_0
  6
CONTINUOUS
 62
    7
 10
-211.68670800000007
 20
478.29994150000005
 11
-211.68670800000007
 21
481.29994150000005
  0
LINE
  8
_0-0_0
  6
CONTINUOUS
 62
    7
 10
-212.58670800000004
 20
480.59901449999995
 11
-212.58670800000004
 21
479.41981450000003
  0
LINE
  8
_0-0_0
  6
CONTINUOUS
 62
    7
 10
-212.58670800000004
 20
482.79994150000005
 11
-212.58670800000004
 21
482.29994150000005
  0
LINE
  8
_0-0_0
  6
CONTINUOUS
 62
    7
 10
-213.58670800000004
 20
479.88343750000001
 11
-213.58670800000004
 21
480.59992950000003
  0
ARC
  8
_0-0_0
  6
CONTINUOUS
 62
    7
 10
-213.886709
 20
477.89994750000005
 40
2
 50
0
 51
90.000003000000007
  0
LINE
  8
_0-0_0
  6
CONTINUOUS
 62
    7
 10
-211.886709
 20
474.39994750000005
 11
-211.886709
 21
477.39994750000005
  0
LINE
  8
_0-0_0
  6
CONTINUOUS
 62
    7
 10
-211.886709
 20
477.39994750000005
 11
-211.886709
 21
477.89994750000005
  0
LINE
  8
_0-0_0
  6
CONTINUOUS
 62
    7
 10
-211.886709
 20
460.29994150000005
 11
-211.886709
 21
473.89994750000005
  0
LINE
  8
_0-0_0
  6
CONTINUOUS
 62
    7
 10
-211.886709
 20
474.39994750000005
 11
-211.886709
 21
473.89994750000005
  0
ARC
  8
_0-0_0
  6
CONTINUOUS
 62
    7
 10
-213.886709
 20
460.29994150000005
 40
2
 50
273.84026500000004
 51
0.000010000000014
  0
LINE
  8
_0-0_0
  6
CONTINUOUS
 62
    7
 10
-227.18670700000007
 20
479.88343750000001
 11
-227.18670700000007
 21
480.59992950000003
  0
LINE
  8
_0-0_0
  6
CONTINUOUS
 62
    7
 10
-227.18670700000007
 20
479.88343750000001
 11
-227.18670700000007
 21
479.87730350000004
  0
LINE
  8
_0-0_0
  6
CONTINUOUS
 62
    7
 10
-229.18670700000007
 20
478.55525150000005
 11
-229.18670700000007
 21
479.05525150000005
  0
LINE
  8
_0-0_0
  6
CONTINUOUS
 62
    7
 10
-228.886707
 20
477.89994750000005
 11
-228.886707
 21
464.29994150000005
  0
LINE
  8
_0-0_0
  6
CONTINUOUS
 62
    7
 10
-228.886707
 20
463.79994150000005
 11
-228.886707
 21
464.29994150000005
  0
LINE
  8
_0-0_0
  6
CONTINUOUS
 62
    7
 10
-228.886707
 20
460.79994150000005
 11
-228.886707
 21
463.79994150000005
  0
LINE
  8
_0-0_0
  6
CONTINUOUS
 62
    7
 10
-228.886707
 20
460.29994150000005
 11
-228.886707
 21
460.79994150000005
  0
ARC
  8
_0-0_0
  6
CONTINUOUS
 62
    7
 10
-226.886707
 20
477.89994750000005
 40
2
 50
93.840255999999997
 51
180.00000900000001
  0
LINE
  8
_0-0_0
  6
CONTINUOUS
 62
    7
 10
-229.18670700000007
 20
466.09992950000003
 11
-229.18670700000007
 21
472.09992950000003
  0
LINE
  8
_0-0_0
  6
CONTINUOUS
 62
    7
 10
-229.18670700000007
 20
480.59992950000003
 11
-229.18670700000007
 21
479.05525150000005
  0
LINE
  8
_0-0_0
  6
CONTINUOUS
 62
    7
 10
-229.18670700000007
 20
472.09992950000003
 11
-228.88671499999998
 21
472.09992950000003
  0
LINE
  8
_0-0_0
  6
CONTINUOUS
 62
    7
 10
-229.18670700000007
 20
466.09992950000003
 11
-228.88671499999998
 21
466.09992950000003
  0
LINE
  8
_0-0_0
  6
CONTINUOUS
 62
    7
 10
-213.886709
 20
458.29994150000005
 11
-222.886707
 21
458.29994150000005
  0
LINE
  8
_0-0_0
  6
CONTINUOUS
 62
    7
 10
-226.386707
 20
458.29994150000005
 11
-226.886707
 21
458.29994150000005
  0
LINE
  8
_0-0_0
  6
CONTINUOUS
 62
    7
 10
-223.386707
 20
458.29994150000005
 11
-226.386707
 21
458.29994150000005
  0
LINE
  8
_0-0_0
  6
CONTINUOUS
 62
    7
 10
-222.886707
 20
458.29994150000005
 11
-223.386707
 21
458.29994150000005
  0
ARC
  8
_0-0_0
  6
CONTINUOUS
 62
    7
 10
-226.886707
 20
460.29994150000005
 40
2
 50
180.00000900000003
 51
269.99999700000001
  0
ARC
  8
_0-0_0
  6
CONTINUOUS
 62
    7
 10
-213.08670800000004
 20
482.79994150000005
 40
0.5
 50
0
 51
90.000003000000007
  0
LINE
  8
_0-0_0
  6
CONTINUOUS
 62
    7
 10
-214.58670800000004
 20
483.29994150000005
 11
-213.08670800000004
 21
483.29994150000005
  0
ARC
  8
_0-0_0
  6
CONTINUOUS
 62
    7
 10
-214.58670800000004
 20
484.29994150000005
 40
1
 50
180.00000900000003
 51
269.99999700000001
  0
LINE
  8
_0-0_0
  6
CONTINUOUS
 62
    7
 10
-215.58670800000004
 20
484.29994150000005
 11
-215.58670800000004
 21
484.40003950000005
  0
LINE
  8
_0-0_0
  6
CONTINUOUS
 62
    7
 10
-216.08670800000004
 20
483.29994150000005
 11
-216.08670800000004
 21
484.40003950000005
  0
ARC
  8
_0-0_0
  6
CONTINUOUS
 62
    7
 10
-215.08670800000004
 20
483.29994150000005
 40
1
 50
180.00000900000003
 51
269.99999700000001
  0
LINE
  8
_0-0_0
  6
CONTINUOUS
 62
    7
 10
-215.08670800000004
 20
482.29994150000005
 11
-215.28670899999997
 21
482.29994150000005
  0
ARC
  8
_0-0_0
  6
CONTINUOUS
 62
    7
 10
-215.28670899999997
 20
483.29994150000005
 40
1
 50
180.00000900000003
 51
269.99999700000001
  0
ARC
  8
_0-0_0
  6
CONTINUOUS
 62
    7
 10
-225.48671000000002
 20
483.29994150000005
 40
1
 50
269.99999700000001
 51
0
  0
LINE
  8
_0-0_0
  6
CONTINUOUS
 62
    7
 10
-225.48671000000002
 20
482.29994150000005
 11
-226.18670700000007
 21
482.29994150000005
  0
LINE
  8
_0-0_0
  6
CONTINUOUS
 62
    7
 10
-212.386709
 20
482.29994150000005
 11
-212.58670800000004
 21
482.29994150000005
  0
LINE
  8
_0-0_0
  6
CONTINUOUS
 62
    7
 10
-229.18670700000007
 20
480.59992950000003
 11
-212.386709
 21
480.59992950000003
  0
LINE
  8
_0-0_0
  6
CONTINUOUS
 62
    7
 10
-212.386709
 20
480.59992950000003
 11
-212.386709
 21
482.29994150000005
  0
LINE
  8
_0-0_0
  6
CONTINUOUS
 62
    7
 10
-216.28670899999997
 20
484.40003950000005
 11
-216.28670899999997
 21
483.29994150000005
  0
LINE
  8
_0-0_0
  6
CONTINUOUS
 62
    7
 10
-224.48671000000002
 20
483.29994150000005
 11
-224.48671000000002
 21
484.40003950000005
  0
LINE
  8
_0-0_0
  6
CONTINUOUS
 62
    7
 10
-228.18670700000007
 20
482.29994150000005
 11
-229.18670700000007
 21
482.29994150000005
  0
LINE
  8
_0-0_0
  6
CONTINUOUS
 62
    7
 10
-229.18670700000007
 20
480.59992950000003
 11
-229.18670700000007
 21
482.29994150000005
  0
LINE
  8
_0-0_0
  6
CONTINUOUS
 62
    7
 10
-213.886709
 20
479.89994750000005
 11
-214.386709
 21
479.89994750000005
  0
CIRCLE
  8
_0-0_0
  6
CONTINUOUS
 62
    7
 10
-214.386709
 20
477.39994750000005
 40
2.5
  0
LINE
  8
_0-0_0
  6
CONTINUOUS
 62
    7
 10
-226.886707
 20
479.89994750000005
 11
-217.886707
 21
479.89994750000005
  0
LINE
  8
_0-0_0
  6
CONTINUOUS
 62
    7
 10
-214.386709
 20
479.89994750000005
 11
-217.386707
 21
479.89994750000005
  0
LINE
  8
_0-0_0
  6
CONTINUOUS
 62
    7
 10
-217.886707
 20
479.89994750000005
 11
-217.386707
 21
479.89994750000005
  0
ARC
  8
_0-0_0
  6
CONTINUOUS
 62
    7
 10
-212.386709
 20
473.89994750000005
 40
0.5
 50
0
 51
90.000003000000007
  0
LINE
  8
_0-0_0
  6
CONTINUOUS
 62
    7
 10
-213.886709
 20
458.40257250000002
 11
-213.87082899999996
 21
458.37532050000004
  0
LINE
  8
_0-0_0
  6
CONTINUOUS
 62
    7
 10
-213.87082899999996
 20
458.37532050000004
 11
-213.85498400000006
 21
458.35234049999997
  0
LINE
  8
_0-0_0
  6
CONTINUOUS
 62
    7
 10
-213.85498400000006
 20
458.35234049999997
 11
-213.841003
 21
458.33558649999998
  0
LINE
  8
_0-0_0
  6
CONTINUOUS
 62
    7
 10
-213.841003
 20
458.33558649999998
 11
-213.82710499999996
 21
458.3222505
  0
LINE
  8
_0-0_0
  6
CONTINUOUS
 62
    7
 10
-213.82710499999996
 20
458.3222505
 11
-213.814888
 21
458.31333949999998
  0
LINE
  8
_0-0_0
  6
CONTINUOUS
 62
    7
 10
-213.814888
 20
458.31333949999998
 11
-213.80276900000001
 21
458.30711350000001
  0
LINE
  8
_0-0_0
  6
CONTINUOUS
 62
    7
 10
-213.80276900000001
 20
458.30711350000001
 11
-213.79190200000005
 21
458.30384849999996
  0
LINE
  8
_0-0_0
  6
CONTINUOUS
 62
    7
 10
-213.79190200000005
 20
458.30384849999996
 11
-213.78114300000004
 21
458.30278050000004
  0
LINE
  8
_0-0_0
  6
CONTINUOUS
 62
    7
 10
-213.78114300000004
 20
458.30278050000004
 11
-213.778683
 21
458.30287150000004
  0
LINE
  8
_0-0_0
  6
CONTINUOUS
 62
    7
 10
-228.18670700000007
 20
479.41981450000003
 11
-228.18670700000007
 21
480.59901449999995
  0
ARC
  8
_0-0_0
  6
CONTINUOUS
 62
    7
 10
-228.386707
 20
464.29994150000005
 40
0.5
 50
180.00000900000003
 51
269.99999700000001
  0
CIRCLE
  8
_0-0_0
  6
CONTINUOUS
 62
    7
 10
-226.386707
 20
460.79994150000005
 40
2.5
  0
LINE
  8
_0-0_0
  6
CONTINUOUS
 62
    7
 10
-226.886707
 20
479.79731749999996
 11
-226.90258800000004
 21
479.82456950000005
  0
LINE
  8
_0-0_0
  6
CONTINUOUS
 62
    7
 10
-226.90258800000004
 20
479.82456950000005
 11
-226.91843400000005
 21
479.84754950000001
  0
LINE
  8
_0-0_0
  6
CONTINUOUS
 62
    7
 10
-226.91843400000005
 20
479.84754950000001
 11
-226.93241499999999
 21
479.86430350000001
  0
LINE
  8
_0-0_0
  6
CONTINUOUS
 62
    7
 10
-226.93241499999999
 20
479.86430350000001
 11
-226.94631200000003
 21
479.87763949999999
  0
LINE
  8
_0-0_0
  6
CONTINUOUS
 62
    7
 10
-226.94631200000003
 20
479.87763949999999
 11
-226.95853
 21
479.8865505
  0
LINE
  8
_0-0_0
  6
CONTINUOUS
 62
    7
 10
-226.95853
 20
479.8865505
 11
-226.97064999999998
 21
479.89277649999997
  0
LINE
  8
_0-0_0
  6
CONTINUOUS
 62
    7
 10
-226.97064999999998
 20
479.89277649999997
 11
-226.98151400000006
 21
479.89604150000002
  0
LINE
  8
_0-0_0
  6
CONTINUOUS
 62
    7
 10
-226.98151400000006
 20
479.89604150000002
 11
-226.99227500000006
 21
479.89710950000006
  0
LINE
  8
_0-0_0
  6
CONTINUOUS
 62
    7
 10
-226.99227500000006
 20
479.89710950000006
 11
-226.99473599999999
 21
479.89701850000006
  0
LINE
  8
_0-0_0
  6
CONTINUOUS
 62
    7
 10
-229.18670700000007
 20
461.69993550000004
 11
-229.28670899999997
 21
461.69993550000004
  0
LINE
  8
_0-0_0
  6
CONTINUOUS
 62
    7
 10
-229.28670899999997
 20
461.69993550000004
 11
-229.28670899999997
 21
464.69993550000004
  0
LINE
  8
_0-0_0
  6
CONTINUOUS
 62
    7
 10
-229.28670899999997
 20
464.69993550000004
 11
-229.28670899999997
 21
478.29994150000005
  0
LINE
  8
_0-0_0
  6
CONTINUOUS
 62
    7
 10
-229.18670700000007
 20
481.29994150000005
 11
-229.28670899999997
 21
481.29994150000005
  0
LINE
  8
_0-0_0
  6
CONTINUOUS
 62
    7
 10
-229.28670899999997
 20
478.29994150000005
 11
-229.28670899999997
 21
481.29994150000005
  0
ARC
  8
_0-0_0
  6
CONTINUOUS
 62
    7
 10
-222.886707
 20
458.79994150000005
 40
0.5
 50
180.00000900000003
 51
269.99999700000001
  0
ARC
  8
_0-0_0
  6
CONTINUOUS
 62
    7
 10
-226.18670700000007
 20
483.80000250000001
 40
1.5
 50
269.99999700000001
 51
0
  0
ARC
  8
_0-0_0
  6
CONTINUOUS
 62
    7
 10
-227.68670700000007
 20
482.80000250000001
 40
0.5
 50
90.000003000000007
 51
180.00000900000001
  0
LINE
  8
_0-0_0
  6
CONTINUOUS
 62
    7
 10
-227.68670700000007
 20
483.30000250000001
 11
-226.18670700000007
 21
483.30000250000001
  0
ARC
  8
_0-0_0
  6
CONTINUOUS
 62
    7
 10
-226.18670700000007
 20
484.30000250000001
 40
1
 50
269.99999700000001
 51
0
  0
LINE
  8
_0-0_0
  6
CONTINUOUS
 62
    7
 10
-225.18670700000007
 20
484.40003950000005
 11
-225.18670700000007
 21
484.30000250000001
  0
LINE
  8
_0-0_0
  6
CONTINUOUS
 62
    7
 10
-224.68670700000007
 20
484.40003950000005
 11
-224.68670700000007
 21
483.80000250000001
  0
LINE
  8
_0-0_0
  6
CONTINUOUS
 62
    7
 10
-228.18670700000007
 20
482.30000250000001
 11
-228.18670700000007
 21
482.80000250000001
  0
ARC
  8
_0-0_0
  6
CONTINUOUS
 62
    7
 10
-217.886707
 20
479.39994750000005
 40
0.5
 50
0
 51
90.000003000000007
  0
LINE
  8
_0-0_0
  6
CONTINUOUS
 62
    7
 10
-217.386707
 20
479.32295250000004
 11
-217.386707
 21
479.39994750000005
  0
LINE
  8
_0-0_0
  6
CONTINUOUS
 62
    7
 10
-217.386707
 20
477.88145450000002
 11
-217.386707
 21
479.32295250000004
  0
LINE
  8
_0-0_0
  6
CONTINUOUS
 62
    7
 10
-217.386707
 20
477.39994750000005
 11
-217.386707
 21
477.88145450000002
  0
ARC
  8
_0-0_0
  6
CONTINUOUS
 62
    7
 10
-214.386709
 20
477.39994750000005
 40
3
 50
180.00000900000003
 51
269.99999700000001
  0
LINE
  8
_0-0_0
  6
CONTINUOUS
 62
    7
 10
-213.90520700000002
 20
474.39994750000005
 11
-214.386709
 21
474.39994750000005
  0
LINE
  8
_0-0_0
  6
CONTINUOUS
 62
    7
 10
-213.90520700000002
 20
474.39994750000005
 11
-212.46368400000006
 21
474.39994750000005
  0
LINE
  8
_0-0_0
  6
CONTINUOUS
 62
    7
 10
-212.386709
 20
474.39994750000005
 11
-212.46368400000006
 21
474.39994750000005
  0
LINE
  8
_0-0_0
  6
CONTINUOUS
 62
    7
 10
-228.30973400000005
 20
463.79994150000005
 11
-228.386707
 21
463.79994150000005
  0
LINE
  8
_0-0_0
  6
CONTINUOUS
 62
    7
 10
-226.386707
 20
463.79994150000005
 11
-226.86820999999998
 21
463.79994150000005
  0
LINE
  8
_0-0_0
  6
CONTINUOUS
 62
    7
 10
-226.86820999999998
 20
463.79994150000005
 11
-228.30973400000005
 21
463.79994150000005
  0
LINE
  8
_0-0_0
  6
CONTINUOUS
 62
    7
 10
-223.386707
 20
458.79994150000005
 11
-223.386707
 21
458.87690750000002
  0
LINE
  8
_0-0_0
  6
CONTINUOUS
 62
    7
 10
-223.386707
 20
460.31843549999996
 11
-223.386707
 21
458.87690750000002
  0
LINE
  8
_0-0_0
  6
CONTINUOUS
 62
    7
 10
-223.386707
 20
460.31843549999996
 11
-223.386707
 21
460.79994150000005
  0
ARC
  8
_0-0_0
  6
CONTINUOUS
 62
    7
 10
-226.386707
 20
460.79994150000005
 40
3
 50
0
 51
89.999995999999996
  0
LINE
  8
_0-0_0
  6
CONTINUOUS
 62
    7
 10
-211.886709
 20
481.41120850000004
 11
-211.886709
 21
479.52494750000005
  0
LINE
  8
_0-0_0
  6
CONTINUOUS
 62
    7
 10
-211.886709
 20
482.07493550000004
 11
-211.886709
 21
481.41120850000004
  0
ARC
  8
_0-0_0
  6
CONTINUOUS
 62
    7
 10
-217.15659100000005
 20
470.27317749999997
 40
3.063396
 50
19.82113
 51
25.289563000000001
  0
ARC
  8
_0-0_0
  6
CONTINUOUS
 62
    7
 10
-217.15627100000006
 20
467.92655950000005
 40
3.0630519999999999
 50
334.71006
 51
340.17869200000001
  0
ARC
  8
_0-0_0
  6
CONTINUOUS
 62
    7
 10
-223.61682300000007
 20
467.92671150000001
 40
3.063399
 50
199.82113599999997
 51
205.28948099999999
  0
ARC
  8
_0-0_0
  6
CONTINUOUS
 62
    7
 10
-223.61714200000006
 20
470.27333050000004
 40
3.0630549999999999
 50
154.710137
 51
160.17869999999999
  0
ARC
  8
_0-0_0
  6
CONTINUOUS
 62
    7
 10
-220.386707
 20
469.09992950000003
 40
6.5
 50
340.10416099999998
 51
19.895609999999952
  0
ARC
  8
_0-0_0
  6
CONTINUOUS
 62
    7
 10
-220.386707
 20
469.09992950000003
 40
6.5
 50
160.10415599999999
 51
199.895612
  0
LINE
  8
_0-0_0
  6
CONTINUOUS
 62
    7
 10
-228.886707
 20
480.18873550000001
 11
-228.886707
 21
480.59907550000003
  0
LINE
  8
_0-0_0
  6
CONTINUOUS
 62
    7
 10
-228.886707
 20
479.52986150000004
 11
-228.886707
 21
480.18873550000001
  0
LINE
  8
_0-0_0
  6
CONTINUOUS
 62
    7
 10
-221.128378
 20
475.59992950000003
 11
-225.645039
 21
472.9922335
  0
LINE
  8
_0-0_0
  6
CONTINUOUS
 62
    7
 10
-219.645039
 20
475.59992950000003
 11
-221.128378
 21
475.59992950000003
  0
LINE
  8
_0-0_0
  6
CONTINUOUS
 62
    7
 10
-215.128378
 20
472.9922335
 11
-219.645039
 21
475.59992950000003
  0
LINE
  8
_0-0_0
  6
CONTINUOUS
 62
    7
 10
-214.386709
 20
471.70762649999995
 11
-214.386709
 21
466.4922335
  0
LINE
  8
_0-0_0
  6
CONTINUOUS
 62
    7
 10
-215.128378
 20
472.9922335
 11
-214.386709
 21
471.70762649999995
  0
LINE
  8
_0-0_0
  6
CONTINUOUS
 62
    7
 10
-219.645039
 20
462.59992950000003
 11
-215.128378
 21
465.20762649999995
  0
LINE
  8
_0-0_0
  6
CONTINUOUS
 62
    7
 10
-214.83425299999999
 20
465.71708650000005
 11
-214.386709
 21
466.4922335
  0
LINE
  8
_0-0_0
  6
CONTINUOUS
 62
    7
 10
-214.83425299999999
 20
465.71708650000005
 11
-215.128378
 21
465.20762649999995
  0
LINE
  8
_0-0_0
  6
CONTINUOUS
 62
    7
 10
-221.128378
 20
462.59992950000003
 11
-219.645039
 21
462.59992950000003
  0
LINE
  8
_0-0_0
  6
CONTINUOUS
 62
    7
 10
-225.645039
 20
465.20762649999995
 11
-221.128378
 21
462.59992950000003
  0
LINE
  8
_0-0_0
  6
CONTINUOUS
 62
    7
 10
-226.386707
 20
471.70762649999995
 11
-226.386707
 21
466.4922335
  0
LINE
  8
_0-0_0
  6
CONTINUOUS
 62
    7
 10
-225.645039
 20
465.20762649999995
 11
-226.386707
 21
466.4922335
  0
LINE
  8
_0-0_0
  6
CONTINUOUS
 62
    7
 10
-225.93916300000001
 20
472.48280350000005
 11
-226.386707
 21
471.70762649999995
  0
LINE
  8
_0-0_0
  6
CONTINUOUS
 62
    7
 10
-225.93916300000001
 20
472.48280350000005
 11
-225.645039
 21
472.9922335
  0
LINE
  8
_0-0_0
  6
CONTINUOUS
 62
    7
 10
-212.49970099999996
 20
478.6253815
 11
-212.22164499999997
 21
478.64994750000005
  0
LINE
  8
_0-0_0
  6
CONTINUOUS
 62
    7
 10
-212.38194499999997
 20
478.42143250000004
 11
-212.22164499999997
 21
478.64994750000005
  0
LINE
  8
_0-0_0
  6
CONTINUOUS
 62
    7
 10
-212.63813000000005
 20
478.81590249999999
 11
-212.36416600000007
 21
478.86939949999999
  0
LINE
  8
_0-0_0
  6
CONTINUOUS
 62
    7
 10
-212.49970099999996
 20
478.6253815
 11
-212.36416600000007
 21
478.86939949999999
  0
LINE
  8
_0-0_0
  6
CONTINUOUS
 62
    7
 10
-212.79571899999996
 20
478.99092050000002
 11
-212.52884700000004
 21
479.07276950000005
  0
LINE
  8
_0-0_0
  6
CONTINUOUS
 62
    7
 10
-212.63813000000005
 20
478.81590249999999
 11
-212.52884700000004
 21
479.07276950000005
  0
LINE
  8
_0-0_0
  6
CONTINUOUS
 62
    7
 10
-212.97073699999999
 20
479.14851350000004
 11
-212.71388200000001
 21
479.25779750000004
  0
LINE
  8
_0-0_0
  6
CONTINUOUS
 62
    7
 10
-212.79571899999996
 20
478.99092050000002
 11
-212.71388200000001
 21
479.25779750000004
  0
LINE
  8
_0-0_0
  6
CONTINUOUS
 62
    7
 10
-213.16127000000006
 20
479.28694150000001
 11
-212.91724599999998
 21
479.42250049999996
  0
LINE
  8
_0-0_0
  6
CONTINUOUS
 62
    7
 10
-212.97073699999999
 20
479.14851350000004
 11
-212.91724599999998
 21
479.42250049999996
  0
LINE
  8
_0-0_0
  6
CONTINUOUS
 62
    7
 10
-213.36523099999999
 20
479.40470849999997
 11
-213.136709
 21
479.56501749999995
  0
LINE
  8
_0-0_0
  6
CONTINUOUS
 62
    7
 10
-213.16127000000006
 20
479.28694150000001
 11
-213.136709
 21
479.56501749999995
  0
LINE
  8
_0-0_0
  6
CONTINUOUS
 62
    7
 10
-213.58038099999999
 20
479.50050350000004
 11
-213.369867
 21
479.68379149999998
  0
LINE
  8
_0-0_0
  6
CONTINUOUS
 62
    7
 10
-213.36523099999999
 20
479.40470849999997
 11
-213.369867
 21
479.68379149999998
  0
LINE
  8
_0-0_0
  6
CONTINUOUS
 62
    7
 10
-213.80436499999996
 20
479.57328749999999
 11
-213.61416600000007
 21
479.77757250000002
  0
LINE
  8
_0-0_0
  6
CONTINUOUS
 62
    7
 10
-213.58038099999999
 20
479.50050350000004
 11
-213.61416600000007
 21
479.77757250000002
  0
LINE
  8
_0-0_0
  6
CONTINUOUS
 62
    7
 10
-214.03473099999997
 20
479.62223849999998
 11
-213.86693000000002
 21
479.84532149999995
  0
LINE
  8
_0-0_0
  6
CONTINUOUS
 62
    7
 10
-213.80436499999996
 20
479.57328749999999
 11
-213.86693000000002
 21
479.84532149999995
  0
LINE
  8
_0-0_0
  6
CONTINUOUS
 62
    7
 10
-214.26895300000001
 20
479.64686549999999
 11
-214.12538700000005
 21
479.88624549999997
  0
LINE
  8
_0-0_0
  6
CONTINUOUS
 62
    7
 10
-214.03473099999997
 20
479.62223849999998
 11
-214.12538700000005
 21
479.88624549999997
  0
LINE
  8
_0-0_0
  6
CONTINUOUS
 62
    7
 10
-214.50446499999998
 20
479.64686549999999
 11
-214.386709
 21
479.89994750000005
  0
LINE
  8
_0-0_0
  6
CONTINUOUS
 62
    7
 10
-214.26895300000001
 20
479.64686549999999
 11
-214.386709
 21
479.89994750000005
  0
LINE
  8
_0-0_0
  6
CONTINUOUS
 62
    7
 10
-214.73868600000003
 20
479.62223849999998
 11
-214.64802900000007
 21
479.88624549999997
  0
LINE
  8
_0-0_0
  6
CONTINUOUS
 62
    7
 10
-214.50446499999998
 20
479.64686549999999
 11
-214.64802900000007
 21
479.88624549999997
  0
LINE
  8
_0-0_0
  6
CONTINUOUS
 62
    7
 10
-214.96905100000004
 20
479.57328749999999
 11
-214.90648799999997
 21
479.84532149999995
  0
LINE
  8
_0-0_0
  6
CONTINUOUS
 62
    7
 10
-214.73868600000003
 20
479.62223849999998
 11
-214.90648799999997
 21
479.84532149999995
  0
LINE
  8
_0-0_0
  6
CONTINUOUS
 62
    7
 10
-215.193037
 20
479.50050350000004
 11
-215.15925000000004
 21
479.77757250000002
  0
LINE
  8
_0-0_0
  6
CONTINUOUS
 62
    7
 10
-214.96905100000004
 20
479.57328749999999
 11
-215.15925000000004
 21
479.77757250000002
  0
LINE
  8
_0-0_0
  6
CONTINUOUS
 62
    7
 10
-215.408188
 20
479.40470849999997
 11
-215.40355099999999
 21
479.68379149999998
  0
LINE
  8
_0-0_0
  6
CONTINUOUS
 62
    7
 10
-215.193037
 20
479.50050350000004
 11
-215.40355099999999
 21
479.68379149999998
  0
LINE
  8
_0-0_0
  6
CONTINUOUS
 62
    7
 10
-215.52772500000003
 20
479.48857150000003
 11
-215.636709
 21
479.56501749999995
  0
LINE
  8
_0-0_0
  6
CONTINUOUS
 62
    7
 10
-215.408188
 20
479.40470849999997
 11
-215.52772500000003
 21
479.48857150000003
  0
LINE
  8
_0-0_0
  6
CONTINUOUS
 62
    7
 10
-215.61214600000005
 20
479.28694150000001
 11
-215.636709
 21
479.56501749999995
  0
LINE
  8
_0-0_0
  6
CONTINUOUS
 62
    7
 10
-215.80267900000001
 20
479.14851350000004
 11
-215.85617300000001
 21
479.42250049999996
  0
LINE
  8
_0-0_0
  6
CONTINUOUS
 62
    7
 10
-215.61214600000005
 20
479.28694150000001
 11
-215.85617300000001
 21
479.42250049999996
  0
LINE
  8
_0-0_0
  6
CONTINUOUS
 62
    7
 10
-215.97769900000003
 20
478.99092050000002
 11
-216.05953599999998
 21
479.25779750000004
  0
LINE
  8
_0-0_0
  6
CONTINUOUS
 62
    7
 10
-215.80267900000001
 20
479.14851350000004
 11
-216.05953599999998
 21
479.25779750000004
  0
LINE
  8
_0-0_0
  6
CONTINUOUS
 62
    7
 10
-216.13528600000006
 20
478.81590249999999
 11
-216.24457000000007
 21
479.07276950000005
  0
LINE
  8
_0-0_0
  6
CONTINUOUS
 62
    7
 10
-215.97769900000003
 20
478.99092050000002
 11
-216.24457000000007
 21
479.07276950000005
  0
LINE
  8
_0-0_0
  6
CONTINUOUS
 62
    7
 10
-216.27371800000003
 20
478.6253815
 11
-216.40925000000004
 21
478.86939949999999
  0
LINE
  8
_0-0_0
  6
CONTINUOUS
 62
    7
 10
-216.13528600000006
 20
478.81590249999999
 11
-216.40925000000004
 21
478.86939949999999
  0
LINE
  8
_0-0_0
  6
CONTINUOUS
 62
    7
 10
-216.39147400000002
 20
478.42143250000004
 11
-216.55177100000003
 21
478.64994750000005
  0
LINE
  8
_0-0_0
  6
CONTINUOUS
 62
    7
 10
-216.27371800000003
 20
478.6253815
 11
-216.55177100000003
 21
478.64994750000005
  0
LINE
  8
_0-0_0
  6
CONTINUOUS
 62
    7
 10
-216.48726499999998
 20
478.20628350000004
 11
-216.67057199999999
 21
478.41679350000004
  0
LINE
  8
_0-0_0
  6
CONTINUOUS
 62
    7
 10
-216.39147400000002
 20
478.42143250000004
 11
-216.67057199999999
 21
478.41679350000004
  0
LINE
  8
_0-0_0
  6
CONTINUOUS
 62
    7
 10
-216.56004099999996
 20
477.98228449999999
 11
-216.76434900000004
 21
478.17250049999996
  0
LINE
  8
_0-0_0
  6
CONTINUOUS
 62
    7
 10
-216.48726499999998
 20
478.20628350000004
 11
-216.76434900000004
 21
478.17250049999996
  0
LINE
  8
_0-0_0
  6
CONTINUOUS
 62
    7
 10
-216.60900700000002
 20
477.75190750000002
 11
-216.83207700000003
 21
477.91972350000003
  0
LINE
  8
_0-0_0
  6
CONTINUOUS
 62
    7
 10
-216.56004099999996
 20
477.98228449999999
 11
-216.83207700000003
 21
477.91972350000003
  0
LINE
  8
_0-0_0
  6
CONTINUOUS
 62
    7
 10
-216.60900700000002
 20
477.75190750000002
 11
-216.87301200000002
 21
477.6612705
  0
LINE
  8
_0-0_0
  6
CONTINUOUS
 62
    7
 10
-216.63362500000005
 20
477.51768449999997
 11
-216.87301200000002
 21
477.6612705
  0
LINE
  8
_0-0_0
  6
CONTINUOUS
 62
    7
 10
-216.63362500000005
 20
477.28218049999998
 11
-216.886709
 21
477.39994750000005
  0
LINE
  8
_0-0_0
  6
CONTINUOUS
 62
    7
 10
-216.63362500000005
 20
477.51768449999997
 11
-216.886709
 21
477.39994750000005
  0
LINE
  8
_0-0_0
  6
CONTINUOUS
 62
    7
 10
-216.60900700000002
 20
477.04795850000005
 11
-216.87301200000002
 21
477.13862549999999
  0
LINE
  8
_0-0_0
  6
CONTINUOUS
 62
    7
 10
-216.63362500000005
 20
477.28218049999998
 11
-216.87301200000002
 21
477.13862549999999
  0
LINE
  8
_0-0_0
  6
CONTINUOUS
 62
    7
 10
-216.56004099999996
 20
476.8176115
 11
-216.83207700000003
 21
476.88017249999996
  0
LINE
  8
_0-0_0
  6
CONTINUOUS
 62
    7
 10
-216.60900700000002
 20
477.04795850000005
 11
-216.83207700000003
 21
476.88017249999996
  0
LINE
  8
_0-0_0
  6
CONTINUOUS
 62
    7
 10
-216.48726499999998
 20
476.59361249999995
 11
-216.76434900000004
 21
476.62739550000003
  0
LINE
  8
_0-0_0
  6
CONTINUOUS
 62
    7
 10
-216.56004099999996
 20
476.8176115
 11
-216.76434900000004
 21
476.62739550000003
  0
LINE
  8
_0-0_0
  6
CONTINUOUS
 62
    7
 10
-216.39147400000002
 20
476.37846349999995
 11
-216.67057199999999
 21
476.38310249999995
  0
LINE
  8
_0-0_0
  6
CONTINUOUS
 62
    7
 10
-216.48726499999998
 20
476.59361249999995
 11
-216.67057199999999
 21
476.38310249999995
  0
LINE
  8
_0-0_0
  6
CONTINUOUS
 62
    7
 10
-216.27371800000003
 20
476.17451449999999
 11
-216.55177100000003
 21
476.14994750000005
  0
LINE
  8
_0-0_0
  6
CONTINUOUS
 62
    7
 10
-216.39147400000002
 20
476.37846349999995
 11
-216.55177100000003
 21
476.14994750000005
  0
LINE
  8
_0-0_0
  6
CONTINUOUS
 62
    7
 10
-216.13528600000006
 20
475.98396249999996
 11
-216.40925000000004
 21
475.9304965
  0
LINE
  8
_0-0_0
  6
CONTINUOUS
 62
    7
 10
-216.27371800000003
 20
476.17451449999999
 11
-216.40925000000004
 21
475.9304965
  0
LINE
  8
_0-0_0
  6
CONTINUOUS
 62
    7
 10
-215.97769900000003
 20
475.80894450000005
 11
-216.24457000000007
 21
475.72712650000005
  0
LINE
  8
_0-0_0
  6
CONTINUOUS
 62
    7
 10
-216.13528600000006
 20
475.98396249999996
 11
-216.24457000000007
 21
475.72712650000005
  0
LINE
  8
_0-0_0
  6
CONTINUOUS
 62
    7
 10
-215.80267900000001
 20
475.65135150000003
 11
-216.05953599999998
 21
475.54206850000003
  0
LINE
  8
_0-0_0
  6
CONTINUOUS
 62
    7
 10
-215.97769900000003
 20
475.80894450000005
 11
-216.05953599999998
 21
475.54206850000003
  0
LINE
  8
_0-0_0
  6
CONTINUOUS
 62
    7
 10
-215.61214600000005
 20
475.51292450000005
 11
-215.85617300000001
 21
475.37739550000003
  0
LINE
  8
_0-0_0
  6
CONTINUOUS
 62
    7
 10
-215.80267900000001
 20
475.65135150000003
 11
-215.85617300000001
 21
475.37739550000003
  0
LINE
  8
_0-0_0
  6
CONTINUOUS
 62
    7
 10
-215.408188
 20
475.39518750000002
 11
-215.636709
 21
475.23487850000004
  0
LINE
  8
_0-0_0
  6
CONTINUOUS
 62
    7
 10
-215.61214600000005
 20
475.51292450000005
 11
-215.636709
 21
475.23487850000004
  0
LINE
  8
_0-0_0
  6
CONTINUOUS
 62
    7
 10
-215.193037
 20
475.29939249999995
 11
-215.40355099999999
 21
475.11607349999997
  0
LINE
  8
_0-0_0
  6
CONTINUOUS
 62
    7
 10
-215.408188
 20
475.39518750000002
 11
-215.40355099999999
 21
475.11607349999997
  0
LINE
  8
_0-0_0
  6
CONTINUOUS
 62
    7
 10
-214.96905100000004
 20
475.2266085
 11
-215.15925000000004
 21
475.02229250000005
  0
LINE
  8
_0-0_0
  6
CONTINUOUS
 62
    7
 10
-215.193037
 20
475.29939249999995
 11
-215.15925000000004
 21
475.02229250000005
  0
LINE
  8
_0-0_0
  6
CONTINUOUS
 62
    7
 10
-214.73868600000003
 20
475.17765750000001
 11
-214.90648799999997
 21
474.95457450000004
  0
LINE
  8
_0-0_0
  6
CONTINUOUS
 62
    7
 10
-214.96905100000004
 20
475.2266085
 11
-214.90648799999997
 21
474.95457450000004
  0
LINE
  8
_0-0_0
  6
CONTINUOUS
 62
    7
 10
-214.50446499999998
 20
475.1530305
 11
-214.64802900000007
 21
474.91365050000002
  0
LINE
  8
_0-0_0
  6
CONTINUOUS
 62
    7
 10
-214.73868600000003
 20
475.17765750000001
 11
-214.64802900000007
 21
474.91365050000002
  0
LINE
  8
_0-0_0
  6
CONTINUOUS
 62
    7
 10
-214.26895300000001
 20
475.1530305
 11
-214.386709
 21
474.89994750000005
  0
LINE
  8
_0-0_0
  6
CONTINUOUS
 62
    7
 10
-214.50446499999998
 20
475.1530305
 11
-214.386709
 21
474.89994750000005
  0
LINE
  8
_0-0_0
  6
CONTINUOUS
 62
    7
 10
-214.03473099999997
 20
475.17765750000001
 11
-214.12538700000005
 21
474.91365050000002
  0
LINE
  8
_0-0_0
  6
CONTINUOUS
 62
    7
 10
-214.26895300000001
 20
475.1530305
 11
-214.12538700000005
 21
474.91365050000002
  0
LINE
  8
_0-0_0
  6
CONTINUOUS
 62
    7
 10
-213.80436499999996
 20
475.2266085
 11
-213.86693000000002
 21
474.95457450000004
  0
LINE
  8
_0-0_0
  6
CONTINUOUS
 62
    7
 10
-214.03473099999997
 20
475.17765750000001
 11
-213.86693000000002
 21
474.95457450000004
  0
LINE
  8
_0-0_0
  6
CONTINUOUS
 62
    7
 10
-213.58038099999999
 20
475.29939249999995
 11
-213.61416600000007
 21
475.02229250000005
  0
LINE
  8
_0-0_0
  6
CONTINUOUS
 62
    7
 10
-213.80436499999996
 20
475.2266085
 11
-213.61416600000007
 21
475.02229250000005
  0
LINE
  8
_0-0_0
  6
CONTINUOUS
 62
    7
 10
-213.36523099999999
 20
475.39518750000002
 11
-213.369867
 21
475.11607349999997
  0
LINE
  8
_0-0_0
  6
CONTINUOUS
 62
    7
 10
-213.58038099999999
 20
475.29939249999995
 11
-213.369867
 21
475.11607349999997
  0
LINE
  8
_0-0_0
  6
CONTINUOUS
 62
    7
 10
-213.24569299999996
 20
475.31132449999996
 11
-213.136709
 21
475.23487850000004
  0
LINE
  8
_0-0_0
  6
CONTINUOUS
 62
    7
 10
-213.36523099999999
 20
475.39518750000002
 11
-213.24569299999996
 21
475.31132449999996
  0
LINE
  8
_0-0_0
  6
CONTINUOUS
 62
    7
 10
-213.16127000000006
 20
475.51292450000005
 11
-213.136709
 21
475.23487850000004
  0
LINE
  8
_0-0_0
  6
CONTINUOUS
 62
    7
 10
-212.97073699999999
 20
475.65135150000003
 11
-212.91724599999998
 21
475.37739550000003
  0
LINE
  8
_0-0_0
  6
CONTINUOUS
 62
    7
 10
-213.16127000000006
 20
475.51292450000005
 11
-212.91724599999998
 21
475.37739550000003
  0
LINE
  8
_0-0_0
  6
CONTINUOUS
 62
    7
 10
-212.79571899999996
 20
475.80894450000005
 11
-212.71388200000001
 21
475.54206850000003
  0
LINE
  8
_0-0_0
  6
CONTINUOUS
 62
    7
 10
-212.97073699999999
 20
475.65135150000003
 11
-212.71388200000001
 21
475.54206850000003
  0
LINE
  8
_0-0_0
  6
CONTINUOUS
 62
    7
 10
-212.63813000000005
 20
475.98396249999996
 11
-212.52884700000004
 21
475.72712650000005
  0
LINE
  8
_0-0_0
  6
CONTINUOUS
 62
    7
 10
-212.79571899999996
 20
475.80894450000005
 11
-212.52884700000004
 21
475.72712650000005
  0
LINE
  8
_0-0_0
  6
CONTINUOUS
 62
    7
 10
-212.49970099999996
 20
476.17451449999999
 11
-212.36416600000007
 21
475.9304965
  0
LINE
  8
_0-0_0
  6
CONTINUOUS
 62
    7
 10
-212.63813000000005
 20
475.98396249999996
 11
-212.36416600000007
 21
475.9304965
  0
LINE
  8
_0-0_0
  6
CONTINUOUS
 62
    7
 10
-212.38194499999997
 20
476.37846349999995
 11
-212.22164499999997
 21
476.14994750000005
  0
LINE
  8
_0-0_0
  6
CONTINUOUS
 62
    7
 10
-212.49970099999996
 20
476.17451449999999
 11
-212.22164499999997
 21
476.14994750000005
  0
LINE
  8
_0-0_0
  6
CONTINUOUS
 62
    7
 10
-212.28615200000002
 20
476.59361249999995
 11
-212.102846
 21
476.38310249999995
  0
LINE
  8
_0-0_0
  6
CONTINUOUS
 62
    7
 10
-212.38194499999997
 20
476.37846349999995
 11
-212.102846
 21
476.38310249999995
  0
LINE
  8
_0-0_0
  6
CONTINUOUS
 62
    7
 10
-212.21337500000004
 20
476.8176115
 11
-212.00906699999996
 21
476.62739550000003
  0
LINE
  8
_0-0_0
  6
CONTINUOUS
 62
    7
 10
-212.28615200000002
 20
476.59361249999995
 11
-212.00906699999996
 21
476.62739550000003
  0
LINE
  8
_0-0_0
  6
CONTINUOUS
 62
    7
 10
-212.16440999999998
 20
477.04795850000005
 11
-211.94133899999997
 21
476.88017249999996
  0
LINE
  8
_0-0_0
  6
CONTINUOUS
 62
    7
 10
-212.21337500000004
 20
476.8176115
 11
-211.94133899999997
 21
476.88017249999996
  0
LINE
  8
_0-0_0
  6
CONTINUOUS
 62
    7
 10
-212.13979300000005
 20
477.28218049999998
 11
-211.90040399999998
 21
477.13862549999999
  0
LINE
  8
_0-0_0
  6
CONTINUOUS
 62
    7
 10
-212.16440999999998
 20
477.04795850000005
 11
-211.90040399999998
 21
477.13862549999999
  0
LINE
  8
_0-0_0
  6
CONTINUOUS
 62
    7
 10
-212.13979300000005
 20
477.51768449999997
 11
-211.886709
 21
477.39994750000005
  0
LINE
  8
_0-0_0
  6
CONTINUOUS
 62
    7
 10
-212.13979300000005
 20
477.28218049999998
 11
-211.886709
 21
477.39994750000005
  0
LINE
  8
_0-0_0
  6
CONTINUOUS
 62
    7
 10
-212.16440999999998
 20
477.75190750000002
 11
-211.90040399999998
 21
477.6612705
  0
LINE
  8
_0-0_0
  6
CONTINUOUS
 62
    7
 10
-212.13979300000005
 20
477.51768449999997
 11
-211.90040399999998
 21
477.6612705
  0
LINE
  8
_0-0_0
  6
CONTINUOUS
 62
    7
 10
-212.21337500000004
 20
477.98228449999999
 11
-211.94133899999997
 21
477.91972350000003
  0
LINE
  8
_0-0_0
  6
CONTINUOUS
 62
    7
 10
-212.16440999999998
 20
477.75190750000002
 11
-211.94133899999997
 21
477.91972350000003
  0
LINE
  8
_0-0_0
  6
CONTINUOUS
 62
    7
 10
-212.28615200000002
 20
478.20628350000004
 11
-212.00906699999996
 21
478.17250049999996
  0
LINE
  8
_0-0_0
  6
CONTINUOUS
 62
    7
 10
-212.21337500000004
 20
477.98228449999999
 11
-212.00906699999996
 21
478.17250049999996
  0
LINE
  8
_0-0_0
  6
CONTINUOUS
 62
    7
 10
-212.38194499999997
 20
478.42143250000004
 11
-212.102846
 21
478.41679350000004
  0
LINE
  8
_0-0_0
  6
CONTINUOUS
 62
    7
 10
-212.28615200000002
 20
478.20628350000004
 11
-212.102846
 21
478.41679350000004
  0
CIRCLE
  8
_0-0_0
  6
CONTINUOUS
 62
    7
 10
-220.386707
 20
469.09992950000003
 40
5.25
  0
LINE
  8
_0-0_0
  6
CONTINUOUS
 62
    7
 10
-224.49969899999996
 20
462.0253755
 11
-224.22164499999997
 21
462.04994150000005
  0
LINE
  8
_0-0_0
  6
CONTINUOUS
 62
    7
 10
-224.38194299999998
 20
461.82142650000003
 11
-224.22164499999997
 21
462.04994150000005
  0
LINE
  8
_0-0_0
  6
CONTINUOUS
 62
    7
 10
-224.63813000000005
 20
462.21592650000002
 11
-224.36416600000007
 21
462.26939349999998
  0
LINE
  8
_0-0_0
  6
CONTINUOUS
 62
    7
 10
-224.49969899999996
 20
462.0253755
 11
-224.36416600000007
 21
462.26939349999998
  0
LINE
  8
_0-0_0
  6
CONTINUOUS
 62
    7
 10
-224.79571899999996
 20
462.39094550000004
 11
-224.52884700000004
 21
462.47276250000004
  0
LINE
  8
_0-0_0
  6
CONTINUOUS
 62
    7
 10
-224.63813000000005
 20
462.21592650000002
 11
-224.52884700000004
 21
462.47276250000004
  0
LINE
  8
_0-0_0
  6
CONTINUOUS
 62
    7
 10
-224.97073699999999
 20
462.54850750000003
 11
-224.71388200000001
 21
462.65779150000003
  0
LINE
  8
_0-0_0
  6
CONTINUOUS
 62
    7
 10
-224.79571899999996
 20
462.39094550000004
 11
-224.71388200000001
 21
462.65779150000003
  0
LINE
  8
_0-0_0
  6
CONTINUOUS
 62
    7
 10
-225.16127000000006
 20
462.68696550000004
 11
-224.91724799999997
 21
462.82249449999995
  0
LINE
  8
_0-0_0
  6
CONTINUOUS
 62
    7
 10
-224.97073699999999
 20
462.54850750000003
 11
-224.91724799999997
 21
462.82249449999995
  0
LINE
  8
_0-0_0
  6
CONTINUOUS
 62
    7
 10
-225.36523099999999
 20
462.80470249999996
 11
-225.136707
 21
462.96501150000006
  0
LINE
  8
_0-0_0
  6
CONTINUOUS
 62
    7
 10
-225.16127000000006
 20
462.68696550000004
 11
-225.136707
 21
462.96501150000006
  0
LINE
  8
_0-0_0
  6
CONTINUOUS
 62
    7
 10
-225.58037899999999
 20
462.90049750000003
 11
-225.369865
 21
463.08381650000001
  0
LINE
  8
_0-0_0
  6
CONTINUOUS
 62
    7
 10
-225.36523099999999
 20
462.80470249999996
 11
-225.369865
 21
463.08381650000001
  0
LINE
  8
_0-0_0
  6
CONTINUOUS
 62
    7
 10
-225.80436699999996
 20
462.97328149999998
 11
-225.61416600000007
 21
463.17759650000005
  0
LINE
  8
_0-0_0
  6
CONTINUOUS
 62
    7
 10
-225.58037899999999
 20
462.90049750000003
 11
-225.61416600000007
 21
463.17759650000005
  0
LINE
  8
_0-0_0
  6
CONTINUOUS
 62
    7
 10
-226.03473299999996
 20
463.02223149999998
 11
-225.86692800000003
 21
463.24531549999995
  0
LINE
  8
_0-0_0
  6
CONTINUOUS
 62
    7
 10
-225.80436699999996
 20
462.97328149999998
 11
-225.86692800000003
 21
463.24531549999995
  0
LINE
  8
_0-0_0
  6
CONTINUOUS
 62
    7
 10
-226.26895100000002
 20
463.04685949999998
 11
-226.12538900000004
 21
463.28623949999997
  0
LINE
  8
_0-0_0
  6
CONTINUOUS
 62
    7
 10
-226.03473299999996
 20
463.02223149999998
 11
-226.12538900000004
 21
463.28623949999997
  0
LINE
  8
_0-0_0
  6
CONTINUOUS
 62
    7
 10
-226.50446299999999
 20
463.04685949999998
 11
-226.386707
 21
463.29994150000005
  0
LINE
  8
_0-0_0
  6
CONTINUOUS
 62
    7
 10
-226.26895100000002
 20
463.04685949999998
 11
-226.386707
 21
463.29994150000005
  0
LINE
  8
_0-0_0
  6
CONTINUOUS
 62
    7
 10
-226.73868600000003
 20
463.02223149999998
 11
-226.64802900000007
 21
463.28623949999997
  0
LINE
  8
_0-0_0
  6
CONTINUOUS
 62
    7
 10
-226.50446299999999
 20
463.04685949999998
 11
-226.64802900000007
 21
463.28623949999997
  0
LINE
  8
_0-0_0
  6
CONTINUOUS
 62
    7
 10
-226.96905100000004
 20
462.97328149999998
 11
-226.90648599999997
 21
463.24531549999995
  0
LINE
  8
_0-0_0
  6
CONTINUOUS
 62
    7
 10
-226.73868600000003
 20
463.02223149999998
 11
-226.90648599999997
 21
463.24531549999995
  0
LINE
  8
_0-0_0
  6
CONTINUOUS
 62
    7
 10
-227.19303500000001
 20
462.90049750000003
 11
-227.15924800000005
 21
463.17759650000005
  0
LINE
  8
_0-0_0
  6
CONTINUOUS
 62
    7
 10
-226.96905100000004
 20
462.97328149999998
 11
-227.15924800000005
 21
463.17759650000005
  0
LINE
  8
_0-0_0
  6
CONTINUOUS
 62
    7
 10
-227.408188
 20
462.80470249999996
 11
-227.403549
 21
463.08381650000001
  0
LINE
  8
_0-0_0
  6
CONTINUOUS
 62
    7
 10
-227.19303500000001
 20
462.90049750000003
 11
-227.403549
 21
463.08381650000001
  0
LINE
  8
_0-0_0
  6
CONTINUOUS
 62
    7
 10
-227.52772500000003
 20
462.88856450000003
 11
-227.636707
 21
462.96501150000006
  0
LINE
  8
_0-0_0
  6
CONTINUOUS
 62
    7
 10
-227.408188
 20
462.80470249999996
 11
-227.52772500000003
 21
462.88856450000003
  0
LINE
  8
_0-0_0
  6
CONTINUOUS
 62
    7
 10
-227.61214400000006
 20
462.68696550000004
 11
-227.636707
 21
462.96501150000006
  0
LINE
  8
_0-0_0
  6
CONTINUOUS
 62
    7
 10
-227.80268100000001
 20
462.54850750000003
 11
-227.85617100000002
 21
462.82249449999995
  0
LINE
  8
_0-0_0
  6
CONTINUOUS
 62
    7
 10
-227.61214400000006
 20
462.68696550000004
 11
-227.85617100000002
 21
462.82249449999995
  0
LINE
  8
_0-0_0
  6
CONTINUOUS
 62
    7
 10
-227.97769900000003
 20
462.39094550000004
 11
-228.05953599999998
 21
462.65779150000003
  0
LINE
  8
_0-0_0
  6
CONTINUOUS
 62
    7
 10
-227.80268100000001
 20
462.54850750000003
 11
-228.05953599999998
 21
462.65779150000003
  0
LINE
  8
_0-0_0
  6
CONTINUOUS
 62
    7
 10
-228.13528399999996
 20
462.21592650000002
 11
-228.24457200000006
 21
462.47276250000004
  0
LINE
  8
_0-0_0
  6
CONTINUOUS
 62
    7
 10
-227.97769900000003
 20
462.39094550000004
 11
-228.24457200000006
 21
462.47276250000004
  0
LINE
  8
_0-0_0
  6
CONTINUOUS
 62
    7
 10
-228.27371600000004
 20
462.0253755
 11
-228.40925200000004
 21
462.26939349999998
  0
LINE
  8
_0-0_0
  6
CONTINUOUS
 62
    7
 10
-228.13528399999996
 20
462.21592650000002
 11
-228.40925200000004
 21
462.26939349999998
  0
LINE
  8
_0-0_0
  6
CONTINUOUS
 62
    7
 10
-228.39147200000002
 20
461.82142650000003
 11
-228.55177300000003
 21
462.04994150000005
  0
LINE
  8
_0-0_0
  6
CONTINUOUS
 62
    7
 10
-228.27371600000004
 20
462.0253755
 11
-228.55177300000003
 21
462.04994150000005
  0
LINE
  8
_0-0_0
  6
CONTINUOUS
 62
    7
 10
-228.48726299999998
 20
461.60627750000003
 11
-228.67057
 21
461.81678750000003
  0
LINE
  8
_0-0_0
  6
CONTINUOUS
 62
    7
 10
-228.39147200000002
 20
461.82142650000003
 11
-228.67057
 21
461.81678750000003
  0
LINE
  8
_0-0_0
  6
CONTINUOUS
 62
    7
 10
-228.56004300000006
 20
461.38227849999998
 11
-228.76435100000003
 21
461.57249449999995
  0
LINE
  8
_0-0_0
  6
CONTINUOUS
 62
    7
 10
-228.48726299999998
 20
461.60627750000003
 11
-228.76435100000003
 21
461.57249449999995
  0
LINE
  8
_0-0_0
  6
CONTINUOUS
 62
    7
 10
-228.60900900000001
 20
461.15193150000005
 11
-228.83207700000003
 21
461.31971750000002
  0
LINE
  8
_0-0_0
  6
CONTINUOUS
 62
    7
 10
-228.56004300000006
 20
461.38227849999998
 11
-228.83207700000003
 21
461.31971750000002
  0
LINE
  8
_0-0_0
  6
CONTINUOUS
 62
    7
 10
-228.60900900000001
 20
461.15193150000005
 11
-228.87301200000002
 21
461.0612635
  0
LINE
  8
_0-0_0
  6
CONTINUOUS
 62
    7
 10
-228.63362500000005
 20
460.9177095
 11
-228.87301200000002
 21
461.0612635
  0
LINE
  8
_0-0_0
  6
CONTINUOUS
 62
    7
 10
-228.63362500000005
 20
460.68217449999997
 11
-228.886707
 21
460.79994150000005
  0
LINE
  8
_0-0_0
  6
CONTINUOUS
 62
    7
 10
-228.63362500000005
 20
460.9177095
 11
-228.886707
 21
460.79994150000005
  0
LINE
  8
_0-0_0
  6
CONTINUOUS
 62
    7
 10
-228.60900900000001
 20
460.44795250000004
 11
-228.87301200000002
 21
460.53861949999998
  0
LINE
  8
_0-0_0
  6
CONTINUOUS
 62
    7
 10
-228.63362500000005
 20
460.68217449999997
 11
-228.87301200000002
 21
460.53861949999998
  0
LINE
  8
_0-0_0
  6
CONTINUOUS
 62
    7
 10
-228.56004300000006
 20
460.21760549999999
 11
-228.83207700000003
 21
460.28016649999995
  0
LINE
  8
_0-0_0
  6
CONTINUOUS
 62
    7
 10
-228.60900900000001
 20
460.44795250000004
 11
-228.83207700000003
 21
460.28016649999995
  0
LINE
  8
_0-0_0
  6
CONTINUOUS
 62
    7
 10
-228.48726299999998
 20
459.99360650000006
 11
-228.76435100000003
 21
460.02738950000003
  0
LINE
  8
_0-0_0
  6
CONTINUOUS
 62
    7
 10
-228.56004300000006
 20
460.21760549999999
 11
-228.76435100000003
 21
460.02738950000003
  0
LINE
  8
_0-0_0
  6
CONTINUOUS
 62
    7
 10
-228.39147200000002
 20
459.77845750000006
 11
-228.67057
 21
459.78309650000006
  0
LINE
  8
_0-0_0
  6
CONTINUOUS
 62
    7
 10
-228.48726299999998
 20
459.99360650000006
 11
-228.67057
 21
459.78309650000006
  0
LINE
  8
_0-0_0
  6
CONTINUOUS
 62
    7
 10
-228.27371600000004
 20
459.57450849999998
 11
-228.55177300000003
 21
459.54994150000005
  0
LINE
  8
_0-0_0
  6
CONTINUOUS
 62
    7
 10
-228.39147200000002
 20
459.77845750000006
 11
-228.55177300000003
 21
459.54994150000005
  0
LINE
  8
_0-0_0
  6
CONTINUOUS
 62
    7
 10
-228.13528399999996
 20
459.38398749999999
 11
-228.40925200000004
 21
459.3304895
  0
LINE
  8
_0-0_0
  6
CONTINUOUS
 62
    7
 10
-228.27371600000004
 20
459.57450849999998
 11
-228.40925200000004
 21
459.3304895
  0
LINE
  8
_0-0_0
  6
CONTINUOUS
 62
    7
 10
-227.97769900000003
 20
459.20896849999997
 11
-228.24457200000006
 21
459.12712050000005
  0
LINE
  8
_0-0_0
  6
CONTINUOUS
 62
    7
 10
-228.13528399999996
 20
459.38398749999999
 11
-228.24457200000006
 21
459.12712050000005
  0
LINE
  8
_0-0_0
  6
CONTINUOUS
 62
    7
 10
-227.80268100000001
 20
459.05137649999995
 11
-228.05953599999998
 21
458.94209250000006
  0
LINE
  8
_0-0_0
  6
CONTINUOUS
 62
    7
 10
-227.97769900000003
 20
459.20896849999997
 11
-228.05953599999998
 21
458.94209250000006
  0
LINE
  8
_0-0_0
  6
CONTINUOUS
 62
    7
 10
-227.61214400000006
 20
458.91291750000005
 11
-227.85617100000002
 21
458.77738950000003
  0
LINE
  8
_0-0_0
  6
CONTINUOUS
 62
    7
 10
-227.80268100000001
 20
459.05137649999995
 11
-227.85617100000002
 21
458.77738950000003
  0
LINE
  8
_0-0_0
  6
CONTINUOUS
 62
    7
 10
-227.408188
 20
458.79518150000001
 11
-227.636707
 21
458.63487250000003
  0
LINE
  8
_0-0_0
  6
CONTINUOUS
 62
    7
 10
-227.61214400000006
 20
458.91291750000005
 11
-227.636707
 21
458.63487250000003
  0
LINE
  8
_0-0_0
  6
CONTINUOUS
 62
    7
 10
-227.19303500000001
 20
458.69938650000006
 11
-227.403549
 21
458.51606749999996
  0
LINE
  8
_0-0_0
  6
CONTINUOUS
 62
    7
 10
-227.408188
 20
458.79518150000001
 11
-227.403549
 21
458.51606749999996
  0
LINE
  8
_0-0_0
  6
CONTINUOUS
 62
    7
 10
-226.96905100000004
 20
458.62660249999999
 11
-227.15924800000005
 21
458.42228650000004
  0
LINE
  8
_0-0_0
  6
CONTINUOUS
 62
    7
 10
-227.19303500000001
 20
458.69938650000006
 11
-227.15924800000005
 21
458.42228650000004
  0
LINE
  8
_0-0_0
  6
CONTINUOUS
 62
    7
 10
-226.73868600000003
 20
458.5776515
 11
-226.90648599999997
 21
458.35456850000003
  0
LINE
  8
_0-0_0
  6
CONTINUOUS
 62
    7
 10
-226.96905100000004
 20
458.62660249999999
 11
-226.90648599999997
 21
458.35456850000003
  0
LINE
  8
_0-0_0
  6
CONTINUOUS
 62
    7
 10
-226.50446299999999
 20
458.55302449999999
 11
-226.64802900000007
 21
458.31364450000001
  0
LINE
  8
_0-0_0
  6
CONTINUOUS
 62
    7
 10
-226.73868600000003
 20
458.5776515
 11
-226.64802900000007
 21
458.31364450000001
  0
LINE
  8
_0-0_0
  6
CONTINUOUS
 62
    7
 10
-226.26895100000002
 20
458.55302449999999
 11
-226.386707
 21
458.29994150000005
  0
LINE
  8
_0-0_0
  6
CONTINUOUS
 62
    7
 10
-226.50446299999999
 20
458.55302449999999
 11
-226.386707
 21
458.29994150000005
  0
LINE
  8
_0-0_0
  6
CONTINUOUS
 62
    7
 10
-226.03473299999996
 20
458.5776515
 11
-226.12538900000004
 21
458.31364450000001
  0
LINE
  8
_0-0_0
  6
CONTINUOUS
 62
    7
 10
-226.26895100000002
 20
458.55302449999999
 11
-226.12538900000004
 21
458.31364450000001
  0
LINE
  8
_0-0_0
  6
CONTINUOUS
 62
    7
 10
-225.80436699999996
 20
458.62660249999999
 11
-225.86692800000003
 21
458.35456850000003
  0
LINE
  8
_0-0_0
  6
CONTINUOUS
 62
    7
 10
-226.03473299999996
 20
458.5776515
 11
-225.86692800000003
 21
458.35456850000003
  0
LINE
  8
_0-0_0
  6
CONTINUOUS
 62
    7
 10
-225.58037899999999
 20
458.69938650000006
 11
-225.61416600000007
 21
458.42228650000004
  0
LINE
  8
_0-0_0
  6
CONTINUOUS
 62
    7
 10
-225.80436699999996
 20
458.62660249999999
 11
-225.61416600000007
 21
458.42228650000004
  0
LINE
  8
_0-0_0
  6
CONTINUOUS
 62
    7
 10
-225.36523099999999
 20
458.79518150000001
 11
-225.369865
 21
458.51606749999996
  0
LINE
  8
_0-0_0
  6
CONTINUOUS
 62
    7
 10
-225.58037899999999
 20
458.69938650000006
 11
-225.369865
 21
458.51606749999996
  0
LINE
  8
_0-0_0
  6
CONTINUOUS
 62
    7
 10
-225.24569300000007
 20
458.71131849999995
 11
-225.136707
 21
458.63487250000003
  0
LINE
  8
_0-0_0
  6
CONTINUOUS
 62
    7
 10
-225.36523099999999
 20
458.79518150000001
 11
-225.24569300000007
 21
458.71131849999995
  0
LINE
  8
_0-0_0
  6
CONTINUOUS
 62
    7
 10
-225.16127000000006
 20
458.91291750000005
 11
-225.136707
 21
458.63487250000003
  0
LINE
  8
_0-0_0
  6
CONTINUOUS
 62
    7
 10
-224.97073699999999
 20
459.05137649999995
 11
-224.91724799999997
 21
458.77738950000003
  0
LINE
  8
_0-0_0
  6
CONTINUOUS
 62
    7
 10
-225.16127000000006
 20
458.91291750000005
 11
-224.91724799999997
 21
458.77738950000003
  0
LINE
  8
_0-0_0
  6
CONTINUOUS
 62
    7
 10
-224.79571899999996
 20
459.20896849999997
 11
-224.71388200000001
 21
458.94209250000006
  0
LINE
  8
_0-0_0
  6
CONTINUOUS
 62
    7
 10
-224.97073699999999
 20
459.05137649999995
 11
-224.71388200000001
 21
458.94209250000006
  0
LINE
  8
_0-0_0
  6
CONTINUOUS
 62
    7
 10
-224.63813000000005
 20
459.38398749999999
 11
-224.52884700000004
 21
459.12712050000005
  0
LINE
  8
_0-0_0
  6
CONTINUOUS
 62
    7
 10
-224.79571899999996
 20
459.20896849999997
 11
-224.52884700000004
 21
459.12712050000005
  0
LINE
  8
_0-0_0
  6
CONTINUOUS
 62
    7
 10
-224.49969899999996
 20
459.57450849999998
 11
-224.36416600000007
 21
459.3304895
  0
LINE
  8
_0-0_0
  6
CONTINUOUS
 62
    7
 10
-224.63813000000005
 20
459.38398749999999
 11
-224.36416600000007
 21
459.3304895
  0
LINE
  8
_0-0_0
  6
CONTINUOUS
 62
    7
 10
-224.38194299999998
 20
459.77845750000006
 11
-224.22164499999997
 21
459.54994150000005
  0
LINE
  8
_0-0_0
  6
CONTINUOUS
 62
    7
 10
-224.49969899999996
 20
459.57450849999998
 11
-224.22164499999997
 21
459.54994150000005
  0
LINE
  8
_0-0_0
  6
CONTINUOUS
 62
    7
 10
-224.28615200000002
 20
459.99360650000006
 11
-224.102844
 21
459.78309650000006
  0
LINE
  8
_0-0_0
  6
CONTINUOUS
 62
    7
 10
-224.38194299999998
 20
459.77845750000006
 11
-224.102844
 21
459.78309650000006
  0
LINE
  8
_0-0_0
  6
CONTINUOUS
 62
    7
 10
-224.21337500000004
 20
460.21760549999999
 11
-224.00906699999996
 21
460.02738950000003
  0
LINE
  8
_0-0_0
  6
CONTINUOUS
 62
    7
 10
-224.28615200000002
 20
459.99360650000006
 11
-224.00906699999996
 21
460.02738950000003
  0
LINE
  8
_0-0_0
  6
CONTINUOUS
 62
    7
 10
-224.16440999999998
 20
460.44795250000004
 11
-223.94133899999997
 21
460.28016649999995
  0
LINE
  8
_0-0_0
  6
CONTINUOUS
 62
    7
 10
-224.21337500000004
 20
460.21760549999999
 11
-223.94133899999997
 21
460.28016649999995
  0
LINE
  8
_0-0_0
  6
CONTINUOUS
 62
    7
 10
-224.13979300000005
 20
460.68217449999997
 11
-223.90040399999998
 21
460.53861949999998
  0
LINE
  8
_0-0_0
  6
CONTINUOUS
 62
    7
 10
-224.16440999999998
 20
460.44795250000004
 11
-223.90040399999998
 21
460.53861949999998
  0
LINE
  8
_0-0_0
  6
CONTINUOUS
 62
    7
 10
-224.13979300000005
 20
460.9177095
 11
-223.886707
 21
460.79994150000005
  0
LINE
  8
_0-0_0
  6
CONTINUOUS
 62
    7
 10
-224.13979300000005
 20
460.68217449999997
 11
-223.886707
 21
460.79994150000005
  0
LINE
  8
_0-0_0
  6
CONTINUOUS
 62
    7
 10
-224.16440999999998
 20
461.15193150000005
 11
-223.90040399999998
 21
461.0612635
  0
LINE
  8
_0-0_0
  6
CONTINUOUS
 62
    7
 10
-224.13979300000005
 20
460.9177095
 11
-223.90040399999998
 21
461.0612635
  0
LINE
  8
_0-0_0
  6
CONTINUOUS
 62
    7
 10
-224.21337500000004
 20
461.38227849999998
 11
-223.94133899999997
 21
461.31971750000002
  0
LINE
  8
_0-0_0
  6
CONTINUOUS
 62
    7
 10
-224.16440999999998
 20
461.15193150000005
 11
-223.94133899999997
 21
461.31971750000002
  0
LINE
  8
_0-0_0
  6
CONTINUOUS
 62
    7
 10
-224.28615200000002
 20
461.60627750000003
 11
-224.00906699999996
 21
461.57249449999995
  0
LINE
  8
_0-0_0
  6
CONTINUOUS
 62
    7
 10
-224.21337500000004
 20
461.38227849999998
 11
-224.00906699999996
 21
461.57249449999995
  0
LINE
  8
_0-0_0
  6
CONTINUOUS
 62
    7
 10
-224.38194299999998
 20
461.82142650000003
 11
-224.102844
 21
461.81678750000003
  0
LINE
  8
_0-0_0
  6
CONTINUOUS
 62
    7
 10
-224.28615200000002
 20
461.60627750000003
 11
-224.102844
 21
461.81678750000003
  0
CIRCLE
  8
_0-0_0
  6
CONTINUOUS
 62
    7
 10
-214.386709
 20
477.39994750000005
 40
2
  0
CIRCLE
  8
_0-0_0
  6
CONTINUOUS
 62
    7
 10
-226.386707
 20
460.79994150000005
 40
2
  0
LINE
  8
_0-0_0
  6
CONTINUOUS
 62
    7
 10
-213.80460000000005
 20
476.39994750000005
 11
-214.96881900000005
 21
476.39994750000005
  0
LINE
  8
_0-0_0
  6
CONTINUOUS
 62
    7
 10
-214.96881900000005
 20
476.39994750000005
 11
-215.53670899999997
 21
477.39994750000005
  0
LINE
  8
_0-0_0
  6
CONTINUOUS
 62
    7
 10
-215.53670899999997
 20
477.39994750000005
 11
-214.96881900000005
 21
478.39994750000005
  0
LINE
  8
_0-0_0
  6
CONTINUOUS
 62
    7
 10
-214.96881900000005
 20
478.39994750000005
 11
-213.80460000000005
 21
478.39994750000005
  0
LINE
  8
_0-0_0
  6
CONTINUOUS
 62
    7
 10
-213.80460000000005
 20
478.39994750000005
 11
-213.23671000000002
 21
477.39994750000005
  0
LINE
  8
_0-0_0
  6
CONTINUOUS
 62
    7
 10
-213.23671000000002
 20
477.39994750000005
 11
-213.80460000000005
 21
476.39994750000005
  0
CIRCLE
  8
_0-0_0
  6
CONTINUOUS
 62
    7
 10
-220.386707
 20
469.09992950000003
 40
5
  0
LINE
  8
_0-0_0
  6
CONTINUOUS
 62
    7
 10
-225.80460000000005
 20
459.79994150000005
 11
-226.96881900000005
 21
459.79994150000005
  0
LINE
  8
_0-0_0
  6
CONTINUOUS
 62
    7
 10
-226.96881900000005
 20
459.79994150000005
 11
-227.53670899999997
 21
460.79994150000005
  0
LINE
  8
_0-0_0
  6
CONTINUOUS
 62
    7
 10
-227.53670899999997
 20
460.79994150000005
 11
-226.96881900000005
 21
461.79994150000005
  0
LINE
  8
_0-0_0
  6
CONTINUOUS
 62
    7
 10
-226.96881900000005
 20
461.79994150000005
 11
-225.80460000000005
 21
461.79994150000005
  0
LINE
  8
_0-0_0
  6
CONTINUOUS
 62
    7
 10
-225.80460000000005
 20
461.79994150000005
 11
-225.23671000000002
 21
460.79994150000005
  0
LINE
  8
_0-0_0
  6
CONTINUOUS
 62
    7
 10
-225.23671000000002
 20
460.79994150000005
 11
-225.80460000000005
 21
459.79994150000005
  0
CIRCLE
  8
_0-0_0
  6
CONTINUOUS
 62
    7
 10
-220.386707
 20
469.09992950000003
 40
4.5381200000000002
  0
CIRCLE
  8
_0-0_0
  6
CONTINUOUS
 62
    7
 10
-220.386707
 20
469.09992950000003
 40
4
  0
LINE
  8
_0-0_0
  6
CONTINUOUS
 62
    7
 10
-228.51928699999996
 20
479.05525150000005
 11
-229.18670700000007
 21
479.05525150000005
  0
ARC
  8
_0-0_0
  6
CONTINUOUS
 62
    7
 10
-212.386709
 20
479.52494750000005
 40
0.2
 50
179.94055499999999
 51
269.99997000000002
  0
ARC
  8
_0-0_0
  6
CONTINUOUS
 62
    7
 10
-213.886709
 20
460.29994150000005
 40
2
 50
269.99999700000001
 51
273.84026499999999
  0
ARC
  8
_0-0_0
  6
CONTINUOUS
 62
    7
 10
-226.886707
 20
477.89994750000005
 40
2
 50
90.000003000000007
 51
93.840255999999997
  0
LINE
  8
_0-0_0
  6
CONTINUOUS
 62
    7
 10
-212.08670800000004
 20
479.32493550000004
 11
-212.386709
 21
479.32493550000004
  0
LINE
  8
_0-0_0
  6
CONTINUOUS
 62
    7
 10
-212.08670800000004
 20
482.27494750000005
 11
-212.386709
 21
482.27494750000005
  0
ARC
  8
_0-0_0
  6
CONTINUOUS
 62
    7
 10
-228.386707
 20
479.52500950000001
 40
0.2
 50
270.00002499999994
 51
0.0594439999999606
  0
ARC
  8
_0-0_0
  6
CONTINUOUS
 62
    7
 10
-212.08674199999996
 20
479.52497849999997
 40
0.200055
 50
270.00964199999999
 51
1.3705509999999435
  0
ARC
  8
_0-0_0
  6
CONTINUOUS
 62
    7
 10
-212.08671000000004
 20
482.07493550000004
 40
0.2
 50
359.91222800000003
 51
89.999948000000003
  0
LINE
  8
_0-0_0
  6
CONTINUOUS
 62
    7
 10
-228.68670700000007
 20
479.32502750000003
 11
-228.386707
 21
479.32502750000003
  0
ARC
  8
_0-0_0
  6
CONTINUOUS
 62
    7
 10
-228.68667600000003
 20
479.52507049999997
 40
0.200055
 50
178.629446
 51
269.99035300000003
  0
LINE
  8
_0-0_0
  6
CONTINUOUS
 62
    7
 10
-211.68670800000007
 20
484.80000250000001
 11
-211.68670800000007
 21
498.00001550000002
  0
ARC
  8
_0-0_0
  6
CONTINUOUS
 62
    7
 10
-212.18670800000007
 20
484.80000250000001
 40
0.5
 50
269.99999700000001
 51
0
  0
ARC
  8
_0-0_0
  6
CONTINUOUS
 62
    7
 10
-211.74528699999996
 20
498.20002750000003
 40
0.1
 50
135
 51
225
  0
LINE
  8
_0-0_0
  6
CONTINUOUS
 62
    7
 10
-211.81599800000004
 20
498.12931849999995
 11
-211.68670800000007
 21
498.00001550000002
  0
LINE
  8
_0-0_0
  6
CONTINUOUS
 62
    7
 10
-212.18670800000007
 20
484.30000250000001
 11
-214.08670800000004
 21
484.30000250000001
  0
ARC
  8
_0-0_0
  6
CONTINUOUS
 62
    7
 10
-214.08670800000004
 20
484.80000250000001
 40
0.5
 50
233.12990600000001
 51
269.99999700000001
  0
ARC
  8
_0-0_0
  6
CONTINUOUS
 62
    7
 10
-226.78670899999997
 20
484.80000250000001
 40
0.5
 50
269.99999700000001
 51
306.87009999999998
  0
LINE
  8
_0-0_0
  6
CONTINUOUS
 62
    7
 10
-226.78670899999997
 20
484.30000250000001
 11
-228.68670700000007
 21
484.30000250000001
  0
ARC
  8
_0-0_0
  6
CONTINUOUS
 62
    7
 10
-228.68670700000007
 20
484.80000250000001
 40
0.5
 50
180.00000900000003
 51
269.99999700000001
  0
LINE
  8
_0-0_0
  6
CONTINUOUS
 62
    7
 10
-229.18670700000007
 20
494.23500049999996
 11
-229.18670700000007
 21
484.80000250000001
  0
LINE
  8
_0-0_0
  6
CONTINUOUS
 62
    7
 10
-229.18670700000007
 20
494.23500049999996
 11
-228.48671000000002
 21
494.23500049999996
  0
LINE
  8
_0-0_0
  6
CONTINUOUS
 62
    7
 10
-212.48670800000002
 20
512.80000250000001
 11
-212.28067799999997
 21
512.80000250000001
  0
LINE
  8
_0-0_0
  6
CONTINUOUS
 62
    7
 10
-212.28067799999997
 20
512.80000250000001
 11
-211.68670800000007
 21
512.20603949999997
  0
LINE
  8
_0-0_0
  6
CONTINUOUS
 62
    7
 10
-211.68670800000007
 20
507.20002750000003
 11
-211.68670800000007
 21
512.20603949999997
  0
LINE
  8
_0-0_0
  6
CONTINUOUS
 62
    7
 10
-211.81599800000004
 20
507.07072449999998
 11
-211.68670800000007
 21
507.20002750000003
  0
ARC
  8
_0-0_0
  6
CONTINUOUS
 62
    7
 10
-211.74528699999996
 20
507.00001550000002
 40
0.1
 50
135
 51
225
  0
LINE
  8
_0-0_0
  6
CONTINUOUS
 62
    7
 10
-211.81599800000004
 20
506.92930550000005
 11
-211.68670800000007
 21
506.80000250000001
  0
LINE
  8
_0-0_0
  6
CONTINUOUS
 62
    7
 10
-211.68670800000007
 20
506.10002150000003
 11
-211.68670800000007
 21
506.80000250000001
  0
LINE
  8
_0-0_0
  6
CONTINUOUS
 62
    7
 10
-211.81599800000004
 20
505.97071849999998
 11
-211.68670800000007
 21
506.10002150000003
  0
ARC
  8
_0-0_0
  6
CONTINUOUS
 62
    7
 10
-211.74528699999996
 20
505.90000950000001
 40
0.1
 50
135
 51
225
  0
LINE
  8
_0-0_0
  6
CONTINUOUS
 62
    7
 10
-211.81599800000004
 20
505.82929950000005
 11
-211.68670800000007
 21
505.70002750000003
  0
LINE
  8
_0-0_0
  6
CONTINUOUS
 62
    7
 10
-211.68670800000007
 20
505.00001550000002
 11
-211.68670800000007
 21
505.70002750000003
  0
LINE
  8
_0-0_0
  6
CONTINUOUS
 62
    7
 10
-211.81599800000004
 20
504.87074250000001
 11
-211.68670800000007
 21
505.00001550000002
  0
ARC
  8
_0-0_0
  6
CONTINUOUS
 62
    7
 10
-211.74528699999996
 20
504.80000250000001
 40
0.1
 50
135
 51
225
  0
LINE
  8
_0-0_0
  6
CONTINUOUS
 62
    7
 10
-211.81599800000004
 20
504.72929350000004
 11
-211.68670800000007
 21
504.60002150000003
  0
LINE
  8
_0-0_0
  6
CONTINUOUS
 62
    7
 10
-211.68670800000007
 20
503.90000950000001
 11
-211.68670800000007
 21
504.60002150000003
  0
LINE
  8
_0-0_0
  6
CONTINUOUS
 62
    7
 10
-211.81599800000004
 20
503.7707365
 11
-211.68670800000007
 21
503.90000950000001
  0
ARC
  8
_0-0_0
  6
CONTINUOUS
 62
    7
 10
-211.74528699999996
 20
503.70002750000003
 40
0.1
 50
135
 51
225
  0
LINE
  8
_0-0_0
  6
CONTINUOUS
 62
    7
 10
-211.81599800000004
 20
503.62931849999995
 11
-211.68670800000007
 21
503.50001550000002
  0
LINE
  8
_0-0_0
  6
CONTINUOUS
 62
    7
 10
-211.68670800000007
 20
502.80000250000001
 11
-211.68670800000007
 21
503.50001550000002
  0
LINE
  8
_0-0_0
  6
CONTINUOUS
 62
    7
 10
-211.81599800000004
 20
502.67073049999999
 11
-211.68670800000007
 21
502.80000250000001
  0
ARC
  8
_0-0_0
  6
CONTINUOUS
 62
    7
 10
-211.74528699999996
 20
502.60002150000003
 40
0.1
 50
135
 51
225
  0
LINE
  8
_0-0_0
  6
CONTINUOUS
 62
    7
 10
-211.81599800000004
 20
502.52931149999995
 11
-211.68670800000007
 21
502.40000950000001
  0
LINE
  8
_0-0_0
  6
CONTINUOUS
 62
    7
 10
-211.68670800000007
 20
501.70002750000003
 11
-211.68670800000007
 21
502.40000950000001
  0
LINE
  8
_0-0_0
  6
CONTINUOUS
 62
    7
 10
-211.81599800000004
 20
501.57072449999998
 11
-211.68670800000007
 21
501.70002750000003
  0
ARC
  8
_0-0_0
  6
CONTINUOUS
 62
    7
 10
-211.74528699999996
 20
501.50001550000002
 40
0.1
 50
135
 51
225
  0
LINE
  8
_0-0_0
  6
CONTINUOUS
 62
    7
 10
-211.81599800000004
 20
501.42930550000005
 11
-211.68670800000007
 21
501.30000250000001
  0
LINE
  8
_0-0_0
  6
CONTINUOUS
 62
    7
 10
-211.68670800000007
 20
500.60002150000003
 11
-211.68670800000007
 21
501.30000250000001
  0
LINE
  8
_0-0_0
  6
CONTINUOUS
 62
    7
 10
-211.81599800000004
 20
500.47071849999998
 11
-211.68670800000007
 21
500.60002150000003
  0
ARC
  8
_0-0_0
  6
CONTINUOUS
 62
    7
 10
-211.74528699999996
 20
500.40000950000001
 40
0.1
 50
135
 51
225
  0
LINE
  8
_0-0_0
  6
CONTINUOUS
 62
    7
 10
-211.81599800000004
 20
500.32929950000005
 11
-211.68670800000007
 21
500.20002750000003
  0
LINE
  8
_0-0_0
  6
CONTINUOUS
 62
    7
 10
-211.68670800000007
 20
499.50001550000002
 11
-211.68670800000007
 21
500.20002750000003
  0
LINE
  8
_0-0_0
  6
CONTINUOUS
 62
    7
 10
-211.81599800000004
 20
499.37074250000001
 11
-211.68670800000007
 21
499.50001550000002
  0
ARC
  8
_0-0_0
  6
CONTINUOUS
 62
    7
 10
-211.74528699999996
 20
499.30000250000001
 40
0.1
 50
135
 51
225
  0
LINE
  8
_0-0_0
  6
CONTINUOUS
 62
    7
 10
-211.81599800000004
 20
499.22929350000004
 11
-211.68670800000007
 21
499.10002150000003
  0
LINE
  8
_0-0_0
  6
CONTINUOUS
 62
    7
 10
-211.68670800000007
 20
498.40000950000001
 11
-211.68670800000007
 21
499.10002150000003
  0
LINE
  8
_0-0_0
  6
CONTINUOUS
 62
    7
 10
-211.81599800000004
 20
498.2707365
 11
-211.68670800000007
 21
498.40000950000001
  0
LINE
  8
_0-0_0
  6
CONTINUOUS
 62
    7
 10
-211.68670800000007
 20
490.30000250000001
 11
-211.58670800000004
 21
490.30000250000001
  0
LINE
  8
_0-0_0
  6
CONTINUOUS
 62
    7
 10
-211.58670800000004
 20
489.80000250000001
 11
-211.58670800000004
 21
490.30000250000001
  0
LINE
  8
_0-0_0
  6
CONTINUOUS
 62
    7
 10
-211.58670800000004
 20
489.80000250000001
 11
-211.58670800000004
 21
485.80000250000001
  0
LINE
  8
_0-0_0
  6
CONTINUOUS
 62
    7
 10
-211.68670800000007
 20
485.30000250000001
 11
-211.58670800000004
 21
485.30000250000001
  0
LINE
  8
_0-0_0
  6
CONTINUOUS
 62
    7
 10
-211.58670800000004
 20
485.30000250000001
 11
-211.58670800000004
 21
485.80000250000001
  0
LINE
  8
_0-0_0
  6
CONTINUOUS
 62
    7
 10
-229.18670700000007
 20
494.30003350000004
 11
-229.18670700000007
 21
494.23500049999996
  0
LINE
  8
_0-0_0
  6
CONTINUOUS
 62
    7
 10
-212.68670800000007
 20
513.10002150000003
 11
-212.68670800000007
 21
513.00001550000002
  0
ARC
  8
_0-0_0
  6
CONTINUOUS
 62
    7
 10
-225.18670700000007
 20
513.10002150000003
 40
2.5
 50
90.000003000000007
 51
180.00000900000001
  0
LINE
  8
_0-0_0
  6
CONTINUOUS
 62
    7
 10
-229.28670899999997
 20
494.30000250000001
 11
-228.48671000000002
 21
494.30000250000001
  0
LINE
  8
_0-0_0
  6
CONTINUOUS
 62
    7
 10
-228.78670899999997
 20
516.10002150000003
 11
-228.78670899999997
 21
511.87849449999999
  0
LINE
  8
_0-0_0
  6
CONTINUOUS
 62
    7
 10
-227.68670700000007
 20
516.10002150000003
 11
-227.68670700000007
 21
513.10002150000003
  0
LINE
  8
_0-0_0
  6
CONTINUOUS
 62
    7
 10
-228.78670899999997
 20
511.87849449999999
 11
-228.48671000000002
 21
511.87849449999999
  0
LINE
  8
_0-0_0
  6
CONTINUOUS
 62
    7
 10
-228.78670899999997
 20
521.23991350000006
 11
-227.68670700000007
 21
521.23991350000006
  0
LINE
  8
_0-0_0
  6
CONTINUOUS
 62
    7
 10
-227.68670700000007
 20
516.10041750000005
 11
-227.68670700000007
 21
521.23991350000006
  0
LINE
  8
_0-0_0
  6
CONTINUOUS
 62
    7
 10
-229.28670899999997
 20
515.60081449999996
 11
-229.28670899999997
 21
520.67213449999997
  0
LINE
  8
_0-0_0
  6
CONTINUOUS
 62
    7
 10
-228.78670899999997
 20
521.23991350000006
 11
-229.28670899999997
 21
520.67213449999997
  0
ARC
  8
_0-0_0
  6
CONTINUOUS
 62
    7
 10
-215.18670800000007
 20
513.10002150000003
 40
2.5
 50
0
 51
90.000003000000007
  0
LINE
  8
_0-0_0
  6
CONTINUOUS
 62
    7
 10
-227.68670700000007
 20
513.00001550000002
 11
-227.68670700000007
 21
513.10002150000003
  0
LINE
  8
_0-0_0
  6
CONTINUOUS
 62
    7
 10
-215.18670800000007
 20
515.60002150000003
 11
-225.18670700000007
 21
515.60002150000003
  0
LINE
  8
_0-0_0
  6
CONTINUOUS
 62
    7
 10
-211.48671000000002
 20
485.80000250000001
 11
-211.48671000000002
 21
485.93037449999997
  0
LINE
  8
_0-0_0
  6
CONTINUOUS
 62
    7
 10
-211.48671000000002
 20
489.43037449999997
 11
-211.48671000000002
 21
485.93037449999997
  0
LINE
  8
_0-0_0
  6
CONTINUOUS
 62
    7
 10
-211.58670800000004
 20
489.70002750000003
 11
-211.48671000000002
 21
489.70002750000003
  0
LINE
  8
_0-0_0
  6
CONTINUOUS
 62
    7
 10
-211.48671000000002
 20
489.43037449999997
 11
-211.48671000000002
 21
489.70002750000003
  0
LINE
  8
_0-0_0
  6
CONTINUOUS
 62
    7
 10
-227.68670700000007
 20
523.60002150000003
 11
-227.68670700000007
 21
521.23991350000006
  0
LINE
  8
_0-0_0
  6
CONTINUOUS
 62
    7
 10
-211.886707
 20
512.20002750000003
 11
-212.886707
 21
513.20002750000003
  0
LINE
  8
_0-0_0
  6
CONTINUOUS
 62
    7
 10
-211.886709
 20
484.40000950000001
 11
-211.886707
 21
512.20002750000003
  0
LINE
  8
_0-0_0
  6
CONTINUOUS
 62
    7
 10
-228.48671000000002
 20
484.40000950000001
 11
-211.886709
 21
484.40000950000001
  0
LINE
  8
_0-0_0
  6
CONTINUOUS
 62
    7
 10
-228.48671000000002
 20
512.20002750000003
 11
-228.48671000000002
 21
484.40000950000001
  0
LINE
  8
_0-0_0
  6
CONTINUOUS
 62
    7
 10
-229.28670899999997
 20
494.30000250000001
 11
-229.28670899999997
 21
511.11283849999995
  0
LINE
  8
_0-0_0
  6
CONTINUOUS
 62
    7
 10
-229.28670899999997
 20
515.60002150000003
 11
-229.28670899999997
 21
511.11283849999995
  0
ARC
  8
_0-0_0
  6
CONTINUOUS
 62
    7
 10
-197.834969
 20
491.11784350000005
 40
37.269466000000001
 50
146.14857699999999
 51
147.55443399999999
  0
LINE
  8
_0-0_0
  6
CONTINUOUS
 62
    7
 10
-228.78670899999997
 20
523.60002150000003
 11
-228.78670899999997
 21
521.23991350000006
  0
LINE
  8
_0-0_0
  6
CONTINUOUS
 62
    7
 10
-229.28670899999997
 20
523.10002150000003
 11
-229.28670899999997
 21
520.67213449999997
  0
ARC
  8
_0-0_0
  6
CONTINUOUS
 62
    7
 10
-215.45575500000007
 20
512.80000250000001
 40
2.6000000000000001
 50
8.8498839999999994
 51
90.000002999999992
  0
LINE
  8
_0-0_0
  6
CONTINUOUS
 62
    7
 10
-215.45575500000007
 20
515.40000950000001
 11
-224.91766400000006
 21
515.40000950000001
  0
ARC
  8
_0-0_0
  6
CONTINUOUS
 62
    7
 10
-224.91766400000006
 20
512.80000250000001
 40
2.6000000000000001
 50
90.000003000000007
 51
171.150115
  0
LINE
  8
_0-0_0
  6
CONTINUOUS
 62
    7
 10
-228.48671000000002
 20
512.20002750000003
 11
-227.48671000000002
 21
513.20002750000003
  0
LINE
  8
_0-0_0
  6
CONTINUOUS
 62
    7
 10
-212.886707
 20
511.78581250000002
 11
-211.886707
 21
512.20002750000003
  0
ARC
  8
_0-0_0
  6
CONTINUOUS
 62
    7
 10
-218.42924900000003
 20
523.98612949999995
 40
12.126564999999999
 50
292.155034
 51
297.19674500000002
  0
LINE
  8
_0-0_0
  6
CONTINUOUS
 62
    7
 10
-212.886709
 20
485.40000950000001
 11
-211.886709
 21
484.40000950000001
  0
LINE
  8
_0-0_0
  6
CONTINUOUS
 62
    7
 10
-227.48671000000002
 20
485.40000950000001
 11
-228.48671000000002
 21
484.40000950000001
  0
LINE
  8
_0-0_0
  6
CONTINUOUS
 62
    7
 10
-227.48671000000002
 20
511.78581250000002
 11
-228.48671000000002
 21
512.20002750000003
  0
ARC
  8
_0-0_0
  6
CONTINUOUS
 62
    7
 10
-221.94416799999999
 20
523.98612949999995
 40
12.126567
 50
242.80325699999997
 51
247.84494000000001
  0
CIRCLE
  8
_0-0_0
  6
CONTINUOUS
 62
    7
 10
-220.18670800000007
 20
492.60002150000003
 40
2.0670000000000002
  0
LINE
  8
_0-0_0
  6
CONTINUOUS
 62
    7
 10
-227.68670700000007
 20
516.10002150000003
 11
-228.78670899999997
 21
516.10002150000003
  0
LINE
  8
_0-0_0
  6
CONTINUOUS
 62
    7
 10
-211.58670800000004
 20
485.80000250000001
 11
-211.48671000000002
 21
485.80000250000001
  0
LINE
  8
_0-0_0
  6
CONTINUOUS
 62
    7
 10
-211.58670800000004
 20
485.80000250000001
 11
-211.48671000000002
 21
485.80000250000001
  0
LINE
  8
_0-0_0
  6
CONTINUOUS
 62
    7
 10
-229.28670899999997
 20
515.60002150000003
 11
-228.78670899999997
 21
516.10002150000003
  0
LINE
  8
_0-0_0
  6
CONTINUOUS
 62
    7
 10
-227.68670700000007
 20
523.60002150000003
 11
-228.78670899999997
 21
523.60002150000003
  0
LINE
  8
_0-0_0
  6
CONTINUOUS
 62
    7
 10
-229.28670899999997
 20
523.10002150000003
 11
-228.78670899999997
 21
523.60002150000003
  0
ENDSEC
  0
EOF
