  0
SECTION
  2
HEADER
  9
$ACADVER
  1
AC1009
  9
$INSBASE
 10
0
 20
0
 30
0
  9
$EXTMIN
 10
0
 20
0
  9
$EXTMAX
 10
841
 20
594
  9
$LIMMIN
 10
0
 20
0
  9
$LIMMAX
 10
841
 20
594
  9
$LTSCALE
 40
1
  0
ENDSEC
  0
SECTION
  2
TABLES
  0
TABLE
  2
LTYPE
 70
     9
  0
LTYPE
  2
CONTINUOUS
 70
    64
  3
実線
 72
    65
 73
     0
 40
0.0
  0
LTYPE
  2
DASHED1
 70
    64
  3
--  --  --  --  --  --  --  --  
 72
    65
 73
     2
 40
2.5
 49
1.25
 49
-1.25
  0
LTYPE
  2
DASHED2
 70
    64
  3
----    ----    ----    ----    
 72
    65
 73
     2
 40
5.0
 49
2.5
 49
-2.5
  0
LTYPE
  2
DASHED3
 70
    64
  3
------  ------  ------  ------  
 72
    65
 73
     2
 40
5.0
 49
3.75
 49
-1.25
  0
LTYPE
  2
CENTER1
 70
    64
  3
----- - ----- - ----- - ----- - 
 72
    65
 73
     4
 40
10.0
 49
6.25
 49
-1.25
 49
1.25
 49
-1.25
  0
LTYPE
  2
CENTER2
 70
    64
  3
----------  --  ----------  --  
 72
    65
 73
     4
 40
20.0
 49
12.5
 49
-2.5
 49
2.5
 49
-2.5
  0
LTYPE
  2
PHANTOM1
 70
    64
  3
--- - - --- - - --- - - --- - - 
 72
    65
 73
     6
 40
10.0
 49
3.25
 49
-1.25
 49
1.25
 49
-1.25
 49
1.25
 49
-1.25
  0
LTYPE
  2
PHANTOM2
 70
    64
  3
--------  -  -  --------  -  -  
 72
    65
 73
     6
 40
20.0
 49
10.0
 49
-2.5
 49
1.25
 49
-2.5
 49
1.25
 49
-2.5
  0
LTYPE
  2
DOT
 70
    64
  3
-   -   -   -   -   -   -   -   
 72
    65
 73
     2
 40
2.5
 49
0.625
 49
-1.875
  0
LTYPE
  2
DUMMY
 70
    64
  3
ダミー
 72
    65
 73
     0
 40
0.0
  0
LTYPE
  2
RAND1
 70
    64
  3
ランダム線1
 72
    65
 73
     4
 40
10.0
 49
1.0
 49
-2.0
 49
3.0
 49
-4.0
  0
LTYPE
  2
RAND2
 70
    64
  3
ランダム線2
 72
    65
 73
     4
 40
14.0
 49
2.0
 49
-3.0
 49
4.0
 49
-5.0
  0
LTYPE
  2
RAND3
 70
    64
  3
ランダム線3
 72
    65
 73
     4
 40
18.0
 49
3.0
 49
-4.0
 49
5.0
 49
-6.0
  0
LTYPE
  2
RAND4
 70
    64
  3
ランダム線4
 72
    65
 73
     4
 40
22.0
 49
4.0
 49
-5.0
 49
6.0
 49
-7.0
  0
LTYPE
  2
RAND5
 70
    64
  3
ランダム線5
 72
    65
 73
     4
 40
26.0
 49
5.0
 49
-6.0
 49
7.0
 49
-8.0
  0
LTYPE
  2
LONG1
 70
    64
  3
----------  --  ----------  --  
 72
    65
 73
     4
 40
40.0
 49
32.5
 49
-2.5
 49
2.5
 49
-2.5
  0
LTYPE
  2
LONG2
 70
    64
  3
--------  -  -  --------  -  -  
 72
    65
 73
     6
 40
40.0
 49
30.0
 49
-2.5
 49
1.25
 49
-2.5
 49
1.25
 49
-2.5
  0
LTYPE
  2
LONG3
 70
    64
  3
+++++++++++++++..+++++++++++++++
 72
    65
 73
     2
 40
40.0
 49
37.5
 49
-2.5
  0
LTYPE
  2
LONG4
 70
    64
  3
+++++++++++++++..+++++++++++++++
 72
    65
 73
     2
 40
80.0
 49
75.0
 49
-5.0
  0
LTYPE
  2
LONG5
 70
    64
  3
----------  --  ----------  --  
 72
    65
 73
     4
 40
60.0
 49
37.5
 49
-7.5
 49
7.5
 49
-7.5
  0
LTYPE
  2
dashed
 70
   64
  3
-------   -------------   ------
 72
   65
 73
    2
 40
7.5
 49
6
 49
-1.5
  0
LTYPE
  2
dashed_spaced
 70
   64
  3
----        --------        ----
 72
   65
 73
    2
 40
12
 49
6
 49
-6
  0
LTYPE
  2
long_dashed_dotted
 70
   64
  3
------------- --- --------------
 72
   65
 73
    4
 40
15.25
 49
12
 49
-1.5
 49
0.25
 49
-1.5
  0
LTYPE
  2
long_dashed_double-dotted
 70
   64
  3
----------- --- --- ------------
 72
   65
 73
    6
 40
17
 49
12
 49
-1.5
 49
0.25
 49
-1.5
 49
0.25
 49
-1.5
  0
LTYPE
  2
long_dashed_triplicate-dotted
 70
   64
  3
--------- --- --- --- ----------
 72
   65
 73
    8
 40
18.75
 49
12
 49
-1.5
 49
0.25
 49
-1.5
 49
0.25
 49
-1.5
 49
0.25
 49
-1.5
  0
LTYPE
  2
dotted
 70
   64
  3
   -       -       -       -    
 72
   65
 73
    2
 40
1.75
 49
0.25
 49
-1.5
  0
LTYPE
  2
chain
 70
   64
  3
-------------- -- --------------
 72
   65
 73
    4
 40
18.5
 49
12
 49
-1.5
 49
3.5
 49
-1.5
  0
LTYPE
  2
chain_double_dash
 70
   64
  3
------------ -- -- -------------
 72
   65
 73
    6
 40
23.5
 49
12
 49
-1.5
 49
3.5
 49
-1.5
 49
3.5
 49
-1.5
  0
LTYPE
  2
dashed_dotted
 70
   64
  3
-----------     -     ----------
 72
   65
 73
    4
 40
9.25
 49
6
 49
-1.5
 49
0.25
 49
-1.5
  0
LTYPE
  2
double-dashed_dotted
 70
   64
  3
------   -----------   -   -----
 72
   65
 73
    6
 40
16.75
 49
6
 49
-1.5
 49
6
 49
-1.5
 49
0.25
 49
-1.5
  0
LTYPE
  2
dashed_double-dotted
 70
   64
  3
---------    -    -    ---------
 72
   65
 73
    6
 40
11
 49
6
 49
-1.5
 49
0.25
 49
-1.5
 49
0.25
 49
-1.5
  0
LTYPE
  2
double-dashed_double-dotted
 70
   64
  3
-----   ---------   -   -   ----
 72
   65
 73
    8
 40
18.5
 49
6
 49
-1.5
 49
6
 49
-1.5
 49
0.25
 49
-1.5
 49
0.25
 49
-1.5
  0
LTYPE
  2
dashed_triplicate-dotted
 70
   64
  3
-------    -    -    -    ------
 72
   65
 73
    8
 40
12.75
 49
6
 49
-1.5
 49
0.25
 49
-1.5
 49
0.25
 49
-1.5
 49
0.25
 49
-1.5
  0
LTYPE
  2
double-dashed_triplicate-dotted
 70
   64
  3
-----  ---------  -  -  -  -----
 72
   65
 73
   10
 40
20.25
 49
6
 49
-1.5
 49
6
 49
-1.5
 49
0.25
 49
-1.5
 49
0.25
 49
-1.5
 49
0.25
 49
-1.5
  0
LTYPE
  2
undefined
 70
   64
  3
--------------------------------
 72
   65
 73
    0
 40
0
  0
ENDTAB
  0
TABLE
  2
STYLE
  5
3
100
AcDbSymbolTable
 70
     1
  0
STYLE
  5
10
100
AcDbSymbolTableRecord
100
AcDbTextStyleTableRecord
  2
STANDARD
 70
     0
 40
0.0
 41
1.0
 50
0.0
 71
     0
 42
0.2
  3
txt
  4
bigfont.shx
  0
STYLE
  5
26
100
AcDbSymbolTableRecord
100
AcDbTextStyleTableRecord
  2
TATEGAKI
 70
    68
 40
0.0
 41
1.0
 50
0.0
 71
     0
 42
1.0
  3
txt
  4
bigfont.shx
  0
ENDTAB
  0
TABLE
  2
LAYER
 70
    2
  0
LAYER
  2
_0-0_0
 70
   64
 62
    7
  6
CONTINUOUS
  0
LAYER
  2
ADD_LINE
 70
   64
 62
    7
  6
CONTINUOUS
  0
ENDTAB
  0
ENDSEC
  0
SECTION
  2
BLOCKS
  0
ENDSEC
  0
SECTION
  2
ENTITIES
  0
LINE
  8
_0-0_0
  6
CONTINUOUS
 62
    7
 10
20.428954999999974
 20
516.90052749999995
 11
20.428954999999974
 21
516.89952049999999
  0
LINE
  8
_0-0_0
  6
CONTINUOUS
 62
    7
 10
173.24145499999997
 20
477.96958949999998
 11
171.94146699999999
 21
474.46958949999998
  0
ARC
  8
_0-0_0
  6
CONTINUOUS
 62
    7
 10
173.42895499999997
 20
477.89994750000005
 40
0.2
 50
20.376434999999997
 51
159.62357000000003
  0
ARC
  8
_0-0_0
  6
CONTINUOUS
 62
    7
 10
211.42895499999997
 20
480.79994150000005
 40
2.2000000000000002
 50
180.00000900000003
 51
303.74900400000001
  0
LINE
  8
_0-0_0
  6
CONTINUOUS
 62
    7
 10
209.22894299999996
 20
482.29994150000005
 11
209.22894299999996
 21
480.79994150000005
  0
LINE
  8
_0-0_0
  6
CONTINUOUS
 62
    7
 10
209.22894299999996
 20
482.29994150000005
 11
134.62896699999999
 21
482.29994150000005
  0
LINE
  8
_0-0_0
  6
CONTINUOUS
 62
    7
 10
134.62896699999999
 20
482.29994150000005
 11
134.62896699999999
 21
480.79994150000005
  0
ARC
  8
_0-0_0
  6
CONTINUOUS
 62
    7
 10
132.42895499999997
 20
480.79994150000005
 40
2.2000000000000002
 50
236.25102899999999
 51
0
  0
ARC
  8
_0-0_0
  6
CONTINUOUS
 62
    7
 10
130.92895499999997
 20
478.55494650000003
 40
0.5
 50
56.251010000000008
 51
180.00000900000001
  0
LINE
  8
_0-0_0
  6
CONTINUOUS
 62
    7
 10
130.42895499999997
 20
458.19993550000004
 11
130.42895499999997
 21
458.97706549999998
  0
LINE
  8
_0-0_0
  6
CONTINUOUS
 62
    7
 10
130.42895499999997
 20
458.19993550000004
 11
140.22894299999996
 21
458.19993550000004
  0
ARC
  8
_0-0_0
  6
CONTINUOUS
 62
    7
 10
140.22894299999996
 20
458.39994750000005
 40
0.2
 50
269.99999700000001
 51
0
  0
LINE
  8
_0-0_0
  6
CONTINUOUS
 62
    7
 10
140.42895499999997
 20
460.09992950000003
 11
140.42895499999997
 21
458.39994750000005
  0
ARC
  8
_0-0_0
  6
CONTINUOUS
 62
    7
 10
140.62896699999999
 20
460.09992950000003
 40
0.2
 50
90.000003000000007
 51
180.00000900000001
  0
LINE
  8
_0-0_0
  6
CONTINUOUS
 62
    7
 10
141.12896699999999
 20
460.29994150000005
 11
140.62896699999999
 21
460.29994150000005
  0
ARC
  8
_0-0_0
  6
CONTINUOUS
 62
    7
 10
141.12896699999999
 20
459.79994150000005
 40
0.5
 50
90.000003000000007
 51
180.00000900000001
  0
LINE
  8
_0-0_0
  6
CONTINUOUS
 62
    7
 10
140.62896699999999
 20
458.29994150000005
 11
140.62896699999999
 21
459.79994150000005
  0
LINE
  8
_0-0_0
  6
CONTINUOUS
 62
    7
 10
210.22894299999996
 20
458.29994150000005
 11
140.62896699999999
 21
458.29994150000005
  0
LINE
  8
_0-0_0
  6
CONTINUOUS
 62
    7
 10
210.22894299999996
 20
458.29994150000005
 11
210.22894299999996
 21
459.79994150000005
  0
ARC
  8
_0-0_0
  6
CONTINUOUS
 62
    7
 10
209.72894299999996
 20
459.79994150000005
 40
0.5
 50
0
 51
90.000003000000007
  0
LINE
  8
_0-0_0
  6
CONTINUOUS
 62
    7
 10
210.22894299999996
 20
460.29994150000005
 11
209.72894299999996
 21
460.29994150000005
  0
ARC
  8
_0-0_0
  6
CONTINUOUS
 62
    7
 10
210.22894299999996
 20
460.09992950000003
 40
0.2
 50
0
 51
90.000003000000007
  0
LINE
  8
_0-0_0
  6
CONTINUOUS
 62
    7
 10
210.42895499999997
 20
458.39994750000005
 11
210.42895499999997
 21
460.09992950000003
  0
ARC
  8
_0-0_0
  6
CONTINUOUS
 62
    7
 10
210.62896699999999
 20
458.39994750000005
 40
0.2
 50
180.00000900000003
 51
269.99999700000001
  0
LINE
  8
_0-0_0
  6
CONTINUOUS
 62
    7
 10
210.62896699999999
 20
458.19993550000004
 11
211.42895499999997
 21
458.19993550000004
  0
ARC
  8
_0-0_0
  6
CONTINUOUS
 62
    7
 10
211.42895499999997
 20
460.19993550000004
 40
2
 50
269.99999700000001
 51
0.0000099999999886
  0
LINE
  8
_0-0_0
  6
CONTINUOUS
 62
    7
 10
213.42895499999997
 20
478.55494650000003
 11
213.42895499999997
 21
460.19993550000004
  0
ARC
  8
_0-0_0
  6
CONTINUOUS
 62
    7
 10
212.92895499999997
 20
478.55494650000003
 40
0.5
 50
0
 51
123.74898500000002
  0
LINE
  8
_0-0_0
  6
CONTINUOUS
 62
    7
 10
141.92895499999997
 20
460.49995450000006
 11
141.92895499999997
 21
460.69993550000004
  0
LINE
  8
_0-0_0
  6
CONTINUOUS
 62
    7
 10
141.92895499999997
 20
460.69993550000004
 11
208.92895499999997
 21
460.69993550000004
  0
LINE
  8
_0-0_0
  6
CONTINUOUS
 62
    7
 10
208.92895499999997
 20
460.49995450000006
 11
208.92895499999997
 21
460.69993550000004
  0
ARC
  8
_0-0_0
  6
CONTINUOUS
 62
    7
 10
209.12896699999999
 20
460.49995450000006
 40
0.2
 50
180.00000900000003
 51
269.99999700000001
  0
LINE
  8
_0-0_0
  6
CONTINUOUS
 62
    7
 10
209.12896699999999
 20
460.29994150000005
 11
141.72894299999996
 21
460.29994150000005
  0
ARC
  8
_0-0_0
  6
CONTINUOUS
 62
    7
 10
141.72894299999996
 20
460.49995450000006
 40
0.2
 50
269.99999700000001
 51
0
  0
ARC
  8
_0-0_0
  6
CONTINUOUS
 62
    7
 10
172.12896699999999
 20
474.39994750000005
 40
0.2
 50
159.62357
 51
269.99999700000001
  0
LINE
  8
_0-0_0
  6
CONTINUOUS
 62
    7
 10
172.12896699999999
 20
474.19993550000004
 11
174.72894299999996
 21
474.19993550000004
  0
ARC
  8
_0-0_0
  6
CONTINUOUS
 62
    7
 10
174.72894299999996
 20
474.39994750000005
 40
0.2
 50
269.99999700000001
 51
20.376435000000019
  0
LINE
  8
_0-0_0
  6
CONTINUOUS
 62
    7
 10
174.91644299999996
 20
474.46958949999998
 11
173.61645499999997
 21
477.96958949999998
  0
LINE
  8
_0-0_0
  6
CONTINUOUS
 62
    7
 10
130.42895499999997
 20
477.89994750000005
 11
130.42895499999997
 21
479.87730350000004
  0
LINE
  8
_0-0_0
  6
CONTINUOUS
 62
    7
 10
130.42895499999997
 20
477.89994750000005
 11
130.42895499999997
 21
460.29994150000005
  0
LINE
  8
_0-0_0
  6
CONTINUOUS
 62
    7
 10
130.42895499999997
 20
458.97706549999998
 11
130.42895499999997
 21
460.29994150000005
  0
LINE
  8
_0-0_0
  6
CONTINUOUS
 62
    7
 10
213.42895499999997
 20
484.29994150000005
 11
213.42895499999997
 21
483.29994150000005
  0
LINE
  8
_0-0_0
  6
CONTINUOUS
 62
    7
 10
213.42895499999997
 20
483.29994150000005
 11
213.42895499999997
 21
482.79994150000005
  0
LINE
  8
_0-0_0
  6
CONTINUOUS
 62
    7
 10
213.42895499999997
 20
482.79994150000005
 11
213.42895499999997
 21
480.79994150000005
  0
LINE
  8
_0-0_0
  6
CONTINUOUS
 62
    7
 10
213.42895499999997
 20
480.79994150000005
 11
213.42895499999997
 21
478.55494650000003
  0
LINE
  8
_0-0_0
  6
CONTINUOUS
 62
    7
 10
191.42895499999997
 20
478.29994150000005
 11
191.42895499999997
 21
464.69993550000004
  0
ARC
  8
_0-0_0
  6
CONTINUOUS
 62
    7
 10
194.42895499999997
 20
478.29994150000005
 40
3
 50
90.000003000000007
 51
180.00000900000001
  0
LINE
  8
_0-0_0
  6
CONTINUOUS
 62
    7
 10
207.762878
 20
481.29994150000005
 11
194.42895499999997
 21
481.29994150000005
  0
ARC
  8
_0-0_0
  6
CONTINUOUS
 62
    7
 10
207.762878
 20
480.29994150000005
 40
1
 50
7.7664340000000012
 51
90.000002999999992
  0
ARC
  8
_0-0_0
  6
CONTINUOUS
 62
    7
 10
211.42895499999997
 20
480.79994150000005
 40
2.7000000000000002
 50
187.76643899999999
 51
254.31966600000001
  0
ARC
  8
_0-0_0
  6
CONTINUOUS
 62
    7
 10
210.42895499999997
 20
477.23762450000004
 40
1
 50
0
 51
74.319649999999996
  0
LINE
  8
_0-0_0
  6
CONTINUOUS
 62
    7
 10
211.42895499999997
 20
464.69993550000004
 11
211.42895499999997
 21
477.23762450000004
  0
ARC
  8
_0-0_0
  6
CONTINUOUS
 62
    7
 10
208.42895499999997
 20
464.69993550000004
 40
3
 50
269.99999700000001
 51
0.0000099999999886
  0
LINE
  8
_0-0_0
  6
CONTINUOUS
 62
    7
 10
194.42895499999997
 20
461.69993550000004
 11
208.42895499999997
 21
461.69993550000004
  0
ARC
  8
_0-0_0
  6
CONTINUOUS
 62
    7
 10
194.42895499999997
 20
464.69993550000004
 40
3
 50
180.00000900000003
 51
269.99999700000001
  0
LINE
  8
_0-0_0
  6
CONTINUOUS
 62
    7
 10
137.42895499999997
 20
461.69993550000004
 11
152.42895499999997
 21
461.69993550000004
  0
ARC
  8
_0-0_0
  6
CONTINUOUS
 62
    7
 10
137.42895499999997
 20
464.69993550000004
 40
3
 50
180.00000900000003
 51
269.99999700000001
  0
LINE
  8
_0-0_0
  6
CONTINUOUS
 62
    7
 10
134.42895499999997
 20
478.29994150000005
 11
134.42895499999997
 21
464.69993550000004
  0
ARC
  8
_0-0_0
  6
CONTINUOUS
 62
    7
 10
137.42895499999997
 20
478.29994150000005
 40
3
 50
90.000003000000007
 51
180.00000900000001
  0
LINE
  8
_0-0_0
  6
CONTINUOUS
 62
    7
 10
152.42895499999997
 20
481.29994150000005
 11
137.42895499999997
 21
481.29994150000005
  0
ARC
  8
_0-0_0
  6
CONTINUOUS
 62
    7
 10
152.42895499999997
 20
478.29994150000005
 40
3
 50
0
 51
90.000003000000007
  0
LINE
  8
_0-0_0
  6
CONTINUOUS
 62
    7
 10
155.42895499999997
 20
464.69993550000004
 11
155.42895499999997
 21
478.29994150000005
  0
ARC
  8
_0-0_0
  6
CONTINUOUS
 62
    7
 10
152.42895499999997
 20
464.69993550000004
 40
3
 50
269.99999700000001
 51
0.0000099999999886
  0
LINE
  8
_0-0_0
  6
CONTINUOUS
 62
    7
 10
209.42895499999997
 20
482.29994150000005
 11
209.22894299999996
 21
482.29994150000005
  0
ARC
  8
_0-0_0
  6
CONTINUOUS
 62
    7
 10
211.42895499999997
 20
480.79994150000005
 40
2
 50
180.00000900000003
 51
0.0000000000000254
  0
LINE
  8
_0-0_0
  6
CONTINUOUS
 62
    7
 10
209.42895499999997
 20
482.29994150000005
 11
209.42895499999997
 21
480.79994150000005
  0
LINE
  8
_0-0_0
  6
CONTINUOUS
 62
    7
 10
134.62896699999999
 20
482.29994150000005
 11
134.42895499999997
 21
482.29994150000005
  0
LINE
  8
_0-0_0
  6
CONTINUOUS
 62
    7
 10
134.42895499999997
 20
482.29994150000005
 11
134.42895499999997
 21
480.79994150000005
  0
ARC
  8
_0-0_0
  6
CONTINUOUS
 62
    7
 10
132.42895499999997
 20
480.79994150000005
 40
2
 50
180.00000900000003
 51
0.0000000000000254
  0
LINE
  8
_0-0_0
  6
CONTINUOUS
 62
    7
 10
116.92895499999997
 20
482.79994150000005
 11
116.92895499999997
 21
482.29994150000005
  0
LINE
  8
_0-0_0
  6
CONTINUOUS
 62
    7
 10
130.42895499999997
 20
479.88343750000001
 11
130.42895499999997
 21
480.59992950000003
  0
LINE
  8
_0-0_0
  6
CONTINUOUS
 62
    7
 10
130.42895499999997
 20
479.88343750000001
 11
130.42895499999997
 21
479.87730350000004
  0
LINE
  8
_0-0_0
  6
CONTINUOUS
 62
    7
 10
130.42895499999997
 20
478.66880749999996
 11
130.42895499999997
 21
478.55494650000003
  0
LINE
  8
_0-0_0
  6
CONTINUOUS
 62
    7
 10
118.42895499999997
 20
479.89994750000005
 11
118.42895499999997
 21
477.89994750000005
  0
LINE
  8
_0-0_0
  6
CONTINUOUS
 62
    7
 10
130.42895499999997
 20
479.89994750000005
 11
118.42895499999997
 21
479.89994750000005
  0
LINE
  8
_0-0_0
  6
CONTINUOUS
 62
    7
 10
118.42895499999997
 20
474.39994750000005
 11
118.42895499999997
 21
477.39994750000005
  0
LINE
  8
_0-0_0
  6
CONTINUOUS
 62
    7
 10
118.42895499999997
 20
477.39994750000005
 11
118.42895499999997
 21
477.89994750000005
  0
LINE
  8
_0-0_0
  6
CONTINUOUS
 62
    7
 10
118.42895499999997
 20
474.39994750000005
 11
118.42895499999997
 21
473.89994750000005
  0
ARC
  8
_0-0_0
  6
CONTINUOUS
 62
    7
 10
124.42896999999999
 20
474.59992950000003
 40
0.500016
 50
0.001164
 51
179.99560600000004
  0
LINE
  8
_0-0_0
  6
CONTINUOUS
 62
    7
 10
123.92895499999997
 20
474.59992950000003
 11
123.92895499999997
 21
462.59992950000003
  0
ARC
  8
_0-0_0
  6
CONTINUOUS
 62
    7
 10
124.42896999999999
 20
462.59996049999995
 40
0.500016
 50
180.00117
 51
359.995611
  0
LINE
  8
_0-0_0
  6
CONTINUOUS
 62
    7
 10
124.92895499999997
 20
474.59992950000003
 11
124.92895499999997
 21
462.59992950000003
  0
ARC
  8
_0-0_0
  6
CONTINUOUS
 62
    7
 10
122.92896999999999
 20
474.59992950000003
 40
0.500016
 50
0.001164
 51
179.99560600000004
  0
LINE
  8
_0-0_0
  6
CONTINUOUS
 62
    7
 10
122.42895499999997
 20
474.59992950000003
 11
122.42895499999997
 21
462.59992950000003
  0
ARC
  8
_0-0_0
  6
CONTINUOUS
 62
    7
 10
122.92896999999999
 20
462.59996049999995
 40
0.500016
 50
180.00117
 51
359.995611
  0
LINE
  8
_0-0_0
  6
CONTINUOUS
 62
    7
 10
123.42895499999997
 20
474.59992950000003
 11
123.42895499999997
 21
462.59992950000003
  0
ARC
  8
_0-0_0
  6
CONTINUOUS
 62
    7
 10
121.42896999999999
 20
474.59992950000003
 40
0.500016
 50
0.001164
 51
179.99560600000004
  0
LINE
  8
_0-0_0
  6
CONTINUOUS
 62
    7
 10
120.92895499999997
 20
474.59992950000003
 11
120.92895499999997
 21
462.59992950000003
  0
ARC
  8
_0-0_0
  6
CONTINUOUS
 62
    7
 10
121.42896999999999
 20
462.59996049999995
 40
0.500016
 50
180.00117
 51
359.995611
  0
LINE
  8
_0-0_0
  6
CONTINUOUS
 62
    7
 10
121.92895499999997
 20
474.59992950000003
 11
121.92895499999997
 21
462.59992950000003
  0
ARC
  8
_0-0_0
  6
CONTINUOUS
 62
    7
 10
119.92896999999999
 20
474.59992950000003
 40
0.500016
 50
0.001164
 51
179.99560600000004
  0
LINE
  8
_0-0_0
  6
CONTINUOUS
 62
    7
 10
119.42895499999997
 20
474.59992950000003
 11
119.42895499999997
 21
462.59992950000003
  0
ARC
  8
_0-0_0
  6
CONTINUOUS
 62
    7
 10
119.92896999999999
 20
462.59996049999995
 40
0.500016
 50
180.00117
 51
359.995611
  0
LINE
  8
_0-0_0
  6
CONTINUOUS
 62
    7
 10
120.42895499999997
 20
474.59992950000003
 11
120.42895499999997
 21
462.59992950000003
  0
LINE
  8
_0-0_0
  6
CONTINUOUS
 62
    7
 10
130.42895499999997
 20
458.29994150000005
 11
113.75351000000001
 21
458.29994150000005
  0
LINE
  8
_0-0_0
  6
CONTINUOUS
 62
    7
 10
140.97894299999996
 20
460.27690150000001
 11
140.97894299999996
 21
460.29994150000005
  0
LINE
  8
_0-0_0
  6
CONTINUOUS
 62
    7
 10
209.87896699999999
 20
460.27690150000001
 11
209.87896699999999
 21
460.29994150000005
  0
LINE
  8
_0-0_0
  6
CONTINUOUS
 62
    7
 10
116.92895499999997
 20
482.79994150000005
 11
116.92895499999997
 21
483.29994150000005
  0
LINE
  8
_0-0_0
  6
CONTINUOUS
 62
    7
 10
213.42895499999997
 20
483.29994150000005
 11
116.92895499999997
 21
483.29994150000005
  0
LINE
  8
_0-0_0
  6
CONTINUOUS
 62
    7
 10
116.92895499999997
 20
483.29994150000005
 11
116.92895499999997
 21
484.29994150000005
  0
LINE
  8
_0-0_0
  6
CONTINUOUS
 62
    7
 10
213.42907700000001
 20
484.30000250000001
 11
213.42907700000001
 21
483.80000250000001
  0
LINE
  8
_0-0_0
  6
CONTINUOUS
 62
    7
 10
213.42907700000001
 20
483.80000250000001
 11
213.42907700000001
 21
482.30000250000001
  0
ARC
  8
_0-0_0
  6
CONTINUOUS
 62
    7
 10
203.92895499999997
 20
473.89994750000005
 40
4.5
 50
269.99999700000001
 51
90.000002999999992
  0
LINE
  8
_0-0_0
  6
CONTINUOUS
 62
    7
 10
203.92895499999997
 20
469.39994750000005
 11
198.92895499999997
 21
469.39994750000005
  0
ARC
  8
_0-0_0
  6
CONTINUOUS
 62
    7
 10
198.92895499999997
 20
473.89994750000005
 40
4.5
 50
90.000003000000007
 51
269.99999700000006
  0
LINE
  8
_0-0_0
  6
CONTINUOUS
 62
    7
 10
198.92895499999997
 20
478.39994750000005
 11
203.92895499999997
 21
478.39994750000005
  0
ARC
  8
_0-0_0
  6
CONTINUOUS
 62
    7
 10
147.92895499999997
 20
473.89994750000005
 40
4.5
 50
269.99999700000001
 51
90.000002999999992
  0
LINE
  8
_0-0_0
  6
CONTINUOUS
 62
    7
 10
147.92895499999997
 20
469.39994750000005
 11
142.92895499999997
 21
469.39994750000005
  0
ARC
  8
_0-0_0
  6
CONTINUOUS
 62
    7
 10
142.92895499999997
 20
473.89994750000005
 40
4.5
 50
90.000003000000007
 51
269.99999700000006
  0
LINE
  8
_0-0_0
  6
CONTINUOUS
 62
    7
 10
142.92895499999997
 20
478.39994750000005
 11
147.92895499999997
 21
478.39994750000005
  0
LINE
  8
_0-0_0
  6
CONTINUOUS
 62
    7
 10
130.42895499999997
 20
480.59992950000003
 11
130.42895499999997
 21
482.29994150000005
  0
LINE
  8
_0-0_0
  6
CONTINUOUS
 62
    7
 10
130.42895499999997
 20
482.29994150000005
 11
116.92895499999997
 21
482.29994150000005
  0
LINE
  8
_0-0_0
  6
CONTINUOUS
 62
    7
 10
116.92895499999997
 20
480.59992950000003
 11
116.92895499999997
 21
482.29994150000005
  0
LINE
  8
_0-0_0
  6
CONTINUOUS
 62
    7
 10
118.42895499999997
 20
479.89994750000005
 11
113.75351000000001
 21
479.89994750000005
  0
LINE
  8
_0-0_0
  6
CONTINUOUS
 62
    7
 10
118.42895499999997
 20
474.39994750000005
 11
113.75351000000001
 21
474.39994750000005
  0
LINE
  8
_0-0_0
  6
CONTINUOUS
 62
    7
 10
113.12106299999999
 20
458.40257250000002
 11
113.24056999999999
 21
458.36695850000001
  0
LINE
  8
_0-0_0
  6
CONTINUOUS
 62
    7
 10
113.24056999999999
 20
458.36695850000001
 11
113.362122
 21
458.33906549999995
  0
LINE
  8
_0-0_0
  6
CONTINUOUS
 62
    7
 10
113.362122
 20
458.33906549999995
 11
113.48524499999996
 21
458.31904550000002
  0
LINE
  8
_0-0_0
  6
CONTINUOUS
 62
    7
 10
113.48524499999996
 20
458.31904550000002
 11
113.609467
 21
458.30693050000002
  0
LINE
  8
_0-0_0
  6
CONTINUOUS
 62
    7
 10
113.609467
 20
458.30693050000002
 11
113.734283
 21
458.30278050000004
  0
LINE
  8
_0-0_0
  6
CONTINUOUS
 62
    7
 10
113.734283
 20
458.30278050000004
 11
113.75351000000001
 21
458.30287150000004
  0
ARC
  8
_0-0_0
  6
CONTINUOUS
 62
    7
 10
113.75351000000001
 20
460.29994150000005
 40
2
 50
251.56498899999997
 51
269.99999700000001
  0
LINE
  8
_0-0_0
  6
CONTINUOUS
 62
    7
 10
116.92895499999997
 20
480.59992950000003
 11
130.42895499999997
 21
480.59992950000003
  0
CIRCLE
  8
_0-0_0
  6
CONTINUOUS
 62
    7
 10
211.42895499999997
 20
480.79994150000005
 40
1.4750000000000001
  0
CIRCLE
  8
_0-0_0
  6
CONTINUOUS
 62
    7
 10
132.42895499999997
 20
480.79994150000005
 40
1.4750000000000001
  0
ARC
  8
_0-0_0
  6
CONTINUOUS
 62
    7
 10
113.75351000000001
 20
477.89994750000005
 40
2
 50
90.000003000000007
 51
108.434997
  0
LINE
  8
_0-0_0
  6
CONTINUOUS
 62
    7
 10
108.95461999999998
 20
474.39994750000005
 11
108.26126099999999
 21
474.39994750000005
  0
LINE
  8
_0-0_0
  6
CONTINUOUS
 62
    7
 10
108.95461999999998
 20
474.39994750000005
 11
113.27917500000001
 21
474.39994750000005
  0
LINE
  8
_0-0_0
  6
CONTINUOUS
 62
    7
 10
113.75351000000001
 20
474.39994750000005
 11
113.27917500000001
 21
474.39994750000005
  0
LINE
  8
_0-0_0
  6
CONTINUOUS
 62
    7
 10
108.79650900000001
 20
459.84410049999997
 11
113.12106299999999
 21
458.40257250000002
  0
LINE
  8
_0-0_0
  6
CONTINUOUS
 62
    7
 10
207.97894299999996
 20
473.89994750000005
 11
205.669556
 21
469.89994750000005
  0
LINE
  8
_0-0_0
  6
CONTINUOUS
 62
    7
 10
197.188355
 20
469.89994750000005
 11
205.669556
 21
469.89994750000005
  0
LINE
  8
_0-0_0
  6
CONTINUOUS
 62
    7
 10
197.188355
 20
469.89994750000005
 11
194.87896699999999
 21
473.89994750000005
  0
LINE
  8
_0-0_0
  6
CONTINUOUS
 62
    7
 10
194.87896699999999
 20
473.89994750000005
 11
197.188355
 21
477.89994750000005
  0
LINE
  8
_0-0_0
  6
CONTINUOUS
 62
    7
 10
205.669556
 20
477.89994750000005
 11
197.188355
 21
477.89994750000005
  0
LINE
  8
_0-0_0
  6
CONTINUOUS
 62
    7
 10
205.669556
 20
477.89994750000005
 11
207.97894299999996
 21
473.89994750000005
  0
LINE
  8
_0-0_0
  6
CONTINUOUS
 62
    7
 10
141.188355
 20
477.89994750000005
 11
138.87896699999999
 21
473.89994750000005
  0
LINE
  8
_0-0_0
  6
CONTINUOUS
 62
    7
 10
149.669556
 20
477.89994750000005
 11
141.188355
 21
477.89994750000005
  0
LINE
  8
_0-0_0
  6
CONTINUOUS
 62
    7
 10
151.97894299999996
 20
473.89994750000005
 11
149.669556
 21
477.89994750000005
  0
LINE
  8
_0-0_0
  6
CONTINUOUS
 62
    7
 10
149.669556
 20
469.89994750000005
 11
151.97894299999996
 21
473.89994750000005
  0
LINE
  8
_0-0_0
  6
CONTINUOUS
 62
    7
 10
141.188355
 20
469.89994750000005
 11
149.669556
 21
469.89994750000005
  0
LINE
  8
_0-0_0
  6
CONTINUOUS
 62
    7
 10
138.87896699999999
 20
473.89994750000005
 11
141.188355
 21
469.89994750000005
  0
LINE
  8
_0-0_0
  6
CONTINUOUS
 62
    7
 10
112.67895499999997
 20
479.64994750000005
 11
113.12106299999999
 21
479.79731749999996
  0
LINE
  8
_0-0_0
  6
CONTINUOUS
 62
    7
 10
107.42895499999997
 20
475.14997849999997
 11
107.42895499999997
 21
474.02894549999996
  0
LINE
  8
_0-0_0
  6
CONTINUOUS
 62
    7
 10
107.42895499999997
 20
473.10762050000005
 11
107.42895499999997
 21
474.02894549999996
  0
LINE
  8
_0-0_0
  6
CONTINUOUS
 62
    7
 10
107.728973
 20
471.3119355
 11
107.67016599999999
 21
471.55876150000006
  0
LINE
  8
_0-0_0
  6
CONTINUOUS
 62
    7
 10
107.67016599999999
 20
471.55876150000006
 11
107.62039199999998
 21
471.75111349999997
  0
LINE
  8
_0-0_0
  6
CONTINUOUS
 62
    7
 10
107.62039199999998
 20
471.75111349999997
 11
107.54927099999998
 21
472.01692149999997
  0
LINE
  8
_0-0_0
  6
CONTINUOUS
 62
    7
 10
107.54927099999998
 20
472.01692149999997
 11
107.51631199999997
 21
472.14363049999997
  0
LINE
  8
_0-0_0
  6
CONTINUOUS
 62
    7
 10
107.51631199999997
 20
472.14363049999997
 11
107.49105799999995
 21
472.24705449999999
  0
LINE
  8
_0-0_0
  6
CONTINUOUS
 62
    7
 10
107.49105799999995
 20
472.24705449999999
 11
107.46902499999999
 21
472.3469695
  0
LINE
  8
_0-0_0
  6
CONTINUOUS
 62
    7
 10
107.46902499999999
 20
472.3469695
 11
107.44764699999996
 21
472.4646755
  0
LINE
  8
_0-0_0
  6
CONTINUOUS
 62
    7
 10
107.44764699999996
 20
472.4646755
 11
107.43907200000001
 21
472.52680950000001
  0
LINE
  8
_0-0_0
  6
CONTINUOUS
 62
    7
 10
107.43907200000001
 20
472.52680950000001
 11
107.43298299999998
 21
472.58741750000002
  0
LINE
  8
_0-0_0
  6
CONTINUOUS
 62
    7
 10
107.43298299999998
 20
472.58741750000002
 11
107.42999299999997
 21
472.63667250000003
  0
LINE
  8
_0-0_0
  6
CONTINUOUS
 62
    7
 10
107.42999299999997
 20
472.63667250000003
 11
107.42895499999997
 21
472.68489050000005
  0
LINE
  8
_0-0_0
  6
CONTINUOUS
 62
    7
 10
107.728973
 20
466.88792450000005
 11
107.81242399999996
 21
467.26661650000005
  0
LINE
  8
_0-0_0
  6
CONTINUOUS
 62
    7
 10
107.81242399999996
 20
467.26661650000005
 11
107.852509
 21
467.4581455
  0
LINE
  8
_0-0_0
  6
CONTINUOUS
 62
    7
 10
107.852509
 20
467.4581455
 11
107.90859999999998
 21
467.74815350000006
  0
LINE
  8
_0-0_0
  6
CONTINUOUS
 62
    7
 10
107.90859999999998
 20
467.74815350000006
 11
107.94619799999998
 21
467.96772750000002
  0
LINE
  8
_0-0_0
  6
CONTINUOUS
 62
    7
 10
107.94619799999998
 20
467.96772750000002
 11
107.97885099999996
 21
468.18897949999996
  0
LINE
  8
_0-0_0
  6
CONTINUOUS
 62
    7
 10
107.97885099999996
 20
468.18897949999996
 11
108.006012
 21
468.41578649999997
  0
LINE
  8
_0-0_0
  6
CONTINUOUS
 62
    7
 10
108.006012
 20
468.41578649999997
 11
108.02606200000002
 21
468.64317349999999
  0
LINE
  8
_0-0_0
  6
CONTINUOUS
 62
    7
 10
108.02606200000002
 20
468.64317349999999
 11
108.03323399999999
 21
468.7569125
  0
LINE
  8
_0-0_0
  6
CONTINUOUS
 62
    7
 10
108.03323399999999
 20
468.7569125
 11
108.03839099999999
 21
468.87059050000005
  0
LINE
  8
_0-0_0
  6
CONTINUOUS
 62
    7
 10
108.03839099999999
 20
468.87059050000005
 11
108.04209900000001
 21
469.02201850000006
  0
LINE
  8
_0-0_0
  6
CONTINUOUS
 62
    7
 10
108.04209900000001
 20
469.02201850000006
 11
108.04215999999997
 21
469.1732935
  0
LINE
  8
_0-0_0
  6
CONTINUOUS
 62
    7
 10
108.04215999999997
 20
469.1732935
 11
108.03857399999998
 21
469.32435550000002
  0
LINE
  8
_0-0_0
  6
CONTINUOUS
 62
    7
 10
108.03857399999998
 20
469.32435550000002
 11
108.02908300000001
 21
469.51289350000002
  0
LINE
  8
_0-0_0
  6
CONTINUOUS
 62
    7
 10
108.02908300000001
 20
469.51289350000002
 11
108.01420599999994
 21
469.70112549999999
  0
LINE
  8
_0-0_0
  6
CONTINUOUS
 62
    7
 10
108.01420599999994
 20
469.70112549999999
 11
107.99429299999997
 21
469.88908349999997
  0
LINE
  8
_0-0_0
  6
CONTINUOUS
 62
    7
 10
107.99429299999997
 20
469.88908349999997
 11
107.97790499999996
 21
470.01795949999996
  0
LINE
  8
_0-0_0
  6
CONTINUOUS
 62
    7
 10
107.97790499999996
 20
470.01795949999996
 11
107.95948799999996
 21
470.1465915
  0
LINE
  8
_0-0_0
  6
CONTINUOUS
 62
    7
 10
107.95948799999996
 20
470.1465915
 11
107.93533300000001
 21
470.29853849999995
  0
LINE
  8
_0-0_0
  6
CONTINUOUS
 62
    7
 10
107.93533300000001
 20
470.29853849999995
 11
107.90893599999998
 21
470.44987449999996
  0
LINE
  8
_0-0_0
  6
CONTINUOUS
 62
    7
 10
107.90893599999998
 20
470.44987449999996
 11
107.85275300000001
 21
470.74049349999996
  0
LINE
  8
_0-0_0
  6
CONTINUOUS
 62
    7
 10
107.85275300000001
 20
470.74049349999996
 11
107.812592
 21
470.93244949999996
  0
LINE
  8
_0-0_0
  6
CONTINUOUS
 62
    7
 10
107.812592
 20
470.93244949999996
 11
107.728973
 21
471.3119355
  0
LINE
  8
_0-0_0
  6
CONTINUOUS
 62
    7
 10
107.72895799999998
 20
466.88792450000005
 11
107.67016599999999
 21
466.64106749999996
  0
LINE
  8
_0-0_0
  6
CONTINUOUS
 62
    7
 10
107.67016599999999
 20
466.64106749999996
 11
107.62039199999998
 21
466.44874549999997
  0
LINE
  8
_0-0_0
  6
CONTINUOUS
 62
    7
 10
107.62039199999998
 20
466.44874549999997
 11
107.549286
 21
466.18299850000005
  0
LINE
  8
_0-0_0
  6
CONTINUOUS
 62
    7
 10
107.549286
 20
466.18299850000005
 11
107.51632699999999
 21
466.05632049999997
  0
LINE
  8
_0-0_0
  6
CONTINUOUS
 62
    7
 10
107.51632699999999
 20
466.05632049999997
 11
107.49105799999995
 21
465.95286550000003
  0
LINE
  8
_0-0_0
  6
CONTINUOUS
 62
    7
 10
107.49105799999995
 20
465.95286550000003
 11
107.46902499999999
 21
465.85288949999995
  0
LINE
  8
_0-0_0
  6
CONTINUOUS
 62
    7
 10
107.46902499999999
 20
465.85288949999995
 11
107.447632
 21
465.73518349999995
  0
LINE
  8
_0-0_0
  6
CONTINUOUS
 62
    7
 10
107.447632
 20
465.73518349999995
 11
107.43907200000001
 21
465.67304950000005
  0
LINE
  8
_0-0_0
  6
CONTINUOUS
 62
    7
 10
107.43907200000001
 20
465.67304950000005
 11
107.43298299999998
 21
465.61244150000005
  0
LINE
  8
_0-0_0
  6
CONTINUOUS
 62
    7
 10
107.43298299999998
 20
465.61244150000005
 11
107.42999299999997
 21
465.56321749999995
  0
LINE
  8
_0-0_0
  6
CONTINUOUS
 62
    7
 10
107.42999299999997
 20
465.56321749999995
 11
107.42895499999997
 21
465.51499950000004
  0
LINE
  8
_0-0_0
  6
CONTINUOUS
 62
    7
 10
107.42895499999997
 20
461.74147049999999
 11
107.42895499999997
 21
465.09223950000001
  0
ARC
  8
_0-0_0
  6
CONTINUOUS
 62
    7
 10
109.42895499999997
 20
461.74147049999999
 40
2
 50
180.00000900000003
 51
251.56498900000003
  0
LINE
  8
_0-0_0
  6
CONTINUOUS
 62
    7
 10
211.87896699999999
 20
480.59992950000003
 11
212.52896099999998
 21
480.59992950000003
  0
ARC
  8
_0-0_0
  6
CONTINUOUS
 62
    7
 10
211.87896699999999
 20
480.34992950000003
 40
0.25
 50
90.000003000000007
 51
180.00000900000001
  0
LINE
  8
_0-0_0
  6
CONTINUOUS
 62
    7
 10
211.62896699999999
 20
480.34992950000003
 11
211.62896699999999
 21
479.69993550000004
  0
LINE
  8
_0-0_0
  6
CONTINUOUS
 62
    7
 10
211.22894299999996
 20
479.69993550000004
 11
211.62896699999999
 21
479.69993550000004
  0
LINE
  8
_0-0_0
  6
CONTINUOUS
 62
    7
 10
211.22894299999996
 20
479.69993550000004
 11
211.22894299999996
 21
480.34992950000003
  0
ARC
  8
_0-0_0
  6
CONTINUOUS
 62
    7
 10
210.97894299999996
 20
480.34992950000003
 40
0.25
 50
0
 51
90.000003000000007
  0
LINE
  8
_0-0_0
  6
CONTINUOUS
 62
    7
 10
210.32898
 20
480.59992950000003
 11
210.97894299999996
 21
480.59992950000003
  0
LINE
  8
_0-0_0
  6
CONTINUOUS
 62
    7
 10
210.32898
 20
480.59992950000003
 11
210.32898
 21
480.99995450000006
  0
LINE
  8
_0-0_0
  6
CONTINUOUS
 62
    7
 10
210.97894299999996
 20
480.99995450000006
 11
210.32898
 21
480.99995450000006
  0
ARC
  8
_0-0_0
  6
CONTINUOUS
 62
    7
 10
210.97894299999996
 20
481.24995450000006
 40
0.25
 50
269.99999700000001
 51
0
  0
LINE
  8
_0-0_0
  6
CONTINUOUS
 62
    7
 10
211.22894299999996
 20
481.24995450000006
 11
211.22894299999996
 21
481.89994750000005
  0
LINE
  8
_0-0_0
  6
CONTINUOUS
 62
    7
 10
211.62896699999999
 20
481.89994750000005
 11
211.22894299999996
 21
481.89994750000005
  0
LINE
  8
_0-0_0
  6
CONTINUOUS
 62
    7
 10
211.62896699999999
 20
481.89994750000005
 11
211.62896699999999
 21
481.24995450000006
  0
ARC
  8
_0-0_0
  6
CONTINUOUS
 62
    7
 10
211.87896699999999
 20
481.24995450000006
 40
0.25
 50
180.00000900000003
 51
269.99999700000001
  0
LINE
  8
_0-0_0
  6
CONTINUOUS
 62
    7
 10
212.52896099999998
 20
480.99995450000006
 11
211.87896699999999
 21
480.99995450000006
  0
LINE
  8
_0-0_0
  6
CONTINUOUS
 62
    7
 10
212.52896099999998
 20
480.99995450000006
 11
212.52896099999998
 21
480.59992950000003
  0
LINE
  8
_0-0_0
  6
CONTINUOUS
 62
    7
 10
132.87896699999999
 20
480.59992950000003
 11
133.52896099999998
 21
480.59992950000003
  0
ARC
  8
_0-0_0
  6
CONTINUOUS
 62
    7
 10
132.87896699999999
 20
480.34992950000003
 40
0.25
 50
90.000003000000007
 51
180.00000900000001
  0
LINE
  8
_0-0_0
  6
CONTINUOUS
 62
    7
 10
132.62896699999999
 20
480.34992950000003
 11
132.62896699999999
 21
479.69993550000004
  0
LINE
  8
_0-0_0
  6
CONTINUOUS
 62
    7
 10
132.22895799999998
 20
479.69993550000004
 11
132.62896699999999
 21
479.69993550000004
  0
LINE
  8
_0-0_0
  6
CONTINUOUS
 62
    7
 10
132.22895799999998
 20
479.69993550000004
 11
132.22895799999998
 21
480.34992950000003
  0
ARC
  8
_0-0_0
  6
CONTINUOUS
 62
    7
 10
131.97895799999998
 20
480.34992950000003
 40
0.25
 50
0
 51
90.000003000000007
  0
LINE
  8
_0-0_0
  6
CONTINUOUS
 62
    7
 10
131.32896399999998
 20
480.59992950000003
 11
131.97895799999998
 21
480.59992950000003
  0
LINE
  8
_0-0_0
  6
CONTINUOUS
 62
    7
 10
131.32896399999998
 20
480.59992950000003
 11
131.32896399999998
 21
480.99995450000006
  0
LINE
  8
_0-0_0
  6
CONTINUOUS
 62
    7
 10
131.97895799999998
 20
480.99995450000006
 11
131.32896399999998
 21
480.99995450000006
  0
ARC
  8
_0-0_0
  6
CONTINUOUS
 62
    7
 10
131.97895799999998
 20
481.24995450000006
 40
0.25
 50
269.99999700000001
 51
0
  0
LINE
  8
_0-0_0
  6
CONTINUOUS
 62
    7
 10
132.22895799999998
 20
481.24995450000006
 11
132.22895799999998
 21
481.89994750000005
  0
LINE
  8
_0-0_0
  6
CONTINUOUS
 62
    7
 10
132.62896699999999
 20
481.89994750000005
 11
132.22895799999998
 21
481.89994750000005
  0
LINE
  8
_0-0_0
  6
CONTINUOUS
 62
    7
 10
132.62896699999999
 20
481.89994750000005
 11
132.62896699999999
 21
481.24995450000006
  0
ARC
  8
_0-0_0
  6
CONTINUOUS
 62
    7
 10
132.87896699999999
 20
481.24995450000006
 40
0.25
 50
180.00000900000003
 51
269.99999700000001
  0
LINE
  8
_0-0_0
  6
CONTINUOUS
 62
    7
 10
133.52896099999998
 20
480.99995450000006
 11
132.87896699999999
 21
480.99995450000006
  0
LINE
  8
_0-0_0
  6
CONTINUOUS
 62
    7
 10
133.52896099999998
 20
480.99995450000006
 11
133.52896099999998
 21
480.59992950000003
  0
LINE
  8
_0-0_0
  6
CONTINUOUS
 62
    7
 10
92.428954999999974
 20
478.6253815
 11
92.428954999999974
 21
478.47865249999995
  0
LINE
  8
_0-0_0
  6
CONTINUOUS
 62
    7
 10
92.428954999999974
 20
478.81590249999999
 11
92.428954999999974
 21
478.6253815
  0
LINE
  8
_0-0_0
  6
CONTINUOUS
 62
    7
 10
92.428954999999974
 20
478.99092050000002
 11
92.428954999999974
 21
478.81590249999999
  0
LINE
  8
_0-0_0
  6
CONTINUOUS
 62
    7
 10
92.428954999999974
 20
479.14851350000004
 11
92.428954999999974
 21
478.99092050000002
  0
LINE
  8
_0-0_0
  6
CONTINUOUS
 62
    7
 10
92.428954999999974
 20
479.28694150000001
 11
92.428954999999974
 21
479.14851350000004
  0
LINE
  8
_0-0_0
  6
CONTINUOUS
 62
    7
 10
92.428954999999974
 20
479.40470849999997
 11
92.428954999999974
 21
479.28694150000001
  0
LINE
  8
_0-0_0
  6
CONTINUOUS
 62
    7
 10
92.428954999999974
 20
479.50050350000004
 11
92.428954999999974
 21
479.40470849999997
  0
LINE
  8
_0-0_0
  6
CONTINUOUS
 62
    7
 10
92.428954999999974
 20
479.57328749999999
 11
92.428954999999974
 21
479.50050350000004
  0
LINE
  8
_0-0_0
  6
CONTINUOUS
 62
    7
 10
92.428954999999974
 20
479.64994750000005
 11
92.428954999999974
 21
479.57328749999999
  0
LINE
  8
_0-0_0
  6
CONTINUOUS
 62
    7
 10
92.428954999999974
 20
479.64686549999999
 11
92.428954999999974
 21
479.62223849999998
  0
LINE
  8
_0-0_0
  6
CONTINUOUS
 62
    7
 10
92.428954999999974
 20
479.64994750000005
 11
92.428954999999974
 21
479.64686549999999
  0
LINE
  8
_0-0_0
  6
CONTINUOUS
 62
    7
 10
92.428954999999974
 20
475.1530305
 11
92.428954999999974
 21
475.14994750000005
  0
LINE
  8
_0-0_0
  6
CONTINUOUS
 62
    7
 10
92.428954999999974
 20
475.17765750000001
 11
92.428954999999974
 21
475.14994750000005
  0
LINE
  8
_0-0_0
  6
CONTINUOUS
 62
    7
 10
92.428954999999974
 20
475.2266085
 11
92.428954999999974
 21
475.17765750000001
  0
LINE
  8
_0-0_0
  6
CONTINUOUS
 62
    7
 10
92.428954999999974
 20
475.29939249999995
 11
92.428954999999974
 21
475.2266085
  0
LINE
  8
_0-0_0
  6
CONTINUOUS
 62
    7
 10
92.428954999999974
 20
475.39518750000002
 11
92.428954999999974
 21
475.29939249999995
  0
LINE
  8
_0-0_0
  6
CONTINUOUS
 62
    7
 10
92.428954999999974
 20
475.42536949999999
 11
92.428954999999974
 21
475.39518750000002
  0
LINE
  8
_0-0_0
  6
CONTINUOUS
 62
    7
 10
92.428954999999974
 20
475.51292450000005
 11
92.428954999999974
 21
475.42536949999999
  0
LINE
  8
_0-0_0
  6
CONTINUOUS
 62
    7
 10
92.428954999999974
 20
475.65135150000003
 11
92.428954999999974
 21
475.51292450000005
  0
LINE
  8
_0-0_0
  6
CONTINUOUS
 62
    7
 10
92.428954999999974
 20
475.80894450000005
 11
92.428954999999974
 21
475.65135150000003
  0
LINE
  8
_0-0_0
  6
CONTINUOUS
 62
    7
 10
92.428954999999974
 20
475.98396249999996
 11
92.428954999999974
 21
475.80894450000005
  0
LINE
  8
_0-0_0
  6
CONTINUOUS
 62
    7
 10
92.428954999999974
 20
476.17451449999999
 11
92.428954999999974
 21
475.98396249999996
  0
LINE
  8
_0-0_0
  6
CONTINUOUS
 62
    7
 10
92.428954999999974
 20
476.37846349999995
 11
92.428954999999974
 21
476.17451449999999
  0
LINE
  8
_0-0_0
  6
CONTINUOUS
 62
    7
 10
92.428954999999974
 20
476.59361249999995
 11
92.428954999999974
 21
476.37846349999995
  0
LINE
  8
_0-0_0
  6
CONTINUOUS
 62
    7
 10
92.428954999999974
 20
476.8176115
 11
92.428954999999974
 21
476.59361249999995
  0
LINE
  8
_0-0_0
  6
CONTINUOUS
 62
    7
 10
92.428954999999974
 20
477.04795850000005
 11
92.428954999999974
 21
476.8176115
  0
LINE
  8
_0-0_0
  6
CONTINUOUS
 62
    7
 10
92.428954999999974
 20
477.28218049999998
 11
92.428954999999974
 21
477.04795850000005
  0
LINE
  8
_0-0_0
  6
CONTINUOUS
 62
    7
 10
92.428954999999974
 20
477.51771550000001
 11
92.428954999999974
 21
477.28218049999998
  0
LINE
  8
_0-0_0
  6
CONTINUOUS
 62
    7
 10
92.428954999999974
 20
477.75190750000002
 11
92.428954999999974
 21
477.51771550000001
  0
LINE
  8
_0-0_0
  6
CONTINUOUS
 62
    7
 10
92.428954999999974
 20
477.98228449999999
 11
92.428954999999974
 21
477.75190750000002
  0
LINE
  8
_0-0_0
  6
CONTINUOUS
 62
    7
 10
92.428954999999974
 20
478.20628350000004
 11
92.428954999999974
 21
477.98228449999999
  0
LINE
  8
_0-0_0
  6
CONTINUOUS
 62
    7
 10
92.428954999999974
 20
478.42143250000004
 11
92.428954999999974
 21
478.20628350000004
  0
LINE
  8
_0-0_0
  6
CONTINUOUS
 62
    7
 10
92.428954999999974
 20
478.47865249999995
 11
92.428954999999974
 21
478.42143250000004
  0
LINE
  8
_0-0_0
  6
CONTINUOUS
 62
    7
 10
107.42895499999997
 20
470.66200249999997
 11
107.42895499999997
 21
471.70762649999995
  0
LINE
  8
_0-0_0
  6
CONTINUOUS
 62
    7
 10
107.42895499999997
 20
472.9922335
 11
107.42895499999997
 21
471.70762649999995
  0
LINE
  8
_0-0_0
  6
CONTINUOUS
 62
    7
 10
107.42895499999997
 20
473.10762050000005
 11
107.42895499999997
 21
472.9922335
  0
LINE
  8
_0-0_0
  6
CONTINUOUS
 62
    7
 10
107.42895499999997
 20
470.66200249999997
 11
107.42895499999997
 21
467.53788750000001
  0
LINE
  8
_0-0_0
  6
CONTINUOUS
 62
    7
 10
107.42895499999997
 20
465.09223950000001
 11
107.42895499999997
 21
465.20762649999995
  0
LINE
  8
_0-0_0
  6
CONTINUOUS
 62
    7
 10
107.42895499999997
 20
466.4922335
 11
107.42895499999997
 21
465.20762649999995
  0
LINE
  8
_0-0_0
  6
CONTINUOUS
 62
    7
 10
107.42895499999997
 20
466.4922335
 11
107.42895499999997
 21
467.53788750000001
  0
LINE
  8
_0-0_0
  6
CONTINUOUS
 62
    7
 10
92.428954999999974
 20
462.0253755
 11
92.428954999999974
 21
461.87864650000006
  0
LINE
  8
_0-0_0
  6
CONTINUOUS
 62
    7
 10
92.428954999999974
 20
462.21592650000002
 11
92.428954999999974
 21
462.0253755
  0
LINE
  8
_0-0_0
  6
CONTINUOUS
 62
    7
 10
92.428954999999974
 20
462.39094550000004
 11
92.428954999999974
 21
462.21592650000002
  0
LINE
  8
_0-0_0
  6
CONTINUOUS
 62
    7
 10
92.428954999999974
 20
462.54850750000003
 11
92.428954999999974
 21
462.39094550000004
  0
LINE
  8
_0-0_0
  6
CONTINUOUS
 62
    7
 10
92.428954999999974
 20
462.68696550000004
 11
92.428954999999974
 21
462.54850750000003
  0
LINE
  8
_0-0_0
  6
CONTINUOUS
 62
    7
 10
92.428954999999974
 20
462.80470249999996
 11
92.428954999999974
 21
462.68696550000004
  0
LINE
  8
_0-0_0
  6
CONTINUOUS
 62
    7
 10
92.428954999999974
 20
462.90049750000003
 11
92.428954999999974
 21
462.80470249999996
  0
LINE
  8
_0-0_0
  6
CONTINUOUS
 62
    7
 10
92.428954999999974
 20
462.97328149999998
 11
92.428954999999974
 21
462.90049750000003
  0
LINE
  8
_0-0_0
  6
CONTINUOUS
 62
    7
 10
92.428954999999974
 20
463.02223149999998
 11
92.428954999999974
 21
462.97328149999998
  0
LINE
  8
_0-0_0
  6
CONTINUOUS
 62
    7
 10
92.428954999999974
 20
463.04994150000005
 11
92.428954999999974
 21
463.02223149999998
  0
LINE
  8
_0-0_0
  6
CONTINUOUS
 62
    7
 10
92.428954999999974
 20
463.04994150000005
 11
92.428954999999974
 21
463.04685949999998
  0
LINE
  8
_0-0_0
  6
CONTINUOUS
 62
    7
 10
92.428954999999974
 20
458.55302449999999
 11
92.428954999999974
 21
458.54994150000005
  0
LINE
  8
_0-0_0
  6
CONTINUOUS
 62
    7
 10
92.428954999999974
 20
458.5776515
 11
92.428954999999974
 21
458.54994150000005
  0
LINE
  8
_0-0_0
  6
CONTINUOUS
 62
    7
 10
92.428954999999974
 20
458.62660249999999
 11
92.428954999999974
 21
458.5776515
  0
LINE
  8
_0-0_0
  6
CONTINUOUS
 62
    7
 10
92.428954999999974
 20
458.69938650000006
 11
92.428954999999974
 21
458.62660249999999
  0
LINE
  8
_0-0_0
  6
CONTINUOUS
 62
    7
 10
92.428954999999974
 20
458.79518150000001
 11
92.428954999999974
 21
458.69938650000006
  0
LINE
  8
_0-0_0
  6
CONTINUOUS
 62
    7
 10
92.428954999999974
 20
458.82539350000002
 11
92.428954999999974
 21
458.79518150000001
  0
LINE
  8
_0-0_0
  6
CONTINUOUS
 62
    7
 10
92.428954999999974
 20
458.91291750000005
 11
92.428954999999974
 21
458.82539350000002
  0
LINE
  8
_0-0_0
  6
CONTINUOUS
 62
    7
 10
92.428954999999974
 20
459.05137649999995
 11
92.428954999999974
 21
458.91291750000005
  0
LINE
  8
_0-0_0
  6
CONTINUOUS
 62
    7
 10
92.428954999999974
 20
459.20896849999997
 11
92.428954999999974
 21
459.05137649999995
  0
LINE
  8
_0-0_0
  6
CONTINUOUS
 62
    7
 10
92.428954999999974
 20
459.38398749999999
 11
92.428954999999974
 21
459.20896849999997
  0
LINE
  8
_0-0_0
  6
CONTINUOUS
 62
    7
 10
92.428954999999974
 20
459.57450849999998
 11
92.428954999999974
 21
459.38398749999999
  0
LINE
  8
_0-0_0
  6
CONTINUOUS
 62
    7
 10
92.428954999999974
 20
459.77845750000006
 11
92.428954999999974
 21
459.57450849999998
  0
LINE
  8
_0-0_0
  6
CONTINUOUS
 62
    7
 10
92.428954999999974
 20
459.99360650000006
 11
92.428954999999974
 21
459.77845750000006
  0
LINE
  8
_0-0_0
  6
CONTINUOUS
 62
    7
 10
92.428954999999974
 20
460.21760549999999
 11
92.428954999999974
 21
459.99360650000006
  0
LINE
  8
_0-0_0
  6
CONTINUOUS
 62
    7
 10
92.428954999999974
 20
460.44795250000004
 11
92.428954999999974
 21
460.21760549999999
  0
LINE
  8
_0-0_0
  6
CONTINUOUS
 62
    7
 10
92.428954999999974
 20
460.68217449999997
 11
92.428954999999974
 21
460.44795250000004
  0
LINE
  8
_0-0_0
  6
CONTINUOUS
 62
    7
 10
92.428954999999974
 20
460.9177095
 11
92.428954999999974
 21
460.68217449999997
  0
LINE
  8
_0-0_0
  6
CONTINUOUS
 62
    7
 10
92.428954999999974
 20
461.15193150000005
 11
92.428954999999974
 21
460.9177095
  0
LINE
  8
_0-0_0
  6
CONTINUOUS
 62
    7
 10
92.428954999999974
 20
461.38227849999998
 11
92.428954999999974
 21
461.15193150000005
  0
LINE
  8
_0-0_0
  6
CONTINUOUS
 62
    7
 10
92.428954999999974
 20
461.60627750000003
 11
92.428954999999974
 21
461.38227849999998
  0
LINE
  8
_0-0_0
  6
CONTINUOUS
 62
    7
 10
92.428954999999974
 20
461.82142650000003
 11
92.428954999999974
 21
461.60627750000003
  0
LINE
  8
_0-0_0
  6
CONTINUOUS
 62
    7
 10
92.428954999999974
 20
461.87864650000006
 11
92.428954999999974
 21
461.82142650000003
  0
LINE
  8
_0-0_0
  6
CONTINUOUS
 62
    7
 10
203.42895499999997
 20
471.64994750000005
 11
199.42895499999997
 21
471.64994750000005
  0
ARC
  8
_0-0_0
  6
CONTINUOUS
 62
    7
 10
199.42895499999997
 20
473.89994750000005
 40
2.25
 50
90.000003000000007
 51
269.99999700000006
  0
LINE
  8
_0-0_0
  6
CONTINUOUS
 62
    7
 10
199.42895499999997
 20
476.14994750000005
 11
203.42895499999997
 21
476.14994750000005
  0
ARC
  8
_0-0_0
  6
CONTINUOUS
 62
    7
 10
203.42895499999997
 20
473.89994750000005
 40
2.25
 50
269.99999700000001
 51
90.000002999999992
  0
ARC
  8
_0-0_0
  6
CONTINUOUS
 62
    7
 10
143.42895499999997
 20
473.89994750000005
 40
2.25
 50
90.000003000000007
 51
269.99999700000006
  0
LINE
  8
_0-0_0
  6
CONTINUOUS
 62
    7
 10
143.42895499999997
 20
476.14994750000005
 11
147.42895499999997
 21
476.14994750000005
  0
ARC
  8
_0-0_0
  6
CONTINUOUS
 62
    7
 10
147.42895499999997
 20
473.89994750000005
 40
2.25
 50
269.99999700000001
 51
90.000002999999992
  0
LINE
  8
_0-0_0
  6
CONTINUOUS
 62
    7
 10
147.42895499999997
 20
471.64994750000005
 11
143.42895499999997
 21
471.64994750000005
  0
LINE
  8
_0-0_0
  6
CONTINUOUS
 62
    7
 10
92.428954999999974
 20
478.6253815
 11
92.178954999999974
 21
478.64994750000005
  0
LINE
  8
_0-0_0
  6
CONTINUOUS
 62
    7
 10
92.428954999999974
 20
478.42143250000004
 11
92.178954999999974
 21
478.64994750000005
  0
LINE
  8
_0-0_0
  6
CONTINUOUS
 62
    7
 10
92.428954999999974
 20
478.81590249999999
 11
92.178954999999974
 21
478.86939949999999
  0
LINE
  8
_0-0_0
  6
CONTINUOUS
 62
    7
 10
92.428954999999974
 20
478.6253815
 11
92.178954999999974
 21
478.86939949999999
  0
LINE
  8
_0-0_0
  6
CONTINUOUS
 62
    7
 10
92.428954999999974
 20
478.99092050000002
 11
92.178954999999974
 21
479.07276950000005
  0
LINE
  8
_0-0_0
  6
CONTINUOUS
 62
    7
 10
92.428954999999974
 20
478.81590249999999
 11
92.178954999999974
 21
479.07276950000005
  0
LINE
  8
_0-0_0
  6
CONTINUOUS
 62
    7
 10
92.428954999999974
 20
479.14851350000004
 11
92.178954999999974
 21
479.25779750000004
  0
LINE
  8
_0-0_0
  6
CONTINUOUS
 62
    7
 10
92.428954999999974
 20
478.99092050000002
 11
92.178954999999974
 21
479.25779750000004
  0
LINE
  8
_0-0_0
  6
CONTINUOUS
 62
    7
 10
92.428954999999974
 20
479.28694150000001
 11
92.178954999999974
 21
479.42250049999996
  0
LINE
  8
_0-0_0
  6
CONTINUOUS
 62
    7
 10
92.428954999999974
 20
479.14851350000004
 11
92.178954999999974
 21
479.42250049999996
  0
LINE
  8
_0-0_0
  6
CONTINUOUS
 62
    7
 10
92.428954999999974
 20
479.40470849999997
 11
92.178954999999974
 21
479.56501749999995
  0
LINE
  8
_0-0_0
  6
CONTINUOUS
 62
    7
 10
92.428954999999974
 20
479.28694150000001
 11
92.178954999999974
 21
479.56501749999995
  0
LINE
  8
_0-0_0
  6
CONTINUOUS
 62
    7
 10
92.428954999999974
 20
479.50050350000004
 11
92.178954999999974
 21
479.68379149999998
  0
LINE
  8
_0-0_0
  6
CONTINUOUS
 62
    7
 10
92.428954999999974
 20
479.40470849999997
 11
92.178954999999974
 21
479.68379149999998
  0
LINE
  8
_0-0_0
  6
CONTINUOUS
 62
    7
 10
92.428954999999974
 20
479.57328749999999
 11
92.178954999999974
 21
479.77757250000002
  0
LINE
  8
_0-0_0
  6
CONTINUOUS
 62
    7
 10
92.428954999999974
 20
479.50050350000004
 11
92.178954999999974
 21
479.77757250000002
  0
LINE
  8
_0-0_0
  6
CONTINUOUS
 62
    7
 10
92.428954999999974
 20
479.62223849999998
 11
92.178954999999974
 21
479.84532149999995
  0
LINE
  8
_0-0_0
  6
CONTINUOUS
 62
    7
 10
92.428954999999974
 20
479.57328749999999
 11
92.178954999999974
 21
479.84532149999995
  0
LINE
  8
_0-0_0
  6
CONTINUOUS
 62
    7
 10
92.428954999999974
 20
479.64686549999999
 11
92.178954999999974
 21
479.88624549999997
  0
LINE
  8
_0-0_0
  6
CONTINUOUS
 62
    7
 10
92.428954999999974
 20
479.62223849999998
 11
92.178954999999974
 21
479.88624549999997
  0
LINE
  8
_0-0_0
  6
CONTINUOUS
 62
    7
 10
92.428954999999974
 20
479.64686549999999
 11
92.178954999999974
 21
479.89994750000005
  0
LINE
  8
_0-0_0
  6
CONTINUOUS
 62
    7
 10
92.428954999999974
 20
475.1530305
 11
92.178954999999974
 21
474.89994750000005
  0
LINE
  8
_0-0_0
  6
CONTINUOUS
 62
    7
 10
92.428954999999974
 20
475.17765750000001
 11
92.178954999999974
 21
474.91365050000002
  0
LINE
  8
_0-0_0
  6
CONTINUOUS
 62
    7
 10
92.428954999999974
 20
475.1530305
 11
92.178954999999974
 21
474.91365050000002
  0
LINE
  8
_0-0_0
  6
CONTINUOUS
 62
    7
 10
92.428954999999974
 20
475.2266085
 11
92.178954999999974
 21
474.95457450000004
  0
LINE
  8
_0-0_0
  6
CONTINUOUS
 62
    7
 10
92.428954999999974
 20
475.17765750000001
 11
92.178954999999974
 21
474.95457450000004
  0
LINE
  8
_0-0_0
  6
CONTINUOUS
 62
    7
 10
92.428954999999974
 20
475.29939249999995
 11
92.178954999999974
 21
475.02229250000005
  0
LINE
  8
_0-0_0
  6
CONTINUOUS
 62
    7
 10
92.428954999999974
 20
475.2266085
 11
92.178954999999974
 21
475.02229250000005
  0
LINE
  8
_0-0_0
  6
CONTINUOUS
 62
    7
 10
92.428954999999974
 20
475.39518750000002
 11
92.178954999999974
 21
475.11607349999997
  0
LINE
  8
_0-0_0
  6
CONTINUOUS
 62
    7
 10
92.428954999999974
 20
475.29939249999995
 11
92.178954999999974
 21
475.11607349999997
  0
LINE
  8
_0-0_0
  6
CONTINUOUS
 62
    7
 10
92.428954999999974
 20
475.39518750000002
 11
92.298995999999988
 21
475.31132449999996
  0
LINE
  8
_0-0_0
  6
CONTINUOUS
 62
    7
 10
92.428954999999974
 20
475.51292450000005
 11
92.178954999999974
 21
475.23487850000004
  0
LINE
  8
_0-0_0
  6
CONTINUOUS
 62
    7
 10
92.298995999999988
 20
475.31132449999996
 11
92.178954999999974
 21
475.23487850000004
  0
LINE
  8
_0-0_0
  6
CONTINUOUS
 62
    7
 10
92.428954999999974
 20
475.65135150000003
 11
92.178954999999974
 21
475.37739550000003
  0
LINE
  8
_0-0_0
  6
CONTINUOUS
 62
    7
 10
92.428954999999974
 20
475.51292450000005
 11
92.178954999999974
 21
475.37739550000003
  0
LINE
  8
_0-0_0
  6
CONTINUOUS
 62
    7
 10
92.428954999999974
 20
475.80894450000005
 11
92.178954999999974
 21
475.54206850000003
  0
LINE
  8
_0-0_0
  6
CONTINUOUS
 62
    7
 10
92.428954999999974
 20
475.65135150000003
 11
92.178954999999974
 21
475.54206850000003
  0
LINE
  8
_0-0_0
  6
CONTINUOUS
 62
    7
 10
92.428954999999974
 20
475.98396249999996
 11
92.178954999999974
 21
475.72712650000005
  0
LINE
  8
_0-0_0
  6
CONTINUOUS
 62
    7
 10
92.428954999999974
 20
475.80894450000005
 11
92.178954999999974
 21
475.72712650000005
  0
LINE
  8
_0-0_0
  6
CONTINUOUS
 62
    7
 10
92.428954999999974
 20
476.17451449999999
 11
92.178954999999974
 21
475.9304965
  0
LINE
  8
_0-0_0
  6
CONTINUOUS
 62
    7
 10
92.428954999999974
 20
475.98396249999996
 11
92.178954999999974
 21
475.9304965
  0
LINE
  8
_0-0_0
  6
CONTINUOUS
 62
    7
 10
92.428954999999974
 20
476.37846349999995
 11
92.178954999999974
 21
476.14994750000005
  0
LINE
  8
_0-0_0
  6
CONTINUOUS
 62
    7
 10
92.428954999999974
 20
476.17451449999999
 11
92.178954999999974
 21
476.14994750000005
  0
LINE
  8
_0-0_0
  6
CONTINUOUS
 62
    7
 10
92.428954999999974
 20
476.59361249999995
 11
92.178954999999974
 21
476.38310249999995
  0
LINE
  8
_0-0_0
  6
CONTINUOUS
 62
    7
 10
92.428954999999974
 20
476.37846349999995
 11
92.178954999999974
 21
476.38310249999995
  0
LINE
  8
_0-0_0
  6
CONTINUOUS
 62
    7
 10
92.428954999999974
 20
476.8176115
 11
92.178954999999974
 21
476.62739550000003
  0
LINE
  8
_0-0_0
  6
CONTINUOUS
 62
    7
 10
92.428954999999974
 20
476.59361249999995
 11
92.178954999999974
 21
476.62739550000003
  0
LINE
  8
_0-0_0
  6
CONTINUOUS
 62
    7
 10
92.428954999999974
 20
477.04795850000005
 11
92.178954999999974
 21
476.88017249999996
  0
LINE
  8
_0-0_0
  6
CONTINUOUS
 62
    7
 10
92.428954999999974
 20
476.8176115
 11
92.178954999999974
 21
476.88017249999996
  0
LINE
  8
_0-0_0
  6
CONTINUOUS
 62
    7
 10
92.428954999999974
 20
477.28218049999998
 11
92.178954999999974
 21
477.13862549999999
  0
LINE
  8
_0-0_0
  6
CONTINUOUS
 62
    7
 10
92.428954999999974
 20
477.04795850000005
 11
92.178954999999974
 21
477.13862549999999
  0
LINE
  8
_0-0_0
  6
CONTINUOUS
 62
    7
 10
92.428954999999974
 20
477.51771550000001
 11
92.178954999999974
 21
477.39994750000005
  0
LINE
  8
_0-0_0
  6
CONTINUOUS
 62
    7
 10
92.428954999999974
 20
477.28218049999998
 11
92.178954999999974
 21
477.39994750000005
  0
LINE
  8
_0-0_0
  6
CONTINUOUS
 62
    7
 10
92.428954999999974
 20
477.75190750000002
 11
92.178954999999974
 21
477.6612705
  0
LINE
  8
_0-0_0
  6
CONTINUOUS
 62
    7
 10
92.428954999999974
 20
477.51771550000001
 11
92.178954999999974
 21
477.6612705
  0
LINE
  8
_0-0_0
  6
CONTINUOUS
 62
    7
 10
92.428954999999974
 20
477.98228449999999
 11
92.178954999999974
 21
477.91972350000003
  0
LINE
  8
_0-0_0
  6
CONTINUOUS
 62
    7
 10
92.428954999999974
 20
477.75190750000002
 11
92.178954999999974
 21
477.91972350000003
  0
LINE
  8
_0-0_0
  6
CONTINUOUS
 62
    7
 10
92.428954999999974
 20
478.20628350000004
 11
92.178954999999974
 21
478.17250049999996
  0
LINE
  8
_0-0_0
  6
CONTINUOUS
 62
    7
 10
92.428954999999974
 20
477.98228449999999
 11
92.178954999999974
 21
478.17250049999996
  0
LINE
  8
_0-0_0
  6
CONTINUOUS
 62
    7
 10
92.428954999999974
 20
478.42143250000004
 11
92.178954999999974
 21
478.41679350000004
  0
LINE
  8
_0-0_0
  6
CONTINUOUS
 62
    7
 10
92.428954999999974
 20
478.20628350000004
 11
92.178954999999974
 21
478.41679350000004
  0
LINE
  8
_0-0_0
  6
CONTINUOUS
 62
    7
 10
107.42895499999997
 20
472.9922335
 11
97.721130000000016
 21
472.9922335
  0
LINE
  8
_0-0_0
  6
CONTINUOUS
 62
    7
 10
97.721130000000016
 20
472.9922335
 11
97.666656999999987
 21
473.06217949999996
  0
LINE
  8
_0-0_0
  6
CONTINUOUS
 62
    7
 10
97.666656999999987
 20
473.06217949999996
 11
97.615554999999972
 21
473.13099650000004
  0
LINE
  8
_0-0_0
  6
CONTINUOUS
 62
    7
 10
97.615554999999972
 20
473.13099650000004
 11
97.567916999999966
 21
473.19850150000002
  0
LINE
  8
_0-0_0
  6
CONTINUOUS
 62
    7
 10
97.567916999999966
 20
473.19850150000002
 11
97.52340700000002
 21
473.2650605
  0
LINE
  8
_0-0_0
  6
CONTINUOUS
 62
    7
 10
97.52340700000002
 20
473.2650605
 11
97.468688999999983
 21
473.35261549999996
  0
LINE
  8
_0-0_0
  6
CONTINUOUS
 62
    7
 10
97.468688999999983
 20
473.35261549999996
 11
97.41918899999996
 21
473.43870549999997
  0
LINE
  8
_0-0_0
  6
CONTINUOUS
 62
    7
 10
97.41918899999996
 20
473.43870549999997
 11
97.374725000000012
 21
473.52354449999996
  0
LINE
  8
_0-0_0
  6
CONTINUOUS
 62
    7
 10
97.374725000000012
 20
473.52354449999996
 11
97.327759000000015
 21
473.62385549999999
  0
LINE
  8
_0-0_0
  6
CONTINUOUS
 62
    7
 10
97.327759000000015
 20
473.62385549999999
 11
97.287536999999986
 21
473.72279349999997
  0
LINE
  8
_0-0_0
  6
CONTINUOUS
 62
    7
 10
97.287536999999986
 20
473.72279349999997
 11
97.253875999999991
 21
473.82054149999999
  0
LINE
  8
_0-0_0
  6
CONTINUOUS
 62
    7
 10
97.253875999999991
 20
473.82054149999999
 11
97.22659299999998
 21
473.91734350000002
  0
LINE
  8
_0-0_0
  6
CONTINUOUS
 62
    7
 10
97.22659299999998
 20
473.91734350000002
 11
97.205535999999995
 21
474.01338150000004
  0
LINE
  8
_0-0_0
  6
CONTINUOUS
 62
    7
 10
97.205535999999995
 20
474.01338150000004
 11
97.189606000000026
 21
474.11726350000004
  0
LINE
  8
_0-0_0
  6
CONTINUOUS
 62
    7
 10
97.189606000000026
 20
474.11726350000004
 11
97.180846999999972
 21
474.22068750000005
  0
LINE
  8
_0-0_0
  6
CONTINUOUS
 62
    7
 10
97.180846999999972
 20
474.22068750000005
 11
97.179229999999961
 21
474.32392849999997
  0
LINE
  8
_0-0_0
  6
CONTINUOUS
 62
    7
 10
97.179229999999961
 20
474.32392849999997
 11
97.184691999999984
 21
474.42720050000003
  0
LINE
  8
_0-0_0
  6
CONTINUOUS
 62
    7
 10
97.184691999999984
 20
474.42720050000003
 11
97.197295999999994
 21
474.53080750000004
  0
LINE
  8
_0-0_0
  6
CONTINUOUS
 62
    7
 10
97.197295999999994
 20
474.53080750000004
 11
97.217116999999973
 21
474.63493349999999
  0
LINE
  8
_0-0_0
  6
CONTINUOUS
 62
    7
 10
97.217116999999973
 20
474.63493349999999
 11
97.244262999999989
 21
474.73991350000006
  0
LINE
  8
_0-0_0
  6
CONTINUOUS
 62
    7
 10
97.244262999999989
 20
474.73991350000006
 11
97.278900000000021
 21
474.84593150000001
  0
LINE
  8
_0-0_0
  6
CONTINUOUS
 62
    7
 10
97.278900000000021
 20
474.84593150000001
 11
97.321258999999998
 21
474.95332350000001
  0
LINE
  8
_0-0_0
  6
CONTINUOUS
 62
    7
 10
97.321258999999998
 20
474.95332350000001
 11
97.371567000000027
 21
475.06233250000002
  0
LINE
  8
_0-0_0
  6
CONTINUOUS
 62
    7
 10
97.371567000000027
 20
475.06233250000002
 11
97.417266999999981
 21
475.14997849999997
  0
LINE
  8
_0-0_0
  6
CONTINUOUS
 62
    7
 10
107.42895499999997
 20
471.70762649999995
 11
97.721130000000016
 21
471.70762649999995
  0
LINE
  8
_0-0_0
  6
CONTINUOUS
 62
    7
 10
97.721130000000016
 20
471.70762649999995
 11
97.626801
 21
471.46101350000004
  0
LINE
  8
_0-0_0
  6
CONTINUOUS
 62
    7
 10
97.626801
 20
471.46101350000004
 11
97.542846999999995
 21
471.22105350000004
  0
LINE
  8
_0-0_0
  6
CONTINUOUS
 62
    7
 10
97.542846999999995
 20
471.22105350000004
 11
97.468688999999983
 21
470.98692349999999
  0
LINE
  8
_0-0_0
  6
CONTINUOUS
 62
    7
 10
97.468688999999983
 20
470.98692349999999
 11
97.403809000000024
 21
470.75788850000004
  0
LINE
  8
_0-0_0
  6
CONTINUOUS
 62
    7
 10
97.403809000000024
 20
470.75788850000004
 11
97.347777999999948
 21
470.53321849999998
  0
LINE
  8
_0-0_0
  6
CONTINUOUS
 62
    7
 10
97.347777999999948
 20
470.53321849999998
 11
97.300201000000015
 21
470.31224050000003
  0
LINE
  8
_0-0_0
  6
CONTINUOUS
 62
    7
 10
97.300201000000015
 20
470.31224050000003
 11
97.26080300000001
 21
470.0943145
  0
LINE
  8
_0-0_0
  6
CONTINUOUS
 62
    7
 10
97.26080300000001
 20
470.0943145
 11
97.229308999999944
 21
469.87886049999997
  0
LINE
  8
_0-0_0
  6
CONTINUOUS
 62
    7
 10
97.229308999999944
 20
469.87886049999997
 11
97.205535999999995
 21
469.66532849999999
  0
LINE
  8
_0-0_0
  6
CONTINUOUS
 62
    7
 10
97.205535999999995
 20
469.66532849999999
 11
97.189606000000026
 21
469.45762649999995
  0
LINE
  8
_0-0_0
  6
CONTINUOUS
 62
    7
 10
97.189606000000026
 20
469.45762649999995
 11
97.180846999999972
 21
469.25077850000002
  0
LINE
  8
_0-0_0
  6
CONTINUOUS
 62
    7
 10
97.180846999999972
 20
469.25077850000002
 11
97.179229999999961
 21
469.04429649999997
  0
LINE
  8
_0-0_0
  6
CONTINUOUS
 62
    7
 10
97.179229999999961
 20
469.04429649999997
 11
97.184691999999984
 21
468.83772250000004
  0
LINE
  8
_0-0_0
  6
CONTINUOUS
 62
    7
 10
97.184691999999984
 20
468.83772250000004
 11
97.197295999999994
 21
468.63053850000006
  0
LINE
  8
_0-0_0
  6
CONTINUOUS
 62
    7
 10
97.197295999999994
 20
468.63053850000006
 11
97.217116999999973
 21
468.4222565
  0
LINE
  8
_0-0_0
  6
CONTINUOUS
 62
    7
 10
97.217116999999973
 20
468.4222565
 11
97.244262999999989
 21
468.21232550000002
  0
LINE
  8
_0-0_0
  6
CONTINUOUS
 62
    7
 10
97.244262999999989
 20
468.21232550000002
 11
97.278900000000021
 21
468.00025949999997
  0
LINE
  8
_0-0_0
  6
CONTINUOUS
 62
    7
 10
97.278900000000021
 20
468.00025949999997
 11
97.321258999999998
 21
467.78550749999999
  0
LINE
  8
_0-0_0
  6
CONTINUOUS
 62
    7
 10
97.321258999999998
 20
467.78550749999999
 11
97.371567000000027
 21
467.56748949999997
  0
LINE
  8
_0-0_0
  6
CONTINUOUS
 62
    7
 10
97.371567000000027
 20
467.56748949999997
 11
97.425811999999951
 21
467.36122150000006
  0
LINE
  8
_0-0_0
  6
CONTINUOUS
 62
    7
 10
97.425811999999951
 20
467.36122150000006
 11
97.487518000000023
 21
467.15110749999997
  0
LINE
  8
_0-0_0
  6
CONTINUOUS
 62
    7
 10
97.487518000000023
 20
467.15110749999997
 11
97.55703699999998
 21
466.93663049999998
  0
LINE
  8
_0-0_0
  6
CONTINUOUS
 62
    7
 10
97.55703699999998
 20
466.93663049999998
 11
97.634766000000013
 21
466.71723950000001
  0
LINE
  8
_0-0_0
  6
CONTINUOUS
 62
    7
 10
97.634766000000013
 20
466.71723950000001
 11
97.721130000000016
 21
466.4922335
  0
LINE
  8
_0-0_0
  6
CONTINUOUS
 62
    7
 10
107.42895499999997
 20
466.4922335
 11
97.721130000000016
 21
466.4922335
  0
ARC
  8
_0-0_0
  6
CONTINUOUS
 62
    7
 10
102.59268199999997
 20
472.34992950000003
 40
4.9136889999999998
 50
172.48898299999999
 51
187.51101699999998
  0
LINE
  8
_0-0_0
  6
CONTINUOUS
 62
    7
 10
107.42895499999997
 20
465.20762649999995
 11
97.721130000000016
 21
465.20762649999995
  0
LINE
  8
_0-0_0
  6
CONTINUOUS
 62
    7
 10
97.721130000000016
 20
462.59992950000003
 11
97.666656999999987
 21
462.66987549999999
  0
LINE
  8
_0-0_0
  6
CONTINUOUS
 62
    7
 10
97.666656999999987
 20
462.66987549999999
 11
97.615554999999972
 21
462.73869349999995
  0
LINE
  8
_0-0_0
  6
CONTINUOUS
 62
    7
 10
97.615554999999972
 20
462.73869349999995
 11
97.567916999999966
 21
462.80619750000005
  0
LINE
  8
_0-0_0
  6
CONTINUOUS
 62
    7
 10
97.567916999999966
 20
462.80619750000005
 11
97.52340700000002
 21
462.87275650000004
  0
LINE
  8
_0-0_0
  6
CONTINUOUS
 62
    7
 10
97.52340700000002
 20
462.87275650000004
 11
97.468688999999983
 21
462.96031149999999
  0
LINE
  8
_0-0_0
  6
CONTINUOUS
 62
    7
 10
97.468688999999983
 20
462.96031149999999
 11
97.41918899999996
 21
463.0464015
  0
LINE
  8
_0-0_0
  6
CONTINUOUS
 62
    7
 10
97.41918899999996
 20
463.0464015
 11
97.374725000000012
 21
463.13124049999999
  0
LINE
  8
_0-0_0
  6
CONTINUOUS
 62
    7
 10
97.374725000000012
 20
463.13124049999999
 11
97.327759000000015
 21
463.23155150000002
  0
LINE
  8
_0-0_0
  6
CONTINUOUS
 62
    7
 10
97.327759000000015
 20
463.23155150000002
 11
97.287536999999986
 21
463.3304895
  0
LINE
  8
_0-0_0
  6
CONTINUOUS
 62
    7
 10
97.287536999999986
 20
463.3304895
 11
97.253875999999991
 21
463.42823750000002
  0
LINE
  8
_0-0_0
  6
CONTINUOUS
 62
    7
 10
97.253875999999991
 20
463.42823750000002
 11
97.22659299999998
 21
463.52503950000005
  0
LINE
  8
_0-0_0
  6
CONTINUOUS
 62
    7
 10
97.22659299999998
 20
463.52503950000005
 11
97.205535999999995
 21
463.62107849999995
  0
LINE
  8
_0-0_0
  6
CONTINUOUS
 62
    7
 10
97.205535999999995
 20
463.62107849999995
 11
97.189606000000026
 21
463.72496049999995
  0
LINE
  8
_0-0_0
  6
CONTINUOUS
 62
    7
 10
97.189606000000026
 20
463.72496049999995
 11
97.180846999999972
 21
463.82838449999997
  0
LINE
  8
_0-0_0
  6
CONTINUOUS
 62
    7
 10
97.180846999999972
 20
463.82838449999997
 11
97.179229999999961
 21
463.93159449999996
  0
LINE
  8
_0-0_0
  6
CONTINUOUS
 62
    7
 10
97.179229999999961
 20
463.93159449999996
 11
97.184691999999984
 21
464.03489650000006
  0
LINE
  8
_0-0_0
  6
CONTINUOUS
 62
    7
 10
97.184691999999984
 20
464.03489650000006
 11
97.197295999999994
 21
464.13850349999996
  0
LINE
  8
_0-0_0
  6
CONTINUOUS
 62
    7
 10
97.197295999999994
 20
464.13850349999996
 11
97.217116999999973
 21
464.24262950000002
  0
LINE
  8
_0-0_0
  6
CONTINUOUS
 62
    7
 10
97.217116999999973
 20
464.24262950000002
 11
97.244262999999989
 21
464.34761049999997
  0
LINE
  8
_0-0_0
  6
CONTINUOUS
 62
    7
 10
97.244262999999989
 20
464.34761049999997
 11
97.278900000000021
 21
464.45362850000004
  0
LINE
  8
_0-0_0
  6
CONTINUOUS
 62
    7
 10
97.278900000000021
 20
464.45362850000004
 11
97.321258999999998
 21
464.56101950000004
  0
LINE
  8
_0-0_0
  6
CONTINUOUS
 62
    7
 10
97.321258999999998
 20
464.56101950000004
 11
97.371567000000027
 21
464.66999850000002
  0
LINE
  8
_0-0_0
  6
CONTINUOUS
 62
    7
 10
97.371567000000027
 20
464.66999850000002
 11
97.425811999999951
 21
464.77314750000005
  0
LINE
  8
_0-0_0
  6
CONTINUOUS
 62
    7
 10
97.425811999999951
 20
464.77314750000005
 11
97.487518000000023
 21
464.8782195
  0
LINE
  8
_0-0_0
  6
CONTINUOUS
 62
    7
 10
97.487518000000023
 20
464.8782195
 11
97.55703699999998
 21
464.98542750000001
  0
LINE
  8
_0-0_0
  6
CONTINUOUS
 62
    7
 10
97.55703699999998
 20
464.98542750000001
 11
97.634766000000013
 21
465.09513849999996
  0
LINE
  8
_0-0_0
  6
CONTINUOUS
 62
    7
 10
97.634766000000013
 20
465.09513849999996
 11
97.721130000000016
 21
465.20762649999995
  0
LINE
  8
_0-0_0
  6
CONTINUOUS
 62
    7
 10
107.42895499999997
 20
462.59992950000003
 11
97.721130000000016
 21
462.59992950000003
  0
ARC
  8
_0-0_0
  6
CONTINUOUS
 62
    7
 10
102.602844
 20
465.84904449999999
 40
4.9238749999999998
 50
172.49424200000001
 51
181.535968
  0
ARC
  8
_0-0_0
  6
CONTINUOUS
 62
    7
 10
102.64086899999995
 20
465.85401950000005
 40
4.9620009999999999
 50
181.58130700000004
 51
187.48478900000003
  0
LINE
  8
_0-0_0
  6
CONTINUOUS
 62
    7
 10
97.678954999999974
 20
462.59992950000003
 11
97.721130000000016
 21
462.59992950000003
  0
LINE
  8
_0-0_0
  6
CONTINUOUS
 62
    7
 10
92.428954999999974
 20
462.0253755
 11
92.178954999999974
 21
462.04994150000005
  0
LINE
  8
_0-0_0
  6
CONTINUOUS
 62
    7
 10
92.428954999999974
 20
461.82142650000003
 11
92.178954999999974
 21
462.04994150000005
  0
LINE
  8
_0-0_0
  6
CONTINUOUS
 62
    7
 10
92.428954999999974
 20
462.21592650000002
 11
92.178954999999974
 21
462.26939349999998
  0
LINE
  8
_0-0_0
  6
CONTINUOUS
 62
    7
 10
92.428954999999974
 20
462.0253755
 11
92.178954999999974
 21
462.26939349999998
  0
LINE
  8
_0-0_0
  6
CONTINUOUS
 62
    7
 10
92.428954999999974
 20
462.39094550000004
 11
92.178954999999974
 21
462.47276250000004
  0
LINE
  8
_0-0_0
  6
CONTINUOUS
 62
    7
 10
92.428954999999974
 20
462.21592650000002
 11
92.178954999999974
 21
462.47276250000004
  0
LINE
  8
_0-0_0
  6
CONTINUOUS
 62
    7
 10
92.428954999999974
 20
462.54850750000003
 11
92.178954999999974
 21
462.65779150000003
  0
LINE
  8
_0-0_0
  6
CONTINUOUS
 62
    7
 10
92.428954999999974
 20
462.39094550000004
 11
92.178954999999974
 21
462.65779150000003
  0
LINE
  8
_0-0_0
  6
CONTINUOUS
 62
    7
 10
92.428954999999974
 20
462.68696550000004
 11
92.178954999999974
 21
462.82249449999995
  0
LINE
  8
_0-0_0
  6
CONTINUOUS
 62
    7
 10
92.428954999999974
 20
462.54850750000003
 11
92.178954999999974
 21
462.82249449999995
  0
LINE
  8
_0-0_0
  6
CONTINUOUS
 62
    7
 10
92.428954999999974
 20
462.80470249999996
 11
92.178954999999974
 21
462.96501150000006
  0
LINE
  8
_0-0_0
  6
CONTINUOUS
 62
    7
 10
92.428954999999974
 20
462.68696550000004
 11
92.178954999999974
 21
462.96501150000006
  0
LINE
  8
_0-0_0
  6
CONTINUOUS
 62
    7
 10
92.428954999999974
 20
462.90049750000003
 11
92.178954999999974
 21
463.08381650000001
  0
LINE
  8
_0-0_0
  6
CONTINUOUS
 62
    7
 10
92.428954999999974
 20
462.80470249999996
 11
92.178954999999974
 21
463.08381650000001
  0
LINE
  8
_0-0_0
  6
CONTINUOUS
 62
    7
 10
92.428954999999974
 20
462.97328149999998
 11
92.178954999999974
 21
463.17759650000005
  0
LINE
  8
_0-0_0
  6
CONTINUOUS
 62
    7
 10
92.428954999999974
 20
462.90049750000003
 11
92.178954999999974
 21
463.17759650000005
  0
LINE
  8
_0-0_0
  6
CONTINUOUS
 62
    7
 10
92.428954999999974
 20
463.02223149999998
 11
92.178954999999974
 21
463.24531549999995
  0
LINE
  8
_0-0_0
  6
CONTINUOUS
 62
    7
 10
92.428954999999974
 20
462.97328149999998
 11
92.178954999999974
 21
463.24531549999995
  0
LINE
  8
_0-0_0
  6
CONTINUOUS
 62
    7
 10
92.428954999999974
 20
463.04685949999998
 11
92.178954999999974
 21
463.28623949999997
  0
LINE
  8
_0-0_0
  6
CONTINUOUS
 62
    7
 10
92.428954999999974
 20
463.02223149999998
 11
92.178954999999974
 21
463.28623949999997
  0
LINE
  8
_0-0_0
  6
CONTINUOUS
 62
    7
 10
92.428954999999974
 20
463.04685949999998
 11
92.178954999999974
 21
463.29994150000005
  0
LINE
  8
_0-0_0
  6
CONTINUOUS
 62
    7
 10
92.428954999999974
 20
458.55302449999999
 11
92.178954999999974
 21
458.29994150000005
  0
LINE
  8
_0-0_0
  6
CONTINUOUS
 62
    7
 10
92.428954999999974
 20
458.5776515
 11
92.178954999999974
 21
458.31364450000001
  0
LINE
  8
_0-0_0
  6
CONTINUOUS
 62
    7
 10
92.428954999999974
 20
458.55302449999999
 11
92.178954999999974
 21
458.31364450000001
  0
LINE
  8
_0-0_0
  6
CONTINUOUS
 62
    7
 10
92.428954999999974
 20
458.62660249999999
 11
92.178954999999974
 21
458.35456850000003
  0
LINE
  8
_0-0_0
  6
CONTINUOUS
 62
    7
 10
92.428954999999974
 20
458.5776515
 11
92.178954999999974
 21
458.35456850000003
  0
LINE
  8
_0-0_0
  6
CONTINUOUS
 62
    7
 10
92.428954999999974
 20
458.69938650000006
 11
92.178954999999974
 21
458.42228650000004
  0
LINE
  8
_0-0_0
  6
CONTINUOUS
 62
    7
 10
92.428954999999974
 20
458.62660249999999
 11
92.178954999999974
 21
458.42228650000004
  0
LINE
  8
_0-0_0
  6
CONTINUOUS
 62
    7
 10
92.428954999999974
 20
458.79518150000001
 11
92.178954999999974
 21
458.51606749999996
  0
LINE
  8
_0-0_0
  6
CONTINUOUS
 62
    7
 10
92.428954999999974
 20
458.69938650000006
 11
92.178954999999974
 21
458.51606749999996
  0
LINE
  8
_0-0_0
  6
CONTINUOUS
 62
    7
 10
92.428954999999974
 20
458.79518150000001
 11
92.298995999999988
 21
458.71131849999995
  0
LINE
  8
_0-0_0
  6
CONTINUOUS
 62
    7
 10
92.428954999999974
 20
458.91291750000005
 11
92.178954999999974
 21
458.63487250000003
  0
LINE
  8
_0-0_0
  6
CONTINUOUS
 62
    7
 10
92.298995999999988
 20
458.71131849999995
 11
92.178954999999974
 21
458.63487250000003
  0
LINE
  8
_0-0_0
  6
CONTINUOUS
 62
    7
 10
92.428954999999974
 20
459.05137649999995
 11
92.178954999999974
 21
458.77738950000003
  0
LINE
  8
_0-0_0
  6
CONTINUOUS
 62
    7
 10
92.428954999999974
 20
458.91291750000005
 11
92.178954999999974
 21
458.77738950000003
  0
LINE
  8
_0-0_0
  6
CONTINUOUS
 62
    7
 10
92.428954999999974
 20
459.20896849999997
 11
92.178954999999974
 21
458.94209250000006
  0
LINE
  8
_0-0_0
  6
CONTINUOUS
 62
    7
 10
92.428954999999974
 20
459.05137649999995
 11
92.178954999999974
 21
458.94209250000006
  0
LINE
  8
_0-0_0
  6
CONTINUOUS
 62
    7
 10
92.428954999999974
 20
459.38398749999999
 11
92.178954999999974
 21
459.12712050000005
  0
LINE
  8
_0-0_0
  6
CONTINUOUS
 62
    7
 10
92.428954999999974
 20
459.20896849999997
 11
92.178954999999974
 21
459.12712050000005
  0
LINE
  8
_0-0_0
  6
CONTINUOUS
 62
    7
 10
92.428954999999974
 20
459.57450849999998
 11
92.178954999999974
 21
459.3304895
  0
LINE
  8
_0-0_0
  6
CONTINUOUS
 62
    7
 10
92.428954999999974
 20
459.38398749999999
 11
92.178954999999974
 21
459.3304895
  0
LINE
  8
_0-0_0
  6
CONTINUOUS
 62
    7
 10
92.428954999999974
 20
459.77845750000006
 11
92.178954999999974
 21
459.54994150000005
  0
LINE
  8
_0-0_0
  6
CONTINUOUS
 62
    7
 10
92.428954999999974
 20
459.57450849999998
 11
92.178954999999974
 21
459.54994150000005
  0
LINE
  8
_0-0_0
  6
CONTINUOUS
 62
    7
 10
92.428954999999974
 20
459.99360650000006
 11
92.178954999999974
 21
459.78309650000006
  0
LINE
  8
_0-0_0
  6
CONTINUOUS
 62
    7
 10
92.428954999999974
 20
459.77845750000006
 11
92.178954999999974
 21
459.78309650000006
  0
LINE
  8
_0-0_0
  6
CONTINUOUS
 62
    7
 10
92.428954999999974
 20
460.21760549999999
 11
92.178954999999974
 21
460.02738950000003
  0
LINE
  8
_0-0_0
  6
CONTINUOUS
 62
    7
 10
92.428954999999974
 20
459.99360650000006
 11
92.178954999999974
 21
460.02738950000003
  0
LINE
  8
_0-0_0
  6
CONTINUOUS
 62
    7
 10
92.428954999999974
 20
460.44795250000004
 11
92.178954999999974
 21
460.28016649999995
  0
LINE
  8
_0-0_0
  6
CONTINUOUS
 62
    7
 10
92.428954999999974
 20
460.21760549999999
 11
92.178954999999974
 21
460.28016649999995
  0
LINE
  8
_0-0_0
  6
CONTINUOUS
 62
    7
 10
92.428954999999974
 20
460.68217449999997
 11
92.178954999999974
 21
460.53861949999998
  0
LINE
  8
_0-0_0
  6
CONTINUOUS
 62
    7
 10
92.428954999999974
 20
460.44795250000004
 11
92.178954999999974
 21
460.53861949999998
  0
LINE
  8
_0-0_0
  6
CONTINUOUS
 62
    7
 10
92.428954999999974
 20
460.9177095
 11
92.178954999999974
 21
460.79994150000005
  0
LINE
  8
_0-0_0
  6
CONTINUOUS
 62
    7
 10
92.428954999999974
 20
460.68217449999997
 11
92.178954999999974
 21
460.79994150000005
  0
LINE
  8
_0-0_0
  6
CONTINUOUS
 62
    7
 10
92.428954999999974
 20
461.15193150000005
 11
92.178954999999974
 21
461.0612635
  0
LINE
  8
_0-0_0
  6
CONTINUOUS
 62
    7
 10
92.428954999999974
 20
460.9177095
 11
92.178954999999974
 21
461.0612635
  0
LINE
  8
_0-0_0
  6
CONTINUOUS
 62
    7
 10
92.428954999999974
 20
461.38227849999998
 11
92.178954999999974
 21
461.31971750000002
  0
LINE
  8
_0-0_0
  6
CONTINUOUS
 62
    7
 10
92.428954999999974
 20
461.15193150000005
 11
92.178954999999974
 21
461.31971750000002
  0
LINE
  8
_0-0_0
  6
CONTINUOUS
 62
    7
 10
92.428954999999974
 20
461.60627750000003
 11
92.178954999999974
 21
461.57249449999995
  0
LINE
  8
_0-0_0
  6
CONTINUOUS
 62
    7
 10
92.428954999999974
 20
461.38227849999998
 11
92.178954999999974
 21
461.57249449999995
  0
LINE
  8
_0-0_0
  6
CONTINUOUS
 62
    7
 10
92.428954999999974
 20
461.82142650000003
 11
92.178954999999974
 21
461.81678750000003
  0
LINE
  8
_0-0_0
  6
CONTINUOUS
 62
    7
 10
92.428954999999974
 20
461.60627750000003
 11
92.178954999999974
 21
461.81678750000003
  0
LINE
  8
_0-0_0
  6
CONTINUOUS
 62
    7
 10
82.678954999999974
 20
478.6253815
 11
82.928954999999974
 21
478.64994750000005
  0
LINE
  8
_0-0_0
  6
CONTINUOUS
 62
    7
 10
82.928954999999974
 20
478.64994750000005
 11
92.178954999999974
 21
478.64994750000005
  0
LINE
  8
_0-0_0
  6
CONTINUOUS
 62
    7
 10
82.678954999999974
 20
478.42143250000004
 11
82.928954999999974
 21
478.64994750000005
  0
LINE
  8
_0-0_0
  6
CONTINUOUS
 62
    7
 10
82.678954999999974
 20
478.42143250000004
 11
92.428954999999974
 21
478.42143250000004
  0
LINE
  8
_0-0_0
  6
CONTINUOUS
 62
    7
 10
82.678954999999974
 20
478.81590249999999
 11
82.928954999999974
 21
478.86939949999999
  0
LINE
  8
_0-0_0
  6
CONTINUOUS
 62
    7
 10
82.928954999999974
 20
478.86939949999999
 11
92.178954999999974
 21
478.86939949999999
  0
LINE
  8
_0-0_0
  6
CONTINUOUS
 62
    7
 10
82.678954999999974
 20
478.6253815
 11
82.928954999999974
 21
478.86939949999999
  0
LINE
  8
_0-0_0
  6
CONTINUOUS
 62
    7
 10
82.678954999999974
 20
478.99092050000002
 11
82.928954999999974
 21
479.07276950000005
  0
LINE
  8
_0-0_0
  6
CONTINUOUS
 62
    7
 10
82.928954999999974
 20
479.07276950000005
 11
92.178954999999974
 21
479.07276950000005
  0
LINE
  8
_0-0_0
  6
CONTINUOUS
 62
    7
 10
82.678954999999974
 20
478.81590249999999
 11
82.928954999999974
 21
479.07276950000005
  0
LINE
  8
_0-0_0
  6
CONTINUOUS
 62
    7
 10
82.678954999999974
 20
479.14851350000004
 11
82.928954999999974
 21
479.25779750000004
  0
LINE
  8
_0-0_0
  6
CONTINUOUS
 62
    7
 10
82.928954999999974
 20
479.25779750000004
 11
92.178954999999974
 21
479.25779750000004
  0
LINE
  8
_0-0_0
  6
CONTINUOUS
 62
    7
 10
82.678954999999974
 20
478.99092050000002
 11
82.928954999999974
 21
479.25779750000004
  0
LINE
  8
_0-0_0
  6
CONTINUOUS
 62
    7
 10
82.678954999999974
 20
479.28694150000001
 11
82.928954999999974
 21
479.42250049999996
  0
LINE
  8
_0-0_0
  6
CONTINUOUS
 62
    7
 10
82.928954999999974
 20
479.42250049999996
 11
92.178954999999974
 21
479.42250049999996
  0
LINE
  8
_0-0_0
  6
CONTINUOUS
 62
    7
 10
82.678954999999974
 20
479.14851350000004
 11
82.928954999999974
 21
479.42250049999996
  0
LINE
  8
_0-0_0
  6
CONTINUOUS
 62
    7
 10
82.678954999999974
 20
479.40470849999997
 11
82.928954999999974
 21
479.56501749999995
  0
LINE
  8
_0-0_0
  6
CONTINUOUS
 62
    7
 10
82.928954999999974
 20
479.56501749999995
 11
92.178954999999974
 21
479.56501749999995
  0
LINE
  8
_0-0_0
  6
CONTINUOUS
 62
    7
 10
82.678954999999974
 20
479.28694150000001
 11
82.928954999999974
 21
479.56501749999995
  0
LINE
  8
_0-0_0
  6
CONTINUOUS
 62
    7
 10
82.678954999999974
 20
479.50050350000004
 11
82.928954999999974
 21
479.68379149999998
  0
LINE
  8
_0-0_0
  6
CONTINUOUS
 62
    7
 10
82.928954999999974
 20
479.68379149999998
 11
92.178954999999974
 21
479.68379149999998
  0
LINE
  8
_0-0_0
  6
CONTINUOUS
 62
    7
 10
82.678954999999974
 20
479.40470849999997
 11
82.928954999999974
 21
479.68379149999998
  0
LINE
  8
_0-0_0
  6
CONTINUOUS
 62
    7
 10
82.678954999999974
 20
479.57328749999999
 11
82.928954999999974
 21
479.77757250000002
  0
LINE
  8
_0-0_0
  6
CONTINUOUS
 62
    7
 10
82.928954999999974
 20
479.77757250000002
 11
92.178954999999974
 21
479.77757250000002
  0
LINE
  8
_0-0_0
  6
CONTINUOUS
 62
    7
 10
82.678954999999974
 20
479.50050350000004
 11
82.928954999999974
 21
479.77757250000002
  0
LINE
  8
_0-0_0
  6
CONTINUOUS
 62
    7
 10
82.678954999999974
 20
479.62223849999998
 11
82.928954999999974
 21
479.84532149999995
  0
LINE
  8
_0-0_0
  6
CONTINUOUS
 62
    7
 10
82.928954999999974
 20
479.84532149999995
 11
92.178954999999974
 21
479.84532149999995
  0
LINE
  8
_0-0_0
  6
CONTINUOUS
 62
    7
 10
82.678954999999974
 20
479.57328749999999
 11
82.928954999999974
 21
479.84532149999995
  0
LINE
  8
_0-0_0
  6
CONTINUOUS
 62
    7
 10
82.678954999999974
 20
479.64686549999999
 11
82.928954999999974
 21
479.88624549999997
  0
LINE
  8
_0-0_0
  6
CONTINUOUS
 62
    7
 10
82.928954999999974
 20
479.88624549999997
 11
92.178954999999974
 21
479.88624549999997
  0
LINE
  8
_0-0_0
  6
CONTINUOUS
 62
    7
 10
82.678954999999974
 20
479.62223849999998
 11
82.928954999999974
 21
479.88624549999997
  0
LINE
  8
_0-0_0
  6
CONTINUOUS
 62
    7
 10
82.928954999999974
 20
479.89994750000005
 11
92.178954999999974
 21
479.89994750000005
  0
LINE
  8
_0-0_0
  6
CONTINUOUS
 62
    7
 10
82.678954999999974
 20
479.64686549999999
 11
82.928954999999974
 21
479.89994750000005
  0
LINE
  8
_0-0_0
  6
CONTINUOUS
 62
    7
 10
82.678954999999974
 20
475.1530305
 11
82.928954999999974
 21
474.89994750000005
  0
LINE
  8
_0-0_0
  6
CONTINUOUS
 62
    7
 10
82.928954999999974
 20
474.89994750000005
 11
92.178954999999974
 21
474.89994750000005
  0
LINE
  8
_0-0_0
  6
CONTINUOUS
 62
    7
 10
82.678954999999974
 20
475.17765750000001
 11
82.928954999999974
 21
474.91365050000002
  0
LINE
  8
_0-0_0
  6
CONTINUOUS
 62
    7
 10
82.928954999999974
 20
474.91365050000002
 11
92.178954999999974
 21
474.91365050000002
  0
LINE
  8
_0-0_0
  6
CONTINUOUS
 62
    7
 10
82.678954999999974
 20
475.1530305
 11
82.928954999999974
 21
474.91365050000002
  0
LINE
  8
_0-0_0
  6
CONTINUOUS
 62
    7
 10
82.678954999999974
 20
475.2266085
 11
82.928954999999974
 21
474.95457450000004
  0
LINE
  8
_0-0_0
  6
CONTINUOUS
 62
    7
 10
82.928954999999974
 20
474.95457450000004
 11
92.178954999999974
 21
474.95457450000004
  0
LINE
  8
_0-0_0
  6
CONTINUOUS
 62
    7
 10
82.678954999999974
 20
475.17765750000001
 11
82.928954999999974
 21
474.95457450000004
  0
LINE
  8
_0-0_0
  6
CONTINUOUS
 62
    7
 10
82.678954999999974
 20
475.29939249999995
 11
82.928954999999974
 21
475.02229250000005
  0
LINE
  8
_0-0_0
  6
CONTINUOUS
 62
    7
 10
82.928954999999974
 20
475.02229250000005
 11
92.178954999999974
 21
475.02229250000005
  0
LINE
  8
_0-0_0
  6
CONTINUOUS
 62
    7
 10
82.678954999999974
 20
475.2266085
 11
82.928954999999974
 21
475.02229250000005
  0
LINE
  8
_0-0_0
  6
CONTINUOUS
 62
    7
 10
82.678954999999974
 20
475.39518750000002
 11
82.928954999999974
 21
475.11607349999997
  0
LINE
  8
_0-0_0
  6
CONTINUOUS
 62
    7
 10
82.928954999999974
 20
475.11607349999997
 11
92.178954999999974
 21
475.11607349999997
  0
LINE
  8
_0-0_0
  6
CONTINUOUS
 62
    7
 10
82.678954999999974
 20
475.29939249999995
 11
82.928954999999974
 21
475.11607349999997
  0
LINE
  8
_0-0_0
  6
CONTINUOUS
 62
    7
 10
82.928954999999974
 20
475.23487850000004
 11
92.178954999999974
 21
475.23487850000004
  0
LINE
  8
_0-0_0
  6
CONTINUOUS
 62
    7
 10
82.808928999999978
 20
475.31132449999996
 11
82.928954999999974
 21
475.23487850000004
  0
LINE
  8
_0-0_0
  6
CONTINUOUS
 62
    7
 10
82.678954999999974
 20
475.39518750000002
 11
82.808928999999978
 21
475.31132449999996
  0
LINE
  8
_0-0_0
  6
CONTINUOUS
 62
    7
 10
82.678954999999974
 20
475.51292450000005
 11
82.928954999999974
 21
475.23487850000004
  0
LINE
  8
_0-0_0
  6
CONTINUOUS
 62
    7
 10
82.678954999999974
 20
475.65135150000003
 11
82.928954999999974
 21
475.37739550000003
  0
LINE
  8
_0-0_0
  6
CONTINUOUS
 62
    7
 10
82.928954999999974
 20
475.37739550000003
 11
92.178954999999974
 21
475.37739550000003
  0
LINE
  8
_0-0_0
  6
CONTINUOUS
 62
    7
 10
82.678954999999974
 20
475.51292450000005
 11
82.928954999999974
 21
475.37739550000003
  0
LINE
  8
_0-0_0
  6
CONTINUOUS
 62
    7
 10
82.678954999999974
 20
475.80894450000005
 11
82.928954999999974
 21
475.54206850000003
  0
LINE
  8
_0-0_0
  6
CONTINUOUS
 62
    7
 10
82.928954999999974
 20
475.54206850000003
 11
92.178954999999974
 21
475.54206850000003
  0
LINE
  8
_0-0_0
  6
CONTINUOUS
 62
    7
 10
82.678954999999974
 20
475.65135150000003
 11
82.928954999999974
 21
475.54206850000003
  0
LINE
  8
_0-0_0
  6
CONTINUOUS
 62
    7
 10
82.678954999999974
 20
475.98396249999996
 11
82.928954999999974
 21
475.72712650000005
  0
LINE
  8
_0-0_0
  6
CONTINUOUS
 62
    7
 10
82.928954999999974
 20
475.72712650000005
 11
92.178954999999974
 21
475.72712650000005
  0
LINE
  8
_0-0_0
  6
CONTINUOUS
 62
    7
 10
82.678954999999974
 20
475.80894450000005
 11
82.928954999999974
 21
475.72712650000005
  0
LINE
  8
_0-0_0
  6
CONTINUOUS
 62
    7
 10
82.678954999999974
 20
476.17451449999999
 11
82.928954999999974
 21
475.9304965
  0
LINE
  8
_0-0_0
  6
CONTINUOUS
 62
    7
 10
82.928954999999974
 20
475.9304965
 11
92.178954999999974
 21
475.9304965
  0
LINE
  8
_0-0_0
  6
CONTINUOUS
 62
    7
 10
82.678954999999974
 20
475.98396249999996
 11
82.928954999999974
 21
475.9304965
  0
LINE
  8
_0-0_0
  6
CONTINUOUS
 62
    7
 10
82.678954999999974
 20
476.37846349999995
 11
82.928954999999974
 21
476.14994750000005
  0
LINE
  8
_0-0_0
  6
CONTINUOUS
 62
    7
 10
82.928954999999974
 20
476.14994750000005
 11
92.178954999999974
 21
476.14994750000005
  0
LINE
  8
_0-0_0
  6
CONTINUOUS
 62
    7
 10
82.678954999999974
 20
476.37846349999995
 11
92.428954999999974
 21
476.37846349999995
  0
LINE
  8
_0-0_0
  6
CONTINUOUS
 62
    7
 10
82.678954999999974
 20
476.17451449999999
 11
82.928954999999974
 21
476.14994750000005
  0
LINE
  8
_0-0_0
  6
CONTINUOUS
 62
    7
 10
82.678954999999974
 20
476.59361249999995
 11
82.928954999999974
 21
476.38310249999995
  0
LINE
  8
_0-0_0
  6
CONTINUOUS
 62
    7
 10
82.928954999999974
 20
476.38310249999995
 11
92.178954999999974
 21
476.38310249999995
  0
LINE
  8
_0-0_0
  6
CONTINUOUS
 62
    7
 10
82.678954999999974
 20
476.59361249999995
 11
92.428954999999974
 21
476.59361249999995
  0
LINE
  8
_0-0_0
  6
CONTINUOUS
 62
    7
 10
82.678954999999974
 20
476.37846349999995
 11
82.928954999999974
 21
476.38310249999995
  0
LINE
  8
_0-0_0
  6
CONTINUOUS
 62
    7
 10
82.678954999999974
 20
476.8176115
 11
82.928954999999974
 21
476.62739550000003
  0
LINE
  8
_0-0_0
  6
CONTINUOUS
 62
    7
 10
82.928954999999974
 20
476.62739550000003
 11
92.178954999999974
 21
476.62739550000003
  0
LINE
  8
_0-0_0
  6
CONTINUOUS
 62
    7
 10
82.678954999999974
 20
476.8176115
 11
92.428954999999974
 21
476.8176115
  0
LINE
  8
_0-0_0
  6
CONTINUOUS
 62
    7
 10
82.678954999999974
 20
476.59361249999995
 11
82.928954999999974
 21
476.62739550000003
  0
LINE
  8
_0-0_0
  6
CONTINUOUS
 62
    7
 10
82.678954999999974
 20
477.04795850000005
 11
82.928954999999974
 21
476.88017249999996
  0
LINE
  8
_0-0_0
  6
CONTINUOUS
 62
    7
 10
82.928954999999974
 20
476.88017249999996
 11
92.178954999999974
 21
476.88017249999996
  0
LINE
  8
_0-0_0
  6
CONTINUOUS
 62
    7
 10
82.678954999999974
 20
477.04795850000005
 11
92.428954999999974
 21
477.04795850000005
  0
LINE
  8
_0-0_0
  6
CONTINUOUS
 62
    7
 10
82.678954999999974
 20
476.8176115
 11
82.928954999999974
 21
476.88017249999996
  0
LINE
  8
_0-0_0
  6
CONTINUOUS
 62
    7
 10
82.678954999999974
 20
477.28218049999998
 11
82.928954999999974
 21
477.13862549999999
  0
LINE
  8
_0-0_0
  6
CONTINUOUS
 62
    7
 10
82.928954999999974
 20
477.13862549999999
 11
92.178954999999974
 21
477.13862549999999
  0
LINE
  8
_0-0_0
  6
CONTINUOUS
 62
    7
 10
82.678954999999974
 20
477.28218049999998
 11
92.428954999999974
 21
477.28218049999998
  0
LINE
  8
_0-0_0
  6
CONTINUOUS
 62
    7
 10
82.678954999999974
 20
477.04795850000005
 11
82.928954999999974
 21
477.13862549999999
  0
LINE
  8
_0-0_0
  6
CONTINUOUS
 62
    7
 10
82.678954999999974
 20
477.51771550000001
 11
82.928954999999974
 21
477.39994750000005
  0
LINE
  8
_0-0_0
  6
CONTINUOUS
 62
    7
 10
82.928954999999974
 20
477.39994750000005
 11
92.178954999999974
 21
477.39994750000005
  0
LINE
  8
_0-0_0
  6
CONTINUOUS
 62
    7
 10
82.678954999999974
 20
477.51771550000001
 11
92.428954999999974
 21
477.51771550000001
  0
LINE
  8
_0-0_0
  6
CONTINUOUS
 62
    7
 10
82.678954999999974
 20
477.28218049999998
 11
82.928954999999974
 21
477.39994750000005
  0
LINE
  8
_0-0_0
  6
CONTINUOUS
 62
    7
 10
82.678954999999974
 20
477.75190750000002
 11
82.928954999999974
 21
477.6612705
  0
LINE
  8
_0-0_0
  6
CONTINUOUS
 62
    7
 10
82.928954999999974
 20
477.6612705
 11
92.178954999999974
 21
477.6612705
  0
LINE
  8
_0-0_0
  6
CONTINUOUS
 62
    7
 10
82.678954999999974
 20
477.75190750000002
 11
92.428954999999974
 21
477.75190750000002
  0
LINE
  8
_0-0_0
  6
CONTINUOUS
 62
    7
 10
82.678954999999974
 20
477.51771550000001
 11
82.928954999999974
 21
477.6612705
  0
LINE
  8
_0-0_0
  6
CONTINUOUS
 62
    7
 10
82.678954999999974
 20
477.98228449999999
 11
82.928954999999974
 21
477.91972350000003
  0
LINE
  8
_0-0_0
  6
CONTINUOUS
 62
    7
 10
82.928954999999974
 20
477.91972350000003
 11
92.178954999999974
 21
477.91972350000003
  0
LINE
  8
_0-0_0
  6
CONTINUOUS
 62
    7
 10
82.678954999999974
 20
477.98228449999999
 11
92.428954999999974
 21
477.98228449999999
  0
LINE
  8
_0-0_0
  6
CONTINUOUS
 62
    7
 10
82.678954999999974
 20
477.75190750000002
 11
82.928954999999974
 21
477.91972350000003
  0
LINE
  8
_0-0_0
  6
CONTINUOUS
 62
    7
 10
82.678954999999974
 20
478.20628350000004
 11
82.928954999999974
 21
478.17250049999996
  0
LINE
  8
_0-0_0
  6
CONTINUOUS
 62
    7
 10
82.928954999999974
 20
478.17250049999996
 11
92.178954999999974
 21
478.17250049999996
  0
LINE
  8
_0-0_0
  6
CONTINUOUS
 62
    7
 10
82.678954999999974
 20
478.20628350000004
 11
92.428954999999974
 21
478.20628350000004
  0
LINE
  8
_0-0_0
  6
CONTINUOUS
 62
    7
 10
82.678954999999974
 20
477.98228449999999
 11
82.928954999999974
 21
478.17250049999996
  0
LINE
  8
_0-0_0
  6
CONTINUOUS
 62
    7
 10
82.678954999999974
 20
478.42143250000004
 11
82.928954999999974
 21
478.41679350000004
  0
LINE
  8
_0-0_0
  6
CONTINUOUS
 62
    7
 10
82.928954999999974
 20
478.41679350000004
 11
92.178954999999974
 21
478.41679350000004
  0
LINE
  8
_0-0_0
  6
CONTINUOUS
 62
    7
 10
82.678954999999974
 20
478.20628350000004
 11
82.928954999999974
 21
478.41679350000004
  0
LINE
  8
_0-0_0
  6
CONTINUOUS
 62
    7
 10
96.428954999999974
 20
474.34992950000003
 11
96.428954999999974
 21
466.36839250000003
  0
LINE
  8
_0-0_0
  6
CONTINUOUS
 62
    7
 10
96.428954999999974
 20
466.36839250000003
 11
96.428954999999974
 21
463.84992950000003
  0
LINE
  8
_0-0_0
  6
CONTINUOUS
 62
    7
 10
82.678954999999974
 20
462.0253755
 11
82.928954999999974
 21
462.04994150000005
  0
LINE
  8
_0-0_0
  6
CONTINUOUS
 62
    7
 10
82.928954999999974
 20
462.04994150000005
 11
92.178954999999974
 21
462.04994150000005
  0
LINE
  8
_0-0_0
  6
CONTINUOUS
 62
    7
 10
82.678954999999974
 20
461.82142650000003
 11
82.928954999999974
 21
462.04994150000005
  0
LINE
  8
_0-0_0
  6
CONTINUOUS
 62
    7
 10
82.678954999999974
 20
461.82142650000003
 11
92.428954999999974
 21
461.82142650000003
  0
LINE
  8
_0-0_0
  6
CONTINUOUS
 62
    7
 10
82.678954999999974
 20
462.21592650000002
 11
82.928954999999974
 21
462.26939349999998
  0
LINE
  8
_0-0_0
  6
CONTINUOUS
 62
    7
 10
82.928954999999974
 20
462.26939349999998
 11
92.178954999999974
 21
462.26939349999998
  0
LINE
  8
_0-0_0
  6
CONTINUOUS
 62
    7
 10
82.678954999999974
 20
462.0253755
 11
82.928954999999974
 21
462.26939349999998
  0
LINE
  8
_0-0_0
  6
CONTINUOUS
 62
    7
 10
82.678954999999974
 20
462.39094550000004
 11
82.928954999999974
 21
462.47276250000004
  0
LINE
  8
_0-0_0
  6
CONTINUOUS
 62
    7
 10
82.928954999999974
 20
462.47276250000004
 11
92.178954999999974
 21
462.47276250000004
  0
LINE
  8
_0-0_0
  6
CONTINUOUS
 62
    7
 10
82.678954999999974
 20
462.21592650000002
 11
82.928954999999974
 21
462.47276250000004
  0
LINE
  8
_0-0_0
  6
CONTINUOUS
 62
    7
 10
82.678954999999974
 20
462.54850750000003
 11
82.928954999999974
 21
462.65779150000003
  0
LINE
  8
_0-0_0
  6
CONTINUOUS
 62
    7
 10
82.928954999999974
 20
462.65779150000003
 11
92.178954999999974
 21
462.65779150000003
  0
LINE
  8
_0-0_0
  6
CONTINUOUS
 62
    7
 10
82.678954999999974
 20
462.39094550000004
 11
82.928954999999974
 21
462.65779150000003
  0
LINE
  8
_0-0_0
  6
CONTINUOUS
 62
    7
 10
82.678954999999974
 20
462.68696550000004
 11
82.928954999999974
 21
462.82249449999995
  0
LINE
  8
_0-0_0
  6
CONTINUOUS
 62
    7
 10
82.928954999999974
 20
462.82249449999995
 11
92.178954999999974
 21
462.82249449999995
  0
LINE
  8
_0-0_0
  6
CONTINUOUS
 62
    7
 10
82.678954999999974
 20
462.54850750000003
 11
82.928954999999974
 21
462.82249449999995
  0
LINE
  8
_0-0_0
  6
CONTINUOUS
 62
    7
 10
82.678954999999974
 20
462.80470249999996
 11
82.928954999999974
 21
462.96501150000006
  0
LINE
  8
_0-0_0
  6
CONTINUOUS
 62
    7
 10
82.928954999999974
 20
462.96501150000006
 11
92.178954999999974
 21
462.96501150000006
  0
LINE
  8
_0-0_0
  6
CONTINUOUS
 62
    7
 10
82.678954999999974
 20
462.68696550000004
 11
82.928954999999974
 21
462.96501150000006
  0
LINE
  8
_0-0_0
  6
CONTINUOUS
 62
    7
 10
82.678954999999974
 20
462.90049750000003
 11
82.928954999999974
 21
463.08381650000001
  0
LINE
  8
_0-0_0
  6
CONTINUOUS
 62
    7
 10
82.928954999999974
 20
463.08381650000001
 11
92.178954999999974
 21
463.08381650000001
  0
LINE
  8
_0-0_0
  6
CONTINUOUS
 62
    7
 10
82.678954999999974
 20
462.80470249999996
 11
82.928954999999974
 21
463.08381650000001
  0
LINE
  8
_0-0_0
  6
CONTINUOUS
 62
    7
 10
82.678954999999974
 20
462.97328149999998
 11
82.928954999999974
 21
463.17759650000005
  0
LINE
  8
_0-0_0
  6
CONTINUOUS
 62
    7
 10
82.928954999999974
 20
463.17759650000005
 11
92.178954999999974
 21
463.17759650000005
  0
LINE
  8
_0-0_0
  6
CONTINUOUS
 62
    7
 10
82.678954999999974
 20
462.90049750000003
 11
82.928954999999974
 21
463.17759650000005
  0
LINE
  8
_0-0_0
  6
CONTINUOUS
 62
    7
 10
82.678954999999974
 20
463.02223149999998
 11
82.928954999999974
 21
463.24531549999995
  0
LINE
  8
_0-0_0
  6
CONTINUOUS
 62
    7
 10
82.928954999999974
 20
463.24531549999995
 11
92.178954999999974
 21
463.24531549999995
  0
LINE
  8
_0-0_0
  6
CONTINUOUS
 62
    7
 10
82.678954999999974
 20
462.97328149999998
 11
82.928954999999974
 21
463.24531549999995
  0
LINE
  8
_0-0_0
  6
CONTINUOUS
 62
    7
 10
82.678954999999974
 20
463.04685949999998
 11
82.928954999999974
 21
463.28623949999997
  0
LINE
  8
_0-0_0
  6
CONTINUOUS
 62
    7
 10
82.928954999999974
 20
463.28623949999997
 11
92.178954999999974
 21
463.28623949999997
  0
LINE
  8
_0-0_0
  6
CONTINUOUS
 62
    7
 10
82.678954999999974
 20
463.02223149999998
 11
82.928954999999974
 21
463.28623949999997
  0
LINE
  8
_0-0_0
  6
CONTINUOUS
 62
    7
 10
82.928954999999974
 20
463.29994150000005
 11
92.178954999999974
 21
463.29994150000005
  0
LINE
  8
_0-0_0
  6
CONTINUOUS
 62
    7
 10
82.678954999999974
 20
463.04685949999998
 11
82.928954999999974
 21
463.29994150000005
  0
LINE
  8
_0-0_0
  6
CONTINUOUS
 62
    7
 10
82.678954999999974
 20
458.55302449999999
 11
82.928954999999974
 21
458.29994150000005
  0
LINE
  8
_0-0_0
  6
CONTINUOUS
 62
    7
 10
82.928954999999974
 20
458.29994150000005
 11
92.178954999999974
 21
458.29994150000005
  0
LINE
  8
_0-0_0
  6
CONTINUOUS
 62
    7
 10
82.678954999999974
 20
458.5776515
 11
82.928954999999974
 21
458.31364450000001
  0
LINE
  8
_0-0_0
  6
CONTINUOUS
 62
    7
 10
82.928954999999974
 20
458.31364450000001
 11
92.178954999999974
 21
458.31364450000001
  0
LINE
  8
_0-0_0
  6
CONTINUOUS
 62
    7
 10
82.678954999999974
 20
458.55302449999999
 11
82.928954999999974
 21
458.31364450000001
  0
LINE
  8
_0-0_0
  6
CONTINUOUS
 62
    7
 10
82.678954999999974
 20
458.62660249999999
 11
82.928954999999974
 21
458.35456850000003
  0
LINE
  8
_0-0_0
  6
CONTINUOUS
 62
    7
 10
82.928954999999974
 20
458.35456850000003
 11
92.178954999999974
 21
458.35456850000003
  0
LINE
  8
_0-0_0
  6
CONTINUOUS
 62
    7
 10
82.678954999999974
 20
458.5776515
 11
82.928954999999974
 21
458.35456850000003
  0
LINE
  8
_0-0_0
  6
CONTINUOUS
 62
    7
 10
82.678954999999974
 20
458.69938650000006
 11
82.928954999999974
 21
458.42228650000004
  0
LINE
  8
_0-0_0
  6
CONTINUOUS
 62
    7
 10
82.928954999999974
 20
458.42228650000004
 11
92.178954999999974
 21
458.42228650000004
  0
LINE
  8
_0-0_0
  6
CONTINUOUS
 62
    7
 10
82.678954999999974
 20
458.62660249999999
 11
82.928954999999974
 21
458.42228650000004
  0
LINE
  8
_0-0_0
  6
CONTINUOUS
 62
    7
 10
82.678954999999974
 20
458.79518150000001
 11
82.928954999999974
 21
458.51606749999996
  0
LINE
  8
_0-0_0
  6
CONTINUOUS
 62
    7
 10
82.928954999999974
 20
458.51606749999996
 11
92.178954999999974
 21
458.51606749999996
  0
LINE
  8
_0-0_0
  6
CONTINUOUS
 62
    7
 10
82.678954999999974
 20
458.69938650000006
 11
82.928954999999974
 21
458.51606749999996
  0
LINE
  8
_0-0_0
  6
CONTINUOUS
 62
    7
 10
82.928954999999974
 20
458.63487250000003
 11
92.178954999999974
 21
458.63487250000003
  0
LINE
  8
_0-0_0
  6
CONTINUOUS
 62
    7
 10
82.808928999999978
 20
458.71131849999995
 11
82.928954999999974
 21
458.63487250000003
  0
LINE
  8
_0-0_0
  6
CONTINUOUS
 62
    7
 10
82.678954999999974
 20
458.79518150000001
 11
82.808928999999978
 21
458.71131849999995
  0
LINE
  8
_0-0_0
  6
CONTINUOUS
 62
    7
 10
82.678954999999974
 20
458.91291750000005
 11
82.928954999999974
 21
458.63487250000003
  0
LINE
  8
_0-0_0
  6
CONTINUOUS
 62
    7
 10
82.678954999999974
 20
459.05137649999995
 11
82.928954999999974
 21
458.77738950000003
  0
LINE
  8
_0-0_0
  6
CONTINUOUS
 62
    7
 10
82.928954999999974
 20
458.77738950000003
 11
92.178954999999974
 21
458.77738950000003
  0
LINE
  8
_0-0_0
  6
CONTINUOUS
 62
    7
 10
82.678954999999974
 20
458.91291750000005
 11
82.928954999999974
 21
458.77738950000003
  0
LINE
  8
_0-0_0
  6
CONTINUOUS
 62
    7
 10
82.678954999999974
 20
459.20896849999997
 11
82.928954999999974
 21
458.94209250000006
  0
LINE
  8
_0-0_0
  6
CONTINUOUS
 62
    7
 10
82.928954999999974
 20
458.94209250000006
 11
92.178954999999974
 21
458.94209250000006
  0
LINE
  8
_0-0_0
  6
CONTINUOUS
 62
    7
 10
82.678954999999974
 20
459.05137649999995
 11
82.928954999999974
 21
458.94209250000006
  0
LINE
  8
_0-0_0
  6
CONTINUOUS
 62
    7
 10
82.678954999999974
 20
459.38398749999999
 11
82.928954999999974
 21
459.12712050000005
  0
LINE
  8
_0-0_0
  6
CONTINUOUS
 62
    7
 10
82.928954999999974
 20
459.12712050000005
 11
92.178954999999974
 21
459.12712050000005
  0
LINE
  8
_0-0_0
  6
CONTINUOUS
 62
    7
 10
82.678954999999974
 20
459.20896849999997
 11
82.928954999999974
 21
459.12712050000005
  0
LINE
  8
_0-0_0
  6
CONTINUOUS
 62
    7
 10
82.678954999999974
 20
459.57450849999998
 11
82.928954999999974
 21
459.3304895
  0
LINE
  8
_0-0_0
  6
CONTINUOUS
 62
    7
 10
82.928954999999974
 20
459.3304895
 11
92.178954999999974
 21
459.3304895
  0
LINE
  8
_0-0_0
  6
CONTINUOUS
 62
    7
 10
82.678954999999974
 20
459.38398749999999
 11
82.928954999999974
 21
459.3304895
  0
LINE
  8
_0-0_0
  6
CONTINUOUS
 62
    7
 10
82.678954999999974
 20
459.77845750000006
 11
82.928954999999974
 21
459.54994150000005
  0
LINE
  8
_0-0_0
  6
CONTINUOUS
 62
    7
 10
82.928954999999974
 20
459.54994150000005
 11
92.178954999999974
 21
459.54994150000005
  0
LINE
  8
_0-0_0
  6
CONTINUOUS
 62
    7
 10
82.678954999999974
 20
459.77845750000006
 11
92.428954999999974
 21
459.77845750000006
  0
LINE
  8
_0-0_0
  6
CONTINUOUS
 62
    7
 10
82.678954999999974
 20
459.57450849999998
 11
82.928954999999974
 21
459.54994150000005
  0
LINE
  8
_0-0_0
  6
CONTINUOUS
 62
    7
 10
82.678954999999974
 20
459.99360650000006
 11
82.928954999999974
 21
459.78309650000006
  0
LINE
  8
_0-0_0
  6
CONTINUOUS
 62
    7
 10
82.928954999999974
 20
459.78309650000006
 11
92.178954999999974
 21
459.78309650000006
  0
LINE
  8
_0-0_0
  6
CONTINUOUS
 62
    7
 10
82.678954999999974
 20
459.99360650000006
 11
92.428954999999974
 21
459.99360650000006
  0
LINE
  8
_0-0_0
  6
CONTINUOUS
 62
    7
 10
82.678954999999974
 20
459.77845750000006
 11
82.928954999999974
 21
459.78309650000006
  0
LINE
  8
_0-0_0
  6
CONTINUOUS
 62
    7
 10
82.678954999999974
 20
460.21760549999999
 11
82.928954999999974
 21
460.02738950000003
  0
LINE
  8
_0-0_0
  6
CONTINUOUS
 62
    7
 10
82.928954999999974
 20
460.02738950000003
 11
92.178954999999974
 21
460.02738950000003
  0
LINE
  8
_0-0_0
  6
CONTINUOUS
 62
    7
 10
82.678954999999974
 20
460.21760549999999
 11
92.428954999999974
 21
460.21760549999999
  0
LINE
  8
_0-0_0
  6
CONTINUOUS
 62
    7
 10
82.678954999999974
 20
459.99360650000006
 11
82.928954999999974
 21
460.02738950000003
  0
LINE
  8
_0-0_0
  6
CONTINUOUS
 62
    7
 10
82.678954999999974
 20
460.44795250000004
 11
82.928954999999974
 21
460.28016649999995
  0
LINE
  8
_0-0_0
  6
CONTINUOUS
 62
    7
 10
82.928954999999974
 20
460.28016649999995
 11
92.178954999999974
 21
460.28016649999995
  0
LINE
  8
_0-0_0
  6
CONTINUOUS
 62
    7
 10
82.678954999999974
 20
460.44795250000004
 11
92.428954999999974
 21
460.44795250000004
  0
LINE
  8
_0-0_0
  6
CONTINUOUS
 62
    7
 10
82.678954999999974
 20
460.21760549999999
 11
82.928954999999974
 21
460.28016649999995
  0
LINE
  8
_0-0_0
  6
CONTINUOUS
 62
    7
 10
82.678954999999974
 20
460.68217449999997
 11
82.928954999999974
 21
460.53861949999998
  0
LINE
  8
_0-0_0
  6
CONTINUOUS
 62
    7
 10
82.928954999999974
 20
460.53861949999998
 11
92.178954999999974
 21
460.53861949999998
  0
LINE
  8
_0-0_0
  6
CONTINUOUS
 62
    7
 10
82.678954999999974
 20
460.68217449999997
 11
92.428954999999974
 21
460.68217449999997
  0
LINE
  8
_0-0_0
  6
CONTINUOUS
 62
    7
 10
82.678954999999974
 20
460.44795250000004
 11
82.928954999999974
 21
460.53861949999998
  0
LINE
  8
_0-0_0
  6
CONTINUOUS
 62
    7
 10
82.678954999999974
 20
460.9177095
 11
82.928954999999974
 21
460.79994150000005
  0
LINE
  8
_0-0_0
  6
CONTINUOUS
 62
    7
 10
82.928954999999974
 20
460.79994150000005
 11
92.178954999999974
 21
460.79994150000005
  0
LINE
  8
_0-0_0
  6
CONTINUOUS
 62
    7
 10
82.678954999999974
 20
460.9177095
 11
92.428954999999974
 21
460.9177095
  0
LINE
  8
_0-0_0
  6
CONTINUOUS
 62
    7
 10
82.678954999999974
 20
460.68217449999997
 11
82.928954999999974
 21
460.79994150000005
  0
LINE
  8
_0-0_0
  6
CONTINUOUS
 62
    7
 10
82.678954999999974
 20
461.15193150000005
 11
82.928954999999974
 21
461.0612635
  0
LINE
  8
_0-0_0
  6
CONTINUOUS
 62
    7
 10
82.928954999999974
 20
461.0612635
 11
92.178954999999974
 21
461.0612635
  0
LINE
  8
_0-0_0
  6
CONTINUOUS
 62
    7
 10
82.678954999999974
 20
461.15193150000005
 11
92.428954999999974
 21
461.15193150000005
  0
LINE
  8
_0-0_0
  6
CONTINUOUS
 62
    7
 10
82.678954999999974
 20
460.9177095
 11
82.928954999999974
 21
461.0612635
  0
LINE
  8
_0-0_0
  6
CONTINUOUS
 62
    7
 10
82.678954999999974
 20
461.38227849999998
 11
82.928954999999974
 21
461.31971750000002
  0
LINE
  8
_0-0_0
  6
CONTINUOUS
 62
    7
 10
82.928954999999974
 20
461.31971750000002
 11
92.178954999999974
 21
461.31971750000002
  0
LINE
  8
_0-0_0
  6
CONTINUOUS
 62
    7
 10
82.678954999999974
 20
461.38227849999998
 11
92.428954999999974
 21
461.38227849999998
  0
LINE
  8
_0-0_0
  6
CONTINUOUS
 62
    7
 10
82.678954999999974
 20
461.15193150000005
 11
82.928954999999974
 21
461.31971750000002
  0
LINE
  8
_0-0_0
  6
CONTINUOUS
 62
    7
 10
82.678954999999974
 20
461.60627750000003
 11
82.928954999999974
 21
461.57249449999995
  0
LINE
  8
_0-0_0
  6
CONTINUOUS
 62
    7
 10
82.928954999999974
 20
461.57249449999995
 11
92.178954999999974
 21
461.57249449999995
  0
LINE
  8
_0-0_0
  6
CONTINUOUS
 62
    7
 10
82.678954999999974
 20
461.60627750000003
 11
92.428954999999974
 21
461.60627750000003
  0
LINE
  8
_0-0_0
  6
CONTINUOUS
 62
    7
 10
82.678954999999974
 20
461.38227849999998
 11
82.928954999999974
 21
461.57249449999995
  0
LINE
  8
_0-0_0
  6
CONTINUOUS
 62
    7
 10
82.678954999999974
 20
461.82142650000003
 11
82.928954999999974
 21
461.81678750000003
  0
LINE
  8
_0-0_0
  6
CONTINUOUS
 62
    7
 10
82.928954999999974
 20
461.81678750000003
 11
92.178954999999974
 21
461.81678750000003
  0
LINE
  8
_0-0_0
  6
CONTINUOUS
 62
    7
 10
82.678954999999974
 20
461.60627750000003
 11
82.928954999999974
 21
461.81678750000003
  0
LINE
  8
_0-0_0
  6
CONTINUOUS
 62
    7
 10
82.428954999999974
 20
479.39994750000005
 11
82.428954999999974
 21
475.6447905
  0
LINE
  8
_0-0_0
  6
CONTINUOUS
 62
    7
 10
82.428954999999974
 20
475.6447905
 11
82.428954999999974
 21
475.39994750000005
  0
LINE
  8
_0-0_0
  6
CONTINUOUS
 62
    7
 10
82.428954999999974
 20
462.79994150000005
 11
82.428954999999974
 21
459.04478449999999
  0
LINE
  8
_0-0_0
  6
CONTINUOUS
 62
    7
 10
82.428954999999974
 20
459.04478449999999
 11
82.428954999999974
 21
458.79994150000005
  0
LINE
  8
_0-0_0
  6
CONTINUOUS
 62
    7
 10
96.028960999999981
 20
474.09992950000003
 11
96.028960999999981
 21
471.59992950000003
  0
LINE
  8
_0-0_0
  6
CONTINUOUS
 62
    7
 10
96.028960999999981
 20
471.59992950000003
 11
96.028960999999981
 21
464.09992950000003
  0
LINE
  8
_0-0_0
  6
CONTINUOUS
 62
    7
 10
95.228972999999996
 20
473.63807650000001
 11
95.228972999999996
 21
471.36900349999996
  0
LINE
  8
_0-0_0
  6
CONTINUOUS
 62
    7
 10
95.228972999999996
 20
471.36900349999996
 11
95.228972999999996
 21
464.56181349999997
  0
LINE
  8
_0-0_0
  6
CONTINUOUS
 62
    7
 10
37.228957999999977
 20
473.09992950000003
 11
37.228957999999977
 21
473.09858650000001
  0
LINE
  8
_0-0_0
  6
CONTINUOUS
 62
    7
 10
37.228957999999977
 20
473.09858650000001
 11
37.228957999999977
 21
465.09992950000003
  0
LINE
  8
_0-0_0
  6
CONTINUOUS
 62
    7
 10
118.42895499999997
 20
479.64994750000005
 11
92.428954999999974
 21
479.64994750000005
  0
LINE
  8
_0-0_0
  6
CONTINUOUS
 62
    7
 10
118.42895499999997
 20
475.14994750000005
 11
92.428954999999974
 21
475.14994750000005
  0
LINE
  8
_0-0_0
  6
CONTINUOUS
 62
    7
 10
97.228942999999958
 20
463.04994150000005
 11
92.428954999999974
 21
463.04994150000005
  0
LINE
  8
_0-0_0
  6
CONTINUOUS
 62
    7
 10
112.67892499999999
 20
458.54994150000005
 11
92.428954999999974
 21
458.54994150000005
  0
LINE
  8
_0-0_0
  6
CONTINUOUS
 62
    7
 10
92.428954999999974
 20
479.64994750000005
 11
92.178954999999974
 21
479.89994750000005
  0
LINE
  8
_0-0_0
  6
CONTINUOUS
 62
    7
 10
92.428954999999974
 20
475.14994750000005
 11
92.178954999999974
 21
474.89994750000005
  0
LINE
  8
_0-0_0
  6
CONTINUOUS
 62
    7
 10
92.428954999999974
 20
463.04994150000005
 11
92.178954999999974
 21
463.29994150000005
  0
LINE
  8
_0-0_0
  6
CONTINUOUS
 62
    7
 10
92.428954999999974
 20
458.54994150000005
 11
92.178954999999974
 21
458.29994150000005
  0
LINE
  8
_0-0_0
  6
CONTINUOUS
 62
    7
 10
96.428954999999974
 20
474.34992950000003
 11
97.228957999999977
 21
475.14994750000005
  0
LINE
  8
_0-0_0
  6
CONTINUOUS
 62
    7
 10
96.428954999999974
 20
463.84992950000003
 11
97.678954999999974
 21
462.59992950000003
  0
LINE
  8
_0-0_0
  6
CONTINUOUS
 62
    7
 10
82.428954999999974
 20
479.39994750000005
 11
82.928803000000016
 21
479.89979549999998
  0
LINE
  8
_0-0_0
  6
CONTINUOUS
 62
    7
 10
82.428954999999974
 20
475.39994750000005
 11
82.928803000000016
 21
474.90010050000001
  0
LINE
  8
_0-0_0
  6
CONTINUOUS
 62
    7
 10
82.428954999999974
 20
462.79994150000005
 11
82.928803000000016
 21
463.29978949999997
  0
LINE
  8
_0-0_0
  6
CONTINUOUS
 62
    7
 10
82.428954999999974
 20
458.79994150000005
 11
82.928803000000016
 21
458.3000945
  0
LINE
  8
_0-0_0
  6
CONTINUOUS
 62
    7
 10
96.428954999999974
 20
474.09992950000003
 11
96.028960999999981
 21
474.09992950000003
  0
LINE
  8
_0-0_0
  6
CONTINUOUS
 62
    7
 10
96.428954999999974
 20
464.09992950000003
 11
96.028960999999981
 21
464.09992950000003
  0
LINE
  8
_0-0_0
  6
CONTINUOUS
 62
    7
 10
95.228972999999996
 20
473.63807650000001
 11
96.028960999999981
 21
474.09992950000003
  0
LINE
  8
_0-0_0
  6
CONTINUOUS
 62
    7
 10
95.228972999999996
 20
464.56181349999997
 11
96.028960999999981
 21
464.09992950000003
  0
LINE
  8
_0-0_0
  6
CONTINUOUS
 62
    7
 10
95.228972999999996
 20
473.09992950000003
 11
37.228957999999977
 21
473.09992950000003
  0
LINE
  8
_0-0_0
  6
CONTINUOUS
 62
    7
 10
95.228972999999996
 20
465.09992950000003
 11
37.228957999999977
 21
465.09992950000003
  0
ARC
  8
_0-0_0
  6
CONTINUOUS
 62
    7
 10
111.92895499999997
 20
502.60002150000003
 40
8
 50
215.099627
 51
324.90037799999999
  0
LINE
  8
_0-0_0
  6
CONTINUOUS
 62
    7
 10
102.92895499999997
 20
498.00001550000002
 11
105.38372800000002
 21
498.00001550000002
  0
LINE
  8
_0-0_0
  6
CONTINUOUS
 62
    7
 10
102.92895499999997
 20
484.80000250000001
 11
102.92895499999997
 21
498.00001550000002
  0
LINE
  8
_0-0_0
  6
CONTINUOUS
 62
    7
 10
955.92889400000001
 20
484.80000250000001
 11
955.92889400000001
 21
498.00001550000002
  0
LINE
  8
_0-0_0
  6
CONTINUOUS
 62
    7
 10
953.47418200000004
 20
498.00001550000002
 11
955.92889400000001
 21
498.00001550000002
  0
ARC
  8
_0-0_0
  6
CONTINUOUS
 62
    7
 10
946.92889400000001
 20
502.60002150000003
 40
8
 50
215.099627
 51
324.90037799999999
  0
LINE
  8
_0-0_0
  6
CONTINUOUS
 62
    7
 10
118.47418199999998
 20
498.00001550000002
 11
940.38372799999991
 21
498.00001550000002
  0
LINE
  8
_0-0_0
  6
CONTINUOUS
 62
    7
 10
118.47418199999998
 20
498.00001550000002
 11
118.56317100000001
 21
498.12931849999995
  0
LINE
  8
_0-0_0
  6
CONTINUOUS
 62
    7
 10
940.38372799999991
 20
498.00001550000002
 11
940.29473900000005
 21
498.12931849999995
  0
LINE
  8
_0-0_0
  6
CONTINUOUS
 62
    7
 10
953.65631100000007
 20
498.2707365
 11
953.73773199999994
 21
498.40000950000001
  0
ARC
  8
_0-0_0
  6
CONTINUOUS
 62
    7
 10
946.92889400000001
 20
502.60002150000003
 40
8
 50
328.33175599999993
 51
334.05550899999992
  0
LINE
  8
_0-0_0
  6
CONTINUOUS
 62
    7
 10
954.12261999999998
 20
499.10002150000003
 11
954.21661400000005
 21
499.30000250000001
  0
LINE
  8
_0-0_0
  6
CONTINUOUS
 62
    7
 10
954.21661400000005
 20
499.30000250000001
 11
954.30389400000001
 21
499.50001550000002
  0
ARC
  8
_0-0_0
  6
CONTINUOUS
 62
    7
 10
946.92889400000001
 20
502.60002150000003
 40
8
 50
337.20097500000003
 51
342.54240199999998
  0
LINE
  8
_0-0_0
  6
CONTINUOUS
 62
    7
 10
954.56048599999997
 20
500.20002750000003
 11
954.62042200000008
 21
500.40000950000001
  0
LINE
  8
_0-0_0
  6
CONTINUOUS
 62
    7
 10
954.62042200000008
 20
500.40000950000001
 11
954.67486599999995
 21
500.60002150000003
  0
ARC
  8
_0-0_0
  6
CONTINUOUS
 62
    7
 10
946.92889400000001
 20
502.60002150000003
 40
8
 50
345.52249499999999
 51
350.64797900000002
  0
LINE
  8
_0-0_0
  6
CONTINUOUS
 62
    7
 10
954.82257100000004
 20
501.30000250000001
 11
954.85296600000004
 21
501.50001550000002
  0
LINE
  8
_0-0_0
  6
CONTINUOUS
 62
    7
 10
954.85296600000004
 20
501.50001550000002
 11
954.8781130000001
 21
501.70002750000003
  0
ARC
  8
_0-0_0
  6
CONTINUOUS
 62
    7
 10
946.92889400000001
 20
502.60002150000003
 40
8
 50
353.54056400000002
 51
358.56744600000002
  0
LINE
  8
_0-0_0
  6
CONTINUOUS
 62
    7
 10
954.92645299999992
 20
502.40000950000001
 11
954.92889400000001
 21
502.60002150000003
  0
LINE
  8
_0-0_0
  6
CONTINUOUS
 62
    7
 10
938.93145799999991
 20
502.40000950000001
 11
938.92889400000001
 21
502.60002150000003
  0
ARC
  8
_0-0_0
  6
CONTINUOUS
 62
    7
 10
946.92889400000001
 20
502.60002150000003
 40
8
 50
181.432545
 51
186.45945499999999
  0
LINE
  8
_0-0_0
  6
CONTINUOUS
 62
    7
 10
939.00494399999991
 20
501.50001550000002
 11
938.97967499999993
 21
501.70002750000003
  0
LINE
  8
_0-0_0
  6
CONTINUOUS
 62
    7
 10
939.03521699999999
 20
501.30000250000001
 11
939.00494399999991
 21
501.50001550000002
  0
ARC
  8
_0-0_0
  6
CONTINUOUS
 62
    7
 10
946.92889400000001
 20
502.60002150000003
 40
8
 50
189.35203999999999
 51
194.47751
  0
LINE
  8
_0-0_0
  6
CONTINUOUS
 62
    7
 10
939.23736599999995
 20
500.40000950000001
 11
939.18292200000008
 21
500.60002150000003
  0
LINE
  8
_0-0_0
  6
CONTINUOUS
 62
    7
 10
939.29742399999998
 20
500.20002750000003
 11
939.23736599999995
 21
500.40000950000001
  0
ARC
  8
_0-0_0
  6
CONTINUOUS
 62
    7
 10
946.92889400000001
 20
502.60002150000003
 40
8
 50
197.45760300000001
 51
202.79902999999999
  0
LINE
  8
_0-0_0
  6
CONTINUOUS
 62
    7
 10
939.6412959999999
 20
499.30000250000001
 11
939.55401599999993
 21
499.50001550000002
  0
LINE
  8
_0-0_0
  6
CONTINUOUS
 62
    7
 10
939.73516899999993
 20
499.10002150000003
 11
939.6412959999999
 21
499.30000250000001
  0
ARC
  8
_0-0_0
  6
CONTINUOUS
 62
    7
 10
946.92889400000001
 20
502.60002150000003
 40
8
 50
205.94448199999999
 51
211.66823500000001
  0
LINE
  8
_0-0_0
  6
CONTINUOUS
 62
    7
 10
940.20159899999987
 20
498.2707365
 11
940.12005600000009
 21
498.40000950000001
  0
LINE
  8
_0-0_0
  6
CONTINUOUS
 62
    7
 10
940.20159899999987
 20
498.2707365
 11
940.29473900000005
 21
498.12931849999995
  0
LINE
  8
_0-0_0
  6
CONTINUOUS
 62
    7
 10
953.47418200000004
 20
498.00001550000002
 11
953.5631709999999
 21
498.12931849999995
  0
LINE
  8
_0-0_0
  6
CONTINUOUS
 62
    7
 10
953.65631100000007
 20
498.2707365
 11
953.5631709999999
 21
498.12931849999995
  0
LINE
  8
_0-0_0
  6
CONTINUOUS
 62
    7
 10
955.92889400000001
 20
498.12931849999995
 11
955.92889400000001
 21
498.00001550000002
  0
LINE
  8
_0-0_0
  6
CONTINUOUS
 62
    7
 10
955.92889400000001
 20
506.92930550000005
 11
955.92889400000001
 21
507.07072449999998
  0
LINE
  8
_0-0_0
  6
CONTINUOUS
 62
    7
 10
955.92889400000001
 20
506.92930550000005
 11
955.92889400000001
 21
506.80000250000001
  0
LINE
  8
_0-0_0
  6
CONTINUOUS
 62
    7
 10
955.92889400000001
 20
506.10002150000003
 11
955.92889400000001
 21
506.80000250000001
  0
LINE
  8
_0-0_0
  6
CONTINUOUS
 62
    7
 10
955.92889400000001
 20
505.90000950000001
 11
955.92889400000001
 21
506.10002150000003
  0
LINE
  8
_0-0_0
  6
CONTINUOUS
 62
    7
 10
955.92889400000001
 20
505.90000950000001
 11
955.92889400000001
 21
505.70002750000003
  0
LINE
  8
_0-0_0
  6
CONTINUOUS
 62
    7
 10
955.92889400000001
 20
505.00001550000002
 11
955.92889400000001
 21
505.70002750000003
  0
LINE
  8
_0-0_0
  6
CONTINUOUS
 62
    7
 10
955.92889400000001
 20
504.80000250000001
 11
955.92889400000001
 21
505.00001550000002
  0
LINE
  8
_0-0_0
  6
CONTINUOUS
 62
    7
 10
955.92889400000001
 20
504.80000250000001
 11
955.92889400000001
 21
504.60002150000003
  0
LINE
  8
_0-0_0
  6
CONTINUOUS
 62
    7
 10
955.92889400000001
 20
503.90000950000001
 11
955.92889400000001
 21
504.60002150000003
  0
LINE
  8
_0-0_0
  6
CONTINUOUS
 62
    7
 10
955.92889400000001
 20
503.70002750000003
 11
955.92889400000001
 21
503.90000950000001
  0
LINE
  8
_0-0_0
  6
CONTINUOUS
 62
    7
 10
955.92889400000001
 20
503.70002750000003
 11
955.92889400000001
 21
503.50001550000002
  0
LINE
  8
_0-0_0
  6
CONTINUOUS
 62
    7
 10
955.92889400000001
 20
502.80000250000001
 11
955.92889400000001
 21
503.50001550000002
  0
LINE
  8
_0-0_0
  6
CONTINUOUS
 62
    7
 10
955.92889400000001
 20
502.60002150000003
 11
955.92889400000001
 21
502.80000250000001
  0
LINE
  8
_0-0_0
  6
CONTINUOUS
 62
    7
 10
955.92889400000001
 20
502.60002150000003
 11
955.92889400000001
 21
502.40000950000001
  0
LINE
  8
_0-0_0
  6
CONTINUOUS
 62
    7
 10
955.92889400000001
 20
501.70002750000003
 11
955.92889400000001
 21
502.40000950000001
  0
LINE
  8
_0-0_0
  6
CONTINUOUS
 62
    7
 10
955.92889400000001
 20
501.50001550000002
 11
955.92889400000001
 21
501.70002750000003
  0
LINE
  8
_0-0_0
  6
CONTINUOUS
 62
    7
 10
955.92889400000001
 20
501.50001550000002
 11
955.92889400000001
 21
501.30000250000001
  0
LINE
  8
_0-0_0
  6
CONTINUOUS
 62
    7
 10
955.92889400000001
 20
500.60002150000003
 11
955.92889400000001
 21
501.30000250000001
  0
LINE
  8
_0-0_0
  6
CONTINUOUS
 62
    7
 10
955.92889400000001
 20
500.40000950000001
 11
955.92889400000001
 21
500.60002150000003
  0
LINE
  8
_0-0_0
  6
CONTINUOUS
 62
    7
 10
955.92889400000001
 20
500.40000950000001
 11
955.92889400000001
 21
500.20002750000003
  0
LINE
  8
_0-0_0
  6
CONTINUOUS
 62
    7
 10
955.92889400000001
 20
499.50001550000002
 11
955.92889400000001
 21
500.20002750000003
  0
LINE
  8
_0-0_0
  6
CONTINUOUS
 62
    7
 10
955.92889400000001
 20
499.30000250000001
 11
955.92889400000001
 21
499.50001550000002
  0
LINE
  8
_0-0_0
  6
CONTINUOUS
 62
    7
 10
955.92889400000001
 20
499.30000250000001
 11
955.92889400000001
 21
499.10002150000003
  0
LINE
  8
_0-0_0
  6
CONTINUOUS
 62
    7
 10
955.92889400000001
 20
498.40000950000001
 11
955.92889400000001
 21
499.10002150000003
  0
LINE
  8
_0-0_0
  6
CONTINUOUS
 62
    7
 10
955.92889400000001
 20
498.2707365
 11
955.92889400000001
 21
498.40000950000001
  0
LINE
  8
_0-0_0
  6
CONTINUOUS
 62
    7
 10
955.92889400000001
 20
498.12931849999995
 11
955.92889400000001
 21
498.2707365
  0
LINE
  8
_0-0_0
  6
CONTINUOUS
 62
    7
 10
955.92889400000001
 20
484.30000250000001
 11
955.92889400000001
 21
484.80000250000001
  0
LINE
  8
_0-0_0
  6
CONTINUOUS
 62
    7
 10
955.92889400000001
 20
512.80000250000001
 11
955.92889400000001
 21
512.20603949999997
  0
LINE
  8
_0-0_0
  6
CONTINUOUS
 62
    7
 10
955.92889400000001
 20
507.20002750000003
 11
955.92889400000001
 21
512.20603949999997
  0
LINE
  8
_0-0_0
  6
CONTINUOUS
 62
    7
 10
955.92889400000001
 20
507.07072449999998
 11
955.92889400000001
 21
507.20002750000003
  0
LINE
  8
_0-0_0
  6
CONTINUOUS
 62
    7
 10
102.92895499999997
 20
484.30000250000001
 11
102.92895499999997
 21
484.80000250000001
  0
LINE
  8
_0-0_0
  6
CONTINUOUS
 62
    7
 10
102.92895499999997
 20
484.30000250000001
 11
955.92889400000001
 21
484.30000250000001
  0
LINE
  8
_0-0_0
  6
CONTINUOUS
 62
    7
 10
102.92895499999997
 20
498.12931849999995
 11
102.92895499999997
 21
498.2707365
  0
LINE
  8
_0-0_0
  6
CONTINUOUS
 62
    7
 10
102.92895499999997
 20
498.12931849999995
 11
102.92895499999997
 21
498.00001550000002
  0
LINE
  8
_0-0_0
  6
CONTINUOUS
 62
    7
 10
102.92895499999997
 20
512.80000250000001
 11
102.92895499999997
 21
512.20603949999997
  0
LINE
  8
_0-0_0
  6
CONTINUOUS
 62
    7
 10
102.92895499999997
 20
507.20002750000003
 11
102.92895499999997
 21
512.20603949999997
  0
LINE
  8
_0-0_0
  6
CONTINUOUS
 62
    7
 10
102.92895499999997
 20
507.07072449999998
 11
102.92895499999997
 21
507.20002750000003
  0
LINE
  8
_0-0_0
  6
CONTINUOUS
 62
    7
 10
102.92895499999997
 20
506.92930550000005
 11
102.92895499999997
 21
507.07072449999998
  0
LINE
  8
_0-0_0
  6
CONTINUOUS
 62
    7
 10
102.92895499999997
 20
506.92930550000005
 11
102.92895499999997
 21
506.80000250000001
  0
LINE
  8
_0-0_0
  6
CONTINUOUS
 62
    7
 10
102.92895499999997
 20
506.10002150000003
 11
102.92895499999997
 21
506.80000250000001
  0
LINE
  8
_0-0_0
  6
CONTINUOUS
 62
    7
 10
102.92895499999997
 20
505.97071849999998
 11
102.92895499999997
 21
506.10002150000003
  0
LINE
  8
_0-0_0
  6
CONTINUOUS
 62
    7
 10
102.92895499999997
 20
505.82929950000005
 11
102.92895499999997
 21
505.97071849999998
  0
LINE
  8
_0-0_0
  6
CONTINUOUS
 62
    7
 10
102.92895499999997
 20
505.82929950000005
 11
102.92895499999997
 21
505.70002750000003
  0
LINE
  8
_0-0_0
  6
CONTINUOUS
 62
    7
 10
102.92895499999997
 20
505.00001550000002
 11
102.92895499999997
 21
505.70002750000003
  0
LINE
  8
_0-0_0
  6
CONTINUOUS
 62
    7
 10
102.92895499999997
 20
504.87074250000001
 11
102.92895499999997
 21
505.00001550000002
  0
LINE
  8
_0-0_0
  6
CONTINUOUS
 62
    7
 10
102.92895499999997
 20
504.72929350000004
 11
102.92895499999997
 21
504.87074250000001
  0
LINE
  8
_0-0_0
  6
CONTINUOUS
 62
    7
 10
102.92895499999997
 20
504.72929350000004
 11
102.92895499999997
 21
504.60002150000003
  0
LINE
  8
_0-0_0
  6
CONTINUOUS
 62
    7
 10
102.92895499999997
 20
503.90000950000001
 11
102.92895499999997
 21
504.60002150000003
  0
LINE
  8
_0-0_0
  6
CONTINUOUS
 62
    7
 10
102.92895499999997
 20
503.7707365
 11
102.92895499999997
 21
503.90000950000001
  0
LINE
  8
_0-0_0
  6
CONTINUOUS
 62
    7
 10
102.92895499999997
 20
503.62931849999995
 11
102.92895499999997
 21
503.7707365
  0
LINE
  8
_0-0_0
  6
CONTINUOUS
 62
    7
 10
102.92895499999997
 20
503.62931849999995
 11
102.92895499999997
 21
503.50001550000002
  0
LINE
  8
_0-0_0
  6
CONTINUOUS
 62
    7
 10
102.92895499999997
 20
502.80000250000001
 11
102.92895499999997
 21
503.50001550000002
  0
LINE
  8
_0-0_0
  6
CONTINUOUS
 62
    7
 10
102.92895499999997
 20
502.67073049999999
 11
102.92895499999997
 21
502.80000250000001
  0
LINE
  8
_0-0_0
  6
CONTINUOUS
 62
    7
 10
102.92895499999997
 20
502.52931149999995
 11
102.92895499999997
 21
502.67073049999999
  0
LINE
  8
_0-0_0
  6
CONTINUOUS
 62
    7
 10
102.92895499999997
 20
502.52931149999995
 11
102.92895499999997
 21
502.40000950000001
  0
LINE
  8
_0-0_0
  6
CONTINUOUS
 62
    7
 10
102.92895499999997
 20
501.70002750000003
 11
102.92895499999997
 21
502.40000950000001
  0
LINE
  8
_0-0_0
  6
CONTINUOUS
 62
    7
 10
102.92895499999997
 20
501.57072449999998
 11
102.92895499999997
 21
501.70002750000003
  0
LINE
  8
_0-0_0
  6
CONTINUOUS
 62
    7
 10
102.92895499999997
 20
501.42930550000005
 11
102.92895499999997
 21
501.57072449999998
  0
LINE
  8
_0-0_0
  6
CONTINUOUS
 62
    7
 10
102.92895499999997
 20
501.42930550000005
 11
102.92895499999997
 21
501.30000250000001
  0
LINE
  8
_0-0_0
  6
CONTINUOUS
 62
    7
 10
102.92895499999997
 20
500.60002150000003
 11
102.92895499999997
 21
501.30000250000001
  0
LINE
  8
_0-0_0
  6
CONTINUOUS
 62
    7
 10
102.92895499999997
 20
500.47071849999998
 11
102.92895499999997
 21
500.60002150000003
  0
LINE
  8
_0-0_0
  6
CONTINUOUS
 62
    7
 10
102.92895499999997
 20
500.32929950000005
 11
102.92895499999997
 21
500.47071849999998
  0
LINE
  8
_0-0_0
  6
CONTINUOUS
 62
    7
 10
102.92895499999997
 20
500.32929950000005
 11
102.92895499999997
 21
500.20002750000003
  0
LINE
  8
_0-0_0
  6
CONTINUOUS
 62
    7
 10
102.92895499999997
 20
499.50001550000002
 11
102.92895499999997
 21
500.20002750000003
  0
LINE
  8
_0-0_0
  6
CONTINUOUS
 62
    7
 10
102.92895499999997
 20
499.37074250000001
 11
102.92895499999997
 21
499.50001550000002
  0
LINE
  8
_0-0_0
  6
CONTINUOUS
 62
    7
 10
102.92895499999997
 20
499.22929350000004
 11
102.92895499999997
 21
499.37074250000001
  0
LINE
  8
_0-0_0
  6
CONTINUOUS
 62
    7
 10
102.92895499999997
 20
499.22929350000004
 11
102.92895499999997
 21
499.10002150000003
  0
LINE
  8
_0-0_0
  6
CONTINUOUS
 62
    7
 10
102.92895499999997
 20
498.40000950000001
 11
102.92895499999997
 21
499.10002150000003
  0
LINE
  8
_0-0_0
  6
CONTINUOUS
 62
    7
 10
102.92895499999997
 20
498.2707365
 11
102.92895499999997
 21
498.40000950000001
  0
LINE
  8
_0-0_0
  6
CONTINUOUS
 62
    7
 10
105.38372800000002
 20
498.00001550000002
 11
105.29475400000001
 21
498.12931849999995
  0
LINE
  8
_0-0_0
  6
CONTINUOUS
 62
    7
 10
118.65631099999996
 20
498.2707365
 11
118.56317100000001
 21
498.12931849999995
  0
LINE
  8
_0-0_0
  6
CONTINUOUS
 62
    7
 10
118.65631099999996
 20
498.2707365
 11
118.73777799999999
 21
498.40000950000001
  0
ARC
  8
_0-0_0
  6
CONTINUOUS
 62
    7
 10
111.92895499999997
 20
502.60002150000003
 40
8
 50
328.33175599999993
 51
334.05550899999992
  0
LINE
  8
_0-0_0
  6
CONTINUOUS
 62
    7
 10
119.12271099999998
 20
499.10002150000003
 11
119.21661399999999
 21
499.30000250000001
  0
LINE
  8
_0-0_0
  6
CONTINUOUS
 62
    7
 10
119.21661399999999
 20
499.30000250000001
 11
119.30392499999999
 21
499.50001550000002
  0
ARC
  8
_0-0_0
  6
CONTINUOUS
 62
    7
 10
111.92895499999997
 20
502.60002150000003
 40
8
 50
337.20097500000003
 51
342.54240199999998
  0
LINE
  8
_0-0_0
  6
CONTINUOUS
 62
    7
 10
119.56048599999997
 20
500.20002750000003
 11
119.62051399999996
 21
500.40000950000001
  0
LINE
  8
_0-0_0
  6
CONTINUOUS
 62
    7
 10
119.62051399999996
 20
500.40000950000001
 11
119.67492700000003
 21
500.60002150000003
  0
ARC
  8
_0-0_0
  6
CONTINUOUS
 62
    7
 10
111.92895499999997
 20
502.60002150000003
 40
8
 50
345.52249499999999
 51
350.64797900000002
  0
LINE
  8
_0-0_0
  6
CONTINUOUS
 62
    7
 10
119.822632
 20
501.30000250000001
 11
119.852982
 21
501.50001550000002
  0
LINE
  8
_0-0_0
  6
CONTINUOUS
 62
    7
 10
119.852982
 20
501.50001550000002
 11
119.87817399999994
 21
501.70002750000003
  0
ARC
  8
_0-0_0
  6
CONTINUOUS
 62
    7
 10
111.92895499999997
 20
502.60002150000003
 40
8
 50
353.54056400000002
 51
358.56744600000002
  0
LINE
  8
_0-0_0
  6
CONTINUOUS
 62
    7
 10
119.926468
 20
502.40000950000001
 11
119.92896999999999
 21
502.60002150000003
  0
LINE
  8
_0-0_0
  6
CONTINUOUS
 62
    7
 10
103.92927599999996
 20
502.52931149999995
 11
103.92895499999997
 21
502.60002150000003
  0
LINE
  8
_0-0_0
  6
CONTINUOUS
 62
    7
 10
103.93145800000002
 20
502.40000950000001
 11
103.92927599999996
 21
502.52931149999995
  0
ARC
  8
_0-0_0
  6
CONTINUOUS
 62
    7
 10
111.92895499999997
 20
502.60002150000003
 40
8
 50
181.432545
 51
186.45945499999999
  0
LINE
  8
_0-0_0
  6
CONTINUOUS
 62
    7
 10
103.995453
 20
501.57072449999998
 11
103.97975199999996
 21
501.70002750000003
  0
LINE
  8
_0-0_0
  6
CONTINUOUS
 62
    7
 10
103.995453
 20
501.57072449999998
 11
104.01507600000002
 21
501.42930550000005
  0
LINE
  8
_0-0_0
  6
CONTINUOUS
 62
    7
 10
104.03529400000002
 20
501.30000250000001
 11
104.01507600000002
 21
501.42930550000005
  0
ARC
  8
_0-0_0
  6
CONTINUOUS
 62
    7
 10
111.92895499999997
 20
502.60002150000003
 40
8
 50
189.35203999999999
 51
194.47751
  0
LINE
  8
_0-0_0
  6
CONTINUOUS
 62
    7
 10
104.21752900000001
 20
500.47071849999998
 11
104.182999
 21
500.60002150000003
  0
LINE
  8
_0-0_0
  6
CONTINUOUS
 62
    7
 10
104.21752900000001
 20
500.47071849999998
 11
104.25799599999999
 21
500.32929950000005
  0
LINE
  8
_0-0_0
  6
CONTINUOUS
 62
    7
 10
104.29745500000001
 20
500.20002750000003
 11
104.25799599999999
 21
500.32929950000005
  0
ARC
  8
_0-0_0
  6
CONTINUOUS
 62
    7
 10
111.92895499999997
 20
502.60002150000003
 40
8
 50
197.45760300000001
 51
202.79902999999999
  0
LINE
  8
_0-0_0
  6
CONTINUOUS
 62
    7
 10
104.60969499999999
 20
499.37074250000001
 11
104.55401599999999
 21
499.50001550000002
  0
LINE
  8
_0-0_0
  6
CONTINUOUS
 62
    7
 10
104.60969499999999
 20
499.37074250000001
 11
104.67373699999996
 21
499.22929350000004
  0
LINE
  8
_0-0_0
  6
CONTINUOUS
 62
    7
 10
104.73521399999998
 20
499.10002150000003
 11
104.67373699999996
 21
499.22929350000004
  0
ARC
  8
_0-0_0
  6
CONTINUOUS
 62
    7
 10
111.92895499999997
 20
502.60002150000003
 40
8
 50
205.94448199999999
 51
211.66823500000001
  0
LINE
  8
_0-0_0
  6
CONTINUOUS
 62
    7
 10
105.20161399999995
 20
498.2707365
 11
105.12014799999997
 21
498.40000950000001
  0
LINE
  8
_0-0_0
  6
CONTINUOUS
 62
    7
 10
105.20161399999995
 20
498.2707365
 11
105.29475400000001
 21
498.12931849999995
  0
LINE
  8
_0-0_0
  6
CONTINUOUS
 62
    7
 10
889.92895499999997
 20
490.30000250000001
 11
896.92895499999997
 21
490.30000250000001
  0
ARC
  8
_0-0_0
  6
CONTINUOUS
 62
    7
 10
889.92895499999997
 20
489.80000250000001
 40
0.5
 50
90.000003000000007
 51
180.00000900000001
  0
LINE
  8
_0-0_0
  6
CONTINUOUS
 62
    7
 10
889.42895499999997
 20
489.80000250000001
 11
889.42895499999997
 21
485.80000250000001
  0
ARC
  8
_0-0_0
  6
CONTINUOUS
 62
    7
 10
889.92895499999997
 20
485.80000250000001
 40
0.5
 50
180.00000900000003
 51
269.99999700000001
  0
LINE
  8
_0-0_0
  6
CONTINUOUS
 62
    7
 10
896.92895499999997
 20
485.30000250000001
 11
889.92895499999997
 21
485.30000250000001
  0
ARC
  8
_0-0_0
  6
CONTINUOUS
 62
    7
 10
896.92895499999997
 20
485.80000250000001
 40
0.5
 50
269.99999700000001
 51
0
  0
LINE
  8
_0-0_0
  6
CONTINUOUS
 62
    7
 10
897.42895499999997
 20
485.80000250000001
 11
897.42895499999997
 21
489.80000250000001
  0
ARC
  8
_0-0_0
  6
CONTINUOUS
 62
    7
 10
896.92895499999997
 20
489.80000250000001
 40
0.5
 50
0
 51
90.000003000000007
  0
ARC
  8
_0-0_0
  6
CONTINUOUS
 62
    7
 10
169.92895499999997
 20
489.80000250000001
 40
0.5
 50
90.000003000000007
 51
180.00000900000001
  0
LINE
  8
_0-0_0
  6
CONTINUOUS
 62
    7
 10
169.42895499999997
 20
489.80000250000001
 11
169.42895499999997
 21
485.80000250000001
  0
ARC
  8
_0-0_0
  6
CONTINUOUS
 62
    7
 10
169.92895499999997
 20
485.80000250000001
 40
0.5
 50
180.00000900000003
 51
269.99999700000001
  0
LINE
  8
_0-0_0
  6
CONTINUOUS
 62
    7
 10
176.92895499999997
 20
485.30000250000001
 11
169.92895499999997
 21
485.30000250000001
  0
ARC
  8
_0-0_0
  6
CONTINUOUS
 62
    7
 10
176.92895499999997
 20
485.80000250000001
 40
0.5
 50
269.99999700000001
 51
0
  0
LINE
  8
_0-0_0
  6
CONTINUOUS
 62
    7
 10
177.42895499999997
 20
485.80000250000001
 11
177.42895499999997
 21
489.80000250000001
  0
ARC
  8
_0-0_0
  6
CONTINUOUS
 62
    7
 10
176.92895499999997
 20
489.80000250000001
 40
0.5
 50
0
 51
90.000003000000007
  0
LINE
  8
_0-0_0
  6
CONTINUOUS
 62
    7
 10
169.92895499999997
 20
490.30000250000001
 11
176.92895499999997
 21
490.30000250000001
  0
LINE
  8
_0-0_0
  6
CONTINUOUS
 62
    7
 10
118.73777799999999
 20
498.40000950000001
 11
940.12005600000009
 21
498.40000950000001
  0
LINE
  8
_0-0_0
  6
CONTINUOUS
 62
    7
 10
119.12271099999998
 20
499.10002150000003
 11
939.73516899999993
 21
499.10002150000003
  0
LINE
  8
_0-0_0
  6
CONTINUOUS
 62
    7
 10
119.21661399999999
 20
499.30000250000001
 11
939.6412959999999
 21
499.30000250000001
  0
LINE
  8
_0-0_0
  6
CONTINUOUS
 62
    7
 10
119.30392499999999
 20
499.50001550000002
 11
939.55401599999993
 21
499.50001550000002
  0
LINE
  8
_0-0_0
  6
CONTINUOUS
 62
    7
 10
119.56048599999997
 20
500.20002750000003
 11
939.29742399999998
 21
500.20002750000003
  0
LINE
  8
_0-0_0
  6
CONTINUOUS
 62
    7
 10
119.62051399999996
 20
500.40000950000001
 11
939.23736599999995
 21
500.40000950000001
  0
LINE
  8
_0-0_0
  6
CONTINUOUS
 62
    7
 10
119.67492700000003
 20
500.60002150000003
 11
939.18292200000008
 21
500.60002150000003
  0
LINE
  8
_0-0_0
  6
CONTINUOUS
 62
    7
 10
119.822632
 20
501.30000250000001
 11
939.03521699999999
 21
501.30000250000001
  0
LINE
  8
_0-0_0
  6
CONTINUOUS
 62
    7
 10
119.852982
 20
501.50001550000002
 11
939.00494399999991
 21
501.50001550000002
  0
LINE
  8
_0-0_0
  6
CONTINUOUS
 62
    7
 10
119.87817399999994
 20
501.70002750000003
 11
938.97967499999993
 21
501.70002750000003
  0
LINE
  8
_0-0_0
  6
CONTINUOUS
 62
    7
 10
119.926468
 20
502.40000950000001
 11
938.93145799999991
 21
502.40000950000001
  0
LINE
  8
_0-0_0
  6
CONTINUOUS
 62
    7
 10
119.92896999999999
 20
502.60002150000003
 11
938.92889400000001
 21
502.60002150000003
  0
LINE
  8
_0-0_0
  6
CONTINUOUS
 62
    7
 10
953.47418200000004
 20
507.20002750000003
 11
953.5631709999999
 21
507.07072449999998
  0
ARC
  8
_0-0_0
  6
CONTINUOUS
 62
    7
 10
946.92889400000001
 20
502.60002150000003
 40
8
 50
35.099632
 51
144.900373
  0
LINE
  8
_0-0_0
  6
CONTINUOUS
 62
    7
 10
940.38372799999991
 20
507.20002750000003
 11
940.29473900000005
 21
507.07072449999998
  0
LINE
  8
_0-0_0
  6
CONTINUOUS
 62
    7
 10
940.20159899999987
 20
506.92930550000005
 11
940.29473900000005
 21
507.07072449999998
  0
LINE
  8
_0-0_0
  6
CONTINUOUS
 62
    7
 10
940.20159899999987
 20
506.92930550000005
 11
940.12005600000009
 21
506.80000250000001
  0
ARC
  8
_0-0_0
  6
CONTINUOUS
 62
    7
 10
946.92889400000001
 20
502.60002150000003
 40
8
 50
148.33176499999999
 51
154.05551800000001
  0
LINE
  8
_0-0_0
  6
CONTINUOUS
 62
    7
 10
939.73516899999993
 20
506.10002150000003
 11
939.6412959999999
 21
505.90000950000001
  0
LINE
  8
_0-0_0
  6
CONTINUOUS
 62
    7
 10
939.6412959999999
 20
505.90000950000001
 11
939.55401599999993
 21
505.70002750000003
  0
ARC
  8
_0-0_0
  6
CONTINUOUS
 62
    7
 10
946.92889400000001
 20
502.60002150000003
 40
8
 50
157.20097000000001
 51
162.54239699999999
  0
LINE
  8
_0-0_0
  6
CONTINUOUS
 62
    7
 10
939.29742399999998
 20
505.00001550000002
 11
939.23736599999995
 21
504.80000250000001
  0
LINE
  8
_0-0_0
  6
CONTINUOUS
 62
    7
 10
939.23736599999995
 20
504.80000250000001
 11
939.18292200000008
 21
504.60002150000003
  0
ARC
  8
_0-0_0
  6
CONTINUOUS
 62
    7
 10
946.92889400000001
 20
502.60002150000003
 40
8
 50
165.52249
 51
170.64796000000001
  0
LINE
  8
_0-0_0
  6
CONTINUOUS
 62
    7
 10
939.03521699999999
 20
503.90000950000001
 11
939.00494399999991
 21
503.70002750000003
  0
LINE
  8
_0-0_0
  6
CONTINUOUS
 62
    7
 10
939.00494399999991
 20
503.70002750000003
 11
938.97967499999993
 21
503.50001550000002
  0
ARC
  8
_0-0_0
  6
CONTINUOUS
 62
    7
 10
946.92889400000001
 20
502.60002150000003
 40
8
 50
173.54054500000001
 51
178.567455
  0
LINE
  8
_0-0_0
  6
CONTINUOUS
 62
    7
 10
938.93145799999991
 20
502.80000250000001
 11
938.92889400000001
 21
502.60002150000003
  0
LINE
  8
_0-0_0
  6
CONTINUOUS
 62
    7
 10
954.92645299999992
 20
502.80000250000001
 11
954.92889400000001
 21
502.60002150000003
  0
ARC
  8
_0-0_0
  6
CONTINUOUS
 62
    7
 10
946.92889400000001
 20
502.60002150000003
 40
8
 50
1.432544
 51
6.4594489999999993
  0
LINE
  8
_0-0_0
  6
CONTINUOUS
 62
    7
 10
954.85296600000004
 20
503.70002750000003
 11
954.8781130000001
 21
503.50001550000002
  0
LINE
  8
_0-0_0
  6
CONTINUOUS
 62
    7
 10
954.82257100000004
 20
503.90000950000001
 11
954.85296600000004
 21
503.70002750000003
  0
ARC
  8
_0-0_0
  6
CONTINUOUS
 62
    7
 10
946.92889400000001
 20
502.60002150000003
 40
8
 50
9.3520350000000008
 51
14.477510999999998
  0
LINE
  8
_0-0_0
  6
CONTINUOUS
 62
    7
 10
954.62042200000008
 20
504.80000250000001
 11
954.67486599999995
 21
504.60002150000003
  0
LINE
  8
_0-0_0
  6
CONTINUOUS
 62
    7
 10
954.56048599999997
 20
505.00001550000002
 11
954.62042200000008
 21
504.80000250000001
  0
ARC
  8
_0-0_0
  6
CONTINUOUS
 62
    7
 10
946.92889400000001
 20
502.60002150000003
 40
8
 50
17.457602999999999
 51
22.799030999999999
  0
LINE
  8
_0-0_0
  6
CONTINUOUS
 62
    7
 10
954.21661400000005
 20
505.90000950000001
 11
954.30389400000001
 21
505.70002750000003
  0
LINE
  8
_0-0_0
  6
CONTINUOUS
 62
    7
 10
954.12261999999998
 20
506.10002150000003
 11
954.21661400000005
 21
505.90000950000001
  0
ARC
  8
_0-0_0
  6
CONTINUOUS
 62
    7
 10
946.92889400000001
 20
502.60002150000003
 40
8
 50
25.944476999999999
 51
31.668240000000001
  0
LINE
  8
_0-0_0
  6
CONTINUOUS
 62
    7
 10
953.65631100000007
 20
506.92930550000005
 11
953.73773199999994
 21
506.80000250000001
  0
LINE
  8
_0-0_0
  6
CONTINUOUS
 62
    7
 10
953.65631100000007
 20
506.92930550000005
 11
953.5631709999999
 21
507.07072449999998
  0
CIRCLE
  8
_0-0_0
  6
CONTINUOUS
 62
    7
 10
946.92889400000001
 20
502.60002150000003
 40
7.5
  0
LINE
  8
_0-0_0
  6
CONTINUOUS
 62
    7
 10
954.92645299999992
 20
502.40000950000001
 11
955.92889400000001
 21
502.40000950000001
  0
LINE
  8
_0-0_0
  6
CONTINUOUS
 62
    7
 10
954.92889400000001
 20
502.60002150000003
 11
955.92889400000001
 21
502.60002150000003
  0
LINE
  8
_0-0_0
  6
CONTINUOUS
 62
    7
 10
954.8781130000001
 20
501.70002750000003
 11
955.92889400000001
 21
501.70002750000003
  0
LINE
  8
_0-0_0
  6
CONTINUOUS
 62
    7
 10
954.85296600000004
 20
501.50001550000002
 11
955.92889400000001
 21
501.50001550000002
  0
LINE
  8
_0-0_0
  6
CONTINUOUS
 62
    7
 10
954.82257100000004
 20
501.30000250000001
 11
955.92889400000001
 21
501.30000250000001
  0
LINE
  8
_0-0_0
  6
CONTINUOUS
 62
    7
 10
954.67486599999995
 20
500.60002150000003
 11
955.92889400000001
 21
500.60002150000003
  0
LINE
  8
_0-0_0
  6
CONTINUOUS
 62
    7
 10
954.62042200000008
 20
500.40000950000001
 11
955.92889400000001
 21
500.40000950000001
  0
LINE
  8
_0-0_0
  6
CONTINUOUS
 62
    7
 10
954.56048599999997
 20
500.20002750000003
 11
955.92889400000001
 21
500.20002750000003
  0
LINE
  8
_0-0_0
  6
CONTINUOUS
 62
    7
 10
954.30389400000001
 20
499.50001550000002
 11
955.92889400000001
 21
499.50001550000002
  0
LINE
  8
_0-0_0
  6
CONTINUOUS
 62
    7
 10
954.21661400000005
 20
499.30000250000001
 11
955.92889400000001
 21
499.30000250000001
  0
LINE
  8
_0-0_0
  6
CONTINUOUS
 62
    7
 10
954.12261999999998
 20
499.10002150000003
 11
955.92889400000001
 21
499.10002150000003
  0
LINE
  8
_0-0_0
  6
CONTINUOUS
 62
    7
 10
953.73773199999994
 20
498.40000950000001
 11
955.92889400000001
 21
498.40000950000001
  0
LINE
  8
_0-0_0
  6
CONTINUOUS
 62
    7
 10
953.73773199999994
 20
506.80000250000001
 11
955.92889400000001
 21
506.80000250000001
  0
LINE
  8
_0-0_0
  6
CONTINUOUS
 62
    7
 10
954.12261999999998
 20
506.10002150000003
 11
955.92889400000001
 21
506.10002150000003
  0
LINE
  8
_0-0_0
  6
CONTINUOUS
 62
    7
 10
954.21661400000005
 20
505.90000950000001
 11
955.92889400000001
 21
505.90000950000001
  0
LINE
  8
_0-0_0
  6
CONTINUOUS
 62
    7
 10
954.30389400000001
 20
505.70002750000003
 11
955.92889400000001
 21
505.70002750000003
  0
LINE
  8
_0-0_0
  6
CONTINUOUS
 62
    7
 10
954.56048599999997
 20
505.00001550000002
 11
955.92889400000001
 21
505.00001550000002
  0
LINE
  8
_0-0_0
  6
CONTINUOUS
 62
    7
 10
954.62042200000008
 20
504.80000250000001
 11
955.92889400000001
 21
504.80000250000001
  0
LINE
  8
_0-0_0
  6
CONTINUOUS
 62
    7
 10
954.67486599999995
 20
504.60002150000003
 11
955.92889400000001
 21
504.60002150000003
  0
LINE
  8
_0-0_0
  6
CONTINUOUS
 62
    7
 10
954.82257100000004
 20
503.90000950000001
 11
955.92889400000001
 21
503.90000950000001
  0
LINE
  8
_0-0_0
  6
CONTINUOUS
 62
    7
 10
954.85296600000004
 20
503.70002750000003
 11
955.92889400000001
 21
503.70002750000003
  0
LINE
  8
_0-0_0
  6
CONTINUOUS
 62
    7
 10
954.8781130000001
 20
503.50001550000002
 11
955.92889400000001
 21
503.50001550000002
  0
LINE
  8
_0-0_0
  6
CONTINUOUS
 62
    7
 10
954.92645299999992
 20
502.80000250000001
 11
955.92889400000001
 21
502.80000250000001
  0
LINE
  8
_0-0_0
  6
CONTINUOUS
 62
    7
 10
956.42889400000001
 20
486.10002150000003
 11
955.92889400000001
 21
486.10002150000003
  0
LINE
  8
_0-0_0
  6
CONTINUOUS
 62
    7
 10
956.42889400000001
 20
488.30000250000001
 11
955.92889400000001
 21
488.30000250000001
  0
LINE
  8
_0-0_0
  6
CONTINUOUS
 62
    7
 10
956.42889400000001
 20
490.60002150000003
 11
955.92889400000001
 21
490.60002150000003
  0
LINE
  8
_0-0_0
  6
CONTINUOUS
 62
    7
 10
102.92895499999997
 20
490.60002150000003
 11
102.42895499999997
 21
490.60002150000003
  0
LINE
  8
_0-0_0
  6
CONTINUOUS
 62
    7
 10
955.92889400000001
 20
492.90000950000001
 11
956.42889400000001
 21
492.90000950000001
  0
LINE
  8
_0-0_0
  6
CONTINUOUS
 62
    7
 10
956.42889400000001
 20
513.10002150000003
 11
956.42889400000001
 21
513.00001550000002
  0
LINE
  8
_0-0_0
  6
CONTINUOUS
 62
    7
 10
102.42895499999997
 20
513.10002150000003
 11
102.42895499999997
 21
513.00001550000002
  0
LINE
  8
_0-0_0
  6
CONTINUOUS
 62
    7
 10
102.42895499999997
 20
492.90000950000001
 11
102.92895499999997
 21
492.90000950000001
  0
LINE
  8
_0-0_0
  6
CONTINUOUS
 62
    7
 10
102.92895499999997
 20
512.80000250000001
 11
955.92889400000001
 21
512.80000250000001
  0
LINE
  8
_0-0_0
  6
CONTINUOUS
 62
    7
 10
102.92895499999997
 20
512.20603949999997
 11
955.92889400000001
 21
512.20603949999997
  0
LINE
  8
_0-0_0
  6
CONTINUOUS
 62
    7
 10
953.47418200000004
 20
507.20002750000003
 11
955.92889400000001
 21
507.20002750000003
  0
LINE
  8
_0-0_0
  6
CONTINUOUS
 62
    7
 10
102.92895499999997
 20
507.20002750000003
 11
105.38372800000002
 21
507.20002750000003
  0
ARC
  8
_0-0_0
  6
CONTINUOUS
 62
    7
 10
111.92895499999997
 20
502.60002150000003
 40
8
 50
35.099632
 51
144.900373
  0
LINE
  8
_0-0_0
  6
CONTINUOUS
 62
    7
 10
118.47418199999998
 20
507.20002750000003
 11
940.38372799999991
 21
507.20002750000003
  0
LINE
  8
_0-0_0
  6
CONTINUOUS
 62
    7
 10
102.42895499999997
 20
486.10002150000003
 11
102.92895499999997
 21
486.10002150000003
  0
LINE
  8
_0-0_0
  6
CONTINUOUS
 62
    7
 10
102.92895499999997
 20
488.30000250000001
 11
102.42895499999997
 21
488.30000250000001
  0
LINE
  8
_0-0_0
  6
CONTINUOUS
 62
    7
 10
105.38372800000002
 20
507.20002750000003
 11
105.29475400000001
 21
507.07072449999998
  0
LINE
  8
_0-0_0
  6
CONTINUOUS
 62
    7
 10
105.20161399999995
 20
506.92930550000005
 11
105.29475400000001
 21
507.07072449999998
  0
LINE
  8
_0-0_0
  6
CONTINUOUS
 62
    7
 10
102.92895499999997
 20
506.80000250000001
 11
105.12014799999997
 21
506.80000250000001
  0
LINE
  8
_0-0_0
  6
CONTINUOUS
 62
    7
 10
105.20161399999995
 20
506.92930550000005
 11
105.12014799999997
 21
506.80000250000001
  0
ARC
  8
_0-0_0
  6
CONTINUOUS
 62
    7
 10
111.92895499999997
 20
502.60002150000003
 40
8
 50
148.33176499999999
 51
154.05551800000001
  0
LINE
  8
_0-0_0
  6
CONTINUOUS
 62
    7
 10
102.92895499999997
 20
506.10002150000003
 11
104.73521399999998
 21
506.10002150000003
  0
LINE
  8
_0-0_0
  6
CONTINUOUS
 62
    7
 10
104.73521399999998
 20
506.10002150000003
 11
104.67373699999996
 21
505.97071849999998
  0
LINE
  8
_0-0_0
  6
CONTINUOUS
 62
    7
 10
104.60969499999999
 20
505.82929950000005
 11
104.67373699999996
 21
505.97071849999998
  0
LINE
  8
_0-0_0
  6
CONTINUOUS
 62
    7
 10
102.92895499999997
 20
505.70002750000003
 11
104.55401599999999
 21
505.70002750000003
  0
LINE
  8
_0-0_0
  6
CONTINUOUS
 62
    7
 10
104.60969499999999
 20
505.82929950000005
 11
104.55401599999999
 21
505.70002750000003
  0
ARC
  8
_0-0_0
  6
CONTINUOUS
 62
    7
 10
111.92895499999997
 20
502.60002150000003
 40
8
 50
157.20097000000001
 51
162.54239699999999
  0
LINE
  8
_0-0_0
  6
CONTINUOUS
 62
    7
 10
102.92895499999997
 20
505.00001550000002
 11
104.29745500000001
 21
505.00001550000002
  0
LINE
  8
_0-0_0
  6
CONTINUOUS
 62
    7
 10
104.29745500000001
 20
505.00001550000002
 11
104.25799599999999
 21
504.87074250000001
  0
LINE
  8
_0-0_0
  6
CONTINUOUS
 62
    7
 10
104.21752900000001
 20
504.72929350000004
 11
104.25799599999999
 21
504.87074250000001
  0
LINE
  8
_0-0_0
  6
CONTINUOUS
 62
    7
 10
102.92895499999997
 20
504.60002150000003
 11
104.182999
 21
504.60002150000003
  0
LINE
  8
_0-0_0
  6
CONTINUOUS
 62
    7
 10
104.21752900000001
 20
504.72929350000004
 11
104.182999
 21
504.60002150000003
  0
ARC
  8
_0-0_0
  6
CONTINUOUS
 62
    7
 10
111.92895499999997
 20
502.60002150000003
 40
8
 50
165.52249
 51
170.64796000000001
  0
LINE
  8
_0-0_0
  6
CONTINUOUS
 62
    7
 10
102.92895499999997
 20
503.90000950000001
 11
104.03529400000002
 21
503.90000950000001
  0
LINE
  8
_0-0_0
  6
CONTINUOUS
 62
    7
 10
104.03529400000002
 20
503.90000950000001
 11
104.01507600000002
 21
503.7707365
  0
LINE
  8
_0-0_0
  6
CONTINUOUS
 62
    7
 10
103.995453
 20
503.62931849999995
 11
104.01507600000002
 21
503.7707365
  0
LINE
  8
_0-0_0
  6
CONTINUOUS
 62
    7
 10
102.92895499999997
 20
503.50001550000002
 11
103.97975199999996
 21
503.50001550000002
  0
LINE
  8
_0-0_0
  6
CONTINUOUS
 62
    7
 10
103.995453
 20
503.62931849999995
 11
103.97975199999996
 21
503.50001550000002
  0
ARC
  8
_0-0_0
  6
CONTINUOUS
 62
    7
 10
111.92895499999997
 20
502.60002150000003
 40
8
 50
173.54054500000001
 51
178.567455
  0
LINE
  8
_0-0_0
  6
CONTINUOUS
 62
    7
 10
102.92895499999997
 20
502.80000250000001
 11
103.93145800000002
 21
502.80000250000001
  0
LINE
  8
_0-0_0
  6
CONTINUOUS
 62
    7
 10
103.93145800000002
 20
502.80000250000001
 11
103.92927599999996
 21
502.67073049999999
  0
LINE
  8
_0-0_0
  6
CONTINUOUS
 62
    7
 10
103.92895499999997
 20
502.60002150000003
 11
103.92927599999996
 21
502.67073049999999
  0
LINE
  8
_0-0_0
  6
CONTINUOUS
 62
    7
 10
102.92895499999997
 20
502.40000950000001
 11
103.93145800000002
 21
502.40000950000001
  0
LINE
  8
_0-0_0
  6
CONTINUOUS
 62
    7
 10
102.92895499999997
 20
501.70002750000003
 11
103.97975199999996
 21
501.70002750000003
  0
LINE
  8
_0-0_0
  6
CONTINUOUS
 62
    7
 10
102.92895499999997
 20
501.30000250000001
 11
104.03529400000002
 21
501.30000250000001
  0
LINE
  8
_0-0_0
  6
CONTINUOUS
 62
    7
 10
102.92895499999997
 20
500.60002150000003
 11
104.182999
 21
500.60002150000003
  0
LINE
  8
_0-0_0
  6
CONTINUOUS
 62
    7
 10
102.92895499999997
 20
500.20002750000003
 11
104.29745500000001
 21
500.20002750000003
  0
LINE
  8
_0-0_0
  6
CONTINUOUS
 62
    7
 10
102.92895499999997
 20
499.50001550000002
 11
104.55401599999999
 21
499.50001550000002
  0
LINE
  8
_0-0_0
  6
CONTINUOUS
 62
    7
 10
102.92895499999997
 20
499.10002150000003
 11
104.73521399999998
 21
499.10002150000003
  0
LINE
  8
_0-0_0
  6
CONTINUOUS
 62
    7
 10
102.92895499999997
 20
498.40000950000001
 11
105.12014799999997
 21
498.40000950000001
  0
LINE
  8
_0-0_0
  6
CONTINUOUS
 62
    7
 10
119.926468
 20
502.80000250000001
 11
119.92896999999999
 21
502.60002150000003
  0
ARC
  8
_0-0_0
  6
CONTINUOUS
 62
    7
 10
111.92895499999997
 20
502.60002150000003
 40
8
 50
1.432544
 51
6.4594489999999993
  0
LINE
  8
_0-0_0
  6
CONTINUOUS
 62
    7
 10
119.852982
 20
503.70002750000003
 11
119.87817399999994
 21
503.50001550000002
  0
LINE
  8
_0-0_0
  6
CONTINUOUS
 62
    7
 10
119.822632
 20
503.90000950000001
 11
119.852982
 21
503.70002750000003
  0
ARC
  8
_0-0_0
  6
CONTINUOUS
 62
    7
 10
111.92895499999997
 20
502.60002150000003
 40
8
 50
9.3520350000000008
 51
14.477510999999998
  0
LINE
  8
_0-0_0
  6
CONTINUOUS
 62
    7
 10
119.62051399999996
 20
504.80000250000001
 11
119.67492700000003
 21
504.60002150000003
  0
LINE
  8
_0-0_0
  6
CONTINUOUS
 62
    7
 10
119.56048599999997
 20
505.00001550000002
 11
119.62051399999996
 21
504.80000250000001
  0
ARC
  8
_0-0_0
  6
CONTINUOUS
 62
    7
 10
111.92895499999997
 20
502.60002150000003
 40
8
 50
17.457602999999999
 51
22.799030999999999
  0
LINE
  8
_0-0_0
  6
CONTINUOUS
 62
    7
 10
119.21661399999999
 20
505.90000950000001
 11
119.30392499999999
 21
505.70002750000003
  0
LINE
  8
_0-0_0
  6
CONTINUOUS
 62
    7
 10
119.12271099999998
 20
506.10002150000003
 11
119.21661399999999
 21
505.90000950000001
  0
ARC
  8
_0-0_0
  6
CONTINUOUS
 62
    7
 10
111.92895499999997
 20
502.60002150000003
 40
8
 50
25.944476999999999
 51
31.668240000000001
  0
LINE
  8
_0-0_0
  6
CONTINUOUS
 62
    7
 10
118.65631099999996
 20
506.92930550000005
 11
118.73777799999999
 21
506.80000250000001
  0
LINE
  8
_0-0_0
  6
CONTINUOUS
 62
    7
 10
118.65631099999996
 20
506.92930550000005
 11
118.56317100000001
 21
507.07072449999998
  0
LINE
  8
_0-0_0
  6
CONTINUOUS
 62
    7
 10
118.47418199999998
 20
507.20002750000003
 11
118.56317100000001
 21
507.07072449999998
  0
CIRCLE
  8
_0-0_0
  6
CONTINUOUS
 62
    7
 10
111.92895499999997
 20
502.60002150000003
 40
7.5
  0
LINE
  8
_0-0_0
  6
CONTINUOUS
 62
    7
 10
119.926468
 20
502.80000250000001
 11
938.93145799999991
 21
502.80000250000001
  0
LINE
  8
_0-0_0
  6
CONTINUOUS
 62
    7
 10
119.87817399999994
 20
503.50001550000002
 11
938.97967499999993
 21
503.50001550000002
  0
LINE
  8
_0-0_0
  6
CONTINUOUS
 62
    7
 10
119.852982
 20
503.70002750000003
 11
939.00494399999991
 21
503.70002750000003
  0
LINE
  8
_0-0_0
  6
CONTINUOUS
 62
    7
 10
119.822632
 20
503.90000950000001
 11
939.03521699999999
 21
503.90000950000001
  0
LINE
  8
_0-0_0
  6
CONTINUOUS
 62
    7
 10
119.67492700000003
 20
504.60002150000003
 11
939.18292200000008
 21
504.60002150000003
  0
LINE
  8
_0-0_0
  6
CONTINUOUS
 62
    7
 10
119.62051399999996
 20
504.80000250000001
 11
939.23736599999995
 21
504.80000250000001
  0
LINE
  8
_0-0_0
  6
CONTINUOUS
 62
    7
 10
119.56048599999997
 20
505.00001550000002
 11
939.29742399999998
 21
505.00001550000002
  0
LINE
  8
_0-0_0
  6
CONTINUOUS
 62
    7
 10
119.30392499999999
 20
505.70002750000003
 11
939.55401599999993
 21
505.70002750000003
  0
LINE
  8
_0-0_0
  6
CONTINUOUS
 62
    7
 10
119.21661399999999
 20
505.90000950000001
 11
939.6412959999999
 21
505.90000950000001
  0
LINE
  8
_0-0_0
  6
CONTINUOUS
 62
    7
 10
119.12271099999998
 20
506.10002150000003
 11
939.73516899999993
 21
506.10002150000003
  0
LINE
  8
_0-0_0
  6
CONTINUOUS
 62
    7
 10
118.73777799999999
 20
506.80000250000001
 11
940.12005600000009
 21
506.80000250000001
  0
LINE
  8
_0-0_0
  6
CONTINUOUS
 62
    7
 10
956.42889400000001
 20
484.60002150000003
 11
955.92889400000001
 21
484.60002150000003
  0
LINE
  8
_0-0_0
  6
CONTINUOUS
 62
    7
 10
956.42889400000001
 20
512.20002750000003
 11
956.42889400000001
 21
513.00001550000002
  0
LINE
  8
_0-0_0
  6
CONTINUOUS
 62
    7
 10
956.42889400000001
 20
484.40000950000001
 11
956.42889400000001
 21
512.20002750000003
  0
ARC
  8
_0-0_0
  6
CONTINUOUS
 62
    7
 10
946.92889400000001
 20
503.30000250000001
 40
12.800000000000001
 50
73.932597000000001
 51
106.06740099999999
  0
LINE
  8
_0-0_0
  6
CONTINUOUS
 62
    7
 10
102.42895499999997
 20
512.20002750000003
 11
102.42895499999997
 21
513.00001550000002
  0
LINE
  8
_0-0_0
  6
CONTINUOUS
 62
    7
 10
102.42895499999997
 20
484.40000950000001
 11
102.42895499999997
 21
512.20002750000003
  0
ARC
  8
_0-0_0
  6
CONTINUOUS
 62
    7
 10
111.92895499999997
 20
503.30000250000001
 40
12.800000000000001
 50
73.932597000000001
 51
106.06740099999999
  0
LINE
  8
_0-0_0
  6
CONTINUOUS
 62
    7
 10
519.92895499999997
 20
515.59999049999999
 11
519.92895499999997
 21
521.23991350000006
  0
LINE
  8
_0-0_0
  6
CONTINUOUS
 62
    7
 10
538.92895499999997
 20
521.23991350000006
 11
538.92895499999997
 21
515.59999049999999
  0
LINE
  8
_0-0_0
  6
CONTINUOUS
 62
    7
 10
956.42889400000001
 20
513.10002150000003
 11
956.42889400000001
 21
515.60002150000003
  0
LINE
  8
_0-0_0
  6
CONTINUOUS
 62
    7
 10
102.42895499999997
 20
515.60002150000003
 11
956.42889400000001
 21
515.60002150000003
  0
LINE
  8
_0-0_0
  6
CONTINUOUS
 62
    7
 10
102.42895499999997
 20
513.10002150000003
 11
102.42895499999997
 21
515.60002150000003
  0
LINE
  8
_0-0_0
  6
CONTINUOUS
 62
    7
 10
102.42895499999997
 20
484.60002150000003
 11
102.92895499999997
 21
484.60002150000003
  0
ARC
  8
_0-0_0
  6
CONTINUOUS
 62
    7
 10
894.72894299999996
 20
489.50001550000002
 40
0.2
 50
339.62356199999999
 51
90.000002999999978
  0
LINE
  8
_0-0_0
  6
CONTINUOUS
 62
    7
 10
894.91644299999996
 20
489.43037449999997
 11
893.61645499999997
 21
485.93037449999997
  0
ARC
  8
_0-0_0
  6
CONTINUOUS
 62
    7
 10
893.42895499999997
 20
486.00001550000002
 40
0.2
 50
200.37643
 51
339.62356199999999
  0
LINE
  8
_0-0_0
  6
CONTINUOUS
 62
    7
 10
891.94146699999999
 20
489.43037449999997
 11
893.24145499999997
 21
485.93037449999997
  0
ARC
  8
_0-0_0
  6
CONTINUOUS
 62
    7
 10
892.12896699999999
 20
489.50001550000002
 40
0.2
 50
90.000003000000007
 51
200.37643
  0
LINE
  8
_0-0_0
  6
CONTINUOUS
 62
    7
 10
892.12896699999999
 20
489.70002750000003
 11
894.72894299999996
 21
489.70002750000003
  0
ARC
  8
_0-0_0
  6
CONTINUOUS
 62
    7
 10
174.72894299999996
 20
489.50001550000002
 40
0.2
 50
339.62356199999999
 51
90.000002999999978
  0
LINE
  8
_0-0_0
  6
CONTINUOUS
 62
    7
 10
174.91644299999996
 20
489.43037449999997
 11
173.61645499999997
 21
485.93037449999997
  0
ARC
  8
_0-0_0
  6
CONTINUOUS
 62
    7
 10
173.42895499999997
 20
486.00001550000002
 40
0.2
 50
200.37643
 51
339.62356199999999
  0
LINE
  8
_0-0_0
  6
CONTINUOUS
 62
    7
 10
171.94146699999999
 20
489.43037449999997
 11
173.24145499999997
 21
485.93037449999997
  0
ARC
  8
_0-0_0
  6
CONTINUOUS
 62
    7
 10
172.12896699999999
 20
489.50001550000002
 40
0.2
 50
90.000003000000007
 51
200.37643
  0
LINE
  8
_0-0_0
  6
CONTINUOUS
 62
    7
 10
172.12896699999999
 20
489.70002750000003
 11
174.72894299999996
 21
489.70002750000003
  0
LINE
  8
_0-0_0
  6
CONTINUOUS
 62
    7
 10
957.42889400000001
 20
512.20002750000003
 11
956.42889400000001
 21
512.20002750000003
  0
LINE
  8
_0-0_0
  6
CONTINUOUS
 62
    7
 10
957.42889400000001
 20
513.23701449999999
 11
956.42889400000001
 21
513.23701449999999
  0
LINE
  8
_0-0_0
  6
CONTINUOUS
 62
    7
 10
957.42889400000001
 20
484.40000950000001
 11
956.42889400000001
 21
484.40000950000001
  0
ARC
  8
_0-0_0
  6
CONTINUOUS
 62
    7
 10
529.42895499999997
 20
503.30000250000001
 40
20.299999
 50
62.096725999999997
 51
117.903272
  0
CIRCLE
  8
_0-0_0
  6
CONTINUOUS
 62
    7
 10
529.42895499999997
 20
519.60002150000003
 40
2.5
  0
LINE
  8
_0-0_0
  6
CONTINUOUS
 62
    7
 10
101.42895499999997
 20
512.20002750000003
 11
102.42895499999997
 21
512.20002750000003
  0
LINE
  8
_0-0_0
  6
CONTINUOUS
 62
    7
 10
101.42895499999997
 20
513.20002750000003
 11
102.42895499999997
 21
513.20002750000003
  0
LINE
  8
_0-0_0
  6
CONTINUOUS
 62
    7
 10
101.42895499999997
 20
484.40000950000001
 11
102.42895499999997
 21
484.40000950000001
  0
LINE
  8
_0-0_0
  6
CONTINUOUS
 62
    7
 10
957.42889400000001
 20
515.40000950000001
 11
956.42889400000001
 21
515.40000950000001
  0
LINE
  8
_0-0_0
  6
CONTINUOUS
 62
    7
 10
101.42895499999997
 20
515.40000950000001
 11
102.42895499999997
 21
515.40000950000001
  0
LINE
  8
_0-0_0
  6
CONTINUOUS
 62
    7
 10
958.42889400000001
 20
511.78581250000002
 11
958.42791799999998
 21
511.80430550000005
  0
LINE
  8
_0-0_0
  6
CONTINUOUS
 62
    7
 10
958.42791799999998
 20
511.80430550000005
 11
958.4249880000001
 21
511.82273850000001
  0
LINE
  8
_0-0_0
  6
CONTINUOUS
 62
    7
 10
958.4249880000001
 20
511.82273850000001
 11
958.41973900000005
 21
511.84187350000002
  0
LINE
  8
_0-0_0
  6
CONTINUOUS
 62
    7
 10
958.41973900000005
 20
511.84187350000002
 11
958.41229299999998
 21
511.86091650000003
  0
LINE
  8
_0-0_0
  6
CONTINUOUS
 62
    7
 10
958.41229299999998
 20
511.86091650000003
 11
958.39178499999991
 21
511.8976285
  0
LINE
  8
_0-0_0
  6
CONTINUOUS
 62
    7
 10
958.39178499999991
 20
511.8976285
 11
958.36334199999999
 21
511.93330349999997
  0
LINE
  8
_0-0_0
  6
CONTINUOUS
 62
    7
 10
958.36334199999999
 20
511.93330349999997
 11
958.32745399999988
 21
511.96757449999996
  0
LINE
  8
_0-0_0
  6
CONTINUOUS
 62
    7
 10
958.32745399999988
 20
511.96757449999996
 11
958.27886999999998
 21
512.00404349999997
  0
LINE
  8
_0-0_0
  6
CONTINUOUS
 62
    7
 10
958.27886999999998
 20
512.00404349999997
 11
958.22210699999994
 21
512.0380705
  0
LINE
  8
_0-0_0
  6
CONTINUOUS
 62
    7
 10
958.22210699999994
 20
512.0380705
 11
958.15789800000005
 21
512.0693205
  0
LINE
  8
_0-0_0
  6
CONTINUOUS
 62
    7
 10
958.15789800000005
 20
512.0693205
 11
958.08734100000004
 21
512.09754950000001
  0
LINE
  8
_0-0_0
  6
CONTINUOUS
 62
    7
 10
958.08734100000004
 20
512.09754950000001
 11
958.03924599999993
 21
512.11390649999998
  0
LINE
  8
_0-0_0
  6
CONTINUOUS
 62
    7
 10
958.03924599999993
 20
512.11390649999998
 11
957.98907500000007
 21
512.12892150000005
  0
LINE
  8
_0-0_0
  6
CONTINUOUS
 62
    7
 10
957.98907500000007
 20
512.12892150000005
 11
957.93231200000002
 21
512.14369150000005
  0
LINE
  8
_0-0_0
  6
CONTINUOUS
 62
    7
 10
957.93231200000002
 20
512.14369150000005
 11
957.87371799999994
 21
512.15678349999996
  0
LINE
  8
_0-0_0
  6
CONTINUOUS
 62
    7
 10
957.87371799999994
 20
512.15678349999996
 11
957.75701900000001
 21
512.17707849999999
  0
LINE
  8
_0-0_0
  6
CONTINUOUS
 62
    7
 10
957.75701900000001
 20
512.17707849999999
 11
957.64959699999997
 21
512.18980350000004
  0
LINE
  8
_0-0_0
  6
CONTINUOUS
 62
    7
 10
957.64959699999997
 20
512.18980350000004
 11
957.53985599999999
 21
512.19746350000003
  0
LINE
  8
_0-0_0
  6
CONTINUOUS
 62
    7
 10
957.53985599999999
 20
512.19746350000003
 11
957.42889400000001
 21
512.20002750000003
  0
LINE
  8
_0-0_0
  6
CONTINUOUS
 62
    7
 10
958.42889400000001
 20
511.78581250000002
 11
958.42889400000001
 21
512.78587349999998
  0
LINE
  8
_0-0_0
  6
CONTINUOUS
 62
    7
 10
958.42889400000001
 20
512.78587349999998
 11
958.42596399999991
 21
512.81742850000001
  0
LINE
  8
_0-0_0
  6
CONTINUOUS
 62
    7
 10
958.42596399999991
 20
512.81742850000001
 11
958.41729700000008
 21
512.84950249999997
  0
LINE
  8
_0-0_0
  6
CONTINUOUS
 62
    7
 10
958.41729700000008
 20
512.84950249999997
 11
958.40277099999992
 21
512.88179049999997
  0
LINE
  8
_0-0_0
  6
CONTINUOUS
 62
    7
 10
958.40277099999992
 20
512.88179049999997
 11
958.38250699999992
 21
512.91395550000004
  0
LINE
  8
_0-0_0
  6
CONTINUOUS
 62
    7
 10
958.38250699999992
 20
512.91395550000004
 11
958.36590599999988
 21
512.93516550000004
  0
LINE
  8
_0-0_0
  6
CONTINUOUS
 62
    7
 10
958.36590599999988
 20
512.93516550000004
 11
958.34698500000002
 21
512.95613049999997
  0
LINE
  8
_0-0_0
  6
CONTINUOUS
 62
    7
 10
958.34698500000002
 20
512.95613049999997
 11
958.30218499999989
 21
512.99690250000003
  0
LINE
  8
_0-0_0
  6
CONTINUOUS
 62
    7
 10
958.30218499999989
 20
512.99690250000003
 11
958.24896200000001
 21
513.03565949999995
  0
LINE
  8
_0-0_0
  6
CONTINUOUS
 62
    7
 10
958.24896200000001
 20
513.03565949999995
 11
958.19903600000009
 21
513.06587249999995
  0
LINE
  8
_0-0_0
  6
CONTINUOUS
 62
    7
 10
958.19903600000009
 20
513.06587249999995
 11
958.14434799999992
 21
513.09407050000004
  0
LINE
  8
_0-0_0
  6
CONTINUOUS
 62
    7
 10
958.14434799999992
 20
513.09407050000004
 11
958.08538800000008
 21
513.12013249999995
  0
LINE
  8
_0-0_0
  6
CONTINUOUS
 62
    7
 10
958.08538800000008
 20
513.12013249999995
 11
958.038635
 21
513.13810750000005
  0
LINE
  8
_0-0_0
  6
CONTINUOUS
 62
    7
 10
958.038635
 20
513.13810750000005
 11
957.98992899999996
 21
513.15470849999997
  0
LINE
  8
_0-0_0
  6
CONTINUOUS
 62
    7
 10
957.98992899999996
 20
513.15470849999997
 11
957.8875119999999
 21
513.18360849999999
  0
LINE
  8
_0-0_0
  6
CONTINUOUS
 62
    7
 10
957.8875119999999
 20
513.18360849999999
 11
957.77984600000002
 21
513.2064365
  0
LINE
  8
_0-0_0
  6
CONTINUOUS
 62
    7
 10
957.77984600000002
 20
513.2064365
 11
957.668274
 21
513.22300749999999
  0
LINE
  8
_0-0_0
  6
CONTINUOUS
 62
    7
 10
957.668274
 20
513.22300749999999
 11
957.55413800000008
 21
513.23319949999996
  0
LINE
  8
_0-0_0
  6
CONTINUOUS
 62
    7
 10
957.55413800000008
 20
513.23319949999996
 11
957.42889400000001
 21
513.23701449999999
  0
ARC
  8
_0-0_0
  6
CONTINUOUS
 62
    7
 10
957.42889400000001
 20
485.40000950000001
 40
1
 50
269.99999700000001
 51
0
  0
LINE
  8
_0-0_0
  6
CONTINUOUS
 62
    7
 10
958.42889400000001
 20
485.40000950000001
 11
958.42889400000001
 21
511.78581250000002
  0
CIRCLE
  8
_0-0_0
  6
CONTINUOUS
 62
    7
 10
946.92889400000001
 20
502.60002150000003
 40
5
  0
LINE
  8
_0-0_0
  6
CONTINUOUS
 62
    7
 10
100.42895499999997
 20
511.78581250000002
 11
100.42996199999999
 21
511.80430550000005
  0
LINE
  8
_0-0_0
  6
CONTINUOUS
 62
    7
 10
100.42996199999999
 20
511.80430550000005
 11
100.432953
 21
511.82273850000001
  0
LINE
  8
_0-0_0
  6
CONTINUOUS
 62
    7
 10
100.432953
 20
511.82273850000001
 11
100.43820199999999
 21
511.84187350000002
  0
LINE
  8
_0-0_0
  6
CONTINUOUS
 62
    7
 10
100.43820199999999
 20
511.84187350000002
 11
100.44557199999997
 21
511.86091650000003
  0
LINE
  8
_0-0_0
  6
CONTINUOUS
 62
    7
 10
100.44557199999997
 20
511.86091650000003
 11
100.46612599999997
 21
511.8976285
  0
LINE
  8
_0-0_0
  6
CONTINUOUS
 62
    7
 10
100.46612599999997
 20
511.8976285
 11
100.49452199999996
 21
511.93330349999997
  0
LINE
  8
_0-0_0
  6
CONTINUOUS
 62
    7
 10
100.49452199999996
 20
511.93330349999997
 11
100.530396
 21
511.96757449999996
  0
LINE
  8
_0-0_0
  6
CONTINUOUS
 62
    7
 10
100.530396
 20
511.96757449999996
 11
100.579025
 21
512.00404349999997
  0
LINE
  8
_0-0_0
  6
CONTINUOUS
 62
    7
 10
100.579025
 20
512.00404349999997
 11
100.63580300000001
 21
512.0380705
  0
LINE
  8
_0-0_0
  6
CONTINUOUS
 62
    7
 10
100.63580300000001
 20
512.0380705
 11
100.699951
 21
512.0693205
  0
LINE
  8
_0-0_0
  6
CONTINUOUS
 62
    7
 10
100.699951
 20
512.0693205
 11
100.77059899999995
 21
512.09754950000001
  0
LINE
  8
_0-0_0
  6
CONTINUOUS
 62
    7
 10
100.77059899999995
 20
512.09754950000001
 11
100.81867999999997
 21
512.11390649999998
  0
LINE
  8
_0-0_0
  6
CONTINUOUS
 62
    7
 10
100.81867999999997
 20
512.11390649999998
 11
100.86882000000003
 21
512.12892150000005
  0
LINE
  8
_0-0_0
  6
CONTINUOUS
 62
    7
 10
100.86882000000003
 20
512.12892150000005
 11
100.925522
 21
512.14369150000005
  0
LINE
  8
_0-0_0
  6
CONTINUOUS
 62
    7
 10
100.925522
 20
512.14369150000005
 11
100.98413099999999
 21
512.15678349999996
  0
LINE
  8
_0-0_0
  6
CONTINUOUS
 62
    7
 10
100.98413099999999
 20
512.15678349999996
 11
101.10090600000001
 21
512.17707849999999
  0
LINE
  8
_0-0_0
  6
CONTINUOUS
 62
    7
 10
101.10090600000001
 20
512.17707849999999
 11
101.20831299999998
 21
512.18980350000004
  0
LINE
  8
_0-0_0
  6
CONTINUOUS
 62
    7
 10
101.20831299999998
 20
512.18980350000004
 11
101.318085
 21
512.19746350000003
  0
LINE
  8
_0-0_0
  6
CONTINUOUS
 62
    7
 10
101.318085
 20
512.19746350000003
 11
101.42895499999997
 21
512.20002750000003
  0
LINE
  8
_0-0_0
  6
CONTINUOUS
 62
    7
 10
100.42895499999997
 20
512.75547749999998
 11
100.43185399999999
 21
512.7863615
  0
LINE
  8
_0-0_0
  6
CONTINUOUS
 62
    7
 10
100.43185399999999
 20
512.7863615
 11
100.44055200000003
 21
512.81782550000003
  0
LINE
  8
_0-0_0
  6
CONTINUOUS
 62
    7
 10
100.44055200000003
 20
512.81782550000003
 11
100.45503199999996
 21
512.84947150000005
  0
LINE
  8
_0-0_0
  6
CONTINUOUS
 62
    7
 10
100.45503199999996
 20
512.84947150000005
 11
100.47520499999996
 21
512.8810575
  0
LINE
  8
_0-0_0
  6
CONTINUOUS
 62
    7
 10
100.47520499999996
 20
512.8810575
 11
100.49172999999996
 21
512.90193150000005
  0
LINE
  8
_0-0_0
  6
CONTINUOUS
 62
    7
 10
100.49172999999996
 20
512.90193150000005
 11
100.51062000000002
 21
512.92256150000003
  0
LINE
  8
_0-0_0
  6
CONTINUOUS
 62
    7
 10
100.51062000000002
 20
512.92256150000003
 11
100.55526699999996
 21
512.96272250000004
  0
LINE
  8
_0-0_0
  6
CONTINUOUS
 62
    7
 10
100.55526699999996
 20
512.96272250000004
 11
100.60839799999997
 21
513.00090050000006
  0
LINE
  8
_0-0_0
  6
CONTINUOUS
 62
    7
 10
100.60839799999997
 20
513.00090050000006
 11
100.65829499999995
 21
513.03071550000004
  0
LINE
  8
_0-0_0
  6
CONTINUOUS
 62
    7
 10
100.65829499999995
 20
513.03071550000004
 11
100.71296699999999
 21
513.05860849999999
  0
LINE
  8
_0-0_0
  6
CONTINUOUS
 62
    7
 10
100.71296699999999
 20
513.05860849999999
 11
100.77194199999997
 21
513.08433549999995
  0
LINE
  8
_0-0_0
  6
CONTINUOUS
 62
    7
 10
100.77194199999997
 20
513.08433549999995
 11
100.81869499999999
 21
513.10212650000005
  0
LINE
  8
_0-0_0
  6
CONTINUOUS
 62
    7
 10
100.81869499999999
 20
513.10212650000005
 11
100.86740099999997
 21
513.11854549999998
  0
LINE
  8
_0-0_0
  6
CONTINUOUS
 62
    7
 10
100.86740099999997
 20
513.11854549999998
 11
100.96983299999999
 21
513.14714049999998
  0
LINE
  8
_0-0_0
  6
CONTINUOUS
 62
    7
 10
100.96983299999999
 20
513.14714049999998
 11
101.07765199999994
 21
513.16972350000003
  0
LINE
  8
_0-0_0
  6
CONTINUOUS
 62
    7
 10
101.07765199999994
 20
513.16972350000003
 11
101.18933099999998
 21
513.18614149999996
  0
LINE
  8
_0-0_0
  6
CONTINUOUS
 62
    7
 10
101.18933099999998
 20
513.18614149999996
 11
101.30349699999999
 21
513.19624350000004
  0
LINE
  8
_0-0_0
  6
CONTINUOUS
 62
    7
 10
101.30349699999999
 20
513.19624350000004
 11
101.42895499999997
 21
513.20002750000003
  0
LINE
  8
_0-0_0
  6
CONTINUOUS
 62
    7
 10
100.42895499999997
 20
511.78581250000002
 11
100.42895499999997
 21
512.75547749999998
  0
ARC
  8
_0-0_0
  6
CONTINUOUS
 62
    7
 10
101.42895499999997
 20
485.40000950000001
 40
1
 50
180.00000900000003
 51
269.99999700000001
  0
LINE
  8
_0-0_0
  6
CONTINUOUS
 62
    7
 10
100.42895499999997
 20
485.40000950000001
 11
100.42895499999997
 21
511.78581250000002
  0
CIRCLE
  8
_0-0_0
  6
CONTINUOUS
 62
    7
 10
111.92895499999997
 20
502.60002150000003
 40
5
  0
LINE
  8
_0-0_0
  6
CONTINUOUS
 62
    7
 10
958.42889400000001
 20
512.78587349999998
 11
958.42889400000001
 21
514.40000950000001
  0
ARC
  8
_0-0_0
  6
CONTINUOUS
 62
    7
 10
957.42889400000001
 20
514.40000950000001
 40
1
 50
0
 51
90.000003000000007
  0
ARC
  8
_0-0_0
  6
CONTINUOUS
 62
    7
 10
101.42895499999997
 20
514.40000950000001
 40
1
 50
90.000003000000007
 51
180.00000900000001
  0
LINE
  8
_0-0_0
  6
CONTINUOUS
 62
    7
 10
100.42895499999997
 20
512.75547749999998
 11
100.42895499999997
 21
514.40000950000001
  0
LINE
  8
_0-0_0
  6
CONTINUOUS
 62
    7
 10
12.613296999999989
 20
482.29994150000005
 11
12.613296999999989
 21
482.27494750000005
  0
LINE
  8
_0-0_0
  6
CONTINUOUS
 62
    7
 10
12.613296999999989
 20
479.2228235
 11
12.613296999999989
 21
479.32493550000004
  0
LINE
  8
_0-0_0
  6
CONTINUOUS
 62
    7
 10
12.613296999999989
 20
458.19993550000004
 11
12.613296999999989
 21
458.97706549999998
  0
LINE
  8
_0-0_0
  6
CONTINUOUS
 62
    7
 10
-4.1867060000000151
 20
458.19993550000004
 11
12.613296999999989
 21
458.19993550000004
  0
LINE
  8
_0-0_0
  6
CONTINUOUS
 62
    7
 10
-4.1867060000000151
 20
466.09992950000003
 11
-4.1867060000000151
 21
458.19993550000004
  0
LINE
  8
_0-0_0
  6
CONTINUOUS
 62
    7
 10
-4.1867060000000151
 20
478.55525150000005
 11
-4.1867060000000151
 21
472.09992950000003
  0
LINE
  8
_0-0_0
  6
CONTINUOUS
 62
    7
 10
13.113280999999972
 20
461.69993550000004
 11
13.313293999999985
 21
461.69993550000004
  0
LINE
  8
_0-0_0
  6
CONTINUOUS
 62
    7
 10
13.313293999999985
 20
461.69993550000004
 11
13.313293999999985
 21
464.69993550000004
  0
LINE
  8
_0-0_0
  6
CONTINUOUS
 62
    7
 10
13.313293999999985
 20
478.29994150000005
 11
13.313293999999985
 21
464.69993550000004
  0
LINE
  8
_0-0_0
  6
CONTINUOUS
 62
    7
 10
13.113280999999972
 20
481.29994150000005
 11
13.313293999999985
 21
481.29994150000005
  0
LINE
  8
_0-0_0
  6
CONTINUOUS
 62
    7
 10
13.313293999999985
 20
478.29994150000005
 11
13.313293999999985
 21
481.29994150000005
  0
LINE
  8
_0-0_0
  6
CONTINUOUS
 62
    7
 10
12.413299999999992
 20
480.59901449999995
 11
12.413299999999992
 21
479.41981450000003
  0
LINE
  8
_0-0_0
  6
CONTINUOUS
 62
    7
 10
12.413299999999992
 20
482.79994150000005
 11
12.413299999999992
 21
482.29994150000005
  0
LINE
  8
_0-0_0
  6
CONTINUOUS
 62
    7
 10
11.413299999999992
 20
479.88343750000001
 11
11.413299999999992
 21
480.59992950000003
  0
ARC
  8
_0-0_0
  6
CONTINUOUS
 62
    7
 10
11.113296999999989
 20
477.89994750000005
 40
2
 50
0
 51
90.000003000000007
  0
LINE
  8
_0-0_0
  6
CONTINUOUS
 62
    7
 10
13.113296999999989
 20
474.39994750000005
 11
13.113296999999989
 21
477.39994750000005
  0
LINE
  8
_0-0_0
  6
CONTINUOUS
 62
    7
 10
13.113296999999989
 20
477.39994750000005
 11
13.113296999999989
 21
477.89994750000005
  0
LINE
  8
_0-0_0
  6
CONTINUOUS
 62
    7
 10
13.113296999999989
 20
460.29994150000005
 11
13.113296999999989
 21
473.89994750000005
  0
LINE
  8
_0-0_0
  6
CONTINUOUS
 62
    7
 10
13.113296999999989
 20
474.39994750000005
 11
13.113296999999989
 21
473.89994750000005
  0
ARC
  8
_0-0_0
  6
CONTINUOUS
 62
    7
 10
11.113296999999989
 20
460.29994150000005
 40
2
 50
273.84026500000004
 51
0.000010000000014
  0
LINE
  8
_0-0_0
  6
CONTINUOUS
 62
    7
 10
-2.1867060000000151
 20
479.88343750000001
 11
-2.1867060000000151
 21
480.59992950000003
  0
LINE
  8
_0-0_0
  6
CONTINUOUS
 62
    7
 10
-2.1867060000000151
 20
479.88343750000001
 11
-2.1867060000000151
 21
479.87730350000004
  0
LINE
  8
_0-0_0
  6
CONTINUOUS
 62
    7
 10
-4.1867060000000151
 20
478.55525150000005
 11
-4.1867060000000151
 21
479.05525150000005
  0
LINE
  8
_0-0_0
  6
CONTINUOUS
 62
    7
 10
-3.8867109999999911
 20
477.89994750000005
 11
-3.8867109999999911
 21
464.29994150000005
  0
LINE
  8
_0-0_0
  6
CONTINUOUS
 62
    7
 10
-3.8867109999999911
 20
463.79994150000005
 11
-3.8867109999999911
 21
464.29994150000005
  0
LINE
  8
_0-0_0
  6
CONTINUOUS
 62
    7
 10
-3.8867109999999911
 20
460.79994150000005
 11
-3.8867109999999911
 21
463.79994150000005
  0
LINE
  8
_0-0_0
  6
CONTINUOUS
 62
    7
 10
-3.8867109999999911
 20
460.29994150000005
 11
-3.8867109999999911
 21
460.79994150000005
  0
ARC
  8
_0-0_0
  6
CONTINUOUS
 62
    7
 10
-1.8867109999999911
 20
477.89994750000005
 40
2
 50
93.840255999999997
 51
180.00000900000001
  0
LINE
  8
_0-0_0
  6
CONTINUOUS
 62
    7
 10
-4.1867060000000151
 20
466.09992950000003
 11
-4.1867060000000151
 21
472.09992950000003
  0
LINE
  8
_0-0_0
  6
CONTINUOUS
 62
    7
 10
-4.1867060000000151
 20
480.59992950000003
 11
-4.1867060000000151
 21
479.05525150000005
  0
LINE
  8
_0-0_0
  6
CONTINUOUS
 62
    7
 10
-4.1867060000000151
 20
472.09992950000003
 11
-3.8867190000000278
 21
472.09992950000003
  0
LINE
  8
_0-0_0
  6
CONTINUOUS
 62
    7
 10
-4.1867060000000151
 20
466.09992950000003
 11
-3.8867190000000278
 21
466.09992950000003
  0
LINE
  8
_0-0_0
  6
CONTINUOUS
 62
    7
 10
11.113296999999989
 20
458.29994150000005
 11
2.1132890000000089
 21
458.29994150000005
  0
LINE
  8
_0-0_0
  6
CONTINUOUS
 62
    7
 10
-1.3867109999999911
 20
458.29994150000005
 11
-1.8867109999999911
 21
458.29994150000005
  0
LINE
  8
_0-0_0
  6
CONTINUOUS
 62
    7
 10
1.6132890000000089
 20
458.29994150000005
 11
-1.3867109999999911
 21
458.29994150000005
  0
LINE
  8
_0-0_0
  6
CONTINUOUS
 62
    7
 10
2.1132890000000089
 20
458.29994150000005
 11
1.6132890000000089
 21
458.29994150000005
  0
ARC
  8
_0-0_0
  6
CONTINUOUS
 62
    7
 10
-1.8867109999999911
 20
460.29994150000005
 40
2
 50
180.00000900000003
 51
269.99999700000001
  0
ARC
  8
_0-0_0
  6
CONTINUOUS
 62
    7
 10
11.913299999999992
 20
482.79994150000005
 40
0.5
 50
0
 51
90.000003000000007
  0
LINE
  8
_0-0_0
  6
CONTINUOUS
 62
    7
 10
10.413291999999956
 20
483.29994150000005
 11
11.913299999999992
 21
483.29994150000005
  0
ARC
  8
_0-0_0
  6
CONTINUOUS
 62
    7
 10
10.413291999999956
 20
484.29994150000005
 40
1
 50
180.00000900000003
 51
269.99999700000001
  0
LINE
  8
_0-0_0
  6
CONTINUOUS
 62
    7
 10
9.4132919999999558
 20
484.29994150000005
 11
9.4132919999999558
 21
484.40003950000005
  0
LINE
  8
_0-0_0
  6
CONTINUOUS
 62
    7
 10
8.9132919999999558
 20
483.29994150000005
 11
8.9132919999999558
 21
484.40003950000005
  0
ARC
  8
_0-0_0
  6
CONTINUOUS
 62
    7
 10
9.9132919999999558
 20
483.29994150000005
 40
1
 50
180.00000900000003
 51
269.99999700000001
  0
LINE
  8
_0-0_0
  6
CONTINUOUS
 62
    7
 10
9.9132919999999558
 20
482.29994150000005
 11
9.7132869999999798
 21
482.29994150000005
  0
ARC
  8
_0-0_0
  6
CONTINUOUS
 62
    7
 10
9.7132869999999798
 20
483.29994150000005
 40
1
 50
180.00000900000003
 51
269.99999700000001
  0
ARC
  8
_0-0_0
  6
CONTINUOUS
 62
    7
 10
-0.4867100000000164
 20
483.29994150000005
 40
1
 50
269.99999700000001
 51
0
  0
LINE
  8
_0-0_0
  6
CONTINUOUS
 62
    7
 10
-0.4867100000000164
 20
482.29994150000005
 11
-1.1867060000000151
 21
482.29994150000005
  0
LINE
  8
_0-0_0
  6
CONTINUOUS
 62
    7
 10
12.613296999999989
 20
482.29994150000005
 11
12.413299999999992
 21
482.29994150000005
  0
LINE
  8
_0-0_0
  6
CONTINUOUS
 62
    7
 10
-4.1867060000000151
 20
480.59992950000003
 11
12.613296999999989
 21
480.59992950000003
  0
LINE
  8
_0-0_0
  6
CONTINUOUS
 62
    7
 10
12.613296999999989
 20
480.59992950000003
 11
12.613296999999989
 21
482.29994150000005
  0
LINE
  8
_0-0_0
  6
CONTINUOUS
 62
    7
 10
8.7132869999999798
 20
484.40003950000005
 11
8.7132869999999798
 21
483.29994150000005
  0
LINE
  8
_0-0_0
  6
CONTINUOUS
 62
    7
 10
0.5132899999999835
 20
483.29994150000005
 11
0.5132899999999835
 21
484.40003950000005
  0
LINE
  8
_0-0_0
  6
CONTINUOUS
 62
    7
 10
-3.1867060000000151
 20
482.29994150000005
 11
-4.1867060000000151
 21
482.29994150000005
  0
LINE
  8
_0-0_0
  6
CONTINUOUS
 62
    7
 10
-4.1867060000000151
 20
480.59992950000003
 11
-4.1867060000000151
 21
482.29994150000005
  0
LINE
  8
_0-0_0
  6
CONTINUOUS
 62
    7
 10
11.113296999999989
 20
479.89994750000005
 11
10.613296999999989
 21
479.89994750000005
  0
CIRCLE
  8
_0-0_0
  6
CONTINUOUS
 62
    7
 10
10.613296999999989
 20
477.39994750000005
 40
2.5
  0
LINE
  8
_0-0_0
  6
CONTINUOUS
 62
    7
 10
-1.8867109999999911
 20
479.89994750000005
 11
7.1132890000000089
 21
479.89994750000005
  0
LINE
  8
_0-0_0
  6
CONTINUOUS
 62
    7
 10
10.613296999999989
 20
479.89994750000005
 11
7.6132890000000089
 21
479.89994750000005
  0
LINE
  8
_0-0_0
  6
CONTINUOUS
 62
    7
 10
7.1132890000000089
 20
479.89994750000005
 11
7.6132890000000089
 21
479.89994750000005
  0
ARC
  8
_0-0_0
  6
CONTINUOUS
 62
    7
 10
12.613296999999989
 20
473.89994750000005
 40
0.5
 50
0
 51
90.000003000000007
  0
LINE
  8
_0-0_0
  6
CONTINUOUS
 62
    7
 10
11.113296999999989
 20
458.40257250000002
 11
11.129165999999998
 21
458.37532050000004
  0
LINE
  8
_0-0_0
  6
CONTINUOUS
 62
    7
 10
11.129165999999998
 20
458.37532050000004
 11
11.145019999999988
 21
458.35234049999997
  0
LINE
  8
_0-0_0
  6
CONTINUOUS
 62
    7
 10
11.145019999999988
 20
458.35234049999997
 11
11.158996999999999
 21
458.33558649999998
  0
LINE
  8
_0-0_0
  6
CONTINUOUS
 62
    7
 10
11.158996999999999
 20
458.33558649999998
 11
11.172896999999978
 21
458.3222505
  0
LINE
  8
_0-0_0
  6
CONTINUOUS
 62
    7
 10
11.172896999999978
 20
458.3222505
 11
11.185119999999984
 21
458.31333949999998
  0
LINE
  8
_0-0_0
  6
CONTINUOUS
 62
    7
 10
11.185119999999984
 20
458.31333949999998
 11
11.197234999999978
 21
458.30711350000001
  0
LINE
  8
_0-0_0
  6
CONTINUOUS
 62
    7
 10
11.197234999999978
 20
458.30711350000001
 11
11.208098999999947
 21
458.30384849999996
  0
LINE
  8
_0-0_0
  6
CONTINUOUS
 62
    7
 10
11.208098999999947
 20
458.30384849999996
 11
11.218856999999957
 21
458.30278050000004
  0
LINE
  8
_0-0_0
  6
CONTINUOUS
 62
    7
 10
11.218856999999957
 20
458.30278050000004
 11
11.221314000000007
 21
458.30287150000004
  0
LINE
  8
_0-0_0
  6
CONTINUOUS
 62
    7
 10
-3.1867060000000151
 20
479.41981450000003
 11
-3.1867060000000151
 21
480.59901449999995
  0
ARC
  8
_0-0_0
  6
CONTINUOUS
 62
    7
 10
-3.3867109999999911
 20
464.29994150000005
 40
0.5
 50
180.00000900000003
 51
269.99999700000001
  0
CIRCLE
  8
_0-0_0
  6
CONTINUOUS
 62
    7
 10
-1.3867109999999911
 20
460.79994150000005
 40
2.5
  0
LINE
  8
_0-0_0
  6
CONTINUOUS
 62
    7
 10
-1.8867109999999911
 20
479.79731749999996
 11
-1.902588000000037
 21
479.82456950000005
  0
LINE
  8
_0-0_0
  6
CONTINUOUS
 62
    7
 10
-1.902588000000037
 20
479.82456950000005
 11
-1.9184340000000475
 21
479.84754950000001
  0
LINE
  8
_0-0_0
  6
CONTINUOUS
 62
    7
 10
-1.9184340000000475
 20
479.84754950000001
 11
-1.9324110000000019
 21
479.86430350000001
  0
LINE
  8
_0-0_0
  6
CONTINUOUS
 62
    7
 10
-1.9324110000000019
 20
479.86430350000001
 11
-1.9463120000000345
 21
479.87763949999999
  0
LINE
  8
_0-0_0
  6
CONTINUOUS
 62
    7
 10
-1.9463120000000345
 20
479.87763949999999
 11
-1.9585270000000037
 21
479.8865505
  0
LINE
  8
_0-0_0
  6
CONTINUOUS
 62
    7
 10
-1.9585270000000037
 20
479.8865505
 11
-1.9706500000000347
 21
479.89277649999997
  0
LINE
  8
_0-0_0
  6
CONTINUOUS
 62
    7
 10
-1.9706500000000347
 20
479.89277649999997
 11
-1.9815140000000042
 21
479.89604150000002
  0
LINE
  8
_0-0_0
  6
CONTINUOUS
 62
    7
 10
-1.9815140000000042
 20
479.89604150000002
 11
-1.9922710000000166
 21
479.89710950000006
  0
LINE
  8
_0-0_0
  6
CONTINUOUS
 62
    7
 10
-1.9922710000000166
 20
479.89710950000006
 11
-1.994735999999989
 21
479.89701850000006
  0
LINE
  8
_0-0_0
  6
CONTINUOUS
 62
    7
 10
-4.1867060000000151
 20
461.69993550000004
 11
-4.2867049999999836
 21
461.69993550000004
  0
LINE
  8
_0-0_0
  6
CONTINUOUS
 62
    7
 10
-4.2867049999999836
 20
461.69993550000004
 11
-4.2867049999999836
 21
464.69993550000004
  0
LINE
  8
_0-0_0
  6
CONTINUOUS
 62
    7
 10
-4.2867049999999836
 20
464.69993550000004
 11
-4.2867049999999836
 21
478.29994150000005
  0
LINE
  8
_0-0_0
  6
CONTINUOUS
 62
    7
 10
-4.1867060000000151
 20
481.29994150000005
 11
-4.2867049999999836
 21
481.29994150000005
  0
LINE
  8
_0-0_0
  6
CONTINUOUS
 62
    7
 10
-4.2867049999999836
 20
478.29994150000005
 11
-4.2867049999999836
 21
481.29994150000005
  0
ARC
  8
_0-0_0
  6
CONTINUOUS
 62
    7
 10
2.1132890000000089
 20
458.79994150000005
 40
0.5
 50
180.00000900000003
 51
269.99999700000001
  0
ARC
  8
_0-0_0
  6
CONTINUOUS
 62
    7
 10
-1.1867060000000151
 20
483.80000250000001
 40
1.5
 50
269.99999700000001
 51
0
  0
ARC
  8
_0-0_0
  6
CONTINUOUS
 62
    7
 10
-2.6867060000000151
 20
482.80000250000001
 40
0.5
 50
90.000003000000007
 51
180.00000900000001
  0
LINE
  8
_0-0_0
  6
CONTINUOUS
 62
    7
 10
-2.6867060000000151
 20
483.30000250000001
 11
-1.1867060000000151
 21
483.30000250000001
  0
ARC
  8
_0-0_0
  6
CONTINUOUS
 62
    7
 10
-1.1867060000000151
 20
484.30000250000001
 40
1
 50
269.99999700000001
 51
0
  0
LINE
  8
_0-0_0
  6
CONTINUOUS
 62
    7
 10
-0.1867060000000151
 20
484.40003950000005
 11
-0.1867060000000151
 21
484.30000250000001
  0
LINE
  8
_0-0_0
  6
CONTINUOUS
 62
    7
 10
0.3132939999999848
 20
484.40003950000005
 11
0.3132939999999848
 21
483.80000250000001
  0
LINE
  8
_0-0_0
  6
CONTINUOUS
 62
    7
 10
-3.1867060000000151
 20
482.30000250000001
 11
-3.1867060000000151
 21
482.80000250000001
  0
ARC
  8
_0-0_0
  6
CONTINUOUS
 62
    7
 10
7.1132890000000089
 20
479.39994750000005
 40
0.5
 50
0
 51
90.000003000000007
  0
LINE
  8
_0-0_0
  6
CONTINUOUS
 62
    7
 10
7.6132890000000089
 20
479.32295250000004
 11
7.6132890000000089
 21
479.39994750000005
  0
LINE
  8
_0-0_0
  6
CONTINUOUS
 62
    7
 10
7.6132890000000089
 20
477.88145450000002
 11
7.6132890000000089
 21
479.32295250000004
  0
LINE
  8
_0-0_0
  6
CONTINUOUS
 62
    7
 10
7.6132890000000089
 20
477.39994750000005
 11
7.6132890000000089
 21
477.88145450000002
  0
ARC
  8
_0-0_0
  6
CONTINUOUS
 62
    7
 10
10.613296999999989
 20
477.39994750000005
 40
3
 50
180.00000900000003
 51
269.99999700000001
  0
LINE
  8
_0-0_0
  6
CONTINUOUS
 62
    7
 10
11.094787999999994
 20
474.39994750000005
 11
10.613296999999989
 21
474.39994750000005
  0
LINE
  8
_0-0_0
  6
CONTINUOUS
 62
    7
 10
11.094787999999994
 20
474.39994750000005
 11
12.536315999999999
 21
474.39994750000005
  0
LINE
  8
_0-0_0
  6
CONTINUOUS
 62
    7
 10
12.613296999999989
 20
474.39994750000005
 11
12.536315999999999
 21
474.39994750000005
  0
LINE
  8
_0-0_0
  6
CONTINUOUS
 62
    7
 10
-3.3097300000000018
 20
463.79994150000005
 11
-3.3867109999999911
 21
463.79994150000005
  0
LINE
  8
_0-0_0
  6
CONTINUOUS
 62
    7
 10
-1.3867109999999911
 20
463.79994150000005
 11
-1.8682100000000332
 21
463.79994150000005
  0
LINE
  8
_0-0_0
  6
CONTINUOUS
 62
    7
 10
-1.8682100000000332
 20
463.79994150000005
 11
-3.3097300000000018
 21
463.79994150000005
  0
LINE
  8
_0-0_0
  6
CONTINUOUS
 62
    7
 10
1.6132890000000089
 20
458.79994150000005
 11
1.6132890000000089
 21
458.87690750000002
  0
LINE
  8
_0-0_0
  6
CONTINUOUS
 62
    7
 10
1.6132890000000089
 20
460.31843549999996
 11
1.6132890000000089
 21
458.87690750000002
  0
LINE
  8
_0-0_0
  6
CONTINUOUS
 62
    7
 10
1.6132890000000089
 20
460.31843549999996
 11
1.6132890000000089
 21
460.79994150000005
  0
ARC
  8
_0-0_0
  6
CONTINUOUS
 62
    7
 10
-1.3867109999999911
 20
460.79994150000005
 40
3
 50
0
 51
89.999995999999996
  0
LINE
  8
_0-0_0
  6
CONTINUOUS
 62
    7
 10
13.113296999999989
 20
481.41120850000004
 11
13.113296999999989
 21
479.52494750000005
  0
LINE
  8
_0-0_0
  6
CONTINUOUS
 62
    7
 10
13.113296999999989
 20
482.07493550000004
 11
13.113296999999989
 21
481.41120850000004
  0
ARC
  8
_0-0_0
  6
CONTINUOUS
 62
    7
 10
7.8434069999999565
 20
470.27317749999997
 40
3.063396
 50
19.82113
 51
25.289563000000001
  0
ARC
  8
_0-0_0
  6
CONTINUOUS
 62
    7
 10
7.8437270000000012
 20
467.92655950000005
 40
3.0630519999999999
 50
334.71006
 51
340.17869200000001
  0
ARC
  8
_0-0_0
  6
CONTINUOUS
 62
    7
 10
1.3831789999999842
 20
467.92671150000001
 40
3.063399
 50
199.82113599999997
 51
205.28948099999999
  0
ARC
  8
_0-0_0
  6
CONTINUOUS
 62
    7
 10
1.3828579999999988
 20
470.27333050000004
 40
3.0630549999999999
 50
154.710137
 51
160.17869999999999
  0
ARC
  8
_0-0_0
  6
CONTINUOUS
 62
    7
 10
4.6132890000000089
 20
469.09992950000003
 40
6.5
 50
340.10416099999998
 51
19.895609999999952
  0
ARC
  8
_0-0_0
  6
CONTINUOUS
 62
    7
 10
4.6132890000000089
 20
469.09992950000003
 40
6.5
 50
160.10415599999999
 51
199.895612
  0
LINE
  8
_0-0_0
  6
CONTINUOUS
 62
    7
 10
-3.8867109999999911
 20
480.18873550000001
 11
-3.8867109999999911
 21
480.59907550000003
  0
LINE
  8
_0-0_0
  6
CONTINUOUS
 62
    7
 10
-3.8867109999999911
 20
479.52986150000004
 11
-3.8867109999999911
 21
480.18873550000001
  0
LINE
  8
_0-0_0
  6
CONTINUOUS
 62
    7
 10
3.8716200000000072
 20
475.59992950000003
 11
-0.6450350000000071
 21
472.9922335
  0
LINE
  8
_0-0_0
  6
CONTINUOUS
 62
    7
 10
5.3549649999999929
 20
475.59992950000003
 11
3.8716200000000072
 21
475.59992950000003
  0
LINE
  8
_0-0_0
  6
CONTINUOUS
 62
    7
 10
9.8716200000000072
 20
472.9922335
 11
5.3549649999999929
 21
475.59992950000003
  0
LINE
  8
_0-0_0
  6
CONTINUOUS
 62
    7
 10
10.613296999999989
 20
471.70762649999995
 11
10.613296999999989
 21
466.4922335
  0
LINE
  8
_0-0_0
  6
CONTINUOUS
 62
    7
 10
9.8716200000000072
 20
472.9922335
 11
10.613296999999989
 21
471.70762649999995
  0
LINE
  8
_0-0_0
  6
CONTINUOUS
 62
    7
 10
5.3549649999999929
 20
462.59992950000003
 11
9.8716200000000072
 21
465.20762649999995
  0
LINE
  8
_0-0_0
  6
CONTINUOUS
 62
    7
 10
10.165749000000005
 20
465.71708650000005
 11
10.613296999999989
 21
466.4922335
  0
LINE
  8
_0-0_0
  6
CONTINUOUS
 62
    7
 10
10.165749000000005
 20
465.71708650000005
 11
9.8716200000000072
 21
465.20762649999995
  0
LINE
  8
_0-0_0
  6
CONTINUOUS
 62
    7
 10
3.8716200000000072
 20
462.59992950000003
 11
5.3549649999999929
 21
462.59992950000003
  0
LINE
  8
_0-0_0
  6
CONTINUOUS
 62
    7
 10
-0.6450350000000071
 20
465.20762649999995
 11
3.8716200000000072
 21
462.59992950000003
  0
LINE
  8
_0-0_0
  6
CONTINUOUS
 62
    7
 10
-1.3867109999999911
 20
471.70762649999995
 11
-1.3867109999999911
 21
466.4922335
  0
LINE
  8
_0-0_0
  6
CONTINUOUS
 62
    7
 10
-0.6450350000000071
 20
465.20762649999995
 11
-1.3867109999999911
 21
466.4922335
  0
LINE
  8
_0-0_0
  6
CONTINUOUS
 62
    7
 10
-0.9391630000000077
 20
472.48280350000005
 11
-1.3867109999999911
 21
471.70762649999995
  0
LINE
  8
_0-0_0
  6
CONTINUOUS
 62
    7
 10
-0.9391630000000077
 20
472.48280350000005
 11
-0.6450350000000071
 21
472.9922335
  0
LINE
  8
_0-0_0
  6
CONTINUOUS
 62
    7
 10
12.500305000000026
 20
478.6253815
 11
12.778350999999986
 21
478.64994750000005
  0
LINE
  8
_0-0_0
  6
CONTINUOUS
 62
    7
 10
12.618057000000022
 20
478.42143250000004
 11
12.778350999999986
 21
478.64994750000005
  0
LINE
  8
_0-0_0
  6
CONTINUOUS
 62
    7
 10
12.361876999999993
 20
478.81590249999999
 11
12.635833999999988
 21
478.86939949999999
  0
LINE
  8
_0-0_0
  6
CONTINUOUS
 62
    7
 10
12.500305000000026
 20
478.6253815
 11
12.635833999999988
 21
478.86939949999999
  0
LINE
  8
_0-0_0
  6
CONTINUOUS
 62
    7
 10
12.204285000000027
 20
478.99092050000002
 11
12.471160999999995
 21
479.07276950000005
  0
LINE
  8
_0-0_0
  6
CONTINUOUS
 62
    7
 10
12.361876999999993
 20
478.81590249999999
 11
12.471160999999995
 21
479.07276950000005
  0
LINE
  8
_0-0_0
  6
CONTINUOUS
 62
    7
 10
12.029266000000007
 20
479.14851350000004
 11
12.286117999999988
 21
479.25779750000004
  0
LINE
  8
_0-0_0
  6
CONTINUOUS
 62
    7
 10
12.204285000000027
 20
478.99092050000002
 11
12.286117999999988
 21
479.25779750000004
  0
LINE
  8
_0-0_0
  6
CONTINUOUS
 62
    7
 10
11.838729999999998
 20
479.28694150000001
 11
12.082747999999981
 21
479.42250049999996
  0
LINE
  8
_0-0_0
  6
CONTINUOUS
 62
    7
 10
12.029266000000007
 20
479.14851350000004
 11
12.082747999999981
 21
479.42250049999996
  0
LINE
  8
_0-0_0
  6
CONTINUOUS
 62
    7
 10
11.634766000000013
 20
479.40470849999997
 11
11.863296999999989
 21
479.56501749999995
  0
LINE
  8
_0-0_0
  6
CONTINUOUS
 62
    7
 10
11.838729999999998
 20
479.28694150000001
 11
11.863296999999989
 21
479.56501749999995
  0
LINE
  8
_0-0_0
  6
CONTINUOUS
 62
    7
 10
11.419617000000017
 20
479.50050350000004
 11
11.630127000000016
 21
479.68379149999998
  0
LINE
  8
_0-0_0
  6
CONTINUOUS
 62
    7
 10
11.634766000000013
 20
479.40470849999997
 11
11.630127000000016
 21
479.68379149999998
  0
LINE
  8
_0-0_0
  6
CONTINUOUS
 62
    7
 10
11.195632999999987
 20
479.57328749999999
 11
11.385833999999988
 21
479.77757250000002
  0
LINE
  8
_0-0_0
  6
CONTINUOUS
 62
    7
 10
11.419617000000017
 20
479.50050350000004
 11
11.385833999999988
 21
479.77757250000002
  0
LINE
  8
_0-0_0
  6
CONTINUOUS
 62
    7
 10
10.965270999999973
 20
479.62223849999998
 11
11.13307199999997
 21
479.84532149999995
  0
LINE
  8
_0-0_0
  6
CONTINUOUS
 62
    7
 10
11.195632999999987
 20
479.57328749999999
 11
11.13307199999997
 21
479.84532149999995
  0
LINE
  8
_0-0_0
  6
CONTINUOUS
 62
    7
 10
10.731048999999985
 20
479.64686549999999
 11
10.874618999999996
 21
479.88624549999997
  0
LINE
  8
_0-0_0
  6
CONTINUOUS
 62
    7
 10
10.965270999999973
 20
479.62223849999998
 11
10.874618999999996
 21
479.88624549999997
  0
LINE
  8
_0-0_0
  6
CONTINUOUS
 62
    7
 10
10.495537000000013
 20
479.64686549999999
 11
10.613296999999989
 21
479.89994750000005
  0
LINE
  8
_0-0_0
  6
CONTINUOUS
 62
    7
 10
10.731048999999985
 20
479.64686549999999
 11
10.613296999999989
 21
479.89994750000005
  0
LINE
  8
_0-0_0
  6
CONTINUOUS
 62
    7
 10
10.26131399999997
 20
479.62223849999998
 11
10.351974999999982
 21
479.88624549999997
  0
LINE
  8
_0-0_0
  6
CONTINUOUS
 62
    7
 10
10.495537000000013
 20
479.64686549999999
 11
10.351974999999982
 21
479.88624549999997
  0
LINE
  8
_0-0_0
  6
CONTINUOUS
 62
    7
 10
10.030944999999974
 20
479.57328749999999
 11
10.093513999999971
 21
479.84532149999995
  0
LINE
  8
_0-0_0
  6
CONTINUOUS
 62
    7
 10
10.26131399999997
 20
479.62223849999998
 11
10.093513999999971
 21
479.84532149999995
  0
LINE
  8
_0-0_0
  6
CONTINUOUS
 62
    7
 10
9.8069610000000011
 20
479.50050350000004
 11
9.8407519999999522
 21
479.77757250000002
  0
LINE
  8
_0-0_0
  6
CONTINUOUS
 62
    7
 10
10.030944999999974
 20
479.57328749999999
 11
9.8407519999999522
 21
479.77757250000002
  0
LINE
  8
_0-0_0
  6
CONTINUOUS
 62
    7
 10
9.5918120000000044
 20
479.40470849999997
 11
9.5964510000000018
 21
479.68379149999998
  0
LINE
  8
_0-0_0
  6
CONTINUOUS
 62
    7
 10
9.8069610000000011
 20
479.50050350000004
 11
9.5964510000000018
 21
479.68379149999998
  0
LINE
  8
_0-0_0
  6
CONTINUOUS
 62
    7
 10
9.4722749999999678
 20
479.48857150000003
 11
9.3632890000000089
 21
479.56501749999995
  0
LINE
  8
_0-0_0
  6
CONTINUOUS
 62
    7
 10
9.5918120000000044
 20
479.40470849999997
 11
9.4722749999999678
 21
479.48857150000003
  0
LINE
  8
_0-0_0
  6
CONTINUOUS
 62
    7
 10
9.3878559999999993
 20
479.28694150000001
 11
9.3632890000000089
 21
479.56501749999995
  0
LINE
  8
_0-0_0
  6
CONTINUOUS
 62
    7
 10
9.1973189999999931
 20
479.14851350000004
 11
9.1438289999999824
 21
479.42250049999996
  0
LINE
  8
_0-0_0
  6
CONTINUOUS
 62
    7
 10
9.3878559999999993
 20
479.28694150000001
 11
9.1438289999999824
 21
479.42250049999996
  0
LINE
  8
_0-0_0
  6
CONTINUOUS
 62
    7
 10
9.0223009999999704
 20
478.99092050000002
 11
8.9404599999999732
 21
479.25779750000004
  0
LINE
  8
_0-0_0
  6
CONTINUOUS
 62
    7
 10
9.1973189999999931
 20
479.14851350000004
 11
8.9404599999999732
 21
479.25779750000004
  0
LINE
  8
_0-0_0
  6
CONTINUOUS
 62
    7
 10
8.8647159999999872
 20
478.81590249999999
 11
8.7554319999999848
 21
479.07276950000005
  0
LINE
  8
_0-0_0
  6
CONTINUOUS
 62
    7
 10
9.0223009999999704
 20
478.99092050000002
 11
8.7554319999999848
 21
479.07276950000005
  0
LINE
  8
_0-0_0
  6
CONTINUOUS
 62
    7
 10
8.7262799999999743
 20
478.6253815
 11
8.5907519999999522
 21
478.86939949999999
  0
LINE
  8
_0-0_0
  6
CONTINUOUS
 62
    7
 10
8.8647159999999872
 20
478.81590249999999
 11
8.5907519999999522
 21
478.86939949999999
  0
LINE
  8
_0-0_0
  6
CONTINUOUS
 62
    7
 10
8.6085279999999784
 20
478.42143250000004
 11
8.4482269999999744
 21
478.64994750000005
  0
LINE
  8
_0-0_0
  6
CONTINUOUS
 62
    7
 10
8.7262799999999743
 20
478.6253815
 11
8.4482269999999744
 21
478.64994750000005
  0
LINE
  8
_0-0_0
  6
CONTINUOUS
 62
    7
 10
8.5127339999999663
 20
478.20628350000004
 11
8.3294300000000021
 21
478.41679350000004
  0
LINE
  8
_0-0_0
  6
CONTINUOUS
 62
    7
 10
8.6085279999999784
 20
478.42143250000004
 11
8.3294300000000021
 21
478.41679350000004
  0
LINE
  8
_0-0_0
  6
CONTINUOUS
 62
    7
 10
8.4399569999999926
 20
477.98228449999999
 11
8.2356489999999667
 21
478.17250049999996
  0
LINE
  8
_0-0_0
  6
CONTINUOUS
 62
    7
 10
8.5127339999999663
 20
478.20628350000004
 11
8.2356489999999667
 21
478.17250049999996
  0
LINE
  8
_0-0_0
  6
CONTINUOUS
 62
    7
 10
8.3909909999999854
 20
477.75190750000002
 11
8.1679229999999734
 21
477.91972350000003
  0
LINE
  8
_0-0_0
  6
CONTINUOUS
 62
    7
 10
8.4399569999999926
 20
477.98228449999999
 11
8.1679229999999734
 21
477.91972350000003
  0
LINE
  8
_0-0_0
  6
CONTINUOUS
 62
    7
 10
8.3909909999999854
 20
477.75190750000002
 11
8.1269839999999931
 21
477.6612705
  0
LINE
  8
_0-0_0
  6
CONTINUOUS
 62
    7
 10
8.3663789999999949
 20
477.51768449999997
 11
8.1269839999999931
 21
477.6612705
  0
LINE
  8
_0-0_0
  6
CONTINUOUS
 62
    7
 10
8.3663789999999949
 20
477.28218049999998
 11
8.1132890000000089
 21
477.39994750000005
  0
LINE
  8
_0-0_0
  6
CONTINUOUS
 62
    7
 10
8.3663789999999949
 20
477.51768449999997
 11
8.1132890000000089
 21
477.39994750000005
  0
LINE
  8
_0-0_0
  6
CONTINUOUS
 62
    7
 10
8.3909909999999854
 20
477.04795850000005
 11
8.1269839999999931
 21
477.13862549999999
  0
LINE
  8
_0-0_0
  6
CONTINUOUS
 62
    7
 10
8.3663789999999949
 20
477.28218049999998
 11
8.1269839999999931
 21
477.13862549999999
  0
LINE
  8
_0-0_0
  6
CONTINUOUS
 62
    7
 10
8.4399569999999926
 20
476.8176115
 11
8.1679229999999734
 21
476.88017249999996
  0
LINE
  8
_0-0_0
  6
CONTINUOUS
 62
    7
 10
8.3909909999999854
 20
477.04795850000005
 11
8.1679229999999734
 21
476.88017249999996
  0
LINE
  8
_0-0_0
  6
CONTINUOUS
 62
    7
 10
8.5127339999999663
 20
476.59361249999995
 11
8.2356489999999667
 21
476.62739550000003
  0
LINE
  8
_0-0_0
  6
CONTINUOUS
 62
    7
 10
8.4399569999999926
 20
476.8176115
 11
8.2356489999999667
 21
476.62739550000003
  0
LINE
  8
_0-0_0
  6
CONTINUOUS
 62
    7
 10
8.6085279999999784
 20
476.37846349999995
 11
8.3294300000000021
 21
476.38310249999995
  0
LINE
  8
_0-0_0
  6
CONTINUOUS
 62
    7
 10
8.5127339999999663
 20
476.59361249999995
 11
8.3294300000000021
 21
476.38310249999995
  0
LINE
  8
_0-0_0
  6
CONTINUOUS
 62
    7
 10
8.7262799999999743
 20
476.17451449999999
 11
8.4482269999999744
 21
476.14994750000005
  0
LINE
  8
_0-0_0
  6
CONTINUOUS
 62
    7
 10
8.6085279999999784
 20
476.37846349999995
 11
8.4482269999999744
 21
476.14994750000005
  0
LINE
  8
_0-0_0
  6
CONTINUOUS
 62
    7
 10
8.8647159999999872
 20
475.98396249999996
 11
8.5907519999999522
 21
475.9304965
  0
LINE
  8
_0-0_0
  6
CONTINUOUS
 62
    7
 10
8.7262799999999743
 20
476.17451449999999
 11
8.5907519999999522
 21
475.9304965
  0
LINE
  8
_0-0_0
  6
CONTINUOUS
 62
    7
 10
9.0223009999999704
 20
475.80894450000005
 11
8.7554319999999848
 21
475.72712650000005
  0
LINE
  8
_0-0_0
  6
CONTINUOUS
 62
    7
 10
8.8647159999999872
 20
475.98396249999996
 11
8.7554319999999848
 21
475.72712650000005
  0
LINE
  8
_0-0_0
  6
CONTINUOUS
 62
    7
 10
9.1973189999999931
 20
475.65135150000003
 11
8.9404599999999732
 21
475.54206850000003
  0
LINE
  8
_0-0_0
  6
CONTINUOUS
 62
    7
 10
9.0223009999999704
 20
475.80894450000005
 11
8.9404599999999732
 21
475.54206850000003
  0
LINE
  8
_0-0_0
  6
CONTINUOUS
 62
    7
 10
9.3878559999999993
 20
475.51292450000005
 11
9.1438289999999824
 21
475.37739550000003
  0
LINE
  8
_0-0_0
  6
CONTINUOUS
 62
    7
 10
9.1973189999999931
 20
475.65135150000003
 11
9.1438289999999824
 21
475.37739550000003
  0
LINE
  8
_0-0_0
  6
CONTINUOUS
 62
    7
 10
9.5918120000000044
 20
475.39518750000002
 11
9.3632890000000089
 21
475.23487850000004
  0
LINE
  8
_0-0_0
  6
CONTINUOUS
 62
    7
 10
9.3878559999999993
 20
475.51292450000005
 11
9.3632890000000089
 21
475.23487850000004
  0
LINE
  8
_0-0_0
  6
CONTINUOUS
 62
    7
 10
9.8069610000000011
 20
475.29939249999995
 11
9.5964510000000018
 21
475.11607349999997
  0
LINE
  8
_0-0_0
  6
CONTINUOUS
 62
    7
 10
9.5918120000000044
 20
475.39518750000002
 11
9.5964510000000018
 21
475.11607349999997
  0
LINE
  8
_0-0_0
  6
CONTINUOUS
 62
    7
 10
10.030944999999974
 20
475.2266085
 11
9.8407519999999522
 21
475.02229250000005
  0
LINE
  8
_0-0_0
  6
CONTINUOUS
 62
    7
 10
9.8069610000000011
 20
475.29939249999995
 11
9.8407519999999522
 21
475.02229250000005
  0
LINE
  8
_0-0_0
  6
CONTINUOUS
 62
    7
 10
10.26131399999997
 20
475.17765750000001
 11
10.093513999999971
 21
474.95457450000004
  0
LINE
  8
_0-0_0
  6
CONTINUOUS
 62
    7
 10
10.030944999999974
 20
475.2266085
 11
10.093513999999971
 21
474.95457450000004
  0
LINE
  8
_0-0_0
  6
CONTINUOUS
 62
    7
 10
10.495537000000013
 20
475.1530305
 11
10.351974999999982
 21
474.91365050000002
  0
LINE
  8
_0-0_0
  6
CONTINUOUS
 62
    7
 10
10.26131399999997
 20
475.17765750000001
 11
10.351974999999982
 21
474.91365050000002
  0
LINE
  8
_0-0_0
  6
CONTINUOUS
 62
    7
 10
10.731048999999985
 20
475.1530305
 11
10.613296999999989
 21
474.89994750000005
  0
LINE
  8
_0-0_0
  6
CONTINUOUS
 62
    7
 10
10.495537000000013
 20
475.1530305
 11
10.613296999999989
 21
474.89994750000005
  0
LINE
  8
_0-0_0
  6
CONTINUOUS
 62
    7
 10
10.965270999999973
 20
475.17765750000001
 11
10.874618999999996
 21
474.91365050000002
  0
LINE
  8
_0-0_0
  6
CONTINUOUS
 62
    7
 10
10.731048999999985
 20
475.1530305
 11
10.874618999999996
 21
474.91365050000002
  0
LINE
  8
_0-0_0
  6
CONTINUOUS
 62
    7
 10
11.195632999999987
 20
475.2266085
 11
11.13307199999997
 21
474.95457450000004
  0
LINE
  8
_0-0_0
  6
CONTINUOUS
 62
    7
 10
10.965270999999973
 20
475.17765750000001
 11
11.13307199999997
 21
474.95457450000004
  0
LINE
  8
_0-0_0
  6
CONTINUOUS
 62
    7
 10
11.419617000000017
 20
475.29939249999995
 11
11.385833999999988
 21
475.02229250000005
  0
LINE
  8
_0-0_0
  6
CONTINUOUS
 62
    7
 10
11.195632999999987
 20
475.2266085
 11
11.385833999999988
 21
475.02229250000005
  0
LINE
  8
_0-0_0
  6
CONTINUOUS
 62
    7
 10
11.634766000000013
 20
475.39518750000002
 11
11.630127000000016
 21
475.11607349999997
  0
LINE
  8
_0-0_0
  6
CONTINUOUS
 62
    7
 10
11.419617000000017
 20
475.29939249999995
 11
11.630127000000016
 21
475.11607349999997
  0
LINE
  8
_0-0_0
  6
CONTINUOUS
 62
    7
 10
11.754302999999993
 20
475.31132449999996
 11
11.863296999999989
 21
475.23487850000004
  0
LINE
  8
_0-0_0
  6
CONTINUOUS
 62
    7
 10
11.634766000000013
 20
475.39518750000002
 11
11.754302999999993
 21
475.31132449999996
  0
LINE
  8
_0-0_0
  6
CONTINUOUS
 62
    7
 10
11.838729999999998
 20
475.51292450000005
 11
11.863296999999989
 21
475.23487850000004
  0
LINE
  8
_0-0_0
  6
CONTINUOUS
 62
    7
 10
12.029266000000007
 20
475.65135150000003
 11
12.082747999999981
 21
475.37739550000003
  0
LINE
  8
_0-0_0
  6
CONTINUOUS
 62
    7
 10
11.838729999999998
 20
475.51292450000005
 11
12.082747999999981
 21
475.37739550000003
  0
LINE
  8
_0-0_0
  6
CONTINUOUS
 62
    7
 10
12.204285000000027
 20
475.80894450000005
 11
12.286117999999988
 21
475.54206850000003
  0
LINE
  8
_0-0_0
  6
CONTINUOUS
 62
    7
 10
12.029266000000007
 20
475.65135150000003
 11
12.286117999999988
 21
475.54206850000003
  0
LINE
  8
_0-0_0
  6
CONTINUOUS
 62
    7
 10
12.361876999999993
 20
475.98396249999996
 11
12.471160999999995
 21
475.72712650000005
  0
LINE
  8
_0-0_0
  6
CONTINUOUS
 62
    7
 10
12.204285000000027
 20
475.80894450000005
 11
12.471160999999995
 21
475.72712650000005
  0
LINE
  8
_0-0_0
  6
CONTINUOUS
 62
    7
 10
12.500305000000026
 20
476.17451449999999
 11
12.635833999999988
 21
475.9304965
  0
LINE
  8
_0-0_0
  6
CONTINUOUS
 62
    7
 10
12.361876999999993
 20
475.98396249999996
 11
12.635833999999988
 21
475.9304965
  0
LINE
  8
_0-0_0
  6
CONTINUOUS
 62
    7
 10
12.618057000000022
 20
476.37846349999995
 11
12.778350999999986
 21
476.14994750000005
  0
LINE
  8
_0-0_0
  6
CONTINUOUS
 62
    7
 10
12.500305000000026
 20
476.17451449999999
 11
12.778350999999986
 21
476.14994750000005
  0
LINE
  8
_0-0_0
  6
CONTINUOUS
 62
    7
 10
12.713851999999974
 20
476.59361249999995
 11
12.897155999999995
 21
476.38310249999995
  0
LINE
  8
_0-0_0
  6
CONTINUOUS
 62
    7
 10
12.618057000000022
 20
476.37846349999995
 11
12.897155999999995
 21
476.38310249999995
  0
LINE
  8
_0-0_0
  6
CONTINUOUS
 62
    7
 10
12.786620999999968
 20
476.8176115
 11
12.990935999999977
 21
476.62739550000003
  0
LINE
  8
_0-0_0
  6
CONTINUOUS
 62
    7
 10
12.713851999999974
 20
476.59361249999995
 11
12.990935999999977
 21
476.62739550000003
  0
LINE
  8
_0-0_0
  6
CONTINUOUS
 62
    7
 10
12.835586999999975
 20
477.04795850000005
 11
13.058654999999987
 21
476.88017249999996
  0
LINE
  8
_0-0_0
  6
CONTINUOUS
 62
    7
 10
12.786620999999968
 20
476.8176115
 11
13.058654999999987
 21
476.88017249999996
  0
LINE
  8
_0-0_0
  6
CONTINUOUS
 62
    7
 10
12.860198999999966
 20
477.28218049999998
 11
13.099594000000025
 21
477.13862549999999
  0
LINE
  8
_0-0_0
  6
CONTINUOUS
 62
    7
 10
12.835586999999975
 20
477.04795850000005
 11
13.099594000000025
 21
477.13862549999999
  0
LINE
  8
_0-0_0
  6
CONTINUOUS
 62
    7
 10
12.860198999999966
 20
477.51768449999997
 11
13.113296999999989
 21
477.39994750000005
  0
LINE
  8
_0-0_0
  6
CONTINUOUS
 62
    7
 10
12.860198999999966
 20
477.28218049999998
 11
13.113296999999989
 21
477.39994750000005
  0
LINE
  8
_0-0_0
  6
CONTINUOUS
 62
    7
 10
12.835586999999975
 20
477.75190750000002
 11
13.099594000000025
 21
477.6612705
  0
LINE
  8
_0-0_0
  6
CONTINUOUS
 62
    7
 10
12.860198999999966
 20
477.51768449999997
 11
13.099594000000025
 21
477.6612705
  0
LINE
  8
_0-0_0
  6
CONTINUOUS
 62
    7
 10
12.786620999999968
 20
477.98228449999999
 11
13.058654999999987
 21
477.91972350000003
  0
LINE
  8
_0-0_0
  6
CONTINUOUS
 62
    7
 10
12.835586999999975
 20
477.75190750000002
 11
13.058654999999987
 21
477.91972350000003
  0
LINE
  8
_0-0_0
  6
CONTINUOUS
 62
    7
 10
12.713851999999974
 20
478.20628350000004
 11
12.990935999999977
 21
478.17250049999996
  0
LINE
  8
_0-0_0
  6
CONTINUOUS
 62
    7
 10
12.786620999999968
 20
477.98228449999999
 11
12.990935999999977
 21
478.17250049999996
  0
LINE
  8
_0-0_0
  6
CONTINUOUS
 62
    7
 10
12.618057000000022
 20
478.42143250000004
 11
12.897155999999995
 21
478.41679350000004
  0
LINE
  8
_0-0_0
  6
CONTINUOUS
 62
    7
 10
12.713851999999974
 20
478.20628350000004
 11
12.897155999999995
 21
478.41679350000004
  0
CIRCLE
  8
_0-0_0
  6
CONTINUOUS
 62
    7
 10
4.6132890000000089
 20
469.09992950000003
 40
5.25
  0
LINE
  8
_0-0_0
  6
CONTINUOUS
 62
    7
 10
0.5002979999999865
 20
462.0253755
 11
0.7783509999999864
 21
462.04994150000005
  0
LINE
  8
_0-0_0
  6
CONTINUOUS
 62
    7
 10
0.6180570000000216
 20
461.82142650000003
 11
0.7783509999999864
 21
462.04994150000005
  0
LINE
  8
_0-0_0
  6
CONTINUOUS
 62
    7
 10
0.3618699999999535
 20
462.21592650000002
 11
0.6358339999999884
 21
462.26939349999998
  0
LINE
  8
_0-0_0
  6
CONTINUOUS
 62
    7
 10
0.5002979999999865
 20
462.0253755
 11
0.6358339999999884
 21
462.26939349999998
  0
LINE
  8
_0-0_0
  6
CONTINUOUS
 62
    7
 10
0.2042849999999703
 20
462.39094550000004
 11
0.4711529999999584
 21
462.47276250000004
  0
LINE
  8
_0-0_0
  6
CONTINUOUS
 62
    7
 10
0.3618699999999535
 20
462.21592650000002
 11
0.4711529999999584
 21
462.47276250000004
  0
LINE
  8
_0-0_0
  6
CONTINUOUS
 62
    7
 10
0.0292660000000068
 20
462.54850750000003
 11
0.2861179999999876
 21
462.65779150000003
  0
LINE
  8
_0-0_0
  6
CONTINUOUS
 62
    7
 10
0.2042849999999703
 20
462.39094550000004
 11
0.2861179999999876
 21
462.65779150000003
  0
LINE
  8
_0-0_0
  6
CONTINUOUS
 62
    7
 10
-0.1612700000000018
 20
462.68696550000004
 11
0.0827560000000175
 21
462.82249449999995
  0
LINE
  8
_0-0_0
  6
CONTINUOUS
 62
    7
 10
0.0292660000000068
 20
462.54850750000003
 11
0.0827560000000175
 21
462.82249449999995
  0
LINE
  8
_0-0_0
  6
CONTINUOUS
 62
    7
 10
-0.3652270000000044
 20
462.80470249999996
 11
-0.1367109999999911
 21
462.96501150000006
  0
LINE
  8
_0-0_0
  6
CONTINUOUS
 62
    7
 10
-0.1612700000000018
 20
462.68696550000004
 11
-0.1367109999999911
 21
462.96501150000006
  0
LINE
  8
_0-0_0
  6
CONTINUOUS
 62
    7
 10
-0.5803829999999834
 20
462.90049750000003
 11
-0.3698650000000043
 21
463.08381650000001
  0
LINE
  8
_0-0_0
  6
CONTINUOUS
 62
    7
 10
-0.3652270000000044
 20
462.80470249999996
 11
-0.3698650000000043
 21
463.08381650000001
  0
LINE
  8
_0-0_0
  6
CONTINUOUS
 62
    7
 10
-0.8043670000000133
 20
462.97328149999998
 11
-0.6141660000000115
 21
463.17759650000005
  0
LINE
  8
_0-0_0
  6
CONTINUOUS
 62
    7
 10
-0.5803829999999834
 20
462.90049750000003
 11
-0.6141660000000115
 21
463.17759650000005
  0
LINE
  8
_0-0_0
  6
CONTINUOUS
 62
    7
 10
-1.0347290000000271
 20
463.02223149999998
 11
-0.8669280000000299
 21
463.24531549999995
  0
LINE
  8
_0-0_0
  6
CONTINUOUS
 62
    7
 10
-0.8043670000000133
 20
462.97328149999998
 11
-0.8669280000000299
 21
463.24531549999995
  0
LINE
  8
_0-0_0
  6
CONTINUOUS
 62
    7
 10
-1.2689510000000155
 20
463.04685949999998
 11
-1.1253890000000411
 21
463.28623949999997
  0
LINE
  8
_0-0_0
  6
CONTINUOUS
 62
    7
 10
-1.0347290000000271
 20
463.02223149999998
 11
-1.1253890000000411
 21
463.28623949999997
  0
LINE
  8
_0-0_0
  6
CONTINUOUS
 62
    7
 10
-1.504462999999987
 20
463.04685949999998
 11
-1.3867109999999911
 21
463.29994150000005
  0
LINE
  8
_0-0_0
  6
CONTINUOUS
 62
    7
 10
-1.2689510000000155
 20
463.04685949999998
 11
-1.3867109999999911
 21
463.29994150000005
  0
LINE
  8
_0-0_0
  6
CONTINUOUS
 62
    7
 10
-1.7386860000000297
 20
463.02223149999998
 11
-1.6480250000000183
 21
463.28623949999997
  0
LINE
  8
_0-0_0
  6
CONTINUOUS
 62
    7
 10
-1.504462999999987
 20
463.04685949999998
 11
-1.6480250000000183
 21
463.28623949999997
  0
LINE
  8
_0-0_0
  6
CONTINUOUS
 62
    7
 10
-1.9690550000000258
 20
462.97328149999998
 11
-1.9064860000000294
 21
463.24531549999995
  0
LINE
  8
_0-0_0
  6
CONTINUOUS
 62
    7
 10
-1.7386860000000297
 20
463.02223149999998
 11
-1.9064860000000294
 21
463.24531549999995
  0
LINE
  8
_0-0_0
  6
CONTINUOUS
 62
    7
 10
-2.1930389999999989
 20
462.90049750000003
 11
-2.1592480000000478
 21
463.17759650000005
  0
LINE
  8
_0-0_0
  6
CONTINUOUS
 62
    7
 10
-1.9690550000000258
 20
462.97328149999998
 11
-2.1592480000000478
 21
463.17759650000005
  0
LINE
  8
_0-0_0
  6
CONTINUOUS
 62
    7
 10
-2.4081879999999956
 20
462.80470249999996
 11
-2.4035489999999982
 21
463.08381650000001
  0
LINE
  8
_0-0_0
  6
CONTINUOUS
 62
    7
 10
-2.1930389999999989
 20
462.90049750000003
 11
-2.4035489999999982
 21
463.08381650000001
  0
LINE
  8
_0-0_0
  6
CONTINUOUS
 62
    7
 10
-2.5277250000000322
 20
462.88856450000003
 11
-2.6367109999999911
 21
462.96501150000006
  0
LINE
  8
_0-0_0
  6
CONTINUOUS
 62
    7
 10
-2.4081879999999956
 20
462.80470249999996
 11
-2.5277250000000322
 21
462.88856450000003
  0
LINE
  8
_0-0_0
  6
CONTINUOUS
 62
    7
 10
-2.6121440000000007
 20
462.68696550000004
 11
-2.6367109999999911
 21
462.96501150000006
  0
LINE
  8
_0-0_0
  6
CONTINUOUS
 62
    7
 10
-2.8026810000000069
 20
462.54850750000003
 11
-2.8561710000000176
 21
462.82249449999995
  0
LINE
  8
_0-0_0
  6
CONTINUOUS
 62
    7
 10
-2.6121440000000007
 20
462.68696550000004
 11
-2.8561710000000176
 21
462.82249449999995
  0
LINE
  8
_0-0_0
  6
CONTINUOUS
 62
    7
 10
-2.9776990000000296
 20
462.39094550000004
 11
-3.0595319999999901
 21
462.65779150000003
  0
LINE
  8
_0-0_0
  6
CONTINUOUS
 62
    7
 10
-2.8026810000000069
 20
462.54850750000003
 11
-3.0595319999999901
 21
462.65779150000003
  0
LINE
  8
_0-0_0
  6
CONTINUOUS
 62
    7
 10
-3.1352840000000128
 20
462.21592650000002
 11
-3.2445680000000152
 21
462.47276250000004
  0
LINE
  8
_0-0_0
  6
CONTINUOUS
 62
    7
 10
-2.9776990000000296
 20
462.39094550000004
 11
-3.2445680000000152
 21
462.47276250000004
  0
LINE
  8
_0-0_0
  6
CONTINUOUS
 62
    7
 10
-3.2737200000000257
 20
462.0253755
 11
-3.4092480000000478
 21
462.26939349999998
  0
LINE
  8
_0-0_0
  6
CONTINUOUS
 62
    7
 10
-3.1352840000000128
 20
462.21592650000002
 11
-3.4092480000000478
 21
462.26939349999998
  0
LINE
  8
_0-0_0
  6
CONTINUOUS
 62
    7
 10
-3.3914720000000216
 20
461.82142650000003
 11
-3.5517730000000256
 21
462.04994150000005
  0
LINE
  8
_0-0_0
  6
CONTINUOUS
 62
    7
 10
-3.2737200000000257
 20
462.0253755
 11
-3.5517730000000256
 21
462.04994150000005
  0
LINE
  8
_0-0_0
  6
CONTINUOUS
 62
    7
 10
-3.4872660000000337
 20
461.60627750000003
 11
-3.6705699999999979
 21
461.81678750000003
  0
LINE
  8
_0-0_0
  6
CONTINUOUS
 62
    7
 10
-3.3914720000000216
 20
461.82142650000003
 11
-3.6705699999999979
 21
461.81678750000003
  0
LINE
  8
_0-0_0
  6
CONTINUOUS
 62
    7
 10
-3.5600430000000074
 20
461.38227849999998
 11
-3.7643510000000333
 21
461.57249449999995
  0
LINE
  8
_0-0_0
  6
CONTINUOUS
 62
    7
 10
-3.4872660000000337
 20
461.60627750000003
 11
-3.7643510000000333
 21
461.57249449999995
  0
LINE
  8
_0-0_0
  6
CONTINUOUS
 62
    7
 10
-3.6090090000000146
 20
461.15193150000005
 11
-3.8320770000000266
 21
461.31971750000002
  0
LINE
  8
_0-0_0
  6
CONTINUOUS
 62
    7
 10
-3.5600430000000074
 20
461.38227849999998
 11
-3.8320770000000266
 21
461.31971750000002
  0
LINE
  8
_0-0_0
  6
CONTINUOUS
 62
    7
 10
-3.6090090000000146
 20
461.15193150000005
 11
-3.8730160000000069
 21
461.0612635
  0
LINE
  8
_0-0_0
  6
CONTINUOUS
 62
    7
 10
-3.6336290000000417
 20
460.9177095
 11
-3.8730160000000069
 21
461.0612635
  0
LINE
  8
_0-0_0
  6
CONTINUOUS
 62
    7
 10
-3.6336290000000417
 20
460.68217449999997
 11
-3.8867109999999911
 21
460.79994150000005
  0
LINE
  8
_0-0_0
  6
CONTINUOUS
 62
    7
 10
-3.6336290000000417
 20
460.9177095
 11
-3.8867109999999911
 21
460.79994150000005
  0
LINE
  8
_0-0_0
  6
CONTINUOUS
 62
    7
 10
-3.6090090000000146
 20
460.44795250000004
 11
-3.8730160000000069
 21
460.53861949999998
  0
LINE
  8
_0-0_0
  6
CONTINUOUS
 62
    7
 10
-3.6336290000000417
 20
460.68217449999997
 11
-3.8730160000000069
 21
460.53861949999998
  0
LINE
  8
_0-0_0
  6
CONTINUOUS
 62
    7
 10
-3.5600430000000074
 20
460.21760549999999
 11
-3.8320770000000266
 21
460.28016649999995
  0
LINE
  8
_0-0_0
  6
CONTINUOUS
 62
    7
 10
-3.6090090000000146
 20
460.44795250000004
 11
-3.8320770000000266
 21
460.28016649999995
  0
LINE
  8
_0-0_0
  6
CONTINUOUS
 62
    7
 10
-3.4872660000000337
 20
459.99360650000006
 11
-3.7643510000000333
 21
460.02738950000003
  0
LINE
  8
_0-0_0
  6
CONTINUOUS
 62
    7
 10
-3.5600430000000074
 20
460.21760549999999
 11
-3.7643510000000333
 21
460.02738950000003
  0
LINE
  8
_0-0_0
  6
CONTINUOUS
 62
    7
 10
-3.3914720000000216
 20
459.77845750000006
 11
-3.6705699999999979
 21
459.78309650000006
  0
LINE
  8
_0-0_0
  6
CONTINUOUS
 62
    7
 10
-3.4872660000000337
 20
459.99360650000006
 11
-3.6705699999999979
 21
459.78309650000006
  0
LINE
  8
_0-0_0
  6
CONTINUOUS
 62
    7
 10
-3.2737200000000257
 20
459.57450849999998
 11
-3.5517730000000256
 21
459.54994150000005
  0
LINE
  8
_0-0_0
  6
CONTINUOUS
 62
    7
 10
-3.3914720000000216
 20
459.77845750000006
 11
-3.5517730000000256
 21
459.54994150000005
  0
LINE
  8
_0-0_0
  6
CONTINUOUS
 62
    7
 10
-3.1352840000000128
 20
459.38398749999999
 11
-3.4092480000000478
 21
459.3304895
  0
LINE
  8
_0-0_0
  6
CONTINUOUS
 62
    7
 10
-3.2737200000000257
 20
459.57450849999998
 11
-3.4092480000000478
 21
459.3304895
  0
LINE
  8
_0-0_0
  6
CONTINUOUS
 62
    7
 10
-2.9776990000000296
 20
459.20896849999997
 11
-3.2445680000000152
 21
459.12712050000005
  0
LINE
  8
_0-0_0
  6
CONTINUOUS
 62
    7
 10
-3.1352840000000128
 20
459.38398749999999
 11
-3.2445680000000152
 21
459.12712050000005
  0
LINE
  8
_0-0_0
  6
CONTINUOUS
 62
    7
 10
-2.8026810000000069
 20
459.05137649999995
 11
-3.0595319999999901
 21
458.94209250000006
  0
LINE
  8
_0-0_0
  6
CONTINUOUS
 62
    7
 10
-2.9776990000000296
 20
459.20896849999997
 11
-3.0595319999999901
 21
458.94209250000006
  0
LINE
  8
_0-0_0
  6
CONTINUOUS
 62
    7
 10
-2.6121440000000007
 20
458.91291750000005
 11
-2.8561710000000176
 21
458.77738950000003
  0
LINE
  8
_0-0_0
  6
CONTINUOUS
 62
    7
 10
-2.8026810000000069
 20
459.05137649999995
 11
-2.8561710000000176
 21
458.77738950000003
  0
LINE
  8
_0-0_0
  6
CONTINUOUS
 62
    7
 10
-2.4081879999999956
 20
458.79518150000001
 11
-2.6367109999999911
 21
458.63487250000003
  0
LINE
  8
_0-0_0
  6
CONTINUOUS
 62
    7
 10
-2.6121440000000007
 20
458.91291750000005
 11
-2.6367109999999911
 21
458.63487250000003
  0
LINE
  8
_0-0_0
  6
CONTINUOUS
 62
    7
 10
-2.1930389999999989
 20
458.69938650000006
 11
-2.4035489999999982
 21
458.51606749999996
  0
LINE
  8
_0-0_0
  6
CONTINUOUS
 62
    7
 10
-2.4081879999999956
 20
458.79518150000001
 11
-2.4035489999999982
 21
458.51606749999996
  0
LINE
  8
_0-0_0
  6
CONTINUOUS
 62
    7
 10
-1.9690550000000258
 20
458.62660249999999
 11
-2.1592480000000478
 21
458.42228650000004
  0
LINE
  8
_0-0_0
  6
CONTINUOUS
 62
    7
 10
-2.1930389999999989
 20
458.69938650000006
 11
-2.1592480000000478
 21
458.42228650000004
  0
LINE
  8
_0-0_0
  6
CONTINUOUS
 62
    7
 10
-1.7386860000000297
 20
458.5776515
 11
-1.9064860000000294
 21
458.35456850000003
  0
LINE
  8
_0-0_0
  6
CONTINUOUS
 62
    7
 10
-1.9690550000000258
 20
458.62660249999999
 11
-1.9064860000000294
 21
458.35456850000003
  0
LINE
  8
_0-0_0
  6
CONTINUOUS
 62
    7
 10
-1.504462999999987
 20
458.55302449999999
 11
-1.6480250000000183
 21
458.31364450000001
  0
LINE
  8
_0-0_0
  6
CONTINUOUS
 62
    7
 10
-1.7386860000000297
 20
458.5776515
 11
-1.6480250000000183
 21
458.31364450000001
  0
LINE
  8
_0-0_0
  6
CONTINUOUS
 62
    7
 10
-1.2689510000000155
 20
458.55302449999999
 11
-1.3867109999999911
 21
458.29994150000005
  0
LINE
  8
_0-0_0
  6
CONTINUOUS
 62
    7
 10
-1.504462999999987
 20
458.55302449999999
 11
-1.3867109999999911
 21
458.29994150000005
  0
LINE
  8
_0-0_0
  6
CONTINUOUS
 62
    7
 10
-1.0347290000000271
 20
458.5776515
 11
-1.1253890000000411
 21
458.31364450000001
  0
LINE
  8
_0-0_0
  6
CONTINUOUS
 62
    7
 10
-1.2689510000000155
 20
458.55302449999999
 11
-1.1253890000000411
 21
458.31364450000001
  0
LINE
  8
_0-0_0
  6
CONTINUOUS
 62
    7
 10
-0.8043670000000133
 20
458.62660249999999
 11
-0.8669280000000299
 21
458.35456850000003
  0
LINE
  8
_0-0_0
  6
CONTINUOUS
 62
    7
 10
-1.0347290000000271
 20
458.5776515
 11
-0.8669280000000299
 21
458.35456850000003
  0
LINE
  8
_0-0_0
  6
CONTINUOUS
 62
    7
 10
-0.5803829999999834
 20
458.69938650000006
 11
-0.6141660000000115
 21
458.42228650000004
  0
LINE
  8
_0-0_0
  6
CONTINUOUS
 62
    7
 10
-0.8043670000000133
 20
458.62660249999999
 11
-0.6141660000000115
 21
458.42228650000004
  0
LINE
  8
_0-0_0
  6
CONTINUOUS
 62
    7
 10
-0.3652270000000044
 20
458.79518150000001
 11
-0.3698650000000043
 21
458.51606749999996
  0
LINE
  8
_0-0_0
  6
CONTINUOUS
 62
    7
 10
-0.5803829999999834
 20
458.69938650000006
 11
-0.3698650000000043
 21
458.51606749999996
  0
LINE
  8
_0-0_0
  6
CONTINUOUS
 62
    7
 10
-0.2456970000000069
 20
458.71131849999995
 11
-0.1367109999999911
 21
458.63487250000003
  0
LINE
  8
_0-0_0
  6
CONTINUOUS
 62
    7
 10
-0.3652270000000044
 20
458.79518150000001
 11
-0.2456970000000069
 21
458.71131849999995
  0
LINE
  8
_0-0_0
  6
CONTINUOUS
 62
    7
 10
-0.1612700000000018
 20
458.91291750000005
 11
-0.1367109999999911
 21
458.63487250000003
  0
LINE
  8
_0-0_0
  6
CONTINUOUS
 62
    7
 10
0.0292660000000068
 20
459.05137649999995
 11
0.0827560000000175
 21
458.77738950000003
  0
LINE
  8
_0-0_0
  6
CONTINUOUS
 62
    7
 10
-0.1612700000000018
 20
458.91291750000005
 11
0.0827560000000175
 21
458.77738950000003
  0
LINE
  8
_0-0_0
  6
CONTINUOUS
 62
    7
 10
0.2042849999999703
 20
459.20896849999997
 11
0.2861179999999876
 21
458.94209250000006
  0
LINE
  8
_0-0_0
  6
CONTINUOUS
 62
    7
 10
0.0292660000000068
 20
459.05137649999995
 11
0.2861179999999876
 21
458.94209250000006
  0
LINE
  8
_0-0_0
  6
CONTINUOUS
 62
    7
 10
0.3618699999999535
 20
459.38398749999999
 11
0.4711529999999584
 21
459.12712050000005
  0
LINE
  8
_0-0_0
  6
CONTINUOUS
 62
    7
 10
0.2042849999999703
 20
459.20896849999997
 11
0.4711529999999584
 21
459.12712050000005
  0
LINE
  8
_0-0_0
  6
CONTINUOUS
 62
    7
 10
0.5002979999999865
 20
459.57450849999998
 11
0.6358339999999884
 21
459.3304895
  0
LINE
  8
_0-0_0
  6
CONTINUOUS
 62
    7
 10
0.3618699999999535
 20
459.38398749999999
 11
0.6358339999999884
 21
459.3304895
  0
LINE
  8
_0-0_0
  6
CONTINUOUS
 62
    7
 10
0.6180570000000216
 20
459.77845750000006
 11
0.7783509999999864
 21
459.54994150000005
  0
LINE
  8
_0-0_0
  6
CONTINUOUS
 62
    7
 10
0.5002979999999865
 20
459.57450849999998
 11
0.7783509999999864
 21
459.54994150000005
  0
LINE
  8
_0-0_0
  6
CONTINUOUS
 62
    7
 10
0.7138519999999744
 20
459.99360650000006
 11
0.8971559999999954
 21
459.78309650000006
  0
LINE
  8
_0-0_0
  6
CONTINUOUS
 62
    7
 10
0.6180570000000216
 20
459.77845750000006
 11
0.8971559999999954
 21
459.78309650000006
  0
LINE
  8
_0-0_0
  6
CONTINUOUS
 62
    7
 10
0.7866209999999682
 20
460.21760549999999
 11
0.9909359999999765
 21
460.02738950000003
  0
LINE
  8
_0-0_0
  6
CONTINUOUS
 62
    7
 10
0.7138519999999744
 20
459.99360650000006
 11
0.9909359999999765
 21
460.02738950000003
  0
LINE
  8
_0-0_0
  6
CONTINUOUS
 62
    7
 10
0.8355869999999754
 20
460.44795250000004
 11
1.0586619999999698
 21
460.28016649999995
  0
LINE
  8
_0-0_0
  6
CONTINUOUS
 62
    7
 10
0.7866209999999682
 20
460.21760549999999
 11
1.0586619999999698
 21
460.28016649999995
  0
LINE
  8
_0-0_0
  6
CONTINUOUS
 62
    7
 10
0.8602070000000026
 20
460.68217449999997
 11
1.0995939999999678
 21
460.53861949999998
  0
LINE
  8
_0-0_0
  6
CONTINUOUS
 62
    7
 10
0.8355869999999754
 20
460.44795250000004
 11
1.0995939999999678
 21
460.53861949999998
  0
LINE
  8
_0-0_0
  6
CONTINUOUS
 62
    7
 10
0.8602070000000026
 20
460.9177095
 11
1.1132890000000089
 21
460.79994150000005
  0
LINE
  8
_0-0_0
  6
CONTINUOUS
 62
    7
 10
0.8602070000000026
 20
460.68217449999997
 11
1.1132890000000089
 21
460.79994150000005
  0
LINE
  8
_0-0_0
  6
CONTINUOUS
 62
    7
 10
0.8355869999999754
 20
461.15193150000005
 11
1.0995939999999678
 21
461.0612635
  0
LINE
  8
_0-0_0
  6
CONTINUOUS
 62
    7
 10
0.8602070000000026
 20
460.9177095
 11
1.0995939999999678
 21
461.0612635
  0
LINE
  8
_0-0_0
  6
CONTINUOUS
 62
    7
 10
0.7866209999999682
 20
461.38227849999998
 11
1.0586619999999698
 21
461.31971750000002
  0
LINE
  8
_0-0_0
  6
CONTINUOUS
 62
    7
 10
0.8355869999999754
 20
461.15193150000005
 11
1.0586619999999698
 21
461.31971750000002
  0
LINE
  8
_0-0_0
  6
CONTINUOUS
 62
    7
 10
0.7138519999999744
 20
461.60627750000003
 11
0.9909359999999765
 21
461.57249449999995
  0
LINE
  8
_0-0_0
  6
CONTINUOUS
 62
    7
 10
0.7866209999999682
 20
461.38227849999998
 11
0.9909359999999765
 21
461.57249449999995
  0
LINE
  8
_0-0_0
  6
CONTINUOUS
 62
    7
 10
0.6180570000000216
 20
461.82142650000003
 11
0.8971559999999954
 21
461.81678750000003
  0
LINE
  8
_0-0_0
  6
CONTINUOUS
 62
    7
 10
0.7138519999999744
 20
461.60627750000003
 11
0.8971559999999954
 21
461.81678750000003
  0
CIRCLE
  8
_0-0_0
  6
CONTINUOUS
 62
    7
 10
10.613296999999989
 20
477.39994750000005
 40
2
  0
CIRCLE
  8
_0-0_0
  6
CONTINUOUS
 62
    7
 10
-1.3867109999999911
 20
460.79994150000005
 40
2
  0
LINE
  8
_0-0_0
  6
CONTINUOUS
 62
    7
 10
11.195403999999996
 20
476.39994750000005
 11
10.031181000000004
 21
476.39994750000005
  0
LINE
  8
_0-0_0
  6
CONTINUOUS
 62
    7
 10
10.031181000000004
 20
476.39994750000005
 11
9.4632869999999798
 21
477.39994750000005
  0
LINE
  8
_0-0_0
  6
CONTINUOUS
 62
    7
 10
9.4632869999999798
 20
477.39994750000005
 11
10.031181000000004
 21
478.39994750000005
  0
LINE
  8
_0-0_0
  6
CONTINUOUS
 62
    7
 10
10.031181000000004
 20
478.39994750000005
 11
11.195403999999996
 21
478.39994750000005
  0
LINE
  8
_0-0_0
  6
CONTINUOUS
 62
    7
 10
11.195403999999996
 20
478.39994750000005
 11
11.763289999999984
 21
477.39994750000005
  0
LINE
  8
_0-0_0
  6
CONTINUOUS
 62
    7
 10
11.763289999999984
 20
477.39994750000005
 11
11.195403999999996
 21
476.39994750000005
  0
CIRCLE
  8
_0-0_0
  6
CONTINUOUS
 62
    7
 10
4.6132890000000089
 20
469.09992950000003
 40
5
  0
LINE
  8
_0-0_0
  6
CONTINUOUS
 62
    7
 10
-0.8045960000000036
 20
459.79994150000005
 11
-1.9688189999999963
 21
459.79994150000005
  0
LINE
  8
_0-0_0
  6
CONTINUOUS
 62
    7
 10
-1.9688189999999963
 20
459.79994150000005
 11
-2.5367049999999836
 21
460.79994150000005
  0
LINE
  8
_0-0_0
  6
CONTINUOUS
 62
    7
 10
-2.5367049999999836
 20
460.79994150000005
 11
-1.9688189999999963
 21
461.79994150000005
  0
LINE
  8
_0-0_0
  6
CONTINUOUS
 62
    7
 10
-1.9688189999999963
 20
461.79994150000005
 11
-0.8045960000000036
 21
461.79994150000005
  0
LINE
  8
_0-0_0
  6
CONTINUOUS
 62
    7
 10
-0.8045960000000036
 20
461.79994150000005
 11
-0.2367100000000164
 21
460.79994150000005
  0
LINE
  8
_0-0_0
  6
CONTINUOUS
 62
    7
 10
-0.2367100000000164
 20
460.79994150000005
 11
-0.8045960000000036
 21
459.79994150000005
  0
CIRCLE
  8
_0-0_0
  6
CONTINUOUS
 62
    7
 10
4.6132890000000089
 20
469.09992950000003
 40
4.5381200000000002
  0
CIRCLE
  8
_0-0_0
  6
CONTINUOUS
 62
    7
 10
4.6132890000000089
 20
469.09992950000003
 40
4
  0
LINE
  8
_0-0_0
  6
CONTINUOUS
 62
    7
 10
-3.5192870000000198
 20
479.05525150000005
 11
-4.1867060000000151
 21
479.05525150000005
  0
ARC
  8
_0-0_0
  6
CONTINUOUS
 62
    7
 10
12.613296999999989
 20
479.52494750000005
 40
0.2
 50
179.94055499999999
 51
269.99997000000002
  0
ARC
  8
_0-0_0
  6
CONTINUOUS
 62
    7
 10
11.113296999999989
 20
460.29994150000005
 40
2
 50
269.99999700000001
 51
273.84026499999999
  0
ARC
  8
_0-0_0
  6
CONTINUOUS
 62
    7
 10
-1.8867109999999911
 20
477.89994750000005
 40
2
 50
90.000003000000007
 51
93.840255999999997
  0
LINE
  8
_0-0_0
  6
CONTINUOUS
 62
    7
 10
12.913299999999992
 20
479.32493550000004
 11
12.613296999999989
 21
479.32493550000004
  0
LINE
  8
_0-0_0
  6
CONTINUOUS
 62
    7
 10
12.913299999999992
 20
482.27494750000005
 11
12.613296999999989
 21
482.27494750000005
  0
ARC
  8
_0-0_0
  6
CONTINUOUS
 62
    7
 10
-3.3867109999999911
 20
479.52500950000001
 40
0.2
 50
270.00002499999994
 51
0.0594439999999606
  0
ARC
  8
_0-0_0
  6
CONTINUOUS
 62
    7
 10
12.913253999999995
 20
479.52497849999997
 40
0.200055
 50
270.00964199999999
 51
1.3705509999999435
  0
ARC
  8
_0-0_0
  6
CONTINUOUS
 62
    7
 10
12.913283999999976
 20
482.07493550000004
 40
0.2
 50
359.91222800000003
 51
89.999948000000003
  0
LINE
  8
_0-0_0
  6
CONTINUOUS
 62
    7
 10
-3.6867060000000151
 20
479.32502750000003
 11
-3.3867109999999911
 21
479.32502750000003
  0
ARC
  8
_0-0_0
  6
CONTINUOUS
 62
    7
 10
-3.686676000000034
 20
479.52507049999997
 40
0.200055
 50
178.629446
 51
269.99035300000003
  0
LINE
  8
_0-0_0
  6
CONTINUOUS
 62
    7
 10
13.313293999999985
 20
484.80000250000001
 11
13.313293999999985
 21
498.00001550000002
  0
ARC
  8
_0-0_0
  6
CONTINUOUS
 62
    7
 10
12.813293999999985
 20
484.80000250000001
 40
0.5
 50
269.99999700000001
 51
0
  0
ARC
  8
_0-0_0
  6
CONTINUOUS
 62
    7
 10
13.254714999999976
 20
498.20002750000003
 40
0.1
 50
135
 51
225
  0
LINE
  8
_0-0_0
  6
CONTINUOUS
 62
    7
 10
13.184005999999954
 20
498.12931849999995
 11
13.313293999999985
 21
498.00001550000002
  0
LINE
  8
_0-0_0
  6
CONTINUOUS
 62
    7
 10
12.813293999999985
 20
484.30000250000001
 11
10.913299999999992
 21
484.30000250000001
  0
ARC
  8
_0-0_0
  6
CONTINUOUS
 62
    7
 10
10.913299999999992
 20
484.80000250000001
 40
0.5
 50
233.12990600000001
 51
269.99999700000001
  0
ARC
  8
_0-0_0
  6
CONTINUOUS
 62
    7
 10
-1.7867049999999836
 20
484.80000250000001
 40
0.5
 50
269.99999700000001
 51
306.87009999999998
  0
LINE
  8
_0-0_0
  6
CONTINUOUS
 62
    7
 10
-1.7867049999999836
 20
484.30000250000001
 11
-3.6867060000000151
 21
484.30000250000001
  0
ARC
  8
_0-0_0
  6
CONTINUOUS
 62
    7
 10
-3.6867060000000151
 20
484.80000250000001
 40
0.5
 50
180.00000900000003
 51
269.99999700000001
  0
LINE
  8
_0-0_0
  6
CONTINUOUS
 62
    7
 10
-4.1867060000000151
 20
494.23500049999996
 11
-4.1867060000000151
 21
484.80000250000001
  0
LINE
  8
_0-0_0
  6
CONTINUOUS
 62
    7
 10
-4.1867060000000151
 20
494.23500049999996
 11
-3.4867100000000164
 21
494.23500049999996
  0
LINE
  8
_0-0_0
  6
CONTINUOUS
 62
    7
 10
12.513289999999984
 20
512.80000250000001
 11
12.719330000000014
 21
512.80000250000001
  0
LINE
  8
_0-0_0
  6
CONTINUOUS
 62
    7
 10
12.719330000000014
 20
512.80000250000001
 11
13.313293999999985
 21
512.20603949999997
  0
LINE
  8
_0-0_0
  6
CONTINUOUS
 62
    7
 10
13.313293999999985
 20
507.20002750000003
 11
13.313293999999985
 21
512.20603949999997
  0
LINE
  8
_0-0_0
  6
CONTINUOUS
 62
    7
 10
13.184005999999954
 20
507.07072449999998
 11
13.313293999999985
 21
507.20002750000003
  0
ARC
  8
_0-0_0
  6
CONTINUOUS
 62
    7
 10
13.254714999999976
 20
507.00001550000002
 40
0.1
 50
135
 51
225
  0
LINE
  8
_0-0_0
  6
CONTINUOUS
 62
    7
 10
13.184005999999954
 20
506.92930550000005
 11
13.313293999999985
 21
506.80000250000001
  0
LINE
  8
_0-0_0
  6
CONTINUOUS
 62
    7
 10
13.313293999999985
 20
506.10002150000003
 11
13.313293999999985
 21
506.80000250000001
  0
LINE
  8
_0-0_0
  6
CONTINUOUS
 62
    7
 10
13.184005999999954
 20
505.97071849999998
 11
13.313293999999985
 21
506.10002150000003
  0
ARC
  8
_0-0_0
  6
CONTINUOUS
 62
    7
 10
13.254714999999976
 20
505.90000950000001
 40
0.1
 50
135
 51
225
  0
LINE
  8
_0-0_0
  6
CONTINUOUS
 62
    7
 10
13.184005999999954
 20
505.82929950000005
 11
13.313293999999985
 21
505.70002750000003
  0
LINE
  8
_0-0_0
  6
CONTINUOUS
 62
    7
 10
13.313293999999985
 20
505.00001550000002
 11
13.313293999999985
 21
505.70002750000003
  0
LINE
  8
_0-0_0
  6
CONTINUOUS
 62
    7
 10
13.184005999999954
 20
504.87074250000001
 11
13.313293999999985
 21
505.00001550000002
  0
ARC
  8
_0-0_0
  6
CONTINUOUS
 62
    7
 10
13.254714999999976
 20
504.80000250000001
 40
0.1
 50
135
 51
225
  0
LINE
  8
_0-0_0
  6
CONTINUOUS
 62
    7
 10
13.184005999999954
 20
504.72929350000004
 11
13.313293999999985
 21
504.60002150000003
  0
LINE
  8
_0-0_0
  6
CONTINUOUS
 62
    7
 10
13.313293999999985
 20
503.90000950000001
 11
13.313293999999985
 21
504.60002150000003
  0
LINE
  8
_0-0_0
  6
CONTINUOUS
 62
    7
 10
13.184005999999954
 20
503.7707365
 11
13.313293999999985
 21
503.90000950000001
  0
ARC
  8
_0-0_0
  6
CONTINUOUS
 62
    7
 10
13.254714999999976
 20
503.70002750000003
 40
0.1
 50
135
 51
225
  0
LINE
  8
_0-0_0
  6
CONTINUOUS
 62
    7
 10
13.184005999999954
 20
503.62931849999995
 11
13.313293999999985
 21
503.50001550000002
  0
LINE
  8
_0-0_0
  6
CONTINUOUS
 62
    7
 10
13.313293999999985
 20
502.80000250000001
 11
13.313293999999985
 21
503.50001550000002
  0
LINE
  8
_0-0_0
  6
CONTINUOUS
 62
    7
 10
13.184005999999954
 20
502.67073049999999
 11
13.313293999999985
 21
502.80000250000001
  0
ARC
  8
_0-0_0
  6
CONTINUOUS
 62
    7
 10
13.254714999999976
 20
502.60002150000003
 40
0.1
 50
135
 51
225
  0
LINE
  8
_0-0_0
  6
CONTINUOUS
 62
    7
 10
13.184005999999954
 20
502.52931149999995
 11
13.313293999999985
 21
502.40000950000001
  0
LINE
  8
_0-0_0
  6
CONTINUOUS
 62
    7
 10
13.313293999999985
 20
501.70002750000003
 11
13.313293999999985
 21
502.40000950000001
  0
LINE
  8
_0-0_0
  6
CONTINUOUS
 62
    7
 10
13.184005999999954
 20
501.57072449999998
 11
13.313293999999985
 21
501.70002750000003
  0
ARC
  8
_0-0_0
  6
CONTINUOUS
 62
    7
 10
13.254714999999976
 20
501.50001550000002
 40
0.1
 50
135
 51
225
  0
LINE
  8
_0-0_0
  6
CONTINUOUS
 62
    7
 10
13.184005999999954
 20
501.42930550000005
 11
13.313293999999985
 21
501.30000250000001
  0
LINE
  8
_0-0_0
  6
CONTINUOUS
 62
    7
 10
13.313293999999985
 20
500.60002150000003
 11
13.313293999999985
 21
501.30000250000001
  0
LINE
  8
_0-0_0
  6
CONTINUOUS
 62
    7
 10
13.184005999999954
 20
500.47071849999998
 11
13.313293999999985
 21
500.60002150000003
  0
ARC
  8
_0-0_0
  6
CONTINUOUS
 62
    7
 10
13.254714999999976
 20
500.40000950000001
 40
0.1
 50
135
 51
225
  0
LINE
  8
_0-0_0
  6
CONTINUOUS
 62
    7
 10
13.184005999999954
 20
500.32929950000005
 11
13.313293999999985
 21
500.20002750000003
  0
LINE
  8
_0-0_0
  6
CONTINUOUS
 62
    7
 10
13.313293999999985
 20
499.50001550000002
 11
13.313293999999985
 21
500.20002750000003
  0
LINE
  8
_0-0_0
  6
CONTINUOUS
 62
    7
 10
13.184005999999954
 20
499.37074250000001
 11
13.313293999999985
 21
499.50001550000002
  0
ARC
  8
_0-0_0
  6
CONTINUOUS
 62
    7
 10
13.254714999999976
 20
499.30000250000001
 40
0.1
 50
135
 51
225
  0
LINE
  8
_0-0_0
  6
CONTINUOUS
 62
    7
 10
13.184005999999954
 20
499.22929350000004
 11
13.313293999999985
 21
499.10002150000003
  0
LINE
  8
_0-0_0
  6
CONTINUOUS
 62
    7
 10
13.313293999999985
 20
498.40000950000001
 11
13.313293999999985
 21
499.10002150000003
  0
LINE
  8
_0-0_0
  6
CONTINUOUS
 62
    7
 10
13.184005999999954
 20
498.2707365
 11
13.313293999999985
 21
498.40000950000001
  0
LINE
  8
_0-0_0
  6
CONTINUOUS
 62
    7
 10
13.313293999999985
 20
490.30000250000001
 11
13.413299999999992
 21
490.30000250000001
  0
LINE
  8
_0-0_0
  6
CONTINUOUS
 62
    7
 10
13.413299999999992
 20
489.80000250000001
 11
13.413299999999992
 21
490.30000250000001
  0
LINE
  8
_0-0_0
  6
CONTINUOUS
 62
    7
 10
13.413299999999992
 20
489.80000250000001
 11
13.413299999999992
 21
485.80000250000001
  0
LINE
  8
_0-0_0
  6
CONTINUOUS
 62
    7
 10
13.313293999999985
 20
485.30000250000001
 11
13.413299999999992
 21
485.30000250000001
  0
LINE
  8
_0-0_0
  6
CONTINUOUS
 62
    7
 10
13.413299999999992
 20
485.30000250000001
 11
13.413299999999992
 21
485.80000250000001
  0
LINE
  8
_0-0_0
  6
CONTINUOUS
 62
    7
 10
-4.1867060000000151
 20
494.30003350000004
 11
-4.1867060000000151
 21
494.23500049999996
  0
LINE
  8
_0-0_0
  6
CONTINUOUS
 62
    7
 10
12.313293999999985
 20
513.10002150000003
 11
12.313293999999985
 21
513.00001550000002
  0
ARC
  8
_0-0_0
  6
CONTINUOUS
 62
    7
 10
-0.1867060000000151
 20
513.10002150000003
 40
2.5
 50
90.000003000000007
 51
180.00000900000001
  0
LINE
  8
_0-0_0
  6
CONTINUOUS
 62
    7
 10
-4.2867049999999836
 20
494.30000250000001
 11
-3.4867100000000164
 21
494.30000250000001
  0
LINE
  8
_0-0_0
  6
CONTINUOUS
 62
    7
 10
-3.7867049999999836
 20
516.10002150000003
 11
-3.7867049999999836
 21
511.87849449999999
  0
LINE
  8
_0-0_0
  6
CONTINUOUS
 62
    7
 10
-2.6867060000000151
 20
516.10002150000003
 11
-2.6867060000000151
 21
513.10002150000003
  0
LINE
  8
_0-0_0
  6
CONTINUOUS
 62
    7
 10
-3.7867049999999836
 20
511.87849449999999
 11
-3.4867100000000164
 21
511.87849449999999
  0
LINE
  8
_0-0_0
  6
CONTINUOUS
 62
    7
 10
-3.7867049999999836
 20
521.23991350000006
 11
-2.6867060000000151
 21
521.23991350000006
  0
LINE
  8
_0-0_0
  6
CONTINUOUS
 62
    7
 10
-2.6867060000000151
 20
516.10032650000005
 11
-2.6867060000000151
 21
521.23991350000006
  0
LINE
  8
_0-0_0
  6
CONTINUOUS
 62
    7
 10
-4.2867049999999836
 20
515.60060150000004
 11
-4.2867049999999836
 21
520.67213449999997
  0
LINE
  8
_0-0_0
  6
CONTINUOUS
 62
    7
 10
-3.7867049999999836
 20
521.23991350000006
 11
-4.2867049999999836
 21
520.67213449999997
  0
ARC
  8
_0-0_0
  6
CONTINUOUS
 62
    7
 10
9.8132939999999849
 20
513.10002150000003
 40
2.5
 50
0
 51
90.000003000000007
  0
LINE
  8
_0-0_0
  6
CONTINUOUS
 62
    7
 10
-2.6867060000000151
 20
513.00001550000002
 11
-2.6867060000000151
 21
513.10002150000003
  0
LINE
  8
_0-0_0
  6
CONTINUOUS
 62
    7
 10
9.8132939999999849
 20
515.60002150000003
 11
-0.1867060000000151
 21
515.60002150000003
  0
LINE
  8
_0-0_0
  6
CONTINUOUS
 62
    7
 10
13.513289999999984
 20
485.80000250000001
 11
13.513289999999984
 21
485.93037449999997
  0
LINE
  8
_0-0_0
  6
CONTINUOUS
 62
    7
 10
13.513289999999984
 20
489.43037449999997
 11
13.513289999999984
 21
485.93037449999997
  0
LINE
  8
_0-0_0
  6
CONTINUOUS
 62
    7
 10
13.413299999999992
 20
489.70002750000003
 11
13.513289999999984
 21
489.70002750000003
  0
LINE
  8
_0-0_0
  6
CONTINUOUS
 62
    7
 10
13.513289999999984
 20
489.43037449999997
 11
13.513289999999984
 21
489.70002750000003
  0
LINE
  8
_0-0_0
  6
CONTINUOUS
 62
    7
 10
-2.6867060000000151
 20
523.60002150000003
 11
-2.6867060000000151
 21
521.23991350000006
  0
LINE
  8
_0-0_0
  6
CONTINUOUS
 62
    7
 10
13.113296999999989
 20
512.20002750000003
 11
12.113296999999989
 21
513.20002750000003
  0
LINE
  8
_0-0_0
  6
CONTINUOUS
 62
    7
 10
13.113296999999989
 20
484.40000950000001
 11
13.113296999999989
 21
512.20002750000003
  0
LINE
  8
_0-0_0
  6
CONTINUOUS
 62
    7
 10
-3.4867100000000164
 20
484.40000950000001
 11
13.113296999999989
 21
484.40000950000001
  0
LINE
  8
_0-0_0
  6
CONTINUOUS
 62
    7
 10
-3.4867100000000164
 20
512.20002750000003
 11
-3.4867100000000164
 21
484.40000950000001
  0
LINE
  8
_0-0_0
  6
CONTINUOUS
 62
    7
 10
-4.2867049999999836
 20
494.30000250000001
 11
-4.2867049999999836
 21
511.11283849999995
  0
LINE
  8
_0-0_0
  6
CONTINUOUS
 62
    7
 10
-4.2867049999999836
 20
515.60002150000003
 11
-4.2867049999999836
 21
511.11283849999995
  0
ARC
  8
_0-0_0
  6
CONTINUOUS
 62
    7
 10
27.165038999999979
 20
491.11784350000005
 40
37.269466000000001
 50
146.14857699999999
 51
147.55443399999999
  0
LINE
  8
_0-0_0
  6
CONTINUOUS
 62
    7
 10
-3.7867049999999836
 20
523.60002150000003
 11
-3.7867049999999836
 21
521.23991350000006
  0
LINE
  8
_0-0_0
  6
CONTINUOUS
 62
    7
 10
-4.2867049999999836
 20
523.10002150000003
 11
-4.2867049999999836
 21
520.67213449999997
  0
ARC
  8
_0-0_0
  6
CONTINUOUS
 62
    7
 10
9.5442429999999945
 20
512.80000250000001
 40
2.6000000000000001
 50
8.8498839999999994
 51
90.000002999999992
  0
LINE
  8
_0-0_0
  6
CONTINUOUS
 62
    7
 10
9.5442429999999945
 20
515.40000950000001
 11
0.0823359999999979
 21
515.40000950000001
  0
ARC
  8
_0-0_0
  6
CONTINUOUS
 62
    7
 10
0.0823359999999979
 20
512.80000250000001
 40
2.6000000000000001
 50
90.000003000000007
 51
171.150115
  0
LINE
  8
_0-0_0
  6
CONTINUOUS
 62
    7
 10
-3.4867100000000164
 20
512.20002750000003
 11
-2.4867100000000164
 21
513.20002750000003
  0
LINE
  8
_0-0_0
  6
CONTINUOUS
 62
    7
 10
12.113296999999989
 20
511.78581250000002
 11
13.113296999999989
 21
512.20002750000003
  0
ARC
  8
_0-0_0
  6
CONTINUOUS
 62
    7
 10
6.5710679999999684
 20
523.98545850000005
 40
12.125811000000001
 50
292.15487000000002
 51
297.19688200000002
  0
LINE
  8
_0-0_0
  6
CONTINUOUS
 62
    7
 10
12.113296999999989
 20
485.40000950000001
 11
13.113296999999989
 21
484.40000950000001
  0
LINE
  8
_0-0_0
  6
CONTINUOUS
 62
    7
 10
-2.4867100000000164
 20
485.40000950000001
 11
-3.4867100000000164
 21
484.40000950000001
  0
LINE
  8
_0-0_0
  6
CONTINUOUS
 62
    7
 10
-2.4867100000000164
 20
511.78581250000002
 11
-3.4867100000000164
 21
512.20002750000003
  0
ARC
  8
_0-0_0
  6
CONTINUOUS
 62
    7
 10
3.0555120000000215
 20
523.98545850000005
 40
12.125813000000001
 50
242.80312000000004
 51
247.84513800000002
  0
CIRCLE
  8
_0-0_0
  6
CONTINUOUS
 62
    7
 10
4.8132939999999849
 20
492.60002150000003
 40
2.0670000000000002
  0
LINE
  8
_0-0_0
  6
CONTINUOUS
 62
    7
 10
-2.6867060000000151
 20
516.10002150000003
 11
-3.7867049999999836
 21
516.10002150000003
  0
LINE
  8
_0-0_0
  6
CONTINUOUS
 62
    7
 10
13.413299999999992
 20
485.80000250000001
 11
13.513289999999984
 21
485.80000250000001
  0
LINE
  8
_0-0_0
  6
CONTINUOUS
 62
    7
 10
13.413299999999992
 20
485.80000250000001
 11
13.513289999999984
 21
485.80000250000001
  0
LINE
  8
_0-0_0
  6
CONTINUOUS
 62
    7
 10
-4.2867049999999836
 20
515.60002150000003
 11
-3.7867049999999836
 21
516.10002150000003
  0
LINE
  8
_0-0_0
  6
CONTINUOUS
 62
    7
 10
-2.6867060000000151
 20
523.60002150000003
 11
-3.7867049999999836
 21
523.60002150000003
  0
LINE
  8
_0-0_0
  6
CONTINUOUS
 62
    7
 10
-4.2867049999999836
 20
523.10002150000003
 11
-3.7867049999999836
 21
523.60002150000003
  0
ENDSEC
  0
EOF
