  0
SECTION
  2
HEADER
  9
$ACADVER
  1
AC1009
  9
$INSBASE
 10
0
 20
0
 30
0
  9
$EXTMIN
 10
0
 20
0
  9
$EXTMAX
 10
841
 20
594
  9
$LIMMIN
 10
0
 20
0
  9
$LIMMAX
 10
841
 20
594
  9
$LTSCALE
 40
1
  0
ENDSEC
  0
SECTION
  2
TABLES
  0
TABLE
  2
LTYPE
 70
     9
  0
LTYPE
  2
CONTINUOUS
 70
    64
  3
実線
 72
    65
 73
     0
 40
0.0
  0
LTYPE
  2
DASHED1
 70
    64
  3
--  --  --  --  --  --  --  --  
 72
    65
 73
     2
 40
2.5
 49
1.25
 49
-1.25
  0
LTYPE
  2
DASHED2
 70
    64
  3
----    ----    ----    ----    
 72
    65
 73
     2
 40
5.0
 49
2.5
 49
-2.5
  0
LTYPE
  2
DASHED3
 70
    64
  3
------  ------  ------  ------  
 72
    65
 73
     2
 40
5.0
 49
3.75
 49
-1.25
  0
LTYPE
  2
CENTER1
 70
    64
  3
----- - ----- - ----- - ----- - 
 72
    65
 73
     4
 40
10.0
 49
6.25
 49
-1.25
 49
1.25
 49
-1.25
  0
LTYPE
  2
CENTER2
 70
    64
  3
----------  --  ----------  --  
 72
    65
 73
     4
 40
20.0
 49
12.5
 49
-2.5
 49
2.5
 49
-2.5
  0
LTYPE
  2
PHANTOM1
 70
    64
  3
--- - - --- - - --- - - --- - - 
 72
    65
 73
     6
 40
10.0
 49
3.25
 49
-1.25
 49
1.25
 49
-1.25
 49
1.25
 49
-1.25
  0
LTYPE
  2
PHANTOM2
 70
    64
  3
--------  -  -  --------  -  -  
 72
    65
 73
     6
 40
20.0
 49
10.0
 49
-2.5
 49
1.25
 49
-2.5
 49
1.25
 49
-2.5
  0
LTYPE
  2
DOT
 70
    64
  3
-   -   -   -   -   -   -   -   
 72
    65
 73
     2
 40
2.5
 49
0.625
 49
-1.875
  0
LTYPE
  2
DUMMY
 70
    64
  3
ダミー
 72
    65
 73
     0
 40
0.0
  0
LTYPE
  2
RAND1
 70
    64
  3
ランダム線1
 72
    65
 73
     4
 40
10.0
 49
1.0
 49
-2.0
 49
3.0
 49
-4.0
  0
LTYPE
  2
RAND2
 70
    64
  3
ランダム線2
 72
    65
 73
     4
 40
14.0
 49
2.0
 49
-3.0
 49
4.0
 49
-5.0
  0
LTYPE
  2
RAND3
 70
    64
  3
ランダム線3
 72
    65
 73
     4
 40
18.0
 49
3.0
 49
-4.0
 49
5.0
 49
-6.0
  0
LTYPE
  2
RAND4
 70
    64
  3
ランダム線4
 72
    65
 73
     4
 40
22.0
 49
4.0
 49
-5.0
 49
6.0
 49
-7.0
  0
LTYPE
  2
RAND5
 70
    64
  3
ランダム線5
 72
    65
 73
     4
 40
26.0
 49
5.0
 49
-6.0
 49
7.0
 49
-8.0
  0
LTYPE
  2
LONG1
 70
    64
  3
----------  --  ----------  --  
 72
    65
 73
     4
 40
40.0
 49
32.5
 49
-2.5
 49
2.5
 49
-2.5
  0
LTYPE
  2
LONG2
 70
    64
  3
--------  -  -  --------  -  -  
 72
    65
 73
     6
 40
40.0
 49
30.0
 49
-2.5
 49
1.25
 49
-2.5
 49
1.25
 49
-2.5
  0
LTYPE
  2
LONG3
 70
    64
  3
+++++++++++++++..+++++++++++++++
 72
    65
 73
     2
 40
40.0
 49
37.5
 49
-2.5
  0
LTYPE
  2
LONG4
 70
    64
  3
+++++++++++++++..+++++++++++++++
 72
    65
 73
     2
 40
80.0
 49
75.0
 49
-5.0
  0
LTYPE
  2
LONG5
 70
    64
  3
----------  --  ----------  --  
 72
    65
 73
     4
 40
60.0
 49
37.5
 49
-7.5
 49
7.5
 49
-7.5
  0
LTYPE
  2
dashed
 70
   64
  3
-------   -------------   ------
 72
   65
 73
    2
 40
7.5
 49
6
 49
-1.5
  0
LTYPE
  2
dashed_spaced
 70
   64
  3
----        --------        ----
 72
   65
 73
    2
 40
12
 49
6
 49
-6
  0
LTYPE
  2
long_dashed_dotted
 70
   64
  3
------------- --- --------------
 72
   65
 73
    4
 40
15.25
 49
12
 49
-1.5
 49
0.25
 49
-1.5
  0
LTYPE
  2
long_dashed_double-dotted
 70
   64
  3
----------- --- --- ------------
 72
   65
 73
    6
 40
17
 49
12
 49
-1.5
 49
0.25
 49
-1.5
 49
0.25
 49
-1.5
  0
LTYPE
  2
long_dashed_triplicate-dotted
 70
   64
  3
--------- --- --- --- ----------
 72
   65
 73
    8
 40
18.75
 49
12
 49
-1.5
 49
0.25
 49
-1.5
 49
0.25
 49
-1.5
 49
0.25
 49
-1.5
  0
LTYPE
  2
dotted
 70
   64
  3
   -       -       -       -    
 72
   65
 73
    2
 40
1.75
 49
0.25
 49
-1.5
  0
LTYPE
  2
chain
 70
   64
  3
-------------- -- --------------
 72
   65
 73
    4
 40
18.5
 49
12
 49
-1.5
 49
3.5
 49
-1.5
  0
LTYPE
  2
chain_double_dash
 70
   64
  3
------------ -- -- -------------
 72
   65
 73
    6
 40
23.5
 49
12
 49
-1.5
 49
3.5
 49
-1.5
 49
3.5
 49
-1.5
  0
LTYPE
  2
dashed_dotted
 70
   64
  3
-----------     -     ----------
 72
   65
 73
    4
 40
9.25
 49
6
 49
-1.5
 49
0.25
 49
-1.5
  0
LTYPE
  2
double-dashed_dotted
 70
   64
  3
------   -----------   -   -----
 72
   65
 73
    6
 40
16.75
 49
6
 49
-1.5
 49
6
 49
-1.5
 49
0.25
 49
-1.5
  0
LTYPE
  2
dashed_double-dotted
 70
   64
  3
---------    -    -    ---------
 72
   65
 73
    6
 40
11
 49
6
 49
-1.5
 49
0.25
 49
-1.5
 49
0.25
 49
-1.5
  0
LTYPE
  2
double-dashed_double-dotted
 70
   64
  3
-----   ---------   -   -   ----
 72
   65
 73
    8
 40
18.5
 49
6
 49
-1.5
 49
6
 49
-1.5
 49
0.25
 49
-1.5
 49
0.25
 49
-1.5
  0
LTYPE
  2
dashed_triplicate-dotted
 70
   64
  3
-------    -    -    -    ------
 72
   65
 73
    8
 40
12.75
 49
6
 49
-1.5
 49
0.25
 49
-1.5
 49
0.25
 49
-1.5
 49
0.25
 49
-1.5
  0
LTYPE
  2
double-dashed_triplicate-dotted
 70
   64
  3
-----  ---------  -  -  -  -----
 72
   65
 73
   10
 40
20.25
 49
6
 49
-1.5
 49
6
 49
-1.5
 49
0.25
 49
-1.5
 49
0.25
 49
-1.5
 49
0.25
 49
-1.5
  0
LTYPE
  2
undefined
 70
   64
  3
--------------------------------
 72
   65
 73
    0
 40
0
  0
ENDTAB
  0
TABLE
  2
STYLE
  5
3
100
AcDbSymbolTable
 70
     1
  0
STYLE
  5
10
100
AcDbSymbolTableRecord
100
AcDbTextStyleTableRecord
  2
STANDARD
 70
     0
 40
0.0
 41
1.0
 50
0.0
 71
     0
 42
0.2
  3
txt
  4
bigfont.shx
  0
STYLE
  5
26
100
AcDbSymbolTableRecord
100
AcDbTextStyleTableRecord
  2
TATEGAKI
 70
    68
 40
0.0
 41
1.0
 50
0.0
 71
     0
 42
1.0
  3
txt
  4
bigfont.shx
  0
ENDTAB
  0
TABLE
  2
LAYER
 70
    2
  0
LAYER
  2
_0-0_0
 70
   64
 62
    7
  6
CONTINUOUS
  0
LAYER
  2
ADD_LINE
 70
   64
 62
    7
  6
CONTINUOUS
  0
ENDTAB
  0
ENDSEC
  0
SECTION
  2
BLOCKS
  0
ENDSEC
  0
SECTION
  2
ENTITIES
  0
LINE
  8
_0-0_0
  6
CONTINUOUS
 62
    7
 10
120.92893249999997
 20
460.17515549999996
 11
120.92893249999997
 21
460.1741485
  0
LINE
  8
_0-0_0
  6
CONTINUOUS
 62
    7
 10
273.74143950000001
 20
421.24421749999999
 11
272.44143650000001
 21
417.74421749999999
  0
ARC
  8
_0-0_0
  6
CONTINUOUS
 62
    7
 10
273.92892449999999
 20
421.17457550000006
 40
0.2
 50
20.376434999999997
 51
159.62357000000003
  0
ARC
  8
_0-0_0
  6
CONTINUOUS
 62
    7
 10
311.92892449999999
 20
424.07456950000005
 40
2.2000000000000002
 50
180.00000900000003
 51
303.74900400000001
  0
LINE
  8
_0-0_0
  6
CONTINUOUS
 62
    7
 10
309.72891249999998
 20
425.57456950000005
 11
309.72891249999998
 21
424.07456950000005
  0
LINE
  8
_0-0_0
  6
CONTINUOUS
 62
    7
 10
309.72891249999998
 20
425.57456950000005
 11
235.12893650000001
 21
425.57456950000005
  0
LINE
  8
_0-0_0
  6
CONTINUOUS
 62
    7
 10
235.12893650000001
 20
425.57456950000005
 11
235.12893650000001
 21
424.07456950000005
  0
ARC
  8
_0-0_0
  6
CONTINUOUS
 62
    7
 10
232.92892449999999
 20
424.07456950000005
 40
2.2000000000000002
 50
236.25102899999999
 51
0
  0
ARC
  8
_0-0_0
  6
CONTINUOUS
 62
    7
 10
231.42892449999999
 20
421.82957450000004
 40
0.5
 50
56.251010000000008
 51
180.00000900000001
  0
LINE
  8
_0-0_0
  6
CONTINUOUS
 62
    7
 10
230.92892449999999
 20
401.47456350000004
 11
230.92892449999999
 21
402.25169349999999
  0
LINE
  8
_0-0_0
  6
CONTINUOUS
 62
    7
 10
230.92892449999999
 20
401.47456350000004
 11
240.7289275
 21
401.47456350000004
  0
ARC
  8
_0-0_0
  6
CONTINUOUS
 62
    7
 10
240.7289275
 20
401.67457550000006
 40
0.2
 50
269.99999700000001
 51
0
  0
LINE
  8
_0-0_0
  6
CONTINUOUS
 62
    7
 10
240.92892449999999
 20
403.37458849999996
 11
240.92892449999999
 21
401.67457550000006
  0
ARC
  8
_0-0_0
  6
CONTINUOUS
 62
    7
 10
241.12893650000001
 20
403.37458849999996
 40
0.2
 50
90.000003000000007
 51
180.00000900000001
  0
LINE
  8
_0-0_0
  6
CONTINUOUS
 62
    7
 10
241.62893650000001
 20
403.57456950000005
 11
241.12893650000001
 21
403.57456950000005
  0
ARC
  8
_0-0_0
  6
CONTINUOUS
 62
    7
 10
241.62893650000001
 20
403.07456950000005
 40
0.5
 50
90.000003000000007
 51
180.00000900000001
  0
LINE
  8
_0-0_0
  6
CONTINUOUS
 62
    7
 10
241.12893650000001
 20
401.57456950000005
 11
241.12893650000001
 21
403.07456950000005
  0
LINE
  8
_0-0_0
  6
CONTINUOUS
 62
    7
 10
310.72891249999998
 20
401.57456950000005
 11
241.12893650000001
 21
401.57456950000005
  0
LINE
  8
_0-0_0
  6
CONTINUOUS
 62
    7
 10
310.72891249999998
 20
401.57456950000005
 11
310.72891249999998
 21
403.07456950000005
  0
ARC
  8
_0-0_0
  6
CONTINUOUS
 62
    7
 10
310.22891249999998
 20
403.07456950000005
 40
0.5
 50
0
 51
90.000003000000007
  0
LINE
  8
_0-0_0
  6
CONTINUOUS
 62
    7
 10
310.72891249999998
 20
403.57456950000005
 11
310.22891249999998
 21
403.57456950000005
  0
ARC
  8
_0-0_0
  6
CONTINUOUS
 62
    7
 10
310.72891249999998
 20
403.37458849999996
 40
0.2
 50
0
 51
90.000003000000007
  0
LINE
  8
_0-0_0
  6
CONTINUOUS
 62
    7
 10
310.92892449999999
 20
401.67457550000006
 11
310.92892449999999
 21
403.37458849999996
  0
ARC
  8
_0-0_0
  6
CONTINUOUS
 62
    7
 10
311.12893650000001
 20
401.67457550000006
 40
0.2
 50
180.00000900000003
 51
269.99999700000001
  0
LINE
  8
_0-0_0
  6
CONTINUOUS
 62
    7
 10
311.12893650000001
 20
401.47456350000004
 11
311.92892449999999
 21
401.47456350000004
  0
ARC
  8
_0-0_0
  6
CONTINUOUS
 62
    7
 10
311.92892449999999
 20
403.47456350000004
 40
2
 50
269.99999700000001
 51
0.0000099999999886
  0
LINE
  8
_0-0_0
  6
CONTINUOUS
 62
    7
 10
313.92892449999999
 20
421.82957450000004
 11
313.92892449999999
 21
403.47456350000004
  0
ARC
  8
_0-0_0
  6
CONTINUOUS
 62
    7
 10
313.42892449999999
 20
421.82957450000004
 40
0.5
 50
0
 51
123.74898500000002
  0
LINE
  8
_0-0_0
  6
CONTINUOUS
 62
    7
 10
242.42892449999999
 20
403.77458250000007
 11
242.42892449999999
 21
403.97456350000004
  0
LINE
  8
_0-0_0
  6
CONTINUOUS
 62
    7
 10
242.42892449999999
 20
403.97456350000004
 11
309.42892449999999
 21
403.97456350000004
  0
LINE
  8
_0-0_0
  6
CONTINUOUS
 62
    7
 10
309.42892449999999
 20
403.77458250000007
 11
309.42892449999999
 21
403.97456350000004
  0
ARC
  8
_0-0_0
  6
CONTINUOUS
 62
    7
 10
309.62893650000001
 20
403.77458250000007
 40
0.2
 50
180.00000900000003
 51
269.99999700000001
  0
LINE
  8
_0-0_0
  6
CONTINUOUS
 62
    7
 10
309.62893650000001
 20
403.57456950000005
 11
242.2289275
 21
403.57456950000005
  0
ARC
  8
_0-0_0
  6
CONTINUOUS
 62
    7
 10
242.2289275
 20
403.77458250000007
 40
0.2
 50
269.99999700000001
 51
0
  0
ARC
  8
_0-0_0
  6
CONTINUOUS
 62
    7
 10
272.62892150000005
 20
417.67457550000006
 40
0.2
 50
159.62357
 51
269.99999700000001
  0
LINE
  8
_0-0_0
  6
CONTINUOUS
 62
    7
 10
272.62892150000005
 20
417.47456350000004
 11
275.2289275
 21
417.47456350000004
  0
ARC
  8
_0-0_0
  6
CONTINUOUS
 62
    7
 10
275.2289275
 20
417.67457550000006
 40
0.2
 50
269.99999700000001
 51
20.376435000000019
  0
LINE
  8
_0-0_0
  6
CONTINUOUS
 62
    7
 10
275.41641249999998
 20
417.74421749999999
 11
274.11640950000003
 21
421.24421749999999
  0
LINE
  8
_0-0_0
  6
CONTINUOUS
 62
    7
 10
230.92892449999999
 20
421.17457550000006
 11
230.92892449999999
 21
423.15193150000005
  0
LINE
  8
_0-0_0
  6
CONTINUOUS
 62
    7
 10
230.92892449999999
 20
421.17457550000006
 11
230.92892449999999
 21
403.57456950000005
  0
LINE
  8
_0-0_0
  6
CONTINUOUS
 62
    7
 10
230.92892449999999
 20
402.25169349999999
 11
230.92892449999999
 21
403.57456950000005
  0
LINE
  8
_0-0_0
  6
CONTINUOUS
 62
    7
 10
313.92892449999999
 20
427.57456950000005
 11
313.92892449999999
 21
426.57456950000005
  0
LINE
  8
_0-0_0
  6
CONTINUOUS
 62
    7
 10
313.92892449999999
 20
426.57456950000005
 11
313.92892449999999
 21
426.07456950000005
  0
LINE
  8
_0-0_0
  6
CONTINUOUS
 62
    7
 10
313.92892449999999
 20
426.07456950000005
 11
313.92892449999999
 21
424.07456950000005
  0
LINE
  8
_0-0_0
  6
CONTINUOUS
 62
    7
 10
313.92892449999999
 20
424.07456950000005
 11
313.92892449999999
 21
421.82957450000004
  0
LINE
  8
_0-0_0
  6
CONTINUOUS
 62
    7
 10
291.92892449999999
 20
421.57456950000005
 11
291.92892449999999
 21
407.97456350000004
  0
ARC
  8
_0-0_0
  6
CONTINUOUS
 62
    7
 10
294.92892449999999
 20
421.57456950000005
 40
3
 50
90.000003000000007
 51
180.00000900000001
  0
LINE
  8
_0-0_0
  6
CONTINUOUS
 62
    7
 10
308.26284750000002
 20
424.57456950000005
 11
294.92892449999999
 21
424.57456950000005
  0
ARC
  8
_0-0_0
  6
CONTINUOUS
 62
    7
 10
308.26284750000002
 20
423.57456950000005
 40
1
 50
7.7664340000000012
 51
90.000002999999992
  0
ARC
  8
_0-0_0
  6
CONTINUOUS
 62
    7
 10
311.92892449999999
 20
424.07456950000005
 40
2.7000000000000002
 50
187.76643899999999
 51
254.31966600000001
  0
ARC
  8
_0-0_0
  6
CONTINUOUS
 62
    7
 10
310.92892449999999
 20
420.51228349999997
 40
1
 50
0
 51
74.319649999999996
  0
LINE
  8
_0-0_0
  6
CONTINUOUS
 62
    7
 10
311.92892449999999
 20
407.97456350000004
 11
311.92892449999999
 21
420.51228349999997
  0
ARC
  8
_0-0_0
  6
CONTINUOUS
 62
    7
 10
308.92892449999999
 20
407.97456350000004
 40
3
 50
269.99999700000001
 51
0.0000099999999886
  0
LINE
  8
_0-0_0
  6
CONTINUOUS
 62
    7
 10
294.92892449999999
 20
404.97456350000004
 11
308.92892449999999
 21
404.97456350000004
  0
ARC
  8
_0-0_0
  6
CONTINUOUS
 62
    7
 10
294.92892449999999
 20
407.97456350000004
 40
3
 50
180.00000900000003
 51
269.99999700000001
  0
LINE
  8
_0-0_0
  6
CONTINUOUS
 62
    7
 10
237.92892449999999
 20
404.97456350000004
 11
252.92892449999999
 21
404.97456350000004
  0
ARC
  8
_0-0_0
  6
CONTINUOUS
 62
    7
 10
237.92892449999999
 20
407.97456350000004
 40
3
 50
180.00000900000003
 51
269.99999700000001
  0
LINE
  8
_0-0_0
  6
CONTINUOUS
 62
    7
 10
234.92892449999999
 20
421.57456950000005
 11
234.92892449999999
 21
407.97456350000004
  0
ARC
  8
_0-0_0
  6
CONTINUOUS
 62
    7
 10
237.92892449999999
 20
421.57456950000005
 40
3
 50
90.000003000000007
 51
180.00000900000001
  0
LINE
  8
_0-0_0
  6
CONTINUOUS
 62
    7
 10
252.92892449999999
 20
424.57456950000005
 11
237.92892449999999
 21
424.57456950000005
  0
ARC
  8
_0-0_0
  6
CONTINUOUS
 62
    7
 10
252.92892449999999
 20
421.57456950000005
 40
3
 50
0
 51
90.000003000000007
  0
LINE
  8
_0-0_0
  6
CONTINUOUS
 62
    7
 10
255.92892449999999
 20
407.97456350000004
 11
255.92892449999999
 21
421.57456950000005
  0
ARC
  8
_0-0_0
  6
CONTINUOUS
 62
    7
 10
252.92892449999999
 20
407.97456350000004
 40
3
 50
269.99999700000001
 51
0.0000099999999886
  0
LINE
  8
_0-0_0
  6
CONTINUOUS
 62
    7
 10
309.92892449999999
 20
425.57456950000005
 11
309.72891249999998
 21
425.57456950000005
  0
ARC
  8
_0-0_0
  6
CONTINUOUS
 62
    7
 10
311.92892449999999
 20
424.07456950000005
 40
2
 50
180.00000900000003
 51
0.0000000000000254
  0
LINE
  8
_0-0_0
  6
CONTINUOUS
 62
    7
 10
309.92892449999999
 20
425.57456950000005
 11
309.92892449999999
 21
424.07456950000005
  0
LINE
  8
_0-0_0
  6
CONTINUOUS
 62
    7
 10
235.12893650000001
 20
425.57456950000005
 11
234.92892449999999
 21
425.57456950000005
  0
LINE
  8
_0-0_0
  6
CONTINUOUS
 62
    7
 10
234.92892449999999
 20
425.57456950000005
 11
234.92892449999999
 21
424.07456950000005
  0
ARC
  8
_0-0_0
  6
CONTINUOUS
 62
    7
 10
232.92892449999999
 20
424.07456950000005
 40
2
 50
180.00000900000003
 51
0.0000000000000254
  0
LINE
  8
_0-0_0
  6
CONTINUOUS
 62
    7
 10
217.42892449999999
 20
426.07456950000005
 11
217.42892449999999
 21
425.57456950000005
  0
LINE
  8
_0-0_0
  6
CONTINUOUS
 62
    7
 10
230.92892449999999
 20
423.15806550000002
 11
230.92892449999999
 21
423.87455750000004
  0
LINE
  8
_0-0_0
  6
CONTINUOUS
 62
    7
 10
230.92892449999999
 20
423.15806550000002
 11
230.92892449999999
 21
423.15193150000005
  0
LINE
  8
_0-0_0
  6
CONTINUOUS
 62
    7
 10
230.92892449999999
 20
421.94343549999996
 11
230.92892449999999
 21
421.82957450000004
  0
LINE
  8
_0-0_0
  6
CONTINUOUS
 62
    7
 10
218.92892449999999
 20
423.17457550000006
 11
218.92892449999999
 21
421.17457550000006
  0
LINE
  8
_0-0_0
  6
CONTINUOUS
 62
    7
 10
230.92892449999999
 20
423.17457550000006
 11
218.92892449999999
 21
423.17457550000006
  0
LINE
  8
_0-0_0
  6
CONTINUOUS
 62
    7
 10
218.92892449999999
 20
417.67457550000006
 11
218.92892449999999
 21
420.67457550000006
  0
LINE
  8
_0-0_0
  6
CONTINUOUS
 62
    7
 10
218.92892449999999
 20
420.67457550000006
 11
218.92892449999999
 21
421.17457550000006
  0
LINE
  8
_0-0_0
  6
CONTINUOUS
 62
    7
 10
218.92892449999999
 20
417.67457550000006
 11
218.92892449999999
 21
417.17457550000006
  0
ARC
  8
_0-0_0
  6
CONTINUOUS
 62
    7
 10
224.92893950000001
 20
417.87455750000004
 40
0.500016
 50
0.001164
 51
179.99560600000004
  0
LINE
  8
_0-0_0
  6
CONTINUOUS
 62
    7
 10
224.42892449999999
 20
417.87455750000004
 11
224.42892449999999
 21
405.87455750000004
  0
ARC
  8
_0-0_0
  6
CONTINUOUS
 62
    7
 10
224.92893950000001
 20
405.87458849999996
 40
0.500016
 50
180.00117
 51
359.995611
  0
LINE
  8
_0-0_0
  6
CONTINUOUS
 62
    7
 10
225.42892449999999
 20
417.87455750000004
 11
225.42892449999999
 21
405.87455750000004
  0
ARC
  8
_0-0_0
  6
CONTINUOUS
 62
    7
 10
223.42893950000001
 20
417.87455750000004
 40
0.500016
 50
0.001164
 51
179.99560600000004
  0
LINE
  8
_0-0_0
  6
CONTINUOUS
 62
    7
 10
222.92892449999999
 20
417.87455750000004
 11
222.92892449999999
 21
405.87455750000004
  0
ARC
  8
_0-0_0
  6
CONTINUOUS
 62
    7
 10
223.42893950000001
 20
405.87458849999996
 40
0.500016
 50
180.00117
 51
359.995611
  0
LINE
  8
_0-0_0
  6
CONTINUOUS
 62
    7
 10
223.92892449999999
 20
417.87455750000004
 11
223.92892449999999
 21
405.87455750000004
  0
ARC
  8
_0-0_0
  6
CONTINUOUS
 62
    7
 10
221.92893950000001
 20
417.87455750000004
 40
0.500016
 50
0.001164
 51
179.99560600000004
  0
LINE
  8
_0-0_0
  6
CONTINUOUS
 62
    7
 10
221.42892449999999
 20
417.87455750000004
 11
221.42892449999999
 21
405.87455750000004
  0
ARC
  8
_0-0_0
  6
CONTINUOUS
 62
    7
 10
221.92893950000001
 20
405.87458849999996
 40
0.500016
 50
180.00117
 51
359.995611
  0
LINE
  8
_0-0_0
  6
CONTINUOUS
 62
    7
 10
222.42892449999999
 20
417.87455750000004
 11
222.42892449999999
 21
405.87455750000004
  0
ARC
  8
_0-0_0
  6
CONTINUOUS
 62
    7
 10
220.42893950000001
 20
417.87455750000004
 40
0.500016
 50
0.001164
 51
179.99560600000004
  0
LINE
  8
_0-0_0
  6
CONTINUOUS
 62
    7
 10
219.92892449999999
 20
417.87455750000004
 11
219.92892449999999
 21
405.87455750000004
  0
ARC
  8
_0-0_0
  6
CONTINUOUS
 62
    7
 10
220.42893950000001
 20
405.87458849999996
 40
0.500016
 50
180.00117
 51
359.995611
  0
LINE
  8
_0-0_0
  6
CONTINUOUS
 62
    7
 10
220.92892449999999
 20
417.87455750000004
 11
220.92892449999999
 21
405.87455750000004
  0
LINE
  8
_0-0_0
  6
CONTINUOUS
 62
    7
 10
230.92892449999999
 20
401.57456950000005
 11
214.2534795
 21
401.57456950000005
  0
LINE
  8
_0-0_0
  6
CONTINUOUS
 62
    7
 10
241.4789275
 20
403.55152950000002
 11
241.4789275
 21
403.57456950000005
  0
LINE
  8
_0-0_0
  6
CONTINUOUS
 62
    7
 10
310.37893650000001
 20
403.55152950000002
 11
310.37893650000001
 21
403.57456950000005
  0
LINE
  8
_0-0_0
  6
CONTINUOUS
 62
    7
 10
217.42892449999999
 20
426.07456950000005
 11
217.42892449999999
 21
426.57456950000005
  0
LINE
  8
_0-0_0
  6
CONTINUOUS
 62
    7
 10
313.92892449999999
 20
426.57456950000005
 11
217.42892449999999
 21
426.57456950000005
  0
LINE
  8
_0-0_0
  6
CONTINUOUS
 62
    7
 10
217.42892449999999
 20
426.57456950000005
 11
217.42892449999999
 21
427.57456950000005
  0
LINE
  8
_0-0_0
  6
CONTINUOUS
 62
    7
 10
313.92904650000003
 20
427.57463050000001
 11
313.92904650000003
 21
427.07463050000001
  0
LINE
  8
_0-0_0
  6
CONTINUOUS
 62
    7
 10
313.92904650000003
 20
427.07463050000001
 11
313.92904650000003
 21
425.57463050000001
  0
ARC
  8
_0-0_0
  6
CONTINUOUS
 62
    7
 10
304.42892449999999
 20
417.17457550000006
 40
4.5
 50
269.99999700000001
 51
90.000002999999992
  0
LINE
  8
_0-0_0
  6
CONTINUOUS
 62
    7
 10
304.42892449999999
 20
412.67457550000006
 11
299.42892449999999
 21
412.67457550000006
  0
ARC
  8
_0-0_0
  6
CONTINUOUS
 62
    7
 10
299.42892449999999
 20
417.17457550000006
 40
4.5
 50
90.000003000000007
 51
269.99999700000006
  0
LINE
  8
_0-0_0
  6
CONTINUOUS
 62
    7
 10
299.42892449999999
 20
421.67457550000006
 11
304.42892449999999
 21
421.67457550000006
  0
ARC
  8
_0-0_0
  6
CONTINUOUS
 62
    7
 10
248.42892449999999
 20
417.17457550000006
 40
4.5
 50
269.99999700000001
 51
90.000002999999992
  0
LINE
  8
_0-0_0
  6
CONTINUOUS
 62
    7
 10
248.42892449999999
 20
412.67457550000006
 11
243.42892449999999
 21
412.67457550000006
  0
ARC
  8
_0-0_0
  6
CONTINUOUS
 62
    7
 10
243.42892449999999
 20
417.17457550000006
 40
4.5
 50
90.000003000000007
 51
269.99999700000006
  0
LINE
  8
_0-0_0
  6
CONTINUOUS
 62
    7
 10
243.42892449999999
 20
421.67457550000006
 11
248.42892449999999
 21
421.67457550000006
  0
LINE
  8
_0-0_0
  6
CONTINUOUS
 62
    7
 10
230.92892449999999
 20
423.87455750000004
 11
230.92892449999999
 21
425.57456950000005
  0
LINE
  8
_0-0_0
  6
CONTINUOUS
 62
    7
 10
230.92892449999999
 20
425.57456950000005
 11
217.42892449999999
 21
425.57456950000005
  0
LINE
  8
_0-0_0
  6
CONTINUOUS
 62
    7
 10
217.42892449999999
 20
423.87455750000004
 11
217.42892449999999
 21
425.57456950000005
  0
LINE
  8
_0-0_0
  6
CONTINUOUS
 62
    7
 10
218.92892449999999
 20
423.17457550000006
 11
214.2534795
 21
423.17457550000006
  0
LINE
  8
_0-0_0
  6
CONTINUOUS
 62
    7
 10
218.92892449999999
 20
417.67457550000006
 11
214.2534795
 21
417.67457550000006
  0
LINE
  8
_0-0_0
  6
CONTINUOUS
 62
    7
 10
213.62103250000001
 20
401.67720050000003
 11
213.74053950000001
 21
401.64158650000002
  0
LINE
  8
_0-0_0
  6
CONTINUOUS
 62
    7
 10
213.74053950000001
 20
401.64158650000002
 11
213.86209150000002
 21
401.61369350000007
  0
LINE
  8
_0-0_0
  6
CONTINUOUS
 62
    7
 10
213.86209150000002
 20
401.61369350000007
 11
213.98521450000001
 21
401.59367350000002
  0
LINE
  8
_0-0_0
  6
CONTINUOUS
 62
    7
 10
213.98521450000001
 20
401.59367350000002
 11
214.10943650000002
 21
401.58155850000003
  0
LINE
  8
_0-0_0
  6
CONTINUOUS
 62
    7
 10
214.10943650000002
 20
401.58155850000003
 11
214.2342525
 21
401.57740750000005
  0
LINE
  8
_0-0_0
  6
CONTINUOUS
 62
    7
 10
214.2342525
 20
401.57740750000005
 11
214.2534795
 21
401.57749950000004
  0
ARC
  8
_0-0_0
  6
CONTINUOUS
 62
    7
 10
214.2534795
 20
403.57456950000005
 40
2
 50
251.56498899999997
 51
269.99999700000001
  0
LINE
  8
_0-0_0
  6
CONTINUOUS
 62
    7
 10
217.42892449999999
 20
423.87455750000004
 11
230.92892449999999
 21
423.87455750000004
  0
CIRCLE
  8
_0-0_0
  6
CONTINUOUS
 62
    7
 10
311.92892449999999
 20
424.07456950000005
 40
1.4750000000000001
  0
CIRCLE
  8
_0-0_0
  6
CONTINUOUS
 62
    7
 10
232.92892449999999
 20
424.07456950000005
 40
1.4750000000000001
  0
ARC
  8
_0-0_0
  6
CONTINUOUS
 62
    7
 10
214.2534795
 20
421.17457550000006
 40
2
 50
90.000003000000007
 51
108.434997
  0
LINE
  8
_0-0_0
  6
CONTINUOUS
 62
    7
 10
209.4545895
 20
417.67457550000006
 11
208.76123050000001
 21
417.67457550000006
  0
LINE
  8
_0-0_0
  6
CONTINUOUS
 62
    7
 10
209.4545895
 20
417.67457550000006
 11
213.7791445
 21
417.67457550000006
  0
LINE
  8
_0-0_0
  6
CONTINUOUS
 62
    7
 10
214.2534795
 20
417.67457550000006
 11
213.7791445
 21
417.67457550000006
  0
LINE
  8
_0-0_0
  6
CONTINUOUS
 62
    7
 10
209.29647850000001
 20
403.11872849999997
 11
213.62103250000001
 21
401.67720050000003
  0
LINE
  8
_0-0_0
  6
CONTINUOUS
 62
    7
 10
308.47891249999998
 20
417.17457550000006
 11
306.16952550000002
 21
413.17457550000006
  0
LINE
  8
_0-0_0
  6
CONTINUOUS
 62
    7
 10
297.68832450000002
 20
413.17457550000006
 11
306.16952550000002
 21
413.17457550000006
  0
LINE
  8
_0-0_0
  6
CONTINUOUS
 62
    7
 10
297.68832450000002
 20
413.17457550000006
 11
295.37893650000001
 21
417.17457550000006
  0
LINE
  8
_0-0_0
  6
CONTINUOUS
 62
    7
 10
295.37893650000001
 20
417.17457550000006
 11
297.68832450000002
 21
421.17457550000006
  0
LINE
  8
_0-0_0
  6
CONTINUOUS
 62
    7
 10
306.16952550000002
 20
421.17457550000006
 11
297.68832450000002
 21
421.17457550000006
  0
LINE
  8
_0-0_0
  6
CONTINUOUS
 62
    7
 10
306.16952550000002
 20
421.17457550000006
 11
308.47891249999998
 21
417.17457550000006
  0
LINE
  8
_0-0_0
  6
CONTINUOUS
 62
    7
 10
241.68832449999999
 20
421.17457550000006
 11
239.37893650000001
 21
417.17457550000006
  0
LINE
  8
_0-0_0
  6
CONTINUOUS
 62
    7
 10
250.16952550000002
 20
421.17457550000006
 11
241.68832449999999
 21
421.17457550000006
  0
LINE
  8
_0-0_0
  6
CONTINUOUS
 62
    7
 10
252.4789275
 20
417.17457550000006
 11
250.16952550000002
 21
421.17457550000006
  0
LINE
  8
_0-0_0
  6
CONTINUOUS
 62
    7
 10
250.16952550000002
 20
413.17457550000006
 11
252.4789275
 21
417.17457550000006
  0
LINE
  8
_0-0_0
  6
CONTINUOUS
 62
    7
 10
241.68832449999999
 20
413.17457550000006
 11
250.16952550000002
 21
413.17457550000006
  0
LINE
  8
_0-0_0
  6
CONTINUOUS
 62
    7
 10
239.37893650000001
 20
417.17457550000006
 11
241.68832449999999
 21
413.17457550000006
  0
LINE
  8
_0-0_0
  6
CONTINUOUS
 62
    7
 10
213.17892449999999
 20
422.92457550000006
 11
213.62103250000001
 21
423.07194549999997
  0
LINE
  8
_0-0_0
  6
CONTINUOUS
 62
    7
 10
207.92892449999999
 20
418.42460649999998
 11
207.92892449999999
 21
417.30357349999997
  0
LINE
  8
_0-0_0
  6
CONTINUOUS
 62
    7
 10
207.92892449999999
 20
416.38224850000006
 11
207.92892449999999
 21
417.30357349999997
  0
LINE
  8
_0-0_0
  6
CONTINUOUS
 62
    7
 10
208.22894250000002
 20
414.58656350000001
 11
208.17013550000001
 21
414.83338950000007
  0
LINE
  8
_0-0_0
  6
CONTINUOUS
 62
    7
 10
208.17013550000001
 20
414.83338950000007
 11
208.1203615
 21
415.02574149999998
  0
LINE
  8
_0-0_0
  6
CONTINUOUS
 62
    7
 10
208.1203615
 20
415.02574149999998
 11
208.0492405
 21
415.29151950000005
  0
LINE
  8
_0-0_0
  6
CONTINUOUS
 62
    7
 10
208.0492405
 20
415.29151950000005
 11
208.01628150000002
 21
415.41825849999998
  0
LINE
  8
_0-0_0
  6
CONTINUOUS
 62
    7
 10
208.01628150000002
 20
415.41825849999998
 11
207.9910275
 21
415.5216825
  0
LINE
  8
_0-0_0
  6
CONTINUOUS
 62
    7
 10
207.9910275
 20
415.5216825
 11
207.96899450000001
 21
415.62159750000001
  0
LINE
  8
_0-0_0
  6
CONTINUOUS
 62
    7
 10
207.96899450000001
 20
415.62159750000001
 11
207.94761650000001
 21
415.73930350000001
  0
LINE
  8
_0-0_0
  6
CONTINUOUS
 62
    7
 10
207.94761650000001
 20
415.73930350000001
 11
207.9390415
 21
415.80143750000002
  0
LINE
  8
_0-0_0
  6
CONTINUOUS
 62
    7
 10
207.9390415
 20
415.80143750000002
 11
207.9329525
 21
415.86204550000002
  0
LINE
  8
_0-0_0
  6
CONTINUOUS
 62
    7
 10
207.9329525
 20
415.86204550000002
 11
207.92996250000002
 21
415.91130050000004
  0
LINE
  8
_0-0_0
  6
CONTINUOUS
 62
    7
 10
207.92996250000002
 20
415.91130050000004
 11
207.92892449999999
 21
415.95951850000006
  0
LINE
  8
_0-0_0
  6
CONTINUOUS
 62
    7
 10
208.22894250000002
 20
410.16255250000006
 11
208.31239350000001
 21
410.54124450000006
  0
LINE
  8
_0-0_0
  6
CONTINUOUS
 62
    7
 10
208.31239350000001
 20
410.54124450000006
 11
208.35247850000002
 21
410.73274249999997
  0
LINE
  8
_0-0_0
  6
CONTINUOUS
 62
    7
 10
208.35247850000002
 20
410.73274249999997
 11
208.4085695
 21
411.02278150000006
  0
LINE
  8
_0-0_0
  6
CONTINUOUS
 62
    7
 10
208.4085695
 20
411.02278150000006
 11
208.4461675
 21
411.24235550000003
  0
LINE
  8
_0-0_0
  6
CONTINUOUS
 62
    7
 10
208.4461675
 20
411.24235550000003
 11
208.47882050000001
 21
411.46360749999997
  0
LINE
  8
_0-0_0
  6
CONTINUOUS
 62
    7
 10
208.47882050000001
 20
411.46360749999997
 11
208.50598150000002
 21
411.69041449999997
  0
LINE
  8
_0-0_0
  6
CONTINUOUS
 62
    7
 10
208.50598150000002
 20
411.69041449999997
 11
208.52603150000002
 21
411.9178015
  0
LINE
  8
_0-0_0
  6
CONTINUOUS
 62
    7
 10
208.52603150000002
 20
411.9178015
 11
208.53320350000001
 21
412.03154050000001
  0
LINE
  8
_0-0_0
  6
CONTINUOUS
 62
    7
 10
208.53320350000001
 20
412.03154050000001
 11
208.53836050000001
 21
412.14521850000006
  0
LINE
  8
_0-0_0
  6
CONTINUOUS
 62
    7
 10
208.53836050000001
 20
412.14521850000006
 11
208.5420685
 21
412.29664650000007
  0
LINE
  8
_0-0_0
  6
CONTINUOUS
 62
    7
 10
208.5420685
 20
412.29664650000007
 11
208.54212950000002
 21
412.44792150000001
  0
LINE
  8
_0-0_0
  6
CONTINUOUS
 62
    7
 10
208.54212950000002
 20
412.44792150000001
 11
208.5385435
 21
412.59895349999999
  0
LINE
  8
_0-0_0
  6
CONTINUOUS
 62
    7
 10
208.5385435
 20
412.59895349999999
 11
208.52905250000001
 21
412.78752150000003
  0
LINE
  8
_0-0_0
  6
CONTINUOUS
 62
    7
 10
208.52905250000001
 20
412.78752150000003
 11
208.51417549999999
 21
412.9757535
  0
LINE
  8
_0-0_0
  6
CONTINUOUS
 62
    7
 10
208.51417549999999
 20
412.9757535
 11
208.49426250000002
 21
413.16371149999998
  0
LINE
  8
_0-0_0
  6
CONTINUOUS
 62
    7
 10
208.49426250000002
 20
413.16371149999998
 11
208.47787450000001
 21
413.29258749999997
  0
LINE
  8
_0-0_0
  6
CONTINUOUS
 62
    7
 10
208.47787450000001
 20
413.29258749999997
 11
208.45945750000001
 21
413.42121950000001
  0
LINE
  8
_0-0_0
  6
CONTINUOUS
 62
    7
 10
208.45945750000001
 20
413.42121950000001
 11
208.43530250000001
 21
413.57316649999996
  0
LINE
  8
_0-0_0
  6
CONTINUOUS
 62
    7
 10
208.43530250000001
 20
413.57316649999996
 11
208.4089055
 21
413.72450249999997
  0
LINE
  8
_0-0_0
  6
CONTINUOUS
 62
    7
 10
208.4089055
 20
413.72450249999997
 11
208.3527225
 21
414.01512149999996
  0
LINE
  8
_0-0_0
  6
CONTINUOUS
 62
    7
 10
208.3527225
 20
414.01512149999996
 11
208.31256150000002
 21
414.20707749999997
  0
LINE
  8
_0-0_0
  6
CONTINUOUS
 62
    7
 10
208.31256150000002
 20
414.20707749999997
 11
208.22894250000002
 21
414.58656350000001
  0
LINE
  8
_0-0_0
  6
CONTINUOUS
 62
    7
 10
208.2289275
 20
410.16255250000006
 11
208.17013550000001
 21
409.91569549999997
  0
LINE
  8
_0-0_0
  6
CONTINUOUS
 62
    7
 10
208.17013550000001
 20
409.91569549999997
 11
208.1203615
 21
409.72337349999998
  0
LINE
  8
_0-0_0
  6
CONTINUOUS
 62
    7
 10
208.1203615
 20
409.72337349999998
 11
208.04925550000002
 21
409.45762650000006
  0
LINE
  8
_0-0_0
  6
CONTINUOUS
 62
    7
 10
208.04925550000002
 20
409.45762650000006
 11
208.01629650000001
 21
409.33094849999998
  0
LINE
  8
_0-0_0
  6
CONTINUOUS
 62
    7
 10
208.01629650000001
 20
409.33094849999998
 11
207.9910275
 21
409.22749350000004
  0
LINE
  8
_0-0_0
  6
CONTINUOUS
 62
    7
 10
207.9910275
 20
409.22749350000004
 11
207.96899450000001
 21
409.12751750000007
  0
LINE
  8
_0-0_0
  6
CONTINUOUS
 62
    7
 10
207.96899450000001
 20
409.12751750000007
 11
207.94760150000002
 21
409.00981149999996
  0
LINE
  8
_0-0_0
  6
CONTINUOUS
 62
    7
 10
207.94760150000002
 20
409.00981149999996
 11
207.9390415
 21
408.94767750000005
  0
LINE
  8
_0-0_0
  6
CONTINUOUS
 62
    7
 10
207.9390415
 20
408.94767750000005
 11
207.9329525
 21
408.88710049999997
  0
LINE
  8
_0-0_0
  6
CONTINUOUS
 62
    7
 10
207.9329525
 20
408.88710049999997
 11
207.92996250000002
 21
408.83784449999996
  0
LINE
  8
_0-0_0
  6
CONTINUOUS
 62
    7
 10
207.92996250000002
 20
408.83784449999996
 11
207.92892449999999
 21
408.78962750000005
  0
LINE
  8
_0-0_0
  6
CONTINUOUS
 62
    7
 10
207.92892449999999
 20
405.0160985
 11
207.92892449999999
 21
408.36686750000001
  0
ARC
  8
_0-0_0
  6
CONTINUOUS
 62
    7
 10
209.92892449999999
 20
405.0160985
 40
2
 50
180.00000900000003
 51
251.56498900000003
  0
LINE
  8
_0-0_0
  6
CONTINUOUS
 62
    7
 10
312.37893650000001
 20
423.87455750000004
 11
313.0289305
 21
423.87455750000004
  0
ARC
  8
_0-0_0
  6
CONTINUOUS
 62
    7
 10
312.37893650000001
 20
423.62455750000004
 40
0.25
 50
90.000003000000007
 51
180.00000900000001
  0
LINE
  8
_0-0_0
  6
CONTINUOUS
 62
    7
 10
312.12893650000001
 20
423.62455750000004
 11
312.12893650000001
 21
422.97456350000004
  0
LINE
  8
_0-0_0
  6
CONTINUOUS
 62
    7
 10
311.72891249999998
 20
422.97456350000004
 11
312.12893650000001
 21
422.97456350000004
  0
LINE
  8
_0-0_0
  6
CONTINUOUS
 62
    7
 10
311.72891249999998
 20
422.97456350000004
 11
311.72891249999998
 21
423.62455750000004
  0
ARC
  8
_0-0_0
  6
CONTINUOUS
 62
    7
 10
311.47891249999998
 20
423.62455750000004
 40
0.25
 50
0
 51
90.000003000000007
  0
LINE
  8
_0-0_0
  6
CONTINUOUS
 62
    7
 10
310.82894950000002
 20
423.87455750000004
 11
311.47891249999998
 21
423.87455750000004
  0
LINE
  8
_0-0_0
  6
CONTINUOUS
 62
    7
 10
310.82894950000002
 20
423.87455750000004
 11
310.82894950000002
 21
424.27458250000007
  0
LINE
  8
_0-0_0
  6
CONTINUOUS
 62
    7
 10
311.47891249999998
 20
424.27458250000007
 11
310.82894950000002
 21
424.27458250000007
  0
ARC
  8
_0-0_0
  6
CONTINUOUS
 62
    7
 10
311.47891249999998
 20
424.52458250000007
 40
0.25
 50
269.99999700000001
 51
0
  0
LINE
  8
_0-0_0
  6
CONTINUOUS
 62
    7
 10
311.72891249999998
 20
424.52458250000007
 11
311.72891249999998
 21
425.17457550000006
  0
LINE
  8
_0-0_0
  6
CONTINUOUS
 62
    7
 10
312.12893650000001
 20
425.17457550000006
 11
311.72891249999998
 21
425.17457550000006
  0
LINE
  8
_0-0_0
  6
CONTINUOUS
 62
    7
 10
312.12893650000001
 20
425.17457550000006
 11
312.12893650000001
 21
424.52458250000007
  0
ARC
  8
_0-0_0
  6
CONTINUOUS
 62
    7
 10
312.37893650000001
 20
424.52458250000007
 40
0.25
 50
180.00000900000003
 51
269.99999700000001
  0
LINE
  8
_0-0_0
  6
CONTINUOUS
 62
    7
 10
313.0289305
 20
424.27458250000007
 11
312.37893650000001
 21
424.27458250000007
  0
LINE
  8
_0-0_0
  6
CONTINUOUS
 62
    7
 10
313.0289305
 20
424.27458250000007
 11
313.0289305
 21
423.87455750000004
  0
LINE
  8
_0-0_0
  6
CONTINUOUS
 62
    7
 10
233.37893650000001
 20
423.87455750000004
 11
234.0289305
 21
423.87455750000004
  0
ARC
  8
_0-0_0
  6
CONTINUOUS
 62
    7
 10
233.37893650000001
 20
423.62455750000004
 40
0.25
 50
90.000003000000007
 51
180.00000900000001
  0
LINE
  8
_0-0_0
  6
CONTINUOUS
 62
    7
 10
233.12893650000001
 20
423.62455750000004
 11
233.12893650000001
 21
422.97456350000004
  0
LINE
  8
_0-0_0
  6
CONTINUOUS
 62
    7
 10
232.7289275
 20
422.97456350000004
 11
233.12893650000001
 21
422.97456350000004
  0
LINE
  8
_0-0_0
  6
CONTINUOUS
 62
    7
 10
232.7289275
 20
422.97456350000004
 11
232.7289275
 21
423.62455750000004
  0
ARC
  8
_0-0_0
  6
CONTINUOUS
 62
    7
 10
232.4789275
 20
423.62455750000004
 40
0.25
 50
0
 51
90.000003000000007
  0
LINE
  8
_0-0_0
  6
CONTINUOUS
 62
    7
 10
231.82893350000001
 20
423.87455750000004
 11
232.4789275
 21
423.87455750000004
  0
LINE
  8
_0-0_0
  6
CONTINUOUS
 62
    7
 10
231.82893350000001
 20
423.87455750000004
 11
231.82893350000001
 21
424.27458250000007
  0
LINE
  8
_0-0_0
  6
CONTINUOUS
 62
    7
 10
232.4789275
 20
424.27458250000007
 11
231.82893350000001
 21
424.27458250000007
  0
ARC
  8
_0-0_0
  6
CONTINUOUS
 62
    7
 10
232.4789275
 20
424.52458250000007
 40
0.25
 50
269.99999700000001
 51
0
  0
LINE
  8
_0-0_0
  6
CONTINUOUS
 62
    7
 10
232.7289275
 20
424.52458250000007
 11
232.7289275
 21
425.17457550000006
  0
LINE
  8
_0-0_0
  6
CONTINUOUS
 62
    7
 10
233.12893650000001
 20
425.17457550000006
 11
232.7289275
 21
425.17457550000006
  0
LINE
  8
_0-0_0
  6
CONTINUOUS
 62
    7
 10
233.12893650000001
 20
425.17457550000006
 11
233.12893650000001
 21
424.52458250000007
  0
ARC
  8
_0-0_0
  6
CONTINUOUS
 62
    7
 10
233.37893650000001
 20
424.52458250000007
 40
0.25
 50
180.00000900000003
 51
269.99999700000001
  0
LINE
  8
_0-0_0
  6
CONTINUOUS
 62
    7
 10
234.0289305
 20
424.27458250000007
 11
233.37893650000001
 21
424.27458250000007
  0
LINE
  8
_0-0_0
  6
CONTINUOUS
 62
    7
 10
234.0289305
 20
424.27458250000007
 11
234.0289305
 21
423.87455750000004
  0
LINE
  8
_0-0_0
  6
CONTINUOUS
 62
    7
 10
192.92892449999999
 20
421.90000950000001
 11
192.92892449999999
 21
421.75328049999996
  0
LINE
  8
_0-0_0
  6
CONTINUOUS
 62
    7
 10
192.92892449999999
 20
422.0905305
 11
192.92892449999999
 21
421.90000950000001
  0
LINE
  8
_0-0_0
  6
CONTINUOUS
 62
    7
 10
192.92892449999999
 20
422.26554850000002
 11
192.92892449999999
 21
422.0905305
  0
LINE
  8
_0-0_0
  6
CONTINUOUS
 62
    7
 10
192.92892449999999
 20
422.42314150000004
 11
192.92892449999999
 21
422.26554850000002
  0
LINE
  8
_0-0_0
  6
CONTINUOUS
 62
    7
 10
192.92892449999999
 20
422.56156950000002
 11
192.92892449999999
 21
422.42314150000004
  0
LINE
  8
_0-0_0
  6
CONTINUOUS
 62
    7
 10
192.92892449999999
 20
422.67933649999998
 11
192.92892449999999
 21
422.56156950000002
  0
LINE
  8
_0-0_0
  6
CONTINUOUS
 62
    7
 10
192.92892449999999
 20
422.77513150000004
 11
192.92892449999999
 21
422.67933649999998
  0
LINE
  8
_0-0_0
  6
CONTINUOUS
 62
    7
 10
192.92892449999999
 20
422.8479155
 11
192.92892449999999
 21
422.77513150000004
  0
LINE
  8
_0-0_0
  6
CONTINUOUS
 62
    7
 10
192.92892449999999
 20
422.89686549999999
 11
192.92892449999999
 21
422.8479155
  0
LINE
  8
_0-0_0
  6
CONTINUOUS
 62
    7
 10
192.92892449999999
 20
422.92457550000006
 11
192.92892449999999
 21
422.89686549999999
  0
LINE
  8
_0-0_0
  6
CONTINUOUS
 62
    7
 10
192.92892449999999
 20
422.92457550000006
 11
192.92892449999999
 21
422.9214935
  0
LINE
  8
_0-0_0
  6
CONTINUOUS
 62
    7
 10
192.92892449999999
 20
418.42765850000001
 11
192.92892449999999
 21
418.42457550000006
  0
LINE
  8
_0-0_0
  6
CONTINUOUS
 62
    7
 10
192.92892449999999
 20
418.45228550000002
 11
192.92892449999999
 21
418.42457550000006
  0
LINE
  8
_0-0_0
  6
CONTINUOUS
 62
    7
 10
192.92892449999999
 20
418.5012365
 11
192.92892449999999
 21
418.45228550000002
  0
LINE
  8
_0-0_0
  6
CONTINUOUS
 62
    7
 10
192.92892449999999
 20
418.57402049999996
 11
192.92892449999999
 21
418.5012365
  0
LINE
  8
_0-0_0
  6
CONTINUOUS
 62
    7
 10
192.92892449999999
 20
418.66981550000003
 11
192.92892449999999
 21
418.57402049999996
  0
LINE
  8
_0-0_0
  6
CONTINUOUS
 62
    7
 10
192.92892449999999
 20
418.69999749999999
 11
192.92892449999999
 21
418.66981550000003
  0
LINE
  8
_0-0_0
  6
CONTINUOUS
 62
    7
 10
192.92892449999999
 20
418.78755250000006
 11
192.92892449999999
 21
418.69999749999999
  0
LINE
  8
_0-0_0
  6
CONTINUOUS
 62
    7
 10
192.92892449999999
 20
418.92597950000004
 11
192.92892449999999
 21
418.78755250000006
  0
LINE
  8
_0-0_0
  6
CONTINUOUS
 62
    7
 10
192.92892449999999
 20
419.08357250000006
 11
192.92892449999999
 21
418.92597950000004
  0
LINE
  8
_0-0_0
  6
CONTINUOUS
 62
    7
 10
192.92892449999999
 20
419.25859049999997
 11
192.92892449999999
 21
419.08357250000006
  0
LINE
  8
_0-0_0
  6
CONTINUOUS
 62
    7
 10
192.92892449999999
 20
419.44914249999999
 11
192.92892449999999
 21
419.25859049999997
  0
LINE
  8
_0-0_0
  6
CONTINUOUS
 62
    7
 10
192.92892449999999
 20
419.65309149999996
 11
192.92892449999999
 21
419.44914249999999
  0
LINE
  8
_0-0_0
  6
CONTINUOUS
 62
    7
 10
192.92892449999999
 20
419.86824049999996
 11
192.92892449999999
 21
419.65309149999996
  0
LINE
  8
_0-0_0
  6
CONTINUOUS
 62
    7
 10
192.92892449999999
 20
420.09223950000001
 11
192.92892449999999
 21
419.86824049999996
  0
LINE
  8
_0-0_0
  6
CONTINUOUS
 62
    7
 10
192.92892449999999
 20
420.32258650000006
 11
192.92892449999999
 21
420.09223950000001
  0
LINE
  8
_0-0_0
  6
CONTINUOUS
 62
    7
 10
192.92892449999999
 20
420.55680849999999
 11
192.92892449999999
 21
420.32258650000006
  0
LINE
  8
_0-0_0
  6
CONTINUOUS
 62
    7
 10
192.92892449999999
 20
420.79231249999998
 11
192.92892449999999
 21
420.55680849999999
  0
LINE
  8
_0-0_0
  6
CONTINUOUS
 62
    7
 10
192.92892449999999
 20
421.02653550000002
 11
192.92892449999999
 21
420.79231249999998
  0
LINE
  8
_0-0_0
  6
CONTINUOUS
 62
    7
 10
192.92892449999999
 20
421.2569125
 11
192.92892449999999
 21
421.02653550000002
  0
LINE
  8
_0-0_0
  6
CONTINUOUS
 62
    7
 10
192.92892449999999
 20
421.48091150000005
 11
192.92892449999999
 21
421.2569125
  0
LINE
  8
_0-0_0
  6
CONTINUOUS
 62
    7
 10
192.92892449999999
 20
421.69606050000004
 11
192.92892449999999
 21
421.48091150000005
  0
LINE
  8
_0-0_0
  6
CONTINUOUS
 62
    7
 10
192.92892449999999
 20
421.75328049999996
 11
192.92892449999999
 21
421.69606050000004
  0
LINE
  8
_0-0_0
  6
CONTINUOUS
 62
    7
 10
207.92892449999999
 20
413.93663049999998
 11
207.92892449999999
 21
414.98225450000007
  0
LINE
  8
_0-0_0
  6
CONTINUOUS
 62
    7
 10
207.92892449999999
 20
416.2668615
 11
207.92892449999999
 21
414.98225450000007
  0
LINE
  8
_0-0_0
  6
CONTINUOUS
 62
    7
 10
207.92892449999999
 20
416.38224850000006
 11
207.92892449999999
 21
416.2668615
  0
LINE
  8
_0-0_0
  6
CONTINUOUS
 62
    7
 10
207.92892449999999
 20
413.93663049999998
 11
207.92892449999999
 21
410.81251550000002
  0
LINE
  8
_0-0_0
  6
CONTINUOUS
 62
    7
 10
207.92892449999999
 20
408.36686750000001
 11
207.92892449999999
 21
408.48225450000007
  0
LINE
  8
_0-0_0
  6
CONTINUOUS
 62
    7
 10
207.92892449999999
 20
409.7668615
 11
207.92892449999999
 21
408.48225450000007
  0
LINE
  8
_0-0_0
  6
CONTINUOUS
 62
    7
 10
207.92892449999999
 20
409.7668615
 11
207.92892449999999
 21
410.81251550000002
  0
LINE
  8
_0-0_0
  6
CONTINUOUS
 62
    7
 10
192.92892449999999
 20
405.3000035
 11
192.92892449999999
 21
405.15327450000007
  0
LINE
  8
_0-0_0
  6
CONTINUOUS
 62
    7
 10
192.92892449999999
 20
405.49055450000003
 11
192.92892449999999
 21
405.3000035
  0
LINE
  8
_0-0_0
  6
CONTINUOUS
 62
    7
 10
192.92892449999999
 20
405.66557350000005
 11
192.92892449999999
 21
405.49055450000003
  0
LINE
  8
_0-0_0
  6
CONTINUOUS
 62
    7
 10
192.92892449999999
 20
405.82313550000003
 11
192.92892449999999
 21
405.66557350000005
  0
LINE
  8
_0-0_0
  6
CONTINUOUS
 62
    7
 10
192.92892449999999
 20
405.96159350000005
 11
192.92892449999999
 21
405.82313550000003
  0
LINE
  8
_0-0_0
  6
CONTINUOUS
 62
    7
 10
192.92892449999999
 20
406.07933049999997
 11
192.92892449999999
 21
405.96159350000005
  0
LINE
  8
_0-0_0
  6
CONTINUOUS
 62
    7
 10
192.92892449999999
 20
406.17512550000004
 11
192.92892449999999
 21
406.07933049999997
  0
LINE
  8
_0-0_0
  6
CONTINUOUS
 62
    7
 10
192.92892449999999
 20
406.24790949999999
 11
192.92892449999999
 21
406.17512550000004
  0
LINE
  8
_0-0_0
  6
CONTINUOUS
 62
    7
 10
192.92892449999999
 20
406.29685949999998
 11
192.92892449999999
 21
406.24790949999999
  0
LINE
  8
_0-0_0
  6
CONTINUOUS
 62
    7
 10
192.92892449999999
 20
406.32456950000005
 11
192.92892449999999
 21
406.29685949999998
  0
LINE
  8
_0-0_0
  6
CONTINUOUS
 62
    7
 10
192.92892449999999
 20
406.32456950000005
 11
192.92892449999999
 21
406.32148749999999
  0
LINE
  8
_0-0_0
  6
CONTINUOUS
 62
    7
 10
192.92892449999999
 20
401.8276525
 11
192.92892449999999
 21
401.82456950000005
  0
LINE
  8
_0-0_0
  6
CONTINUOUS
 62
    7
 10
192.92892449999999
 20
401.85227950000001
 11
192.92892449999999
 21
401.82456950000005
  0
LINE
  8
_0-0_0
  6
CONTINUOUS
 62
    7
 10
192.92892449999999
 20
401.9012295
 11
192.92892449999999
 21
401.85227950000001
  0
LINE
  8
_0-0_0
  6
CONTINUOUS
 62
    7
 10
192.92892449999999
 20
401.97401450000007
 11
192.92892449999999
 21
401.9012295
  0
LINE
  8
_0-0_0
  6
CONTINUOUS
 62
    7
 10
192.92892449999999
 20
402.06980950000002
 11
192.92892449999999
 21
401.97401450000007
  0
LINE
  8
_0-0_0
  6
CONTINUOUS
 62
    7
 10
192.92892449999999
 20
402.10002150000003
 11
192.92892449999999
 21
402.06980950000002
  0
LINE
  8
_0-0_0
  6
CONTINUOUS
 62
    7
 10
192.92892449999999
 20
402.18754550000006
 11
192.92892449999999
 21
402.10002150000003
  0
LINE
  8
_0-0_0
  6
CONTINUOUS
 62
    7
 10
192.92892449999999
 20
402.32600450000007
 11
192.92892449999999
 21
402.18754550000006
  0
LINE
  8
_0-0_0
  6
CONTINUOUS
 62
    7
 10
192.92892449999999
 20
402.48359649999998
 11
192.92892449999999
 21
402.32600450000007
  0
LINE
  8
_0-0_0
  6
CONTINUOUS
 62
    7
 10
192.92892449999999
 20
402.65858449999996
 11
192.92892449999999
 21
402.48359649999998
  0
LINE
  8
_0-0_0
  6
CONTINUOUS
 62
    7
 10
192.92892449999999
 20
402.84913649999999
 11
192.92892449999999
 21
402.65858449999996
  0
LINE
  8
_0-0_0
  6
CONTINUOUS
 62
    7
 10
192.92892449999999
 20
403.05308550000007
 11
192.92892449999999
 21
402.84913649999999
  0
LINE
  8
_0-0_0
  6
CONTINUOUS
 62
    7
 10
192.92892449999999
 20
403.26823450000006
 11
192.92892449999999
 21
403.05308550000007
  0
LINE
  8
_0-0_0
  6
CONTINUOUS
 62
    7
 10
192.92892449999999
 20
403.4922335
 11
192.92892449999999
 21
403.26823450000006
  0
LINE
  8
_0-0_0
  6
CONTINUOUS
 62
    7
 10
192.92892449999999
 20
403.72258050000005
 11
192.92892449999999
 21
403.4922335
  0
LINE
  8
_0-0_0
  6
CONTINUOUS
 62
    7
 10
192.92892449999999
 20
403.95680249999998
 11
192.92892449999999
 21
403.72258050000005
  0
LINE
  8
_0-0_0
  6
CONTINUOUS
 62
    7
 10
192.92892449999999
 20
404.19233750000001
 11
192.92892449999999
 21
403.95680249999998
  0
LINE
  8
_0-0_0
  6
CONTINUOUS
 62
    7
 10
192.92892449999999
 20
404.42655950000005
 11
192.92892449999999
 21
404.19233750000001
  0
LINE
  8
_0-0_0
  6
CONTINUOUS
 62
    7
 10
192.92892449999999
 20
404.65690649999999
 11
192.92892449999999
 21
404.42655950000005
  0
LINE
  8
_0-0_0
  6
CONTINUOUS
 62
    7
 10
192.92892449999999
 20
404.88090550000004
 11
192.92892449999999
 21
404.65690649999999
  0
LINE
  8
_0-0_0
  6
CONTINUOUS
 62
    7
 10
192.92892449999999
 20
405.09605450000004
 11
192.92892449999999
 21
404.88090550000004
  0
LINE
  8
_0-0_0
  6
CONTINUOUS
 62
    7
 10
192.92892449999999
 20
405.15327450000007
 11
192.92892449999999
 21
405.09605450000004
  0
LINE
  8
_0-0_0
  6
CONTINUOUS
 62
    7
 10
303.92892449999999
 20
414.92457550000006
 11
299.92892449999999
 21
414.92457550000006
  0
ARC
  8
_0-0_0
  6
CONTINUOUS
 62
    7
 10
299.92892449999999
 20
417.17457550000006
 40
2.25
 50
90.000003000000007
 51
269.99999700000006
  0
LINE
  8
_0-0_0
  6
CONTINUOUS
 62
    7
 10
299.92892449999999
 20
419.42457550000006
 11
303.92892449999999
 21
419.42457550000006
  0
ARC
  8
_0-0_0
  6
CONTINUOUS
 62
    7
 10
303.92892449999999
 20
417.17457550000006
 40
2.25
 50
269.99999700000001
 51
90.000002999999992
  0
ARC
  8
_0-0_0
  6
CONTINUOUS
 62
    7
 10
243.92892449999999
 20
417.17457550000006
 40
2.25
 50
90.000003000000007
 51
269.99999700000006
  0
LINE
  8
_0-0_0
  6
CONTINUOUS
 62
    7
 10
243.92892449999999
 20
419.42457550000006
 11
247.92892449999999
 21
419.42457550000006
  0
ARC
  8
_0-0_0
  6
CONTINUOUS
 62
    7
 10
247.92892449999999
 20
417.17457550000006
 40
2.25
 50
269.99999700000001
 51
90.000002999999992
  0
LINE
  8
_0-0_0
  6
CONTINUOUS
 62
    7
 10
247.92892449999999
 20
414.92457550000006
 11
243.92892449999999
 21
414.92457550000006
  0
LINE
  8
_0-0_0
  6
CONTINUOUS
 62
    7
 10
192.92892449999999
 20
421.90000950000001
 11
192.67892449999999
 21
421.92457550000006
  0
LINE
  8
_0-0_0
  6
CONTINUOUS
 62
    7
 10
192.92892449999999
 20
421.69606050000004
 11
192.67892449999999
 21
421.92457550000006
  0
LINE
  8
_0-0_0
  6
CONTINUOUS
 62
    7
 10
192.92892449999999
 20
422.0905305
 11
192.67892449999999
 21
422.14402749999999
  0
LINE
  8
_0-0_0
  6
CONTINUOUS
 62
    7
 10
192.92892449999999
 20
421.90000950000001
 11
192.67892449999999
 21
422.14402749999999
  0
LINE
  8
_0-0_0
  6
CONTINUOUS
 62
    7
 10
192.92892449999999
 20
422.26554850000002
 11
192.67892449999999
 21
422.34739650000006
  0
LINE
  8
_0-0_0
  6
CONTINUOUS
 62
    7
 10
192.92892449999999
 20
422.0905305
 11
192.67892449999999
 21
422.34739650000006
  0
LINE
  8
_0-0_0
  6
CONTINUOUS
 62
    7
 10
192.92892449999999
 20
422.42314150000004
 11
192.67892449999999
 21
422.53242550000004
  0
LINE
  8
_0-0_0
  6
CONTINUOUS
 62
    7
 10
192.92892449999999
 20
422.26554850000002
 11
192.67892449999999
 21
422.53242550000004
  0
LINE
  8
_0-0_0
  6
CONTINUOUS
 62
    7
 10
192.92892449999999
 20
422.56156950000002
 11
192.67892449999999
 21
422.69712849999996
  0
LINE
  8
_0-0_0
  6
CONTINUOUS
 62
    7
 10
192.92892449999999
 20
422.42314150000004
 11
192.67892449999999
 21
422.69712849999996
  0
LINE
  8
_0-0_0
  6
CONTINUOUS
 62
    7
 10
192.92892449999999
 20
422.67933649999998
 11
192.67892449999999
 21
422.83964549999996
  0
LINE
  8
_0-0_0
  6
CONTINUOUS
 62
    7
 10
192.92892449999999
 20
422.56156950000002
 11
192.67892449999999
 21
422.83964549999996
  0
LINE
  8
_0-0_0
  6
CONTINUOUS
 62
    7
 10
192.92892449999999
 20
422.77513150000004
 11
192.67892449999999
 21
422.95845050000003
  0
LINE
  8
_0-0_0
  6
CONTINUOUS
 62
    7
 10
192.92892449999999
 20
422.67933649999998
 11
192.67892449999999
 21
422.95845050000003
  0
LINE
  8
_0-0_0
  6
CONTINUOUS
 62
    7
 10
192.92892449999999
 20
422.8479155
 11
192.67892449999999
 21
423.05220050000003
  0
LINE
  8
_0-0_0
  6
CONTINUOUS
 62
    7
 10
192.92892449999999
 20
422.77513150000004
 11
192.67892449999999
 21
423.05220050000003
  0
LINE
  8
_0-0_0
  6
CONTINUOUS
 62
    7
 10
192.92892449999999
 20
422.89686549999999
 11
192.67892449999999
 21
423.11994949999996
  0
LINE
  8
_0-0_0
  6
CONTINUOUS
 62
    7
 10
192.92892449999999
 20
422.8479155
 11
192.67892449999999
 21
423.11994949999996
  0
LINE
  8
_0-0_0
  6
CONTINUOUS
 62
    7
 10
192.92892449999999
 20
422.9214935
 11
192.67892449999999
 21
423.16087349999998
  0
LINE
  8
_0-0_0
  6
CONTINUOUS
 62
    7
 10
192.92892449999999
 20
422.89686549999999
 11
192.67892449999999
 21
423.16087349999998
  0
LINE
  8
_0-0_0
  6
CONTINUOUS
 62
    7
 10
192.92892449999999
 20
422.9214935
 11
192.67892449999999
 21
423.17457550000006
  0
LINE
  8
_0-0_0
  6
CONTINUOUS
 62
    7
 10
192.92892449999999
 20
418.42765850000001
 11
192.67892449999999
 21
418.17457550000006
  0
LINE
  8
_0-0_0
  6
CONTINUOUS
 62
    7
 10
192.92892449999999
 20
418.45228550000002
 11
192.67892449999999
 21
418.18827850000002
  0
LINE
  8
_0-0_0
  6
CONTINUOUS
 62
    7
 10
192.92892449999999
 20
418.42765850000001
 11
192.67892449999999
 21
418.18827850000002
  0
LINE
  8
_0-0_0
  6
CONTINUOUS
 62
    7
 10
192.92892449999999
 20
418.5012365
 11
192.67892449999999
 21
418.22920250000004
  0
LINE
  8
_0-0_0
  6
CONTINUOUS
 62
    7
 10
192.92892449999999
 20
418.45228550000002
 11
192.67892449999999
 21
418.22920250000004
  0
LINE
  8
_0-0_0
  6
CONTINUOUS
 62
    7
 10
192.92892449999999
 20
418.57402049999996
 11
192.67892449999999
 21
418.29692050000006
  0
LINE
  8
_0-0_0
  6
CONTINUOUS
 62
    7
 10
192.92892449999999
 20
418.5012365
 11
192.67892449999999
 21
418.29692050000006
  0
LINE
  8
_0-0_0
  6
CONTINUOUS
 62
    7
 10
192.92892449999999
 20
418.66981550000003
 11
192.67892449999999
 21
418.39070149999998
  0
LINE
  8
_0-0_0
  6
CONTINUOUS
 62
    7
 10
192.92892449999999
 20
418.57402049999996
 11
192.67892449999999
 21
418.39070149999998
  0
LINE
  8
_0-0_0
  6
CONTINUOUS
 62
    7
 10
192.92892449999999
 20
418.66981550000003
 11
192.79896550000001
 21
418.58595249999996
  0
LINE
  8
_0-0_0
  6
CONTINUOUS
 62
    7
 10
192.92892449999999
 20
418.78755250000006
 11
192.67892449999999
 21
418.50950650000004
  0
LINE
  8
_0-0_0
  6
CONTINUOUS
 62
    7
 10
192.79896550000001
 20
418.58595249999996
 11
192.67892449999999
 21
418.50950650000004
  0
LINE
  8
_0-0_0
  6
CONTINUOUS
 62
    7
 10
192.92892449999999
 20
418.92597950000004
 11
192.67892449999999
 21
418.65202350000004
  0
LINE
  8
_0-0_0
  6
CONTINUOUS
 62
    7
 10
192.92892449999999
 20
418.78755250000006
 11
192.67892449999999
 21
418.65202350000004
  0
LINE
  8
_0-0_0
  6
CONTINUOUS
 62
    7
 10
192.92892449999999
 20
419.08357250000006
 11
192.67892449999999
 21
418.81669650000003
  0
LINE
  8
_0-0_0
  6
CONTINUOUS
 62
    7
 10
192.92892449999999
 20
418.92597950000004
 11
192.67892449999999
 21
418.81669650000003
  0
LINE
  8
_0-0_0
  6
CONTINUOUS
 62
    7
 10
192.92892449999999
 20
419.25859049999997
 11
192.67892449999999
 21
419.00175450000006
  0
LINE
  8
_0-0_0
  6
CONTINUOUS
 62
    7
 10
192.92892449999999
 20
419.08357250000006
 11
192.67892449999999
 21
419.00175450000006
  0
LINE
  8
_0-0_0
  6
CONTINUOUS
 62
    7
 10
192.92892449999999
 20
419.44914249999999
 11
192.67892449999999
 21
419.20509349999998
  0
LINE
  8
_0-0_0
  6
CONTINUOUS
 62
    7
 10
192.92892449999999
 20
419.25859049999997
 11
192.67892449999999
 21
419.20509349999998
  0
LINE
  8
_0-0_0
  6
CONTINUOUS
 62
    7
 10
192.92892449999999
 20
419.65309149999996
 11
192.67892449999999
 21
419.42457550000006
  0
LINE
  8
_0-0_0
  6
CONTINUOUS
 62
    7
 10
192.92892449999999
 20
419.44914249999999
 11
192.67892449999999
 21
419.42457550000006
  0
LINE
  8
_0-0_0
  6
CONTINUOUS
 62
    7
 10
192.92892449999999
 20
419.86824049999996
 11
192.67892449999999
 21
419.65773049999996
  0
LINE
  8
_0-0_0
  6
CONTINUOUS
 62
    7
 10
192.92892449999999
 20
419.65309149999996
 11
192.67892449999999
 21
419.65773049999996
  0
LINE
  8
_0-0_0
  6
CONTINUOUS
 62
    7
 10
192.92892449999999
 20
420.09223950000001
 11
192.67892449999999
 21
419.90202350000004
  0
LINE
  8
_0-0_0
  6
CONTINUOUS
 62
    7
 10
192.92892449999999
 20
419.86824049999996
 11
192.67892449999999
 21
419.90202350000004
  0
LINE
  8
_0-0_0
  6
CONTINUOUS
 62
    7
 10
192.92892449999999
 20
420.32258650000006
 11
192.67892449999999
 21
420.15480049999996
  0
LINE
  8
_0-0_0
  6
CONTINUOUS
 62
    7
 10
192.92892449999999
 20
420.09223950000001
 11
192.67892449999999
 21
420.15480049999996
  0
LINE
  8
_0-0_0
  6
CONTINUOUS
 62
    7
 10
192.92892449999999
 20
420.55680849999999
 11
192.67892449999999
 21
420.4132535
  0
LINE
  8
_0-0_0
  6
CONTINUOUS
 62
    7
 10
192.92892449999999
 20
420.32258650000006
 11
192.67892449999999
 21
420.4132535
  0
LINE
  8
_0-0_0
  6
CONTINUOUS
 62
    7
 10
192.92892449999999
 20
420.79231249999998
 11
192.67892449999999
 21
420.67457550000006
  0
LINE
  8
_0-0_0
  6
CONTINUOUS
 62
    7
 10
192.92892449999999
 20
420.55680849999999
 11
192.67892449999999
 21
420.67457550000006
  0
LINE
  8
_0-0_0
  6
CONTINUOUS
 62
    7
 10
192.92892449999999
 20
421.02653550000002
 11
192.67892449999999
 21
420.93589750000001
  0
LINE
  8
_0-0_0
  6
CONTINUOUS
 62
    7
 10
192.92892449999999
 20
420.79231249999998
 11
192.67892449999999
 21
420.93589750000001
  0
LINE
  8
_0-0_0
  6
CONTINUOUS
 62
    7
 10
192.92892449999999
 20
421.2569125
 11
192.67892449999999
 21
421.19435150000004
  0
LINE
  8
_0-0_0
  6
CONTINUOUS
 62
    7
 10
192.92892449999999
 20
421.02653550000002
 11
192.67892449999999
 21
421.19435150000004
  0
LINE
  8
_0-0_0
  6
CONTINUOUS
 62
    7
 10
192.92892449999999
 20
421.48091150000005
 11
192.67892449999999
 21
421.44712849999996
  0
LINE
  8
_0-0_0
  6
CONTINUOUS
 62
    7
 10
192.92892449999999
 20
421.2569125
 11
192.67892449999999
 21
421.44712849999996
  0
LINE
  8
_0-0_0
  6
CONTINUOUS
 62
    7
 10
192.92892449999999
 20
421.69606050000004
 11
192.67892449999999
 21
421.69142150000005
  0
LINE
  8
_0-0_0
  6
CONTINUOUS
 62
    7
 10
192.92892449999999
 20
421.48091150000005
 11
192.67892449999999
 21
421.69142150000005
  0
LINE
  8
_0-0_0
  6
CONTINUOUS
 62
    7
 10
207.92892449999999
 20
416.2668615
 11
198.22109950000001
 21
416.2668615
  0
LINE
  8
_0-0_0
  6
CONTINUOUS
 62
    7
 10
198.22109950000001
 20
416.2668615
 11
198.16662650000001
 21
416.33680749999996
  0
LINE
  8
_0-0_0
  6
CONTINUOUS
 62
    7
 10
198.16662650000001
 20
416.33680749999996
 11
198.11552449999999
 21
416.40562450000004
  0
LINE
  8
_0-0_0
  6
CONTINUOUS
 62
    7
 10
198.11552449999999
 20
416.40562450000004
 11
198.06788650000001
 21
416.47315950000007
  0
LINE
  8
_0-0_0
  6
CONTINUOUS
 62
    7
 10
198.06788650000001
 20
416.47315950000007
 11
198.02337650000001
 21
416.53968850000001
  0
LINE
  8
_0-0_0
  6
CONTINUOUS
 62
    7
 10
198.02337650000001
 20
416.53968850000001
 11
197.9686585
 21
416.62724349999996
  0
LINE
  8
_0-0_0
  6
CONTINUOUS
 62
    7
 10
197.9686585
 20
416.62724349999996
 11
197.91915850000001
 21
416.71333349999998
  0
LINE
  8
_0-0_0
  6
CONTINUOUS
 62
    7
 10
197.91915850000001
 20
416.71333349999998
 11
197.8746945
 21
416.79817249999996
  0
LINE
  8
_0-0_0
  6
CONTINUOUS
 62
    7
 10
197.8746945
 20
416.79817249999996
 11
197.82772850000001
 21
416.8984835
  0
LINE
  8
_0-0_0
  6
CONTINUOUS
 62
    7
 10
197.82772850000001
 20
416.8984835
 11
197.78750650000001
 21
416.99742149999997
  0
LINE
  8
_0-0_0
  6
CONTINUOUS
 62
    7
 10
197.78750650000001
 20
416.99742149999997
 11
197.75384550000001
 21
417.0951695
  0
LINE
  8
_0-0_0
  6
CONTINUOUS
 62
    7
 10
197.75384550000001
 20
417.0951695
 11
197.7265625
 21
417.19197050000002
  0
LINE
  8
_0-0_0
  6
CONTINUOUS
 62
    7
 10
197.7265625
 20
417.19197050000002
 11
197.70550550000002
 21
417.28804049999997
  0
LINE
  8
_0-0_0
  6
CONTINUOUS
 62
    7
 10
197.70550550000002
 20
417.28804049999997
 11
197.68957550000002
 21
417.39189150000004
  0
LINE
  8
_0-0_0
  6
CONTINUOUS
 62
    7
 10
197.68957550000002
 20
417.39189150000004
 11
197.68081650000002
 21
417.49531550000006
  0
LINE
  8
_0-0_0
  6
CONTINUOUS
 62
    7
 10
197.68081650000002
 20
417.49531550000006
 11
197.67919950000001
 21
417.59852650000005
  0
LINE
  8
_0-0_0
  6
CONTINUOUS
 62
    7
 10
197.67919950000001
 20
417.59852650000005
 11
197.6846615
 21
417.70182850000003
  0
LINE
  8
_0-0_0
  6
CONTINUOUS
 62
    7
 10
197.6846615
 20
417.70182850000003
 11
197.69726550000001
 21
417.80543550000004
  0
LINE
  8
_0-0_0
  6
CONTINUOUS
 62
    7
 10
197.69726550000001
 20
417.80543550000004
 11
197.71708649999999
 21
417.9095615
  0
LINE
  8
_0-0_0
  6
CONTINUOUS
 62
    7
 10
197.71708649999999
 20
417.9095615
 11
197.74423250000001
 21
418.01454150000006
  0
LINE
  8
_0-0_0
  6
CONTINUOUS
 62
    7
 10
197.74423250000001
 20
418.01454150000006
 11
197.77886950000001
 21
418.12055950000001
  0
LINE
  8
_0-0_0
  6
CONTINUOUS
 62
    7
 10
197.77886950000001
 20
418.12055950000001
 11
197.82122850000002
 21
418.22795150000002
  0
LINE
  8
_0-0_0
  6
CONTINUOUS
 62
    7
 10
197.82122850000002
 20
418.22795150000002
 11
197.87153650000002
 21
418.33695950000003
  0
LINE
  8
_0-0_0
  6
CONTINUOUS
 62
    7
 10
197.87153650000002
 20
418.33695950000003
 11
197.9172365
 21
418.42460649999998
  0
LINE
  8
_0-0_0
  6
CONTINUOUS
 62
    7
 10
207.92892449999999
 20
414.98225450000007
 11
198.22109950000001
 21
414.98225450000007
  0
LINE
  8
_0-0_0
  6
CONTINUOUS
 62
    7
 10
198.22109950000001
 20
414.98225450000007
 11
198.12677049999999
 21
414.73564150000004
  0
LINE
  8
_0-0_0
  6
CONTINUOUS
 62
    7
 10
198.12677049999999
 20
414.73564150000004
 11
198.04281650000001
 21
414.49568150000005
  0
LINE
  8
_0-0_0
  6
CONTINUOUS
 62
    7
 10
198.04281650000001
 20
414.49568150000005
 11
197.9686585
 21
414.2615515
  0
LINE
  8
_0-0_0
  6
CONTINUOUS
 62
    7
 10
197.9686585
 20
414.2615515
 11
197.90377850000002
 21
414.03251650000004
  0
LINE
  8
_0-0_0
  6
CONTINUOUS
 62
    7
 10
197.90377850000002
 20
414.03251650000004
 11
197.8477475
 21
413.80784649999998
  0
LINE
  8
_0-0_0
  6
CONTINUOUS
 62
    7
 10
197.8477475
 20
413.80784649999998
 11
197.80017050000001
 21
413.58686850000004
  0
LINE
  8
_0-0_0
  6
CONTINUOUS
 62
    7
 10
197.80017050000001
 20
413.58686850000004
 11
197.7607725
 21
413.3689425
  0
LINE
  8
_0-0_0
  6
CONTINUOUS
 62
    7
 10
197.7607725
 20
413.3689425
 11
197.72927849999999
 21
413.15348849999998
  0
LINE
  8
_0-0_0
  6
CONTINUOUS
 62
    7
 10
197.72927849999999
 20
413.15348849999998
 11
197.70550550000002
 21
412.93995649999999
  0
LINE
  8
_0-0_0
  6
CONTINUOUS
 62
    7
 10
197.70550550000002
 20
412.93995649999999
 11
197.68957550000002
 21
412.73225450000007
  0
LINE
  8
_0-0_0
  6
CONTINUOUS
 62
    7
 10
197.68957550000002
 20
412.73225450000007
 11
197.68081650000002
 21
412.52540650000003
  0
LINE
  8
_0-0_0
  6
CONTINUOUS
 62
    7
 10
197.68081650000002
 20
412.52540650000003
 11
197.67919950000001
 21
412.31892449999998
  0
LINE
  8
_0-0_0
  6
CONTINUOUS
 62
    7
 10
197.67919950000001
 20
412.31892449999998
 11
197.6846615
 21
412.11235050000005
  0
LINE
  8
_0-0_0
  6
CONTINUOUS
 62
    7
 10
197.6846615
 20
412.11235050000005
 11
197.69726550000001
 21
411.90516650000006
  0
LINE
  8
_0-0_0
  6
CONTINUOUS
 62
    7
 10
197.69726550000001
 20
411.90516650000006
 11
197.71708649999999
 21
411.69688450000001
  0
LINE
  8
_0-0_0
  6
CONTINUOUS
 62
    7
 10
197.71708649999999
 20
411.69688450000001
 11
197.74423250000001
 21
411.48695350000003
  0
LINE
  8
_0-0_0
  6
CONTINUOUS
 62
    7
 10
197.74423250000001
 20
411.48695350000003
 11
197.77886950000001
 21
411.27488749999998
  0
LINE
  8
_0-0_0
  6
CONTINUOUS
 62
    7
 10
197.77886950000001
 20
411.27488749999998
 11
197.82122850000002
 21
411.0601355
  0
LINE
  8
_0-0_0
  6
CONTINUOUS
 62
    7
 10
197.82122850000002
 20
411.0601355
 11
197.87153650000002
 21
410.84211749999997
  0
LINE
  8
_0-0_0
  6
CONTINUOUS
 62
    7
 10
197.87153650000002
 20
410.84211749999997
 11
197.9257815
 21
410.63584950000006
  0
LINE
  8
_0-0_0
  6
CONTINUOUS
 62
    7
 10
197.9257815
 20
410.63584950000006
 11
197.98748750000001
 21
410.42573549999997
  0
LINE
  8
_0-0_0
  6
CONTINUOUS
 62
    7
 10
197.98748750000001
 20
410.42573549999997
 11
198.0570065
 21
410.21125849999999
  0
LINE
  8
_0-0_0
  6
CONTINUOUS
 62
    7
 10
198.0570065
 20
410.21125849999999
 11
198.13473550000001
 21
409.99186750000001
  0
LINE
  8
_0-0_0
  6
CONTINUOUS
 62
    7
 10
198.13473550000001
 20
409.99186750000001
 11
198.22109950000001
 21
409.7668615
  0
LINE
  8
_0-0_0
  6
CONTINUOUS
 62
    7
 10
207.92892449999999
 20
409.7668615
 11
198.22109950000001
 21
409.7668615
  0
ARC
  8
_0-0_0
  6
CONTINUOUS
 62
    7
 10
203.09265150000002
 20
415.62455750000004
 40
4.9136889999999998
 50
172.48898299999999
 51
187.51101699999998
  0
LINE
  8
_0-0_0
  6
CONTINUOUS
 62
    7
 10
207.92892449999999
 20
408.48225450000007
 11
198.22109950000001
 21
408.48225450000007
  0
LINE
  8
_0-0_0
  6
CONTINUOUS
 62
    7
 10
198.22109950000001
 20
405.87455750000004
 11
198.16662650000001
 21
405.9445035
  0
LINE
  8
_0-0_0
  6
CONTINUOUS
 62
    7
 10
198.16662650000001
 20
405.9445035
 11
198.11552449999999
 21
406.01332149999996
  0
LINE
  8
_0-0_0
  6
CONTINUOUS
 62
    7
 10
198.11552449999999
 20
406.01332149999996
 11
198.06788650000001
 21
406.08082550000006
  0
LINE
  8
_0-0_0
  6
CONTINUOUS
 62
    7
 10
198.06788650000001
 20
406.08082550000006
 11
198.02337650000001
 21
406.14738450000004
  0
LINE
  8
_0-0_0
  6
CONTINUOUS
 62
    7
 10
198.02337650000001
 20
406.14738450000004
 11
197.9686585
 21
406.2349395
  0
LINE
  8
_0-0_0
  6
CONTINUOUS
 62
    7
 10
197.9686585
 20
406.2349395
 11
197.91915850000001
 21
406.32102950000001
  0
LINE
  8
_0-0_0
  6
CONTINUOUS
 62
    7
 10
197.91915850000001
 20
406.32102950000001
 11
197.8746945
 21
406.4058685
  0
LINE
  8
_0-0_0
  6
CONTINUOUS
 62
    7
 10
197.8746945
 20
406.4058685
 11
197.82772850000001
 21
406.50617950000003
  0
LINE
  8
_0-0_0
  6
CONTINUOUS
 62
    7
 10
197.82772850000001
 20
406.50617950000003
 11
197.78750650000001
 21
406.60511750000001
  0
LINE
  8
_0-0_0
  6
CONTINUOUS
 62
    7
 10
197.78750650000001
 20
406.60511750000001
 11
197.75384550000001
 21
406.70286550000003
  0
LINE
  8
_0-0_0
  6
CONTINUOUS
 62
    7
 10
197.75384550000001
 20
406.70286550000003
 11
197.7265625
 21
406.79966750000006
  0
LINE
  8
_0-0_0
  6
CONTINUOUS
 62
    7
 10
197.7265625
 20
406.79966750000006
 11
197.70550550000002
 21
406.89570649999996
  0
LINE
  8
_0-0_0
  6
CONTINUOUS
 62
    7
 10
197.70550550000002
 20
406.89570649999996
 11
197.68957550000002
 21
406.99958849999996
  0
LINE
  8
_0-0_0
  6
CONTINUOUS
 62
    7
 10
197.68957550000002
 20
406.99958849999996
 11
197.68081650000002
 21
407.10301249999998
  0
LINE
  8
_0-0_0
  6
CONTINUOUS
 62
    7
 10
197.68081650000002
 20
407.10301249999998
 11
197.67919950000001
 21
407.2062535
  0
LINE
  8
_0-0_0
  6
CONTINUOUS
 62
    7
 10
197.67919950000001
 20
407.2062535
 11
197.6846615
 21
407.30952450000007
  0
LINE
  8
_0-0_0
  6
CONTINUOUS
 62
    7
 10
197.6846615
 20
407.30952450000007
 11
197.69726550000001
 21
407.41313149999996
  0
LINE
  8
_0-0_0
  6
CONTINUOUS
 62
    7
 10
197.69726550000001
 20
407.41313149999996
 11
197.71708649999999
 21
407.51725750000003
  0
LINE
  8
_0-0_0
  6
CONTINUOUS
 62
    7
 10
197.71708649999999
 20
407.51725750000003
 11
197.74423250000001
 21
407.62223849999998
  0
LINE
  8
_0-0_0
  6
CONTINUOUS
 62
    7
 10
197.74423250000001
 20
407.62223849999998
 11
197.77886950000001
 21
407.72825650000004
  0
LINE
  8
_0-0_0
  6
CONTINUOUS
 62
    7
 10
197.77886950000001
 20
407.72825650000004
 11
197.82122850000002
 21
407.83564750000005
  0
LINE
  8
_0-0_0
  6
CONTINUOUS
 62
    7
 10
197.82122850000002
 20
407.83564750000005
 11
197.87153650000002
 21
407.94462550000003
  0
LINE
  8
_0-0_0
  6
CONTINUOUS
 62
    7
 10
197.87153650000002
 20
407.94462550000003
 11
197.9257815
 21
408.04777550000006
  0
LINE
  8
_0-0_0
  6
CONTINUOUS
 62
    7
 10
197.9257815
 20
408.04777550000006
 11
197.98748750000001
 21
408.15284750000001
  0
LINE
  8
_0-0_0
  6
CONTINUOUS
 62
    7
 10
197.98748750000001
 20
408.15284750000001
 11
198.0570065
 21
408.26008650000006
  0
LINE
  8
_0-0_0
  6
CONTINUOUS
 62
    7
 10
198.0570065
 20
408.26008650000006
 11
198.13473550000001
 21
408.36976649999997
  0
LINE
  8
_0-0_0
  6
CONTINUOUS
 62
    7
 10
198.13473550000001
 20
408.36976649999997
 11
198.22109950000001
 21
408.48225450000007
  0
LINE
  8
_0-0_0
  6
CONTINUOUS
 62
    7
 10
207.92892449999999
 20
405.87455750000004
 11
198.22109950000001
 21
405.87455750000004
  0
ARC
  8
_0-0_0
  6
CONTINUOUS
 62
    7
 10
203.1028135
 20
409.1236725
 40
4.9238749999999998
 50
172.49424200000001
 51
181.535968
  0
ARC
  8
_0-0_0
  6
CONTINUOUS
 62
    7
 10
203.1408385
 20
409.12864650000006
 40
4.9620009999999999
 50
181.58130700000004
 51
187.48478900000003
  0
LINE
  8
_0-0_0
  6
CONTINUOUS
 62
    7
 10
198.17892449999999
 20
405.87455750000004
 11
198.22109950000001
 21
405.87455750000004
  0
LINE
  8
_0-0_0
  6
CONTINUOUS
 62
    7
 10
192.92892449999999
 20
405.3000035
 11
192.67892449999999
 21
405.32456950000005
  0
LINE
  8
_0-0_0
  6
CONTINUOUS
 62
    7
 10
192.92892449999999
 20
405.09605450000004
 11
192.67892449999999
 21
405.32456950000005
  0
LINE
  8
_0-0_0
  6
CONTINUOUS
 62
    7
 10
192.92892449999999
 20
405.49055450000003
 11
192.67892449999999
 21
405.54402149999999
  0
LINE
  8
_0-0_0
  6
CONTINUOUS
 62
    7
 10
192.92892449999999
 20
405.3000035
 11
192.67892449999999
 21
405.54402149999999
  0
LINE
  8
_0-0_0
  6
CONTINUOUS
 62
    7
 10
192.92892449999999
 20
405.66557350000005
 11
192.67892449999999
 21
405.74739050000005
  0
LINE
  8
_0-0_0
  6
CONTINUOUS
 62
    7
 10
192.92892449999999
 20
405.49055450000003
 11
192.67892449999999
 21
405.74739050000005
  0
LINE
  8
_0-0_0
  6
CONTINUOUS
 62
    7
 10
192.92892449999999
 20
405.82313550000003
 11
192.67892449999999
 21
405.93241850000004
  0
LINE
  8
_0-0_0
  6
CONTINUOUS
 62
    7
 10
192.92892449999999
 20
405.66557350000005
 11
192.67892449999999
 21
405.93241850000004
  0
LINE
  8
_0-0_0
  6
CONTINUOUS
 62
    7
 10
192.92892449999999
 20
405.96159350000005
 11
192.67892449999999
 21
406.09712249999995
  0
LINE
  8
_0-0_0
  6
CONTINUOUS
 62
    7
 10
192.92892449999999
 20
405.82313550000003
 11
192.67892449999999
 21
406.09712249999995
  0
LINE
  8
_0-0_0
  6
CONTINUOUS
 62
    7
 10
192.92892449999999
 20
406.07933049999997
 11
192.67892449999999
 21
406.23963950000007
  0
LINE
  8
_0-0_0
  6
CONTINUOUS
 62
    7
 10
192.92892449999999
 20
405.96159350000005
 11
192.67892449999999
 21
406.23963950000007
  0
LINE
  8
_0-0_0
  6
CONTINUOUS
 62
    7
 10
192.92892449999999
 20
406.17512550000004
 11
192.67892449999999
 21
406.35844450000002
  0
LINE
  8
_0-0_0
  6
CONTINUOUS
 62
    7
 10
192.92892449999999
 20
406.07933049999997
 11
192.67892449999999
 21
406.35844450000002
  0
LINE
  8
_0-0_0
  6
CONTINUOUS
 62
    7
 10
192.92892449999999
 20
406.24790949999999
 11
192.67892449999999
 21
406.45222450000006
  0
LINE
  8
_0-0_0
  6
CONTINUOUS
 62
    7
 10
192.92892449999999
 20
406.17512550000004
 11
192.67892449999999
 21
406.45222450000006
  0
LINE
  8
_0-0_0
  6
CONTINUOUS
 62
    7
 10
192.92892449999999
 20
406.29685949999998
 11
192.67892449999999
 21
406.51994350000007
  0
LINE
  8
_0-0_0
  6
CONTINUOUS
 62
    7
 10
192.92892449999999
 20
406.24790949999999
 11
192.67892449999999
 21
406.51994350000007
  0
LINE
  8
_0-0_0
  6
CONTINUOUS
 62
    7
 10
192.92892449999999
 20
406.32148749999999
 11
192.67892449999999
 21
406.56086749999997
  0
LINE
  8
_0-0_0
  6
CONTINUOUS
 62
    7
 10
192.92892449999999
 20
406.29685949999998
 11
192.67892449999999
 21
406.56086749999997
  0
LINE
  8
_0-0_0
  6
CONTINUOUS
 62
    7
 10
192.92892449999999
 20
406.32148749999999
 11
192.67892449999999
 21
406.57456950000005
  0
LINE
  8
_0-0_0
  6
CONTINUOUS
 62
    7
 10
192.92892449999999
 20
401.8276525
 11
192.67892449999999
 21
401.57456950000005
  0
LINE
  8
_0-0_0
  6
CONTINUOUS
 62
    7
 10
192.92892449999999
 20
401.85227950000001
 11
192.67892449999999
 21
401.58827250000002
  0
LINE
  8
_0-0_0
  6
CONTINUOUS
 62
    7
 10
192.92892449999999
 20
401.8276525
 11
192.67892449999999
 21
401.58827250000002
  0
LINE
  8
_0-0_0
  6
CONTINUOUS
 62
    7
 10
192.92892449999999
 20
401.9012295
 11
192.67892449999999
 21
401.62919650000003
  0
LINE
  8
_0-0_0
  6
CONTINUOUS
 62
    7
 10
192.92892449999999
 20
401.85227950000001
 11
192.67892449999999
 21
401.62919650000003
  0
LINE
  8
_0-0_0
  6
CONTINUOUS
 62
    7
 10
192.92892449999999
 20
401.97401450000007
 11
192.67892449999999
 21
401.69691450000005
  0
LINE
  8
_0-0_0
  6
CONTINUOUS
 62
    7
 10
192.92892449999999
 20
401.9012295
 11
192.67892449999999
 21
401.69691450000005
  0
LINE
  8
_0-0_0
  6
CONTINUOUS
 62
    7
 10
192.92892449999999
 20
402.06980950000002
 11
192.67892449999999
 21
401.79069549999997
  0
LINE
  8
_0-0_0
  6
CONTINUOUS
 62
    7
 10
192.92892449999999
 20
401.97401450000007
 11
192.67892449999999
 21
401.79069549999997
  0
LINE
  8
_0-0_0
  6
CONTINUOUS
 62
    7
 10
192.92892449999999
 20
402.06980950000002
 11
192.79896550000001
 21
401.98594650000007
  0
LINE
  8
_0-0_0
  6
CONTINUOUS
 62
    7
 10
192.92892449999999
 20
402.18754550000006
 11
192.67892449999999
 21
401.90950050000004
  0
LINE
  8
_0-0_0
  6
CONTINUOUS
 62
    7
 10
192.79896550000001
 20
401.98594650000007
 11
192.67892449999999
 21
401.90950050000004
  0
LINE
  8
_0-0_0
  6
CONTINUOUS
 62
    7
 10
192.92892449999999
 20
402.32600450000007
 11
192.67892449999999
 21
402.05201750000003
  0
LINE
  8
_0-0_0
  6
CONTINUOUS
 62
    7
 10
192.92892449999999
 20
402.18754550000006
 11
192.67892449999999
 21
402.05201750000003
  0
LINE
  8
_0-0_0
  6
CONTINUOUS
 62
    7
 10
192.92892449999999
 20
402.48359649999998
 11
192.67892449999999
 21
402.21672050000006
  0
LINE
  8
_0-0_0
  6
CONTINUOUS
 62
    7
 10
192.92892449999999
 20
402.32600450000007
 11
192.67892449999999
 21
402.21672050000006
  0
LINE
  8
_0-0_0
  6
CONTINUOUS
 62
    7
 10
192.92892449999999
 20
402.65858449999996
 11
192.67892449999999
 21
402.40174850000005
  0
LINE
  8
_0-0_0
  6
CONTINUOUS
 62
    7
 10
192.92892449999999
 20
402.48359649999998
 11
192.67892449999999
 21
402.40174850000005
  0
LINE
  8
_0-0_0
  6
CONTINUOUS
 62
    7
 10
192.92892449999999
 20
402.84913649999999
 11
192.67892449999999
 21
402.60511750000001
  0
LINE
  8
_0-0_0
  6
CONTINUOUS
 62
    7
 10
192.92892449999999
 20
402.65858449999996
 11
192.67892449999999
 21
402.60511750000001
  0
LINE
  8
_0-0_0
  6
CONTINUOUS
 62
    7
 10
192.92892449999999
 20
403.05308550000007
 11
192.67892449999999
 21
402.82456950000005
  0
LINE
  8
_0-0_0
  6
CONTINUOUS
 62
    7
 10
192.92892449999999
 20
402.84913649999999
 11
192.67892449999999
 21
402.82456950000005
  0
LINE
  8
_0-0_0
  6
CONTINUOUS
 62
    7
 10
192.92892449999999
 20
403.26823450000006
 11
192.67892449999999
 21
403.05772450000006
  0
LINE
  8
_0-0_0
  6
CONTINUOUS
 62
    7
 10
192.92892449999999
 20
403.05308550000007
 11
192.67892449999999
 21
403.05772450000006
  0
LINE
  8
_0-0_0
  6
CONTINUOUS
 62
    7
 10
192.92892449999999
 20
403.4922335
 11
192.67892449999999
 21
403.30201750000003
  0
LINE
  8
_0-0_0
  6
CONTINUOUS
 62
    7
 10
192.92892449999999
 20
403.26823450000006
 11
192.67892449999999
 21
403.30201750000003
  0
LINE
  8
_0-0_0
  6
CONTINUOUS
 62
    7
 10
192.92892449999999
 20
403.72258050000005
 11
192.67892449999999
 21
403.55479449999996
  0
LINE
  8
_0-0_0
  6
CONTINUOUS
 62
    7
 10
192.92892449999999
 20
403.4922335
 11
192.67892449999999
 21
403.55479449999996
  0
LINE
  8
_0-0_0
  6
CONTINUOUS
 62
    7
 10
192.92892449999999
 20
403.95680249999998
 11
192.67892449999999
 21
403.81324749999999
  0
LINE
  8
_0-0_0
  6
CONTINUOUS
 62
    7
 10
192.92892449999999
 20
403.72258050000005
 11
192.67892449999999
 21
403.81324749999999
  0
LINE
  8
_0-0_0
  6
CONTINUOUS
 62
    7
 10
192.92892449999999
 20
404.19233750000001
 11
192.67892449999999
 21
404.07456950000005
  0
LINE
  8
_0-0_0
  6
CONTINUOUS
 62
    7
 10
192.92892449999999
 20
403.95680249999998
 11
192.67892449999999
 21
404.07456950000005
  0
LINE
  8
_0-0_0
  6
CONTINUOUS
 62
    7
 10
192.92892449999999
 20
404.42655950000005
 11
192.67892449999999
 21
404.3358915
  0
LINE
  8
_0-0_0
  6
CONTINUOUS
 62
    7
 10
192.92892449999999
 20
404.19233750000001
 11
192.67892449999999
 21
404.3358915
  0
LINE
  8
_0-0_0
  6
CONTINUOUS
 62
    7
 10
192.92892449999999
 20
404.65690649999999
 11
192.67892449999999
 21
404.59434550000003
  0
LINE
  8
_0-0_0
  6
CONTINUOUS
 62
    7
 10
192.92892449999999
 20
404.42655950000005
 11
192.67892449999999
 21
404.59434550000003
  0
LINE
  8
_0-0_0
  6
CONTINUOUS
 62
    7
 10
192.92892449999999
 20
404.88090550000004
 11
192.67892449999999
 21
404.84712249999995
  0
LINE
  8
_0-0_0
  6
CONTINUOUS
 62
    7
 10
192.92892449999999
 20
404.65690649999999
 11
192.67892449999999
 21
404.84712249999995
  0
LINE
  8
_0-0_0
  6
CONTINUOUS
 62
    7
 10
192.92892449999999
 20
405.09605450000004
 11
192.67892449999999
 21
405.09141550000004
  0
LINE
  8
_0-0_0
  6
CONTINUOUS
 62
    7
 10
192.92892449999999
 20
404.88090550000004
 11
192.67892449999999
 21
405.09141550000004
  0
LINE
  8
_0-0_0
  6
CONTINUOUS
 62
    7
 10
183.17892449999999
 20
421.90000950000001
 11
183.42892449999999
 21
421.92457550000006
  0
LINE
  8
_0-0_0
  6
CONTINUOUS
 62
    7
 10
183.42892449999999
 20
421.92457550000006
 11
192.67892449999999
 21
421.92457550000006
  0
LINE
  8
_0-0_0
  6
CONTINUOUS
 62
    7
 10
183.17892449999999
 20
421.69606050000004
 11
183.42892449999999
 21
421.92457550000006
  0
LINE
  8
_0-0_0
  6
CONTINUOUS
 62
    7
 10
183.17892449999999
 20
421.69606050000004
 11
192.92892449999999
 21
421.69606050000004
  0
LINE
  8
_0-0_0
  6
CONTINUOUS
 62
    7
 10
183.17892449999999
 20
422.0905305
 11
183.42892449999999
 21
422.14402749999999
  0
LINE
  8
_0-0_0
  6
CONTINUOUS
 62
    7
 10
183.42892449999999
 20
422.14402749999999
 11
192.67892449999999
 21
422.14402749999999
  0
LINE
  8
_0-0_0
  6
CONTINUOUS
 62
    7
 10
183.17892449999999
 20
421.90000950000001
 11
183.42892449999999
 21
422.14402749999999
  0
LINE
  8
_0-0_0
  6
CONTINUOUS
 62
    7
 10
183.17892449999999
 20
422.26554850000002
 11
183.42892449999999
 21
422.34739650000006
  0
LINE
  8
_0-0_0
  6
CONTINUOUS
 62
    7
 10
183.42892449999999
 20
422.34739650000006
 11
192.67892449999999
 21
422.34739650000006
  0
LINE
  8
_0-0_0
  6
CONTINUOUS
 62
    7
 10
183.17892449999999
 20
422.0905305
 11
183.42892449999999
 21
422.34739650000006
  0
LINE
  8
_0-0_0
  6
CONTINUOUS
 62
    7
 10
183.17892449999999
 20
422.42314150000004
 11
183.42892449999999
 21
422.53242550000004
  0
LINE
  8
_0-0_0
  6
CONTINUOUS
 62
    7
 10
183.42892449999999
 20
422.53242550000004
 11
192.67892449999999
 21
422.53242550000004
  0
LINE
  8
_0-0_0
  6
CONTINUOUS
 62
    7
 10
183.17892449999999
 20
422.26554850000002
 11
183.42892449999999
 21
422.53242550000004
  0
LINE
  8
_0-0_0
  6
CONTINUOUS
 62
    7
 10
183.17892449999999
 20
422.56156950000002
 11
183.42892449999999
 21
422.69712849999996
  0
LINE
  8
_0-0_0
  6
CONTINUOUS
 62
    7
 10
183.42892449999999
 20
422.69712849999996
 11
192.67892449999999
 21
422.69712849999996
  0
LINE
  8
_0-0_0
  6
CONTINUOUS
 62
    7
 10
183.17892449999999
 20
422.42314150000004
 11
183.42892449999999
 21
422.69712849999996
  0
LINE
  8
_0-0_0
  6
CONTINUOUS
 62
    7
 10
183.17892449999999
 20
422.67933649999998
 11
183.42892449999999
 21
422.83964549999996
  0
LINE
  8
_0-0_0
  6
CONTINUOUS
 62
    7
 10
183.42892449999999
 20
422.83964549999996
 11
192.67892449999999
 21
422.83964549999996
  0
LINE
  8
_0-0_0
  6
CONTINUOUS
 62
    7
 10
183.17892449999999
 20
422.56156950000002
 11
183.42892449999999
 21
422.83964549999996
  0
LINE
  8
_0-0_0
  6
CONTINUOUS
 62
    7
 10
183.17892449999999
 20
422.77513150000004
 11
183.42892449999999
 21
422.95845050000003
  0
LINE
  8
_0-0_0
  6
CONTINUOUS
 62
    7
 10
183.42892449999999
 20
422.95845050000003
 11
192.67892449999999
 21
422.95845050000003
  0
LINE
  8
_0-0_0
  6
CONTINUOUS
 62
    7
 10
183.17892449999999
 20
422.67933649999998
 11
183.42892449999999
 21
422.95845050000003
  0
LINE
  8
_0-0_0
  6
CONTINUOUS
 62
    7
 10
183.17892449999999
 20
422.8479155
 11
183.42892449999999
 21
423.05220050000003
  0
LINE
  8
_0-0_0
  6
CONTINUOUS
 62
    7
 10
183.42892449999999
 20
423.05220050000003
 11
192.67892449999999
 21
423.05220050000003
  0
LINE
  8
_0-0_0
  6
CONTINUOUS
 62
    7
 10
183.17892449999999
 20
422.77513150000004
 11
183.42892449999999
 21
423.05220050000003
  0
LINE
  8
_0-0_0
  6
CONTINUOUS
 62
    7
 10
183.17892449999999
 20
422.89686549999999
 11
183.42892449999999
 21
423.11994949999996
  0
LINE
  8
_0-0_0
  6
CONTINUOUS
 62
    7
 10
183.42892449999999
 20
423.11994949999996
 11
192.67892449999999
 21
423.11994949999996
  0
LINE
  8
_0-0_0
  6
CONTINUOUS
 62
    7
 10
183.17892449999999
 20
422.8479155
 11
183.42892449999999
 21
423.11994949999996
  0
LINE
  8
_0-0_0
  6
CONTINUOUS
 62
    7
 10
183.17892449999999
 20
422.9214935
 11
183.42892449999999
 21
423.16087349999998
  0
LINE
  8
_0-0_0
  6
CONTINUOUS
 62
    7
 10
183.42892449999999
 20
423.16087349999998
 11
192.67892449999999
 21
423.16087349999998
  0
LINE
  8
_0-0_0
  6
CONTINUOUS
 62
    7
 10
183.17892449999999
 20
422.89686549999999
 11
183.42892449999999
 21
423.16087349999998
  0
LINE
  8
_0-0_0
  6
CONTINUOUS
 62
    7
 10
183.42892449999999
 20
423.17457550000006
 11
192.67892449999999
 21
423.17457550000006
  0
LINE
  8
_0-0_0
  6
CONTINUOUS
 62
    7
 10
183.17892449999999
 20
422.9214935
 11
183.42892449999999
 21
423.17457550000006
  0
LINE
  8
_0-0_0
  6
CONTINUOUS
 62
    7
 10
183.17892449999999
 20
418.42765850000001
 11
183.42892449999999
 21
418.17457550000006
  0
LINE
  8
_0-0_0
  6
CONTINUOUS
 62
    7
 10
183.42892449999999
 20
418.17457550000006
 11
192.67892449999999
 21
418.17457550000006
  0
LINE
  8
_0-0_0
  6
CONTINUOUS
 62
    7
 10
183.17892449999999
 20
418.45228550000002
 11
183.42892449999999
 21
418.18827850000002
  0
LINE
  8
_0-0_0
  6
CONTINUOUS
 62
    7
 10
183.42892449999999
 20
418.18827850000002
 11
192.67892449999999
 21
418.18827850000002
  0
LINE
  8
_0-0_0
  6
CONTINUOUS
 62
    7
 10
183.17892449999999
 20
418.42765850000001
 11
183.42892449999999
 21
418.18827850000002
  0
LINE
  8
_0-0_0
  6
CONTINUOUS
 62
    7
 10
183.17892449999999
 20
418.5012365
 11
183.42892449999999
 21
418.22920250000004
  0
LINE
  8
_0-0_0
  6
CONTINUOUS
 62
    7
 10
183.42892449999999
 20
418.22920250000004
 11
192.67892449999999
 21
418.22920250000004
  0
LINE
  8
_0-0_0
  6
CONTINUOUS
 62
    7
 10
183.17892449999999
 20
418.45228550000002
 11
183.42892449999999
 21
418.22920250000004
  0
LINE
  8
_0-0_0
  6
CONTINUOUS
 62
    7
 10
183.17892449999999
 20
418.57402049999996
 11
183.42892449999999
 21
418.29692050000006
  0
LINE
  8
_0-0_0
  6
CONTINUOUS
 62
    7
 10
183.42892449999999
 20
418.29692050000006
 11
192.67892449999999
 21
418.29692050000006
  0
LINE
  8
_0-0_0
  6
CONTINUOUS
 62
    7
 10
183.17892449999999
 20
418.5012365
 11
183.42892449999999
 21
418.29692050000006
  0
LINE
  8
_0-0_0
  6
CONTINUOUS
 62
    7
 10
183.17892449999999
 20
418.66981550000003
 11
183.42892449999999
 21
418.39070149999998
  0
LINE
  8
_0-0_0
  6
CONTINUOUS
 62
    7
 10
183.42892449999999
 20
418.39070149999998
 11
192.67892449999999
 21
418.39070149999998
  0
LINE
  8
_0-0_0
  6
CONTINUOUS
 62
    7
 10
183.17892449999999
 20
418.57402049999996
 11
183.42892449999999
 21
418.39070149999998
  0
LINE
  8
_0-0_0
  6
CONTINUOUS
 62
    7
 10
183.42892449999999
 20
418.50950650000004
 11
192.67892449999999
 21
418.50950650000004
  0
LINE
  8
_0-0_0
  6
CONTINUOUS
 62
    7
 10
183.3088985
 20
418.58595249999996
 11
183.42892449999999
 21
418.50950650000004
  0
LINE
  8
_0-0_0
  6
CONTINUOUS
 62
    7
 10
183.17892449999999
 20
418.66981550000003
 11
183.3088985
 21
418.58595249999996
  0
LINE
  8
_0-0_0
  6
CONTINUOUS
 62
    7
 10
183.17892449999999
 20
418.78755250000006
 11
183.42892449999999
 21
418.50950650000004
  0
LINE
  8
_0-0_0
  6
CONTINUOUS
 62
    7
 10
183.17892449999999
 20
418.92597950000004
 11
183.42892449999999
 21
418.65202350000004
  0
LINE
  8
_0-0_0
  6
CONTINUOUS
 62
    7
 10
183.42892449999999
 20
418.65202350000004
 11
192.67892449999999
 21
418.65202350000004
  0
LINE
  8
_0-0_0
  6
CONTINUOUS
 62
    7
 10
183.17892449999999
 20
418.78755250000006
 11
183.42892449999999
 21
418.65202350000004
  0
LINE
  8
_0-0_0
  6
CONTINUOUS
 62
    7
 10
183.17892449999999
 20
419.08357250000006
 11
183.42892449999999
 21
418.81669650000003
  0
LINE
  8
_0-0_0
  6
CONTINUOUS
 62
    7
 10
183.42892449999999
 20
418.81669650000003
 11
192.67892449999999
 21
418.81669650000003
  0
LINE
  8
_0-0_0
  6
CONTINUOUS
 62
    7
 10
183.17892449999999
 20
418.92597950000004
 11
183.42892449999999
 21
418.81669650000003
  0
LINE
  8
_0-0_0
  6
CONTINUOUS
 62
    7
 10
183.17892449999999
 20
419.25859049999997
 11
183.42892449999999
 21
419.00175450000006
  0
LINE
  8
_0-0_0
  6
CONTINUOUS
 62
    7
 10
183.42892449999999
 20
419.00175450000006
 11
192.67892449999999
 21
419.00175450000006
  0
LINE
  8
_0-0_0
  6
CONTINUOUS
 62
    7
 10
183.17892449999999
 20
419.08357250000006
 11
183.42892449999999
 21
419.00175450000006
  0
LINE
  8
_0-0_0
  6
CONTINUOUS
 62
    7
 10
183.17892449999999
 20
419.44914249999999
 11
183.42892449999999
 21
419.20509349999998
  0
LINE
  8
_0-0_0
  6
CONTINUOUS
 62
    7
 10
183.42892449999999
 20
419.20509349999998
 11
192.67892449999999
 21
419.20509349999998
  0
LINE
  8
_0-0_0
  6
CONTINUOUS
 62
    7
 10
183.17892449999999
 20
419.25859049999997
 11
183.42892449999999
 21
419.20509349999998
  0
LINE
  8
_0-0_0
  6
CONTINUOUS
 62
    7
 10
183.17892449999999
 20
419.65309149999996
 11
183.42892449999999
 21
419.42457550000006
  0
LINE
  8
_0-0_0
  6
CONTINUOUS
 62
    7
 10
183.42892449999999
 20
419.42457550000006
 11
192.67892449999999
 21
419.42457550000006
  0
LINE
  8
_0-0_0
  6
CONTINUOUS
 62
    7
 10
183.17892449999999
 20
419.65309149999996
 11
192.92892449999999
 21
419.65309149999996
  0
LINE
  8
_0-0_0
  6
CONTINUOUS
 62
    7
 10
183.17892449999999
 20
419.44914249999999
 11
183.42892449999999
 21
419.42457550000006
  0
LINE
  8
_0-0_0
  6
CONTINUOUS
 62
    7
 10
183.17892449999999
 20
419.86824049999996
 11
183.42892449999999
 21
419.65773049999996
  0
LINE
  8
_0-0_0
  6
CONTINUOUS
 62
    7
 10
183.42892449999999
 20
419.65773049999996
 11
192.67892449999999
 21
419.65773049999996
  0
LINE
  8
_0-0_0
  6
CONTINUOUS
 62
    7
 10
183.17892449999999
 20
419.86824049999996
 11
192.92892449999999
 21
419.86824049999996
  0
LINE
  8
_0-0_0
  6
CONTINUOUS
 62
    7
 10
183.17892449999999
 20
419.65309149999996
 11
183.42892449999999
 21
419.65773049999996
  0
LINE
  8
_0-0_0
  6
CONTINUOUS
 62
    7
 10
183.17892449999999
 20
420.09223950000001
 11
183.42892449999999
 21
419.90202350000004
  0
LINE
  8
_0-0_0
  6
CONTINUOUS
 62
    7
 10
183.42892449999999
 20
419.90202350000004
 11
192.67892449999999
 21
419.90202350000004
  0
LINE
  8
_0-0_0
  6
CONTINUOUS
 62
    7
 10
183.17892449999999
 20
420.09223950000001
 11
192.92892449999999
 21
420.09223950000001
  0
LINE
  8
_0-0_0
  6
CONTINUOUS
 62
    7
 10
183.17892449999999
 20
419.86824049999996
 11
183.42892449999999
 21
419.90202350000004
  0
LINE
  8
_0-0_0
  6
CONTINUOUS
 62
    7
 10
183.17892449999999
 20
420.32258650000006
 11
183.42892449999999
 21
420.15480049999996
  0
LINE
  8
_0-0_0
  6
CONTINUOUS
 62
    7
 10
183.42892449999999
 20
420.15480049999996
 11
192.67892449999999
 21
420.15480049999996
  0
LINE
  8
_0-0_0
  6
CONTINUOUS
 62
    7
 10
183.17892449999999
 20
420.32258650000006
 11
192.92892449999999
 21
420.32258650000006
  0
LINE
  8
_0-0_0
  6
CONTINUOUS
 62
    7
 10
183.17892449999999
 20
420.09223950000001
 11
183.42892449999999
 21
420.15480049999996
  0
LINE
  8
_0-0_0
  6
CONTINUOUS
 62
    7
 10
183.17892449999999
 20
420.55680849999999
 11
183.42892449999999
 21
420.4132535
  0
LINE
  8
_0-0_0
  6
CONTINUOUS
 62
    7
 10
183.42892449999999
 20
420.4132535
 11
192.67892449999999
 21
420.4132535
  0
LINE
  8
_0-0_0
  6
CONTINUOUS
 62
    7
 10
183.17892449999999
 20
420.55680849999999
 11
192.92892449999999
 21
420.55680849999999
  0
LINE
  8
_0-0_0
  6
CONTINUOUS
 62
    7
 10
183.17892449999999
 20
420.32258650000006
 11
183.42892449999999
 21
420.4132535
  0
LINE
  8
_0-0_0
  6
CONTINUOUS
 62
    7
 10
183.17892449999999
 20
420.79231249999998
 11
183.42892449999999
 21
420.67457550000006
  0
LINE
  8
_0-0_0
  6
CONTINUOUS
 62
    7
 10
183.42892449999999
 20
420.67457550000006
 11
192.67892449999999
 21
420.67457550000006
  0
LINE
  8
_0-0_0
  6
CONTINUOUS
 62
    7
 10
183.17892449999999
 20
420.79231249999998
 11
192.92892449999999
 21
420.79231249999998
  0
LINE
  8
_0-0_0
  6
CONTINUOUS
 62
    7
 10
183.17892449999999
 20
420.55680849999999
 11
183.42892449999999
 21
420.67457550000006
  0
LINE
  8
_0-0_0
  6
CONTINUOUS
 62
    7
 10
183.17892449999999
 20
421.02653550000002
 11
183.42892449999999
 21
420.93589750000001
  0
LINE
  8
_0-0_0
  6
CONTINUOUS
 62
    7
 10
183.42892449999999
 20
420.93589750000001
 11
192.67892449999999
 21
420.93589750000001
  0
LINE
  8
_0-0_0
  6
CONTINUOUS
 62
    7
 10
183.17892449999999
 20
421.02653550000002
 11
192.92892449999999
 21
421.02653550000002
  0
LINE
  8
_0-0_0
  6
CONTINUOUS
 62
    7
 10
183.17892449999999
 20
420.79231249999998
 11
183.42892449999999
 21
420.93589750000001
  0
LINE
  8
_0-0_0
  6
CONTINUOUS
 62
    7
 10
183.17892449999999
 20
421.2569125
 11
183.42892449999999
 21
421.19435150000004
  0
LINE
  8
_0-0_0
  6
CONTINUOUS
 62
    7
 10
183.42892449999999
 20
421.19435150000004
 11
192.67892449999999
 21
421.19435150000004
  0
LINE
  8
_0-0_0
  6
CONTINUOUS
 62
    7
 10
183.17892449999999
 20
421.2569125
 11
192.92892449999999
 21
421.2569125
  0
LINE
  8
_0-0_0
  6
CONTINUOUS
 62
    7
 10
183.17892449999999
 20
421.02653550000002
 11
183.42892449999999
 21
421.19435150000004
  0
LINE
  8
_0-0_0
  6
CONTINUOUS
 62
    7
 10
183.17892449999999
 20
421.48091150000005
 11
183.42892449999999
 21
421.44712849999996
  0
LINE
  8
_0-0_0
  6
CONTINUOUS
 62
    7
 10
183.42892449999999
 20
421.44712849999996
 11
192.67892449999999
 21
421.44712849999996
  0
LINE
  8
_0-0_0
  6
CONTINUOUS
 62
    7
 10
183.17892449999999
 20
421.48091150000005
 11
192.92892449999999
 21
421.48091150000005
  0
LINE
  8
_0-0_0
  6
CONTINUOUS
 62
    7
 10
183.17892449999999
 20
421.2569125
 11
183.42892449999999
 21
421.44712849999996
  0
LINE
  8
_0-0_0
  6
CONTINUOUS
 62
    7
 10
183.17892449999999
 20
421.69606050000004
 11
183.42892449999999
 21
421.69142150000005
  0
LINE
  8
_0-0_0
  6
CONTINUOUS
 62
    7
 10
183.42892449999999
 20
421.69142150000005
 11
192.67892449999999
 21
421.69142150000005
  0
LINE
  8
_0-0_0
  6
CONTINUOUS
 62
    7
 10
183.17892449999999
 20
421.48091150000005
 11
183.42892449999999
 21
421.69142150000005
  0
LINE
  8
_0-0_0
  6
CONTINUOUS
 62
    7
 10
196.92892449999999
 20
417.62455750000004
 11
196.92892449999999
 21
409.64302050000003
  0
LINE
  8
_0-0_0
  6
CONTINUOUS
 62
    7
 10
196.92892449999999
 20
409.64302050000003
 11
196.92892449999999
 21
407.12455750000004
  0
LINE
  8
_0-0_0
  6
CONTINUOUS
 62
    7
 10
183.17892449999999
 20
405.3000035
 11
183.42892449999999
 21
405.32456950000005
  0
LINE
  8
_0-0_0
  6
CONTINUOUS
 62
    7
 10
183.42892449999999
 20
405.32456950000005
 11
192.67892449999999
 21
405.32456950000005
  0
LINE
  8
_0-0_0
  6
CONTINUOUS
 62
    7
 10
183.17892449999999
 20
405.09605450000004
 11
183.42892449999999
 21
405.32456950000005
  0
LINE
  8
_0-0_0
  6
CONTINUOUS
 62
    7
 10
183.17892449999999
 20
405.09605450000004
 11
192.92892449999999
 21
405.09605450000004
  0
LINE
  8
_0-0_0
  6
CONTINUOUS
 62
    7
 10
183.17892449999999
 20
405.49055450000003
 11
183.42892449999999
 21
405.54402149999999
  0
LINE
  8
_0-0_0
  6
CONTINUOUS
 62
    7
 10
183.42892449999999
 20
405.54402149999999
 11
192.67892449999999
 21
405.54402149999999
  0
LINE
  8
_0-0_0
  6
CONTINUOUS
 62
    7
 10
183.17892449999999
 20
405.3000035
 11
183.42892449999999
 21
405.54402149999999
  0
LINE
  8
_0-0_0
  6
CONTINUOUS
 62
    7
 10
183.17892449999999
 20
405.66557350000005
 11
183.42892449999999
 21
405.74739050000005
  0
LINE
  8
_0-0_0
  6
CONTINUOUS
 62
    7
 10
183.42892449999999
 20
405.74739050000005
 11
192.67892449999999
 21
405.74739050000005
  0
LINE
  8
_0-0_0
  6
CONTINUOUS
 62
    7
 10
183.17892449999999
 20
405.49055450000003
 11
183.42892449999999
 21
405.74739050000005
  0
LINE
  8
_0-0_0
  6
CONTINUOUS
 62
    7
 10
183.17892449999999
 20
405.82313550000003
 11
183.42892449999999
 21
405.93241850000004
  0
LINE
  8
_0-0_0
  6
CONTINUOUS
 62
    7
 10
183.42892449999999
 20
405.93241850000004
 11
192.67892449999999
 21
405.93241850000004
  0
LINE
  8
_0-0_0
  6
CONTINUOUS
 62
    7
 10
183.17892449999999
 20
405.66557350000005
 11
183.42892449999999
 21
405.93241850000004
  0
LINE
  8
_0-0_0
  6
CONTINUOUS
 62
    7
 10
183.17892449999999
 20
405.96159350000005
 11
183.42892449999999
 21
406.09712249999995
  0
LINE
  8
_0-0_0
  6
CONTINUOUS
 62
    7
 10
183.42892449999999
 20
406.09712249999995
 11
192.67892449999999
 21
406.09712249999995
  0
LINE
  8
_0-0_0
  6
CONTINUOUS
 62
    7
 10
183.17892449999999
 20
405.82313550000003
 11
183.42892449999999
 21
406.09712249999995
  0
LINE
  8
_0-0_0
  6
CONTINUOUS
 62
    7
 10
183.17892449999999
 20
406.07933049999997
 11
183.42892449999999
 21
406.23963950000007
  0
LINE
  8
_0-0_0
  6
CONTINUOUS
 62
    7
 10
183.42892449999999
 20
406.23963950000007
 11
192.67892449999999
 21
406.23963950000007
  0
LINE
  8
_0-0_0
  6
CONTINUOUS
 62
    7
 10
183.17892449999999
 20
405.96159350000005
 11
183.42892449999999
 21
406.23963950000007
  0
LINE
  8
_0-0_0
  6
CONTINUOUS
 62
    7
 10
183.17892449999999
 20
406.17512550000004
 11
183.42892449999999
 21
406.35844450000002
  0
LINE
  8
_0-0_0
  6
CONTINUOUS
 62
    7
 10
183.42892449999999
 20
406.35844450000002
 11
192.67892449999999
 21
406.35844450000002
  0
LINE
  8
_0-0_0
  6
CONTINUOUS
 62
    7
 10
183.17892449999999
 20
406.07933049999997
 11
183.42892449999999
 21
406.35844450000002
  0
LINE
  8
_0-0_0
  6
CONTINUOUS
 62
    7
 10
183.17892449999999
 20
406.24790949999999
 11
183.42892449999999
 21
406.45222450000006
  0
LINE
  8
_0-0_0
  6
CONTINUOUS
 62
    7
 10
183.42892449999999
 20
406.45222450000006
 11
192.67892449999999
 21
406.45222450000006
  0
LINE
  8
_0-0_0
  6
CONTINUOUS
 62
    7
 10
183.17892449999999
 20
406.17512550000004
 11
183.42892449999999
 21
406.45222450000006
  0
LINE
  8
_0-0_0
  6
CONTINUOUS
 62
    7
 10
183.17892449999999
 20
406.29685949999998
 11
183.42892449999999
 21
406.51994350000007
  0
LINE
  8
_0-0_0
  6
CONTINUOUS
 62
    7
 10
183.42892449999999
 20
406.51994350000007
 11
192.67892449999999
 21
406.51994350000007
  0
LINE
  8
_0-0_0
  6
CONTINUOUS
 62
    7
 10
183.17892449999999
 20
406.24790949999999
 11
183.42892449999999
 21
406.51994350000007
  0
LINE
  8
_0-0_0
  6
CONTINUOUS
 62
    7
 10
183.17892449999999
 20
406.32148749999999
 11
183.42892449999999
 21
406.56086749999997
  0
LINE
  8
_0-0_0
  6
CONTINUOUS
 62
    7
 10
183.42892449999999
 20
406.56086749999997
 11
192.67892449999999
 21
406.56086749999997
  0
LINE
  8
_0-0_0
  6
CONTINUOUS
 62
    7
 10
183.17892449999999
 20
406.29685949999998
 11
183.42892449999999
 21
406.56086749999997
  0
LINE
  8
_0-0_0
  6
CONTINUOUS
 62
    7
 10
183.42892449999999
 20
406.57456950000005
 11
192.67892449999999
 21
406.57456950000005
  0
LINE
  8
_0-0_0
  6
CONTINUOUS
 62
    7
 10
183.17892449999999
 20
406.32148749999999
 11
183.42892449999999
 21
406.57456950000005
  0
LINE
  8
_0-0_0
  6
CONTINUOUS
 62
    7
 10
183.17892449999999
 20
401.8276525
 11
183.42892449999999
 21
401.57456950000005
  0
LINE
  8
_0-0_0
  6
CONTINUOUS
 62
    7
 10
183.42892449999999
 20
401.57456950000005
 11
192.67892449999999
 21
401.57456950000005
  0
LINE
  8
_0-0_0
  6
CONTINUOUS
 62
    7
 10
183.17892449999999
 20
401.85227950000001
 11
183.42892449999999
 21
401.58827250000002
  0
LINE
  8
_0-0_0
  6
CONTINUOUS
 62
    7
 10
183.42892449999999
 20
401.58827250000002
 11
192.67892449999999
 21
401.58827250000002
  0
LINE
  8
_0-0_0
  6
CONTINUOUS
 62
    7
 10
183.17892449999999
 20
401.8276525
 11
183.42892449999999
 21
401.58827250000002
  0
LINE
  8
_0-0_0
  6
CONTINUOUS
 62
    7
 10
183.17892449999999
 20
401.9012295
 11
183.42892449999999
 21
401.62919650000003
  0
LINE
  8
_0-0_0
  6
CONTINUOUS
 62
    7
 10
183.42892449999999
 20
401.62919650000003
 11
192.67892449999999
 21
401.62919650000003
  0
LINE
  8
_0-0_0
  6
CONTINUOUS
 62
    7
 10
183.17892449999999
 20
401.85227950000001
 11
183.42892449999999
 21
401.62919650000003
  0
LINE
  8
_0-0_0
  6
CONTINUOUS
 62
    7
 10
183.17892449999999
 20
401.97401450000007
 11
183.42892449999999
 21
401.69691450000005
  0
LINE
  8
_0-0_0
  6
CONTINUOUS
 62
    7
 10
183.42892449999999
 20
401.69691450000005
 11
192.67892449999999
 21
401.69691450000005
  0
LINE
  8
_0-0_0
  6
CONTINUOUS
 62
    7
 10
183.17892449999999
 20
401.9012295
 11
183.42892449999999
 21
401.69691450000005
  0
LINE
  8
_0-0_0
  6
CONTINUOUS
 62
    7
 10
183.17892449999999
 20
402.06980950000002
 11
183.42892449999999
 21
401.79069549999997
  0
LINE
  8
_0-0_0
  6
CONTINUOUS
 62
    7
 10
183.42892449999999
 20
401.79069549999997
 11
192.67892449999999
 21
401.79069549999997
  0
LINE
  8
_0-0_0
  6
CONTINUOUS
 62
    7
 10
183.17892449999999
 20
401.97401450000007
 11
183.42892449999999
 21
401.79069549999997
  0
LINE
  8
_0-0_0
  6
CONTINUOUS
 62
    7
 10
183.42892449999999
 20
401.90950050000004
 11
192.67892449999999
 21
401.90950050000004
  0
LINE
  8
_0-0_0
  6
CONTINUOUS
 62
    7
 10
183.3088985
 20
401.98594650000007
 11
183.42892449999999
 21
401.90950050000004
  0
LINE
  8
_0-0_0
  6
CONTINUOUS
 62
    7
 10
183.17892449999999
 20
402.06980950000002
 11
183.3088985
 21
401.98594650000007
  0
LINE
  8
_0-0_0
  6
CONTINUOUS
 62
    7
 10
183.17892449999999
 20
402.18754550000006
 11
183.42892449999999
 21
401.90950050000004
  0
LINE
  8
_0-0_0
  6
CONTINUOUS
 62
    7
 10
183.17892449999999
 20
402.32600450000007
 11
183.42892449999999
 21
402.05201750000003
  0
LINE
  8
_0-0_0
  6
CONTINUOUS
 62
    7
 10
183.42892449999999
 20
402.05201750000003
 11
192.67892449999999
 21
402.05201750000003
  0
LINE
  8
_0-0_0
  6
CONTINUOUS
 62
    7
 10
183.17892449999999
 20
402.18754550000006
 11
183.42892449999999
 21
402.05201750000003
  0
LINE
  8
_0-0_0
  6
CONTINUOUS
 62
    7
 10
183.17892449999999
 20
402.48359649999998
 11
183.42892449999999
 21
402.21672050000006
  0
LINE
  8
_0-0_0
  6
CONTINUOUS
 62
    7
 10
183.42892449999999
 20
402.21672050000006
 11
192.67892449999999
 21
402.21672050000006
  0
LINE
  8
_0-0_0
  6
CONTINUOUS
 62
    7
 10
183.17892449999999
 20
402.32600450000007
 11
183.42892449999999
 21
402.21672050000006
  0
LINE
  8
_0-0_0
  6
CONTINUOUS
 62
    7
 10
183.17892449999999
 20
402.65858449999996
 11
183.42892449999999
 21
402.40174850000005
  0
LINE
  8
_0-0_0
  6
CONTINUOUS
 62
    7
 10
183.42892449999999
 20
402.40174850000005
 11
192.67892449999999
 21
402.40174850000005
  0
LINE
  8
_0-0_0
  6
CONTINUOUS
 62
    7
 10
183.17892449999999
 20
402.48359649999998
 11
183.42892449999999
 21
402.40174850000005
  0
LINE
  8
_0-0_0
  6
CONTINUOUS
 62
    7
 10
183.17892449999999
 20
402.84913649999999
 11
183.42892449999999
 21
402.60511750000001
  0
LINE
  8
_0-0_0
  6
CONTINUOUS
 62
    7
 10
183.42892449999999
 20
402.60511750000001
 11
192.67892449999999
 21
402.60511750000001
  0
LINE
  8
_0-0_0
  6
CONTINUOUS
 62
    7
 10
183.17892449999999
 20
402.65858449999996
 11
183.42892449999999
 21
402.60511750000001
  0
LINE
  8
_0-0_0
  6
CONTINUOUS
 62
    7
 10
183.17892449999999
 20
403.05308550000007
 11
183.42892449999999
 21
402.82456950000005
  0
LINE
  8
_0-0_0
  6
CONTINUOUS
 62
    7
 10
183.42892449999999
 20
402.82456950000005
 11
192.67892449999999
 21
402.82456950000005
  0
LINE
  8
_0-0_0
  6
CONTINUOUS
 62
    7
 10
183.17892449999999
 20
403.05308550000007
 11
192.92892449999999
 21
403.05308550000007
  0
LINE
  8
_0-0_0
  6
CONTINUOUS
 62
    7
 10
183.17892449999999
 20
402.84913649999999
 11
183.42892449999999
 21
402.82456950000005
  0
LINE
  8
_0-0_0
  6
CONTINUOUS
 62
    7
 10
183.17892449999999
 20
403.26823450000006
 11
183.42892449999999
 21
403.05772450000006
  0
LINE
  8
_0-0_0
  6
CONTINUOUS
 62
    7
 10
183.42892449999999
 20
403.05772450000006
 11
192.67892449999999
 21
403.05772450000006
  0
LINE
  8
_0-0_0
  6
CONTINUOUS
 62
    7
 10
183.17892449999999
 20
403.26823450000006
 11
192.92892449999999
 21
403.26823450000006
  0
LINE
  8
_0-0_0
  6
CONTINUOUS
 62
    7
 10
183.17892449999999
 20
403.05308550000007
 11
183.42892449999999
 21
403.05772450000006
  0
LINE
  8
_0-0_0
  6
CONTINUOUS
 62
    7
 10
183.17892449999999
 20
403.4922335
 11
183.42892449999999
 21
403.30201750000003
  0
LINE
  8
_0-0_0
  6
CONTINUOUS
 62
    7
 10
183.42892449999999
 20
403.30201750000003
 11
192.67892449999999
 21
403.30201750000003
  0
LINE
  8
_0-0_0
  6
CONTINUOUS
 62
    7
 10
183.17892449999999
 20
403.4922335
 11
192.92892449999999
 21
403.4922335
  0
LINE
  8
_0-0_0
  6
CONTINUOUS
 62
    7
 10
183.17892449999999
 20
403.26823450000006
 11
183.42892449999999
 21
403.30201750000003
  0
LINE
  8
_0-0_0
  6
CONTINUOUS
 62
    7
 10
183.17892449999999
 20
403.72258050000005
 11
183.42892449999999
 21
403.55479449999996
  0
LINE
  8
_0-0_0
  6
CONTINUOUS
 62
    7
 10
183.42892449999999
 20
403.55479449999996
 11
192.67892449999999
 21
403.55479449999996
  0
LINE
  8
_0-0_0
  6
CONTINUOUS
 62
    7
 10
183.17892449999999
 20
403.72258050000005
 11
192.92892449999999
 21
403.72258050000005
  0
LINE
  8
_0-0_0
  6
CONTINUOUS
 62
    7
 10
183.17892449999999
 20
403.4922335
 11
183.42892449999999
 21
403.55479449999996
  0
LINE
  8
_0-0_0
  6
CONTINUOUS
 62
    7
 10
183.17892449999999
 20
403.95680249999998
 11
183.42892449999999
 21
403.81324749999999
  0
LINE
  8
_0-0_0
  6
CONTINUOUS
 62
    7
 10
183.42892449999999
 20
403.81324749999999
 11
192.67892449999999
 21
403.81324749999999
  0
LINE
  8
_0-0_0
  6
CONTINUOUS
 62
    7
 10
183.17892449999999
 20
403.95680249999998
 11
192.92892449999999
 21
403.95680249999998
  0
LINE
  8
_0-0_0
  6
CONTINUOUS
 62
    7
 10
183.17892449999999
 20
403.72258050000005
 11
183.42892449999999
 21
403.81324749999999
  0
LINE
  8
_0-0_0
  6
CONTINUOUS
 62
    7
 10
183.17892449999999
 20
404.19233750000001
 11
183.42892449999999
 21
404.07456950000005
  0
LINE
  8
_0-0_0
  6
CONTINUOUS
 62
    7
 10
183.42892449999999
 20
404.07456950000005
 11
192.67892449999999
 21
404.07456950000005
  0
LINE
  8
_0-0_0
  6
CONTINUOUS
 62
    7
 10
183.17892449999999
 20
404.19233750000001
 11
192.92892449999999
 21
404.19233750000001
  0
LINE
  8
_0-0_0
  6
CONTINUOUS
 62
    7
 10
183.17892449999999
 20
403.95680249999998
 11
183.42892449999999
 21
404.07456950000005
  0
LINE
  8
_0-0_0
  6
CONTINUOUS
 62
    7
 10
183.17892449999999
 20
404.42655950000005
 11
183.42892449999999
 21
404.3358915
  0
LINE
  8
_0-0_0
  6
CONTINUOUS
 62
    7
 10
183.42892449999999
 20
404.3358915
 11
192.67892449999999
 21
404.3358915
  0
LINE
  8
_0-0_0
  6
CONTINUOUS
 62
    7
 10
183.17892449999999
 20
404.42655950000005
 11
192.92892449999999
 21
404.42655950000005
  0
LINE
  8
_0-0_0
  6
CONTINUOUS
 62
    7
 10
183.17892449999999
 20
404.19233750000001
 11
183.42892449999999
 21
404.3358915
  0
LINE
  8
_0-0_0
  6
CONTINUOUS
 62
    7
 10
183.17892449999999
 20
404.65690649999999
 11
183.42892449999999
 21
404.59434550000003
  0
LINE
  8
_0-0_0
  6
CONTINUOUS
 62
    7
 10
183.42892449999999
 20
404.59434550000003
 11
192.67892449999999
 21
404.59434550000003
  0
LINE
  8
_0-0_0
  6
CONTINUOUS
 62
    7
 10
183.17892449999999
 20
404.65690649999999
 11
192.92892449999999
 21
404.65690649999999
  0
LINE
  8
_0-0_0
  6
CONTINUOUS
 62
    7
 10
183.17892449999999
 20
404.42655950000005
 11
183.42892449999999
 21
404.59434550000003
  0
LINE
  8
_0-0_0
  6
CONTINUOUS
 62
    7
 10
183.17892449999999
 20
404.88090550000004
 11
183.42892449999999
 21
404.84712249999995
  0
LINE
  8
_0-0_0
  6
CONTINUOUS
 62
    7
 10
183.42892449999999
 20
404.84712249999995
 11
192.67892449999999
 21
404.84712249999995
  0
LINE
  8
_0-0_0
  6
CONTINUOUS
 62
    7
 10
183.17892449999999
 20
404.88090550000004
 11
192.92892449999999
 21
404.88090550000004
  0
LINE
  8
_0-0_0
  6
CONTINUOUS
 62
    7
 10
183.17892449999999
 20
404.65690649999999
 11
183.42892449999999
 21
404.84712249999995
  0
LINE
  8
_0-0_0
  6
CONTINUOUS
 62
    7
 10
183.17892449999999
 20
405.09605450000004
 11
183.42892449999999
 21
405.09141550000004
  0
LINE
  8
_0-0_0
  6
CONTINUOUS
 62
    7
 10
183.42892449999999
 20
405.09141550000004
 11
192.67892449999999
 21
405.09141550000004
  0
LINE
  8
_0-0_0
  6
CONTINUOUS
 62
    7
 10
183.17892449999999
 20
404.88090550000004
 11
183.42892449999999
 21
405.09141550000004
  0
LINE
  8
_0-0_0
  6
CONTINUOUS
 62
    7
 10
182.92892449999999
 20
422.67457550000006
 11
182.92892449999999
 21
418.91941850000001
  0
LINE
  8
_0-0_0
  6
CONTINUOUS
 62
    7
 10
182.92892449999999
 20
418.91941850000001
 11
182.92892449999999
 21
418.67457550000006
  0
LINE
  8
_0-0_0
  6
CONTINUOUS
 62
    7
 10
182.92892449999999
 20
406.07456950000005
 11
182.92892449999999
 21
402.3194125
  0
LINE
  8
_0-0_0
  6
CONTINUOUS
 62
    7
 10
182.92892449999999
 20
402.3194125
 11
182.92892449999999
 21
402.07456950000005
  0
LINE
  8
_0-0_0
  6
CONTINUOUS
 62
    7
 10
196.5289305
 20
417.37455750000004
 11
196.5289305
 21
414.87455750000004
  0
LINE
  8
_0-0_0
  6
CONTINUOUS
 62
    7
 10
196.5289305
 20
414.87455750000004
 11
196.5289305
 21
407.37455750000004
  0
LINE
  8
_0-0_0
  6
CONTINUOUS
 62
    7
 10
195.72894250000002
 20
416.91270450000002
 11
195.72894250000002
 21
414.64363149999997
  0
LINE
  8
_0-0_0
  6
CONTINUOUS
 62
    7
 10
195.72894250000002
 20
414.64363149999997
 11
195.72894250000002
 21
407.83644149999998
  0
LINE
  8
_0-0_0
  6
CONTINUOUS
 62
    7
 10
137.7289275
 20
416.37455750000004
 11
137.7289275
 21
416.37321450000002
  0
LINE
  8
_0-0_0
  6
CONTINUOUS
 62
    7
 10
137.7289275
 20
416.37321450000002
 11
137.7289275
 21
408.37455750000004
  0
LINE
  8
_0-0_0
  6
CONTINUOUS
 62
    7
 10
218.92892449999999
 20
422.92457550000006
 11
192.92892449999999
 21
422.92457550000006
  0
LINE
  8
_0-0_0
  6
CONTINUOUS
 62
    7
 10
218.92892449999999
 20
418.42457550000006
 11
192.92892449999999
 21
418.42457550000006
  0
LINE
  8
_0-0_0
  6
CONTINUOUS
 62
    7
 10
197.72891250000001
 20
406.32456950000005
 11
192.92892449999999
 21
406.32456950000005
  0
LINE
  8
_0-0_0
  6
CONTINUOUS
 62
    7
 10
213.17889450000001
 20
401.82456950000005
 11
192.92892449999999
 21
401.82456950000005
  0
LINE
  8
_0-0_0
  6
CONTINUOUS
 62
    7
 10
192.92892449999999
 20
422.92457550000006
 11
192.67892449999999
 21
423.17457550000006
  0
LINE
  8
_0-0_0
  6
CONTINUOUS
 62
    7
 10
192.92892449999999
 20
418.42457550000006
 11
192.67892449999999
 21
418.17457550000006
  0
LINE
  8
_0-0_0
  6
CONTINUOUS
 62
    7
 10
192.92892449999999
 20
406.32456950000005
 11
192.67892449999999
 21
406.57456950000005
  0
LINE
  8
_0-0_0
  6
CONTINUOUS
 62
    7
 10
192.92892449999999
 20
401.82456950000005
 11
192.67892449999999
 21
401.57456950000005
  0
LINE
  8
_0-0_0
  6
CONTINUOUS
 62
    7
 10
196.92892449999999
 20
417.62455750000004
 11
197.7289275
 21
418.42457550000006
  0
LINE
  8
_0-0_0
  6
CONTINUOUS
 62
    7
 10
196.92892449999999
 20
407.12455750000004
 11
198.17892449999999
 21
405.87455750000004
  0
LINE
  8
_0-0_0
  6
CONTINUOUS
 62
    7
 10
182.92892449999999
 20
422.67457550000006
 11
183.42877250000001
 21
423.17442349999999
  0
LINE
  8
_0-0_0
  6
CONTINUOUS
 62
    7
 10
182.92892449999999
 20
418.67457550000006
 11
183.42877250000001
 21
418.17472850000001
  0
LINE
  8
_0-0_0
  6
CONTINUOUS
 62
    7
 10
182.92892449999999
 20
406.07456950000005
 11
183.42877250000001
 21
406.57441749999998
  0
LINE
  8
_0-0_0
  6
CONTINUOUS
 62
    7
 10
182.92892449999999
 20
402.07456950000005
 11
183.42877250000001
 21
401.57472250000001
  0
LINE
  8
_0-0_0
  6
CONTINUOUS
 62
    7
 10
196.92892449999999
 20
417.37455750000004
 11
196.5289305
 21
417.37455750000004
  0
LINE
  8
_0-0_0
  6
CONTINUOUS
 62
    7
 10
196.92892449999999
 20
407.37455750000004
 11
196.5289305
 21
407.37455750000004
  0
LINE
  8
_0-0_0
  6
CONTINUOUS
 62
    7
 10
195.72894250000002
 20
416.91270450000002
 11
196.5289305
 21
417.37455750000004
  0
LINE
  8
_0-0_0
  6
CONTINUOUS
 62
    7
 10
195.72894250000002
 20
407.83644149999998
 11
196.5289305
 21
407.37455750000004
  0
LINE
  8
_0-0_0
  6
CONTINUOUS
 62
    7
 10
195.72894250000002
 20
416.37455750000004
 11
137.7289275
 21
416.37455750000004
  0
LINE
  8
_0-0_0
  6
CONTINUOUS
 62
    7
 10
195.72894250000002
 20
408.37455750000004
 11
137.7289275
 21
408.37455750000004
  0
LINE
  8
_0-0_0
  6
CONTINUOUS
 62
    7
 10
203.42892449999999
 20
441.27464350000002
 11
205.88369750000001
 21
441.27464350000002
  0
LINE
  8
_0-0_0
  6
CONTINUOUS
 62
    7
 10
203.42892449999999
 20
428.07463050000001
 11
203.42892449999999
 21
441.27464350000002
  0
LINE
  8
_0-0_0
  6
CONTINUOUS
 62
    7
 10
806.42892449999999
 20
428.07463050000001
 11
806.42892449999999
 21
441.27464350000002
  0
LINE
  8
_0-0_0
  6
CONTINUOUS
 62
    7
 10
803.97415150000006
 20
441.27464350000002
 11
806.42892449999999
 21
441.27464350000002
  0
ARC
  8
_0-0_0
  6
CONTINUOUS
 62
    7
 10
797.42892449999999
 20
445.87464950000003
 40
8
 50
215.099627
 51
324.90037799999999
  0
LINE
  8
_0-0_0
  6
CONTINUOUS
 62
    7
 10
218.9741515
 20
441.27464350000002
 11
790.88369750000004
 21
441.27464350000002
  0
ARC
  8
_0-0_0
  6
CONTINUOUS
 62
    7
 10
212.42892449999999
 20
445.87464950000003
 40
8
 50
215.099627
 51
324.90037799999999
  0
LINE
  8
_0-0_0
  6
CONTINUOUS
 62
    7
 10
205.88369750000001
 20
441.27464350000002
 11
205.7947235
 21
441.40394649999996
  0
LINE
  8
_0-0_0
  6
CONTINUOUS
 62
    7
 10
218.9741515
 20
441.27464350000002
 11
219.0631405
 21
441.40394649999996
  0
LINE
  8
_0-0_0
  6
CONTINUOUS
 62
    7
 10
219.15628050000001
 20
441.54536450000001
 11
219.0631405
 21
441.40394649999996
  0
LINE
  8
_0-0_0
  6
CONTINUOUS
 62
    7
 10
219.15628050000001
 20
441.54536450000001
 11
219.23774750000001
 21
441.67463650000002
  0
ARC
  8
_0-0_0
  6
CONTINUOUS
 62
    7
 10
212.42892449999999
 20
445.87464950000003
 40
8
 50
328.33175599999993
 51
334.05550899999992
  0
LINE
  8
_0-0_0
  6
CONTINUOUS
 62
    7
 10
219.6226805
 20
442.37464950000003
 11
219.6841585
 21
442.50392150000005
  0
LINE
  8
_0-0_0
  6
CONTINUOUS
 62
    7
 10
219.7481995
 20
442.64534049999997
 11
219.6841585
 21
442.50392150000005
  0
LINE
  8
_0-0_0
  6
CONTINUOUS
 62
    7
 10
219.7481995
 20
442.64534049999997
 11
219.80389450000001
 21
442.77464350000002
  0
ARC
  8
_0-0_0
  6
CONTINUOUS
 62
    7
 10
212.42892449999999
 20
445.87464950000003
 40
8
 50
337.20097500000003
 51
342.54240199999998
  0
LINE
  8
_0-0_0
  6
CONTINUOUS
 62
    7
 10
220.06045550000002
 20
443.47465550000004
 11
220.09991450000001
 21
443.60392750000005
  0
LINE
  8
_0-0_0
  6
CONTINUOUS
 62
    7
 10
220.14035050000001
 20
443.74534649999998
 11
220.09991450000001
 21
443.60392750000005
  0
LINE
  8
_0-0_0
  6
CONTINUOUS
 62
    7
 10
220.14035050000001
 20
443.74534649999998
 11
220.17489650000002
 21
443.87464950000003
  0
ARC
  8
_0-0_0
  6
CONTINUOUS
 62
    7
 10
212.42892449999999
 20
445.87464950000003
 40
8
 50
345.52249499999999
 51
350.64797900000002
  0
LINE
  8
_0-0_0
  6
CONTINUOUS
 62
    7
 10
220.32260150000002
 20
444.57463050000001
 11
220.3428045
 21
444.70393350000006
  0
LINE
  8
_0-0_0
  6
CONTINUOUS
 62
    7
 10
220.36244250000001
 20
444.84535249999999
 11
220.3428045
 21
444.70393350000006
  0
LINE
  8
_0-0_0
  6
CONTINUOUS
 62
    7
 10
220.36244250000001
 20
444.84535249999999
 11
220.37814349999999
 21
444.97465550000004
  0
ARC
  8
_0-0_0
  6
CONTINUOUS
 62
    7
 10
212.42892449999999
 20
445.87464950000003
 40
8
 50
353.54056400000002
 51
358.56744600000002
  0
LINE
  8
_0-0_0
  6
CONTINUOUS
 62
    7
 10
220.42643750000002
 20
445.67463650000002
 11
220.4286195
 21
445.80393949999996
  0
LINE
  8
_0-0_0
  6
CONTINUOUS
 62
    7
 10
220.4286195
 20
445.80393949999996
 11
220.42893950000001
 21
445.87464950000003
  0
LINE
  8
_0-0_0
  6
CONTINUOUS
 62
    7
 10
204.42924550000001
 20
445.80393949999996
 11
204.42892449999999
 21
445.87464950000003
  0
LINE
  8
_0-0_0
  6
CONTINUOUS
 62
    7
 10
204.43142750000001
 20
445.67463650000002
 11
204.42924550000001
 21
445.80393949999996
  0
ARC
  8
_0-0_0
  6
CONTINUOUS
 62
    7
 10
212.42892449999999
 20
445.87464950000003
 40
8
 50
181.432545
 51
186.45945499999999
  0
LINE
  8
_0-0_0
  6
CONTINUOUS
 62
    7
 10
204.49542250000002
 20
444.84535249999999
 11
204.47972150000001
 21
444.97465550000004
  0
LINE
  8
_0-0_0
  6
CONTINUOUS
 62
    7
 10
204.49542250000002
 20
444.84535249999999
 11
204.51504550000001
 21
444.70393350000006
  0
LINE
  8
_0-0_0
  6
CONTINUOUS
 62
    7
 10
204.53526350000001
 20
444.57463050000001
 11
204.51504550000001
 21
444.70393350000006
  0
ARC
  8
_0-0_0
  6
CONTINUOUS
 62
    7
 10
212.42892449999999
 20
445.87464950000003
 40
8
 50
189.35203999999999
 51
194.47751
  0
LINE
  8
_0-0_0
  6
CONTINUOUS
 62
    7
 10
204.7174985
 20
443.74534649999998
 11
204.68296850000002
 21
443.87464950000003
  0
LINE
  8
_0-0_0
  6
CONTINUOUS
 62
    7
 10
204.7174985
 20
443.74534649999998
 11
204.75796550000001
 21
443.60392750000005
  0
LINE
  8
_0-0_0
  6
CONTINUOUS
 62
    7
 10
204.79742450000001
 20
443.47465550000004
 11
204.75796550000001
 21
443.60392750000005
  0
ARC
  8
_0-0_0
  6
CONTINUOUS
 62
    7
 10
212.42892449999999
 20
445.87464950000003
 40
8
 50
197.45760300000001
 51
202.79902999999999
  0
LINE
  8
_0-0_0
  6
CONTINUOUS
 62
    7
 10
205.10966450000001
 20
442.64534049999997
 11
205.05398550000001
 21
442.77464350000002
  0
LINE
  8
_0-0_0
  6
CONTINUOUS
 62
    7
 10
205.10966450000001
 20
442.64534049999997
 11
205.17370650000001
 21
442.50392150000005
  0
LINE
  8
_0-0_0
  6
CONTINUOUS
 62
    7
 10
205.23518350000001
 20
442.37464950000003
 11
205.17370650000001
 21
442.50392150000005
  0
ARC
  8
_0-0_0
  6
CONTINUOUS
 62
    7
 10
212.42892449999999
 20
445.87464950000003
 40
8
 50
205.94448199999999
 51
211.66823500000001
  0
LINE
  8
_0-0_0
  6
CONTINUOUS
 62
    7
 10
205.7015835
 20
441.54536450000001
 11
205.62011749999999
 21
441.67463650000002
  0
LINE
  8
_0-0_0
  6
CONTINUOUS
 62
    7
 10
205.7015835
 20
441.54536450000001
 11
205.7947235
 21
441.40394649999996
  0
LINE
  8
_0-0_0
  6
CONTINUOUS
 62
    7
 10
790.88369750000004
 20
441.27464350000002
 11
790.79470849999996
 21
441.40394649999996
  0
LINE
  8
_0-0_0
  6
CONTINUOUS
 62
    7
 10
789.42922950000002
 20
445.80393949999996
 11
789.42892449999999
 21
445.87464950000003
  0
LINE
  8
_0-0_0
  6
CONTINUOUS
 62
    7
 10
789.43142750000004
 20
445.67463650000002
 11
789.42922950000002
 21
445.80393949999996
  0
ARC
  8
_0-0_0
  6
CONTINUOUS
 62
    7
 10
797.42892449999999
 20
445.87464950000003
 40
8
 50
181.432545
 51
186.45945499999999
  0
LINE
  8
_0-0_0
  6
CONTINUOUS
 62
    7
 10
789.49539149999998
 20
444.84535249999999
 11
789.47970550000002
 21
444.97465550000004
  0
LINE
  8
_0-0_0
  6
CONTINUOUS
 62
    7
 10
789.49539149999998
 20
444.84535249999999
 11
789.51504550000004
 21
444.70393350000006
  0
LINE
  8
_0-0_0
  6
CONTINUOUS
 62
    7
 10
789.53524749999997
 20
444.57463050000001
 11
789.51504550000004
 21
444.70393350000006
  0
ARC
  8
_0-0_0
  6
CONTINUOUS
 62
    7
 10
797.42892449999999
 20
445.87464950000003
 40
8
 50
189.35203999999999
 51
194.47751
  0
LINE
  8
_0-0_0
  6
CONTINUOUS
 62
    7
 10
789.71749850000003
 20
443.74534649999998
 11
789.68295250000006
 21
443.87464950000003
  0
LINE
  8
_0-0_0
  6
CONTINUOUS
 62
    7
 10
789.71749850000003
 20
443.74534649999998
 11
789.75796549999995
 21
443.60392750000005
  0
LINE
  8
_0-0_0
  6
CONTINUOUS
 62
    7
 10
789.7973935
 20
443.47465550000004
 11
789.75796549999995
 21
443.60392750000005
  0
ARC
  8
_0-0_0
  6
CONTINUOUS
 62
    7
 10
797.42892449999999
 20
445.87464950000003
 40
8
 50
197.45760300000001
 51
202.79902999999999
  0
LINE
  8
_0-0_0
  6
CONTINUOUS
 62
    7
 10
790.10964950000005
 20
442.64534049999997
 11
790.05398549999995
 21
442.77464350000002
  0
LINE
  8
_0-0_0
  6
CONTINUOUS
 62
    7
 10
790.10964950000005
 20
442.64534049999997
 11
790.17367550000006
 21
442.50392150000005
  0
LINE
  8
_0-0_0
  6
CONTINUOUS
 62
    7
 10
790.23519950000002
 20
442.37464950000003
 11
790.17367550000006
 21
442.50392150000005
  0
ARC
  8
_0-0_0
  6
CONTINUOUS
 62
    7
 10
797.42892449999999
 20
445.87464950000003
 40
8
 50
205.94448199999999
 51
211.66823500000001
  0
LINE
  8
_0-0_0
  6
CONTINUOUS
 62
    7
 10
790.70156850000001
 20
441.54536450000001
 11
790.62008649999996
 21
441.67463650000002
  0
LINE
  8
_0-0_0
  6
CONTINUOUS
 62
    7
 10
790.70156850000001
 20
441.54536450000001
 11
790.79470849999996
 21
441.40394649999996
  0
LINE
  8
_0-0_0
  6
CONTINUOUS
 62
    7
 10
803.97415150000006
 20
441.27464350000002
 11
804.06314050000003
 21
441.40394649999996
  0
LINE
  8
_0-0_0
  6
CONTINUOUS
 62
    7
 10
804.15628049999998
 20
441.54536450000001
 11
804.06314050000003
 21
441.40394649999996
  0
LINE
  8
_0-0_0
  6
CONTINUOUS
 62
    7
 10
804.15628049999998
 20
441.54536450000001
 11
804.23776250000003
 21
441.67463650000002
  0
ARC
  8
_0-0_0
  6
CONTINUOUS
 62
    7
 10
797.42892449999999
 20
445.87464950000003
 40
8
 50
328.33175599999993
 51
334.05550899999992
  0
LINE
  8
_0-0_0
  6
CONTINUOUS
 62
    7
 10
804.62265049999996
 20
442.37464950000003
 11
804.68417350000004
 21
442.50392150000005
  0
LINE
  8
_0-0_0
  6
CONTINUOUS
 62
    7
 10
804.74819950000006
 20
442.64534049999997
 11
804.68417350000004
 21
442.50392150000005
  0
LINE
  8
_0-0_0
  6
CONTINUOUS
 62
    7
 10
804.74819950000006
 20
442.64534049999997
 11
804.80386350000003
 21
442.77464350000002
  0
ARC
  8
_0-0_0
  6
CONTINUOUS
 62
    7
 10
797.42892449999999
 20
445.87464950000003
 40
8
 50
337.20097500000003
 51
342.54240199999998
  0
LINE
  8
_0-0_0
  6
CONTINUOUS
 62
    7
 10
805.06045549999999
 20
443.47465550000004
 11
805.09988450000003
 21
443.60392750000005
  0
LINE
  8
_0-0_0
  6
CONTINUOUS
 62
    7
 10
805.14035049999995
 20
443.74534649999998
 11
805.09988450000003
 21
443.60392750000005
  0
LINE
  8
_0-0_0
  6
CONTINUOUS
 62
    7
 10
805.14035049999995
 20
443.74534649999998
 11
805.17489650000005
 21
443.87464950000003
  0
ARC
  8
_0-0_0
  6
CONTINUOUS
 62
    7
 10
797.42892449999999
 20
445.87464950000003
 40
8
 50
345.52249499999999
 51
350.64797900000002
  0
LINE
  8
_0-0_0
  6
CONTINUOUS
 62
    7
 10
805.32260150000002
 20
444.57463050000001
 11
805.34280450000006
 21
444.70393350000006
  0
LINE
  8
_0-0_0
  6
CONTINUOUS
 62
    7
 10
805.3624575
 20
444.84535249999999
 11
805.34280450000006
 21
444.70393350000006
  0
LINE
  8
_0-0_0
  6
CONTINUOUS
 62
    7
 10
805.3624575
 20
444.84535249999999
 11
805.37814349999996
 21
444.97465550000004
  0
ARC
  8
_0-0_0
  6
CONTINUOUS
 62
    7
 10
797.42892449999999
 20
445.87464950000003
 40
8
 50
353.54056400000002
 51
358.56744600000002
  0
LINE
  8
_0-0_0
  6
CONTINUOUS
 62
    7
 10
805.42642250000006
 20
445.67463650000002
 11
805.42861949999997
 21
445.80393949999996
  0
LINE
  8
_0-0_0
  6
CONTINUOUS
 62
    7
 10
805.42861949999997
 20
445.80393949999996
 11
805.42892449999999
 21
445.87464950000003
  0
LINE
  8
_0-0_0
  6
CONTINUOUS
 62
    7
 10
806.42892449999999
 20
441.40394649999996
 11
806.42892449999999
 21
441.27464350000002
  0
LINE
  8
_0-0_0
  6
CONTINUOUS
 62
    7
 10
806.42892449999999
 20
450.20393350000006
 11
806.42892449999999
 21
450.34535249999999
  0
LINE
  8
_0-0_0
  6
CONTINUOUS
 62
    7
 10
806.42892449999999
 20
450.20393350000006
 11
806.42892449999999
 21
450.07463050000001
  0
LINE
  8
_0-0_0
  6
CONTINUOUS
 62
    7
 10
806.42892449999999
 20
449.37464950000003
 11
806.42892449999999
 21
450.07463050000001
  0
LINE
  8
_0-0_0
  6
CONTINUOUS
 62
    7
 10
806.42892449999999
 20
449.24534649999998
 11
806.42892449999999
 21
449.37464950000003
  0
LINE
  8
_0-0_0
  6
CONTINUOUS
 62
    7
 10
806.42892449999999
 20
449.10392750000005
 11
806.42892449999999
 21
449.24534649999998
  0
LINE
  8
_0-0_0
  6
CONTINUOUS
 62
    7
 10
806.42892449999999
 20
449.10392750000005
 11
806.42892449999999
 21
448.97465550000004
  0
LINE
  8
_0-0_0
  6
CONTINUOUS
 62
    7
 10
806.42892449999999
 20
448.27464350000002
 11
806.42892449999999
 21
448.97465550000004
  0
LINE
  8
_0-0_0
  6
CONTINUOUS
 62
    7
 10
806.42892449999999
 20
448.14534049999997
 11
806.42892449999999
 21
448.27464350000002
  0
LINE
  8
_0-0_0
  6
CONTINUOUS
 62
    7
 10
806.42892449999999
 20
448.00392150000005
 11
806.42892449999999
 21
448.14534049999997
  0
LINE
  8
_0-0_0
  6
CONTINUOUS
 62
    7
 10
806.42892449999999
 20
448.00392150000005
 11
806.42892449999999
 21
447.87464950000003
  0
LINE
  8
_0-0_0
  6
CONTINUOUS
 62
    7
 10
806.42892449999999
 20
447.17463650000002
 11
806.42892449999999
 21
447.87464950000003
  0
LINE
  8
_0-0_0
  6
CONTINUOUS
 62
    7
 10
806.42892449999999
 20
447.04536450000001
 11
806.42892449999999
 21
447.17463650000002
  0
LINE
  8
_0-0_0
  6
CONTINUOUS
 62
    7
 10
806.42892449999999
 20
446.90394649999996
 11
806.42892449999999
 21
447.04536450000001
  0
LINE
  8
_0-0_0
  6
CONTINUOUS
 62
    7
 10
806.42892449999999
 20
446.90394649999996
 11
806.42892449999999
 21
446.77464350000002
  0
LINE
  8
_0-0_0
  6
CONTINUOUS
 62
    7
 10
806.42892449999999
 20
446.07463050000001
 11
806.42892449999999
 21
446.77464350000002
  0
LINE
  8
_0-0_0
  6
CONTINUOUS
 62
    7
 10
806.42892449999999
 20
445.9453585
 11
806.42892449999999
 21
446.07463050000001
  0
LINE
  8
_0-0_0
  6
CONTINUOUS
 62
    7
 10
806.42892449999999
 20
445.80393949999996
 11
806.42892449999999
 21
445.9453585
  0
LINE
  8
_0-0_0
  6
CONTINUOUS
 62
    7
 10
806.42892449999999
 20
445.80393949999996
 11
806.42892449999999
 21
445.67463650000002
  0
LINE
  8
_0-0_0
  6
CONTINUOUS
 62
    7
 10
806.42892449999999
 20
444.97465550000004
 11
806.42892449999999
 21
445.67463650000002
  0
LINE
  8
_0-0_0
  6
CONTINUOUS
 62
    7
 10
806.42892449999999
 20
444.84535249999999
 11
806.42892449999999
 21
444.97465550000004
  0
LINE
  8
_0-0_0
  6
CONTINUOUS
 62
    7
 10
806.42892449999999
 20
444.70393350000006
 11
806.42892449999999
 21
444.84535249999999
  0
LINE
  8
_0-0_0
  6
CONTINUOUS
 62
    7
 10
806.42892449999999
 20
444.70393350000006
 11
806.42892449999999
 21
444.57463050000001
  0
LINE
  8
_0-0_0
  6
CONTINUOUS
 62
    7
 10
806.42892449999999
 20
443.87464950000003
 11
806.42892449999999
 21
444.57463050000001
  0
LINE
  8
_0-0_0
  6
CONTINUOUS
 62
    7
 10
806.42892449999999
 20
443.74534649999998
 11
806.42892449999999
 21
443.87464950000003
  0
LINE
  8
_0-0_0
  6
CONTINUOUS
 62
    7
 10
806.42892449999999
 20
443.60392750000005
 11
806.42892449999999
 21
443.74534649999998
  0
LINE
  8
_0-0_0
  6
CONTINUOUS
 62
    7
 10
806.42892449999999
 20
443.60392750000005
 11
806.42892449999999
 21
443.47465550000004
  0
LINE
  8
_0-0_0
  6
CONTINUOUS
 62
    7
 10
806.42892449999999
 20
442.77464350000002
 11
806.42892449999999
 21
443.47465550000004
  0
LINE
  8
_0-0_0
  6
CONTINUOUS
 62
    7
 10
806.42892449999999
 20
442.64534049999997
 11
806.42892449999999
 21
442.77464350000002
  0
LINE
  8
_0-0_0
  6
CONTINUOUS
 62
    7
 10
806.42892449999999
 20
442.50392150000005
 11
806.42892449999999
 21
442.64534049999997
  0
LINE
  8
_0-0_0
  6
CONTINUOUS
 62
    7
 10
806.42892449999999
 20
442.50392150000005
 11
806.42892449999999
 21
442.37464950000003
  0
LINE
  8
_0-0_0
  6
CONTINUOUS
 62
    7
 10
806.42892449999999
 20
441.67463650000002
 11
806.42892449999999
 21
442.37464950000003
  0
LINE
  8
_0-0_0
  6
CONTINUOUS
 62
    7
 10
806.42892449999999
 20
441.54536450000001
 11
806.42892449999999
 21
441.67463650000002
  0
LINE
  8
_0-0_0
  6
CONTINUOUS
 62
    7
 10
806.42892449999999
 20
441.40394649999996
 11
806.42892449999999
 21
441.54536450000001
  0
LINE
  8
_0-0_0
  6
CONTINUOUS
 62
    7
 10
806.42892449999999
 20
427.57463050000001
 11
806.42892449999999
 21
428.07463050000001
  0
LINE
  8
_0-0_0
  6
CONTINUOUS
 62
    7
 10
806.42892449999999
 20
456.07463050000001
 11
806.42892449999999
 21
455.48066749999998
  0
LINE
  8
_0-0_0
  6
CONTINUOUS
 62
    7
 10
806.42892449999999
 20
450.47465550000004
 11
806.42892449999999
 21
455.48066749999998
  0
LINE
  8
_0-0_0
  6
CONTINUOUS
 62
    7
 10
806.42892449999999
 20
450.34535249999999
 11
806.42892449999999
 21
450.47465550000004
  0
LINE
  8
_0-0_0
  6
CONTINUOUS
 62
    7
 10
203.42892449999999
 20
427.57463050000001
 11
203.42892449999999
 21
428.07463050000001
  0
LINE
  8
_0-0_0
  6
CONTINUOUS
 62
    7
 10
203.42892449999999
 20
427.57463050000001
 11
806.42892449999999
 21
427.57463050000001
  0
LINE
  8
_0-0_0
  6
CONTINUOUS
 62
    7
 10
203.42892449999999
 20
441.40394649999996
 11
203.42892449999999
 21
441.54536450000001
  0
LINE
  8
_0-0_0
  6
CONTINUOUS
 62
    7
 10
203.42892449999999
 20
441.40394649999996
 11
203.42892449999999
 21
441.27464350000002
  0
LINE
  8
_0-0_0
  6
CONTINUOUS
 62
    7
 10
203.42892449999999
 20
456.07463050000001
 11
203.42892449999999
 21
455.48066749999998
  0
LINE
  8
_0-0_0
  6
CONTINUOUS
 62
    7
 10
203.42892449999999
 20
450.47465550000004
 11
203.42892449999999
 21
455.48066749999998
  0
LINE
  8
_0-0_0
  6
CONTINUOUS
 62
    7
 10
203.42892449999999
 20
450.34535249999999
 11
203.42892449999999
 21
450.47465550000004
  0
LINE
  8
_0-0_0
  6
CONTINUOUS
 62
    7
 10
203.42892449999999
 20
450.20393350000006
 11
203.42892449999999
 21
450.34535249999999
  0
LINE
  8
_0-0_0
  6
CONTINUOUS
 62
    7
 10
203.42892449999999
 20
450.20393350000006
 11
203.42892449999999
 21
450.07463050000001
  0
LINE
  8
_0-0_0
  6
CONTINUOUS
 62
    7
 10
203.42892449999999
 20
449.37464950000003
 11
203.42892449999999
 21
450.07463050000001
  0
LINE
  8
_0-0_0
  6
CONTINUOUS
 62
    7
 10
203.42892449999999
 20
449.24534649999998
 11
203.42892449999999
 21
449.37464950000003
  0
LINE
  8
_0-0_0
  6
CONTINUOUS
 62
    7
 10
203.42892449999999
 20
449.10392750000005
 11
203.42892449999999
 21
449.24534649999998
  0
LINE
  8
_0-0_0
  6
CONTINUOUS
 62
    7
 10
203.42892449999999
 20
449.10392750000005
 11
203.42892449999999
 21
448.97465550000004
  0
LINE
  8
_0-0_0
  6
CONTINUOUS
 62
    7
 10
203.42892449999999
 20
448.27464350000002
 11
203.42892449999999
 21
448.97465550000004
  0
LINE
  8
_0-0_0
  6
CONTINUOUS
 62
    7
 10
203.42892449999999
 20
448.14534049999997
 11
203.42892449999999
 21
448.27464350000002
  0
LINE
  8
_0-0_0
  6
CONTINUOUS
 62
    7
 10
203.42892449999999
 20
448.00392150000005
 11
203.42892449999999
 21
448.14534049999997
  0
LINE
  8
_0-0_0
  6
CONTINUOUS
 62
    7
 10
203.42892449999999
 20
448.00392150000005
 11
203.42892449999999
 21
447.87464950000003
  0
LINE
  8
_0-0_0
  6
CONTINUOUS
 62
    7
 10
203.42892449999999
 20
447.17463650000002
 11
203.42892449999999
 21
447.87464950000003
  0
LINE
  8
_0-0_0
  6
CONTINUOUS
 62
    7
 10
203.42892449999999
 20
447.04536450000001
 11
203.42892449999999
 21
447.17463650000002
  0
LINE
  8
_0-0_0
  6
CONTINUOUS
 62
    7
 10
203.42892449999999
 20
446.90394649999996
 11
203.42892449999999
 21
447.04536450000001
  0
LINE
  8
_0-0_0
  6
CONTINUOUS
 62
    7
 10
203.42892449999999
 20
446.90394649999996
 11
203.42892449999999
 21
446.77464350000002
  0
LINE
  8
_0-0_0
  6
CONTINUOUS
 62
    7
 10
203.42892449999999
 20
446.07463050000001
 11
203.42892449999999
 21
446.77464350000002
  0
LINE
  8
_0-0_0
  6
CONTINUOUS
 62
    7
 10
203.42892449999999
 20
445.9453585
 11
203.42892449999999
 21
446.07463050000001
  0
LINE
  8
_0-0_0
  6
CONTINUOUS
 62
    7
 10
203.42892449999999
 20
445.80393949999996
 11
203.42892449999999
 21
445.9453585
  0
LINE
  8
_0-0_0
  6
CONTINUOUS
 62
    7
 10
203.42892449999999
 20
445.80393949999996
 11
203.42892449999999
 21
445.67463650000002
  0
LINE
  8
_0-0_0
  6
CONTINUOUS
 62
    7
 10
203.42892449999999
 20
444.97465550000004
 11
203.42892449999999
 21
445.67463650000002
  0
LINE
  8
_0-0_0
  6
CONTINUOUS
 62
    7
 10
203.42892449999999
 20
444.84535249999999
 11
203.42892449999999
 21
444.97465550000004
  0
LINE
  8
_0-0_0
  6
CONTINUOUS
 62
    7
 10
203.42892449999999
 20
444.70393350000006
 11
203.42892449999999
 21
444.84535249999999
  0
LINE
  8
_0-0_0
  6
CONTINUOUS
 62
    7
 10
203.42892449999999
 20
444.70393350000006
 11
203.42892449999999
 21
444.57463050000001
  0
LINE
  8
_0-0_0
  6
CONTINUOUS
 62
    7
 10
203.42892449999999
 20
443.87464950000003
 11
203.42892449999999
 21
444.57463050000001
  0
LINE
  8
_0-0_0
  6
CONTINUOUS
 62
    7
 10
203.42892449999999
 20
443.74534649999998
 11
203.42892449999999
 21
443.87464950000003
  0
LINE
  8
_0-0_0
  6
CONTINUOUS
 62
    7
 10
203.42892449999999
 20
443.60392750000005
 11
203.42892449999999
 21
443.74534649999998
  0
LINE
  8
_0-0_0
  6
CONTINUOUS
 62
    7
 10
203.42892449999999
 20
443.60392750000005
 11
203.42892449999999
 21
443.47465550000004
  0
LINE
  8
_0-0_0
  6
CONTINUOUS
 62
    7
 10
203.42892449999999
 20
442.77464350000002
 11
203.42892449999999
 21
443.47465550000004
  0
LINE
  8
_0-0_0
  6
CONTINUOUS
 62
    7
 10
203.42892449999999
 20
442.64534049999997
 11
203.42892449999999
 21
442.77464350000002
  0
LINE
  8
_0-0_0
  6
CONTINUOUS
 62
    7
 10
203.42892449999999
 20
442.50392150000005
 11
203.42892449999999
 21
442.64534049999997
  0
LINE
  8
_0-0_0
  6
CONTINUOUS
 62
    7
 10
203.42892449999999
 20
442.50392150000005
 11
203.42892449999999
 21
442.37464950000003
  0
LINE
  8
_0-0_0
  6
CONTINUOUS
 62
    7
 10
203.42892449999999
 20
441.67463650000002
 11
203.42892449999999
 21
442.37464950000003
  0
LINE
  8
_0-0_0
  6
CONTINUOUS
 62
    7
 10
203.42892449999999
 20
441.54536450000001
 11
203.42892449999999
 21
441.67463650000002
  0
LINE
  8
_0-0_0
  6
CONTINUOUS
 62
    7
 10
740.42892449999999
 20
433.57466150000005
 11
747.42892449999999
 21
433.57466150000005
  0
ARC
  8
_0-0_0
  6
CONTINUOUS
 62
    7
 10
740.42892449999999
 20
433.07466150000005
 40
0.5
 50
90.000003000000007
 51
180.00000900000001
  0
LINE
  8
_0-0_0
  6
CONTINUOUS
 62
    7
 10
739.92892449999999
 20
433.07466150000005
 11
739.92892449999999
 21
429.07463050000001
  0
ARC
  8
_0-0_0
  6
CONTINUOUS
 62
    7
 10
740.42892449999999
 20
429.07463050000001
 40
0.5
 50
180.00000900000003
 51
269.99999700000001
  0
LINE
  8
_0-0_0
  6
CONTINUOUS
 62
    7
 10
747.42892449999999
 20
428.57463050000001
 11
740.42892449999999
 21
428.57463050000001
  0
ARC
  8
_0-0_0
  6
CONTINUOUS
 62
    7
 10
747.42892449999999
 20
429.07463050000001
 40
0.5
 50
269.99999700000001
 51
0
  0
LINE
  8
_0-0_0
  6
CONTINUOUS
 62
    7
 10
747.92892449999999
 20
429.07463050000001
 11
747.92892449999999
 21
433.07466150000005
  0
ARC
  8
_0-0_0
  6
CONTINUOUS
 62
    7
 10
747.42892449999999
 20
433.07466150000005
 40
0.5
 50
0
 51
90.000003000000007
  0
ARC
  8
_0-0_0
  6
CONTINUOUS
 62
    7
 10
270.42892449999999
 20
433.07466150000005
 40
0.5
 50
90.000003000000007
 51
180.00000900000001
  0
LINE
  8
_0-0_0
  6
CONTINUOUS
 62
    7
 10
269.92892449999999
 20
433.07466150000005
 11
269.92892449999999
 21
429.07463050000001
  0
ARC
  8
_0-0_0
  6
CONTINUOUS
 62
    7
 10
270.42892449999999
 20
429.07463050000001
 40
0.5
 50
180.00000900000003
 51
269.99999700000001
  0
LINE
  8
_0-0_0
  6
CONTINUOUS
 62
    7
 10
277.42892449999999
 20
428.57463050000001
 11
270.42892449999999
 21
428.57463050000001
  0
ARC
  8
_0-0_0
  6
CONTINUOUS
 62
    7
 10
277.42892449999999
 20
429.07463050000001
 40
0.5
 50
269.99999700000001
 51
0
  0
LINE
  8
_0-0_0
  6
CONTINUOUS
 62
    7
 10
277.92892449999999
 20
429.07463050000001
 11
277.92892449999999
 21
433.07466150000005
  0
ARC
  8
_0-0_0
  6
CONTINUOUS
 62
    7
 10
277.42892449999999
 20
433.07466150000005
 40
0.5
 50
0
 51
90.000003000000007
  0
LINE
  8
_0-0_0
  6
CONTINUOUS
 62
    7
 10
270.42892449999999
 20
433.57466150000005
 11
277.42892449999999
 21
433.57466150000005
  0
LINE
  8
_0-0_0
  6
CONTINUOUS
 62
    7
 10
203.42892449999999
 20
441.67463650000002
 11
205.62011749999999
 21
441.67463650000002
  0
LINE
  8
_0-0_0
  6
CONTINUOUS
 62
    7
 10
203.42892449999999
 20
442.37464950000003
 11
205.23518350000001
 21
442.37464950000003
  0
LINE
  8
_0-0_0
  6
CONTINUOUS
 62
    7
 10
203.42892449999999
 20
442.77464350000002
 11
205.05398550000001
 21
442.77464350000002
  0
LINE
  8
_0-0_0
  6
CONTINUOUS
 62
    7
 10
203.42892449999999
 20
443.47465550000004
 11
204.79742450000001
 21
443.47465550000004
  0
LINE
  8
_0-0_0
  6
CONTINUOUS
 62
    7
 10
203.42892449999999
 20
443.87464950000003
 11
204.68296850000002
 21
443.87464950000003
  0
LINE
  8
_0-0_0
  6
CONTINUOUS
 62
    7
 10
203.42892449999999
 20
444.57463050000001
 11
204.53526350000001
 21
444.57463050000001
  0
LINE
  8
_0-0_0
  6
CONTINUOUS
 62
    7
 10
203.42892449999999
 20
444.97465550000004
 11
204.47972150000001
 21
444.97465550000004
  0
LINE
  8
_0-0_0
  6
CONTINUOUS
 62
    7
 10
203.42892449999999
 20
445.67463650000002
 11
204.43142750000001
 21
445.67463650000002
  0
LINE
  8
_0-0_0
  6
CONTINUOUS
 62
    7
 10
204.42892449999999
 20
445.87464950000003
 11
204.42924550000001
 21
445.9453585
  0
LINE
  8
_0-0_0
  6
CONTINUOUS
 62
    7
 10
220.42893950000001
 20
445.87464950000003
 11
220.4286195
 21
445.9453585
  0
LINE
  8
_0-0_0
  6
CONTINUOUS
 62
    7
 10
220.42643750000002
 20
446.07463050000001
 11
220.4286195
 21
445.9453585
  0
ARC
  8
_0-0_0
  6
CONTINUOUS
 62
    7
 10
212.42892449999999
 20
445.87464950000003
 40
8
 50
1.432544
 51
6.4594489999999993
  0
LINE
  8
_0-0_0
  6
CONTINUOUS
 62
    7
 10
220.36244250000001
 20
446.90394649999996
 11
220.37814349999999
 21
446.77464350000002
  0
LINE
  8
_0-0_0
  6
CONTINUOUS
 62
    7
 10
220.36244250000001
 20
446.90394649999996
 11
220.3428045
 21
447.04536450000001
  0
LINE
  8
_0-0_0
  6
CONTINUOUS
 62
    7
 10
220.32260150000002
 20
447.17463650000002
 11
220.3428045
 21
447.04536450000001
  0
ARC
  8
_0-0_0
  6
CONTINUOUS
 62
    7
 10
212.42892449999999
 20
445.87464950000003
 40
8
 50
9.3520350000000008
 51
14.477510999999998
  0
LINE
  8
_0-0_0
  6
CONTINUOUS
 62
    7
 10
220.14035050000001
 20
448.00392150000005
 11
220.17489650000002
 21
447.87464950000003
  0
LINE
  8
_0-0_0
  6
CONTINUOUS
 62
    7
 10
220.14035050000001
 20
448.00392150000005
 11
220.09991450000001
 21
448.14534049999997
  0
LINE
  8
_0-0_0
  6
CONTINUOUS
 62
    7
 10
220.06045550000002
 20
448.27464350000002
 11
220.09991450000001
 21
448.14534049999997
  0
ARC
  8
_0-0_0
  6
CONTINUOUS
 62
    7
 10
212.42892449999999
 20
445.87464950000003
 40
8
 50
17.457602999999999
 51
22.799030999999999
  0
LINE
  8
_0-0_0
  6
CONTINUOUS
 62
    7
 10
219.7481995
 20
449.10392750000005
 11
219.80389450000001
 21
448.97465550000004
  0
LINE
  8
_0-0_0
  6
CONTINUOUS
 62
    7
 10
219.7481995
 20
449.10392750000005
 11
219.6841585
 21
449.24534649999998
  0
LINE
  8
_0-0_0
  6
CONTINUOUS
 62
    7
 10
219.6226805
 20
449.37464950000003
 11
219.6841585
 21
449.24534649999998
  0
ARC
  8
_0-0_0
  6
CONTINUOUS
 62
    7
 10
212.42892449999999
 20
445.87464950000003
 40
8
 50
25.944476999999999
 51
31.668240000000001
  0
LINE
  8
_0-0_0
  6
CONTINUOUS
 62
    7
 10
219.15628050000001
 20
450.20393350000006
 11
219.23774750000001
 21
450.07463050000001
  0
LINE
  8
_0-0_0
  6
CONTINUOUS
 62
    7
 10
219.15628050000001
 20
450.20393350000006
 11
219.0631405
 21
450.34535249999999
  0
LINE
  8
_0-0_0
  6
CONTINUOUS
 62
    7
 10
218.9741515
 20
450.47465550000004
 11
219.0631405
 21
450.34535249999999
  0
ARC
  8
_0-0_0
  6
CONTINUOUS
 62
    7
 10
212.42892449999999
 20
445.87464950000003
 40
8
 50
35.099632
 51
144.900373
  0
LINE
  8
_0-0_0
  6
CONTINUOUS
 62
    7
 10
205.88369750000001
 20
450.47465550000004
 11
205.7947235
 21
450.34535249999999
  0
LINE
  8
_0-0_0
  6
CONTINUOUS
 62
    7
 10
205.7015835
 20
450.20393350000006
 11
205.7947235
 21
450.34535249999999
  0
LINE
  8
_0-0_0
  6
CONTINUOUS
 62
    7
 10
205.7015835
 20
450.20393350000006
 11
205.62011749999999
 21
450.07463050000001
  0
ARC
  8
_0-0_0
  6
CONTINUOUS
 62
    7
 10
212.42892449999999
 20
445.87464950000003
 40
8
 50
148.33176499999999
 51
154.05551800000001
  0
LINE
  8
_0-0_0
  6
CONTINUOUS
 62
    7
 10
205.23518350000001
 20
449.37464950000003
 11
205.17370650000001
 21
449.24534649999998
  0
LINE
  8
_0-0_0
  6
CONTINUOUS
 62
    7
 10
205.10966450000001
 20
449.10392750000005
 11
205.17370650000001
 21
449.24534649999998
  0
LINE
  8
_0-0_0
  6
CONTINUOUS
 62
    7
 10
205.10966450000001
 20
449.10392750000005
 11
205.05398550000001
 21
448.97465550000004
  0
ARC
  8
_0-0_0
  6
CONTINUOUS
 62
    7
 10
212.42892449999999
 20
445.87464950000003
 40
8
 50
157.20097000000001
 51
162.54239699999999
  0
LINE
  8
_0-0_0
  6
CONTINUOUS
 62
    7
 10
204.79742450000001
 20
448.27464350000002
 11
204.75796550000001
 21
448.14534049999997
  0
LINE
  8
_0-0_0
  6
CONTINUOUS
 62
    7
 10
204.7174985
 20
448.00392150000005
 11
204.75796550000001
 21
448.14534049999997
  0
LINE
  8
_0-0_0
  6
CONTINUOUS
 62
    7
 10
204.7174985
 20
448.00392150000005
 11
204.68296850000002
 21
447.87464950000003
  0
ARC
  8
_0-0_0
  6
CONTINUOUS
 62
    7
 10
212.42892449999999
 20
445.87464950000003
 40
8
 50
165.52249
 51
170.64796000000001
  0
LINE
  8
_0-0_0
  6
CONTINUOUS
 62
    7
 10
204.53526350000001
 20
447.17463650000002
 11
204.51504550000001
 21
447.04536450000001
  0
LINE
  8
_0-0_0
  6
CONTINUOUS
 62
    7
 10
204.49542250000002
 20
446.90394649999996
 11
204.51504550000001
 21
447.04536450000001
  0
LINE
  8
_0-0_0
  6
CONTINUOUS
 62
    7
 10
204.49542250000002
 20
446.90394649999996
 11
204.47972150000001
 21
446.77464350000002
  0
ARC
  8
_0-0_0
  6
CONTINUOUS
 62
    7
 10
212.42892449999999
 20
445.87464950000003
 40
8
 50
173.54054500000001
 51
178.567455
  0
LINE
  8
_0-0_0
  6
CONTINUOUS
 62
    7
 10
204.43142750000001
 20
446.07463050000001
 11
204.42924550000001
 21
445.9453585
  0
CIRCLE
  8
_0-0_0
  6
CONTINUOUS
 62
    7
 10
212.42892449999999
 20
445.87464950000003
 40
7.5
  0
LINE
  8
_0-0_0
  6
CONTINUOUS
 62
    7
 10
789.42892449999999
 20
445.87464950000003
 11
789.42922950000002
 21
445.9453585
  0
LINE
  8
_0-0_0
  6
CONTINUOUS
 62
    7
 10
220.42643750000002
 20
445.67463650000002
 11
789.43142750000004
 21
445.67463650000002
  0
LINE
  8
_0-0_0
  6
CONTINUOUS
 62
    7
 10
220.37814349999999
 20
444.97465550000004
 11
789.47970550000002
 21
444.97465550000004
  0
LINE
  8
_0-0_0
  6
CONTINUOUS
 62
    7
 10
220.32260150000002
 20
444.57463050000001
 11
789.53524749999997
 21
444.57463050000001
  0
LINE
  8
_0-0_0
  6
CONTINUOUS
 62
    7
 10
220.17489650000002
 20
443.87464950000003
 11
789.68295250000006
 21
443.87464950000003
  0
LINE
  8
_0-0_0
  6
CONTINUOUS
 62
    7
 10
220.06045550000002
 20
443.47465550000004
 11
789.7973935
 21
443.47465550000004
  0
LINE
  8
_0-0_0
  6
CONTINUOUS
 62
    7
 10
219.80389450000001
 20
442.77464350000002
 11
790.05398549999995
 21
442.77464350000002
  0
LINE
  8
_0-0_0
  6
CONTINUOUS
 62
    7
 10
219.6226805
 20
442.37464950000003
 11
790.23519950000002
 21
442.37464950000003
  0
LINE
  8
_0-0_0
  6
CONTINUOUS
 62
    7
 10
219.23774750000001
 20
441.67463650000002
 11
790.62008649999996
 21
441.67463650000002
  0
LINE
  8
_0-0_0
  6
CONTINUOUS
 62
    7
 10
805.42892449999999
 20
445.87464950000003
 11
805.42861949999997
 21
445.9453585
  0
LINE
  8
_0-0_0
  6
CONTINUOUS
 62
    7
 10
805.42642250000006
 20
445.67463650000002
 11
806.42892449999999
 21
445.67463650000002
  0
LINE
  8
_0-0_0
  6
CONTINUOUS
 62
    7
 10
805.37814349999996
 20
444.97465550000004
 11
806.42892449999999
 21
444.97465550000004
  0
LINE
  8
_0-0_0
  6
CONTINUOUS
 62
    7
 10
805.32260150000002
 20
444.57463050000001
 11
806.42892449999999
 21
444.57463050000001
  0
LINE
  8
_0-0_0
  6
CONTINUOUS
 62
    7
 10
805.17489650000005
 20
443.87464950000003
 11
806.42892449999999
 21
443.87464950000003
  0
LINE
  8
_0-0_0
  6
CONTINUOUS
 62
    7
 10
805.06045549999999
 20
443.47465550000004
 11
806.42892449999999
 21
443.47465550000004
  0
LINE
  8
_0-0_0
  6
CONTINUOUS
 62
    7
 10
804.80386350000003
 20
442.77464350000002
 11
806.42892449999999
 21
442.77464350000002
  0
LINE
  8
_0-0_0
  6
CONTINUOUS
 62
    7
 10
804.62265049999996
 20
442.37464950000003
 11
806.42892449999999
 21
442.37464950000003
  0
LINE
  8
_0-0_0
  6
CONTINUOUS
 62
    7
 10
804.23776250000003
 20
441.67463650000002
 11
806.42892449999999
 21
441.67463650000002
  0
LINE
  8
_0-0_0
  6
CONTINUOUS
 62
    7
 10
803.97415150000006
 20
450.47465550000004
 11
804.06314050000003
 21
450.34535249999999
  0
ARC
  8
_0-0_0
  6
CONTINUOUS
 62
    7
 10
797.42892449999999
 20
445.87464950000003
 40
8
 50
35.099632
 51
144.900373
  0
LINE
  8
_0-0_0
  6
CONTINUOUS
 62
    7
 10
790.88369750000004
 20
450.47465550000004
 11
790.79470849999996
 21
450.34535249999999
  0
LINE
  8
_0-0_0
  6
CONTINUOUS
 62
    7
 10
790.70156850000001
 20
450.20393350000006
 11
790.79470849999996
 21
450.34535249999999
  0
LINE
  8
_0-0_0
  6
CONTINUOUS
 62
    7
 10
790.70156850000001
 20
450.20393350000006
 11
790.62008649999996
 21
450.07463050000001
  0
ARC
  8
_0-0_0
  6
CONTINUOUS
 62
    7
 10
797.42892449999999
 20
445.87464950000003
 40
8
 50
148.33176499999999
 51
154.05551800000001
  0
LINE
  8
_0-0_0
  6
CONTINUOUS
 62
    7
 10
790.23519950000002
 20
449.37464950000003
 11
790.17367550000006
 21
449.24534649999998
  0
LINE
  8
_0-0_0
  6
CONTINUOUS
 62
    7
 10
790.10964950000005
 20
449.10392750000005
 11
790.17367550000006
 21
449.24534649999998
  0
LINE
  8
_0-0_0
  6
CONTINUOUS
 62
    7
 10
790.10964950000005
 20
449.10392750000005
 11
790.05398549999995
 21
448.97465550000004
  0
ARC
  8
_0-0_0
  6
CONTINUOUS
 62
    7
 10
797.42892449999999
 20
445.87464950000003
 40
8
 50
157.20097000000001
 51
162.54239699999999
  0
LINE
  8
_0-0_0
  6
CONTINUOUS
 62
    7
 10
789.7973935
 20
448.27464350000002
 11
789.75796549999995
 21
448.14534049999997
  0
LINE
  8
_0-0_0
  6
CONTINUOUS
 62
    7
 10
789.71749850000003
 20
448.00392150000005
 11
789.75796549999995
 21
448.14534049999997
  0
LINE
  8
_0-0_0
  6
CONTINUOUS
 62
    7
 10
789.71749850000003
 20
448.00392150000005
 11
789.68295250000006
 21
447.87464950000003
  0
ARC
  8
_0-0_0
  6
CONTINUOUS
 62
    7
 10
797.42892449999999
 20
445.87464950000003
 40
8
 50
165.52249
 51
170.64796000000001
  0
LINE
  8
_0-0_0
  6
CONTINUOUS
 62
    7
 10
789.53524749999997
 20
447.17463650000002
 11
789.51504550000004
 21
447.04536450000001
  0
LINE
  8
_0-0_0
  6
CONTINUOUS
 62
    7
 10
789.49539149999998
 20
446.90394649999996
 11
789.51504550000004
 21
447.04536450000001
  0
LINE
  8
_0-0_0
  6
CONTINUOUS
 62
    7
 10
789.49539149999998
 20
446.90394649999996
 11
789.47970550000002
 21
446.77464350000002
  0
ARC
  8
_0-0_0
  6
CONTINUOUS
 62
    7
 10
797.42892449999999
 20
445.87464950000003
 40
8
 50
173.54054500000001
 51
178.567455
  0
LINE
  8
_0-0_0
  6
CONTINUOUS
 62
    7
 10
789.43142750000004
 20
446.07463050000001
 11
789.42922950000002
 21
445.9453585
  0
LINE
  8
_0-0_0
  6
CONTINUOUS
 62
    7
 10
805.42642250000006
 20
446.07463050000001
 11
805.42861949999997
 21
445.9453585
  0
ARC
  8
_0-0_0
  6
CONTINUOUS
 62
    7
 10
797.42892449999999
 20
445.87464950000003
 40
8
 50
1.432544
 51
6.4594489999999993
  0
LINE
  8
_0-0_0
  6
CONTINUOUS
 62
    7
 10
805.3624575
 20
446.90394649999996
 11
805.37814349999996
 21
446.77464350000002
  0
LINE
  8
_0-0_0
  6
CONTINUOUS
 62
    7
 10
805.3624575
 20
446.90394649999996
 11
805.34280450000006
 21
447.04536450000001
  0
LINE
  8
_0-0_0
  6
CONTINUOUS
 62
    7
 10
805.32260150000002
 20
447.17463650000002
 11
805.34280450000006
 21
447.04536450000001
  0
ARC
  8
_0-0_0
  6
CONTINUOUS
 62
    7
 10
797.42892449999999
 20
445.87464950000003
 40
8
 50
9.3520350000000008
 51
14.477510999999998
  0
LINE
  8
_0-0_0
  6
CONTINUOUS
 62
    7
 10
805.14035049999995
 20
448.00392150000005
 11
805.17489650000005
 21
447.87464950000003
  0
LINE
  8
_0-0_0
  6
CONTINUOUS
 62
    7
 10
805.14035049999995
 20
448.00392150000005
 11
805.09988450000003
 21
448.14534049999997
  0
LINE
  8
_0-0_0
  6
CONTINUOUS
 62
    7
 10
805.06045549999999
 20
448.27464350000002
 11
805.09988450000003
 21
448.14534049999997
  0
ARC
  8
_0-0_0
  6
CONTINUOUS
 62
    7
 10
797.42892449999999
 20
445.87464950000003
 40
8
 50
17.457602999999999
 51
22.799030999999999
  0
LINE
  8
_0-0_0
  6
CONTINUOUS
 62
    7
 10
804.74819950000006
 20
449.10392750000005
 11
804.80386350000003
 21
448.97465550000004
  0
LINE
  8
_0-0_0
  6
CONTINUOUS
 62
    7
 10
804.74819950000006
 20
449.10392750000005
 11
804.68417350000004
 21
449.24534649999998
  0
LINE
  8
_0-0_0
  6
CONTINUOUS
 62
    7
 10
804.62265049999996
 20
449.37464950000003
 11
804.68417350000004
 21
449.24534649999998
  0
ARC
  8
_0-0_0
  6
CONTINUOUS
 62
    7
 10
797.42892449999999
 20
445.87464950000003
 40
8
 50
25.944476999999999
 51
31.668240000000001
  0
LINE
  8
_0-0_0
  6
CONTINUOUS
 62
    7
 10
804.15628049999998
 20
450.20393350000006
 11
804.23776250000003
 21
450.07463050000001
  0
LINE
  8
_0-0_0
  6
CONTINUOUS
 62
    7
 10
804.15628049999998
 20
450.20393350000006
 11
804.06314050000003
 21
450.34535249999999
  0
CIRCLE
  8
_0-0_0
  6
CONTINUOUS
 62
    7
 10
797.42892449999999
 20
445.87464950000003
 40
7.5
  0
LINE
  8
_0-0_0
  6
CONTINUOUS
 62
    7
 10
804.23776250000003
 20
450.07463050000001
 11
806.42892449999999
 21
450.07463050000001
  0
LINE
  8
_0-0_0
  6
CONTINUOUS
 62
    7
 10
804.62265049999996
 20
449.37464950000003
 11
806.42892449999999
 21
449.37464950000003
  0
LINE
  8
_0-0_0
  6
CONTINUOUS
 62
    7
 10
804.80386350000003
 20
448.97465550000004
 11
806.42892449999999
 21
448.97465550000004
  0
LINE
  8
_0-0_0
  6
CONTINUOUS
 62
    7
 10
805.06045549999999
 20
448.27464350000002
 11
806.42892449999999
 21
448.27464350000002
  0
LINE
  8
_0-0_0
  6
CONTINUOUS
 62
    7
 10
805.17489650000005
 20
447.87464950000003
 11
806.42892449999999
 21
447.87464950000003
  0
LINE
  8
_0-0_0
  6
CONTINUOUS
 62
    7
 10
805.32260150000002
 20
447.17463650000002
 11
806.42892449999999
 21
447.17463650000002
  0
LINE
  8
_0-0_0
  6
CONTINUOUS
 62
    7
 10
805.37814349999996
 20
446.77464350000002
 11
806.42892449999999
 21
446.77464350000002
  0
LINE
  8
_0-0_0
  6
CONTINUOUS
 62
    7
 10
805.42642250000006
 20
446.07463050000001
 11
806.42892449999999
 21
446.07463050000001
  0
LINE
  8
_0-0_0
  6
CONTINUOUS
 62
    7
 10
806.92892449999999
 20
429.37464950000003
 11
806.42892449999999
 21
429.37464950000003
  0
LINE
  8
_0-0_0
  6
CONTINUOUS
 62
    7
 10
806.92892449999999
 20
431.57463050000001
 11
806.42892449999999
 21
431.57463050000001
  0
LINE
  8
_0-0_0
  6
CONTINUOUS
 62
    7
 10
806.92892449999999
 20
433.87464950000003
 11
806.42892449999999
 21
433.87464950000003
  0
LINE
  8
_0-0_0
  6
CONTINUOUS
 62
    7
 10
806.42892449999999
 20
436.17463650000002
 11
806.92892449999999
 21
436.17463650000002
  0
LINE
  8
_0-0_0
  6
CONTINUOUS
 62
    7
 10
806.92892449999999
 20
456.37464950000003
 11
806.92892449999999
 21
456.27464350000002
  0
LINE
  8
_0-0_0
  6
CONTINUOUS
 62
    7
 10
202.92892449999999
 20
456.37464950000003
 11
202.92892449999999
 21
456.27464350000002
  0
LINE
  8
_0-0_0
  6
CONTINUOUS
 62
    7
 10
202.92892449999999
 20
436.17463650000002
 11
203.42892449999999
 21
436.17463650000002
  0
LINE
  8
_0-0_0
  6
CONTINUOUS
 62
    7
 10
203.42892449999999
 20
456.07463050000001
 11
806.42892449999999
 21
456.07463050000001
  0
LINE
  8
_0-0_0
  6
CONTINUOUS
 62
    7
 10
203.42892449999999
 20
455.48066749999998
 11
806.42892449999999
 21
455.48066749999998
  0
LINE
  8
_0-0_0
  6
CONTINUOUS
 62
    7
 10
218.9741515
 20
450.47465550000004
 11
790.88369750000004
 21
450.47465550000004
  0
LINE
  8
_0-0_0
  6
CONTINUOUS
 62
    7
 10
803.97415150000006
 20
450.47465550000004
 11
806.42892449999999
 21
450.47465550000004
  0
LINE
  8
_0-0_0
  6
CONTINUOUS
 62
    7
 10
203.42892449999999
 20
450.47465550000004
 11
205.88369750000001
 21
450.47465550000004
  0
LINE
  8
_0-0_0
  6
CONTINUOUS
 62
    7
 10
202.92892449999999
 20
429.37464950000003
 11
203.42892449999999
 21
429.37464950000003
  0
LINE
  8
_0-0_0
  6
CONTINUOUS
 62
    7
 10
202.92892449999999
 20
431.57463050000001
 11
203.42892449999999
 21
431.57463050000001
  0
LINE
  8
_0-0_0
  6
CONTINUOUS
 62
    7
 10
202.92892449999999
 20
433.87464950000003
 11
203.42892449999999
 21
433.87464950000003
  0
LINE
  8
_0-0_0
  6
CONTINUOUS
 62
    7
 10
203.42892449999999
 20
450.07463050000001
 11
205.62011749999999
 21
450.07463050000001
  0
LINE
  8
_0-0_0
  6
CONTINUOUS
 62
    7
 10
203.42892449999999
 20
449.37464950000003
 11
205.23518350000001
 21
449.37464950000003
  0
LINE
  8
_0-0_0
  6
CONTINUOUS
 62
    7
 10
203.42892449999999
 20
448.97465550000004
 11
205.05398550000001
 21
448.97465550000004
  0
LINE
  8
_0-0_0
  6
CONTINUOUS
 62
    7
 10
203.42892449999999
 20
448.27464350000002
 11
204.79742450000001
 21
448.27464350000002
  0
LINE
  8
_0-0_0
  6
CONTINUOUS
 62
    7
 10
203.42892449999999
 20
447.87464950000003
 11
204.68296850000002
 21
447.87464950000003
  0
LINE
  8
_0-0_0
  6
CONTINUOUS
 62
    7
 10
203.42892449999999
 20
447.17463650000002
 11
204.53526350000001
 21
447.17463650000002
  0
LINE
  8
_0-0_0
  6
CONTINUOUS
 62
    7
 10
203.42892449999999
 20
446.77464350000002
 11
204.47972150000001
 21
446.77464350000002
  0
LINE
  8
_0-0_0
  6
CONTINUOUS
 62
    7
 10
203.42892449999999
 20
446.07463050000001
 11
204.43142750000001
 21
446.07463050000001
  0
LINE
  8
_0-0_0
  6
CONTINUOUS
 62
    7
 10
219.23774750000001
 20
450.07463050000001
 11
790.62008649999996
 21
450.07463050000001
  0
LINE
  8
_0-0_0
  6
CONTINUOUS
 62
    7
 10
219.6226805
 20
449.37464950000003
 11
790.23519950000002
 21
449.37464950000003
  0
LINE
  8
_0-0_0
  6
CONTINUOUS
 62
    7
 10
219.80389450000001
 20
448.97465550000004
 11
790.05398549999995
 21
448.97465550000004
  0
LINE
  8
_0-0_0
  6
CONTINUOUS
 62
    7
 10
220.06045550000002
 20
448.27464350000002
 11
789.7973935
 21
448.27464350000002
  0
LINE
  8
_0-0_0
  6
CONTINUOUS
 62
    7
 10
220.17489650000002
 20
447.87464950000003
 11
789.68295250000006
 21
447.87464950000003
  0
LINE
  8
_0-0_0
  6
CONTINUOUS
 62
    7
 10
220.32260150000002
 20
447.17463650000002
 11
789.53524749999997
 21
447.17463650000002
  0
LINE
  8
_0-0_0
  6
CONTINUOUS
 62
    7
 10
220.37814349999999
 20
446.77464350000002
 11
789.47970550000002
 21
446.77464350000002
  0
LINE
  8
_0-0_0
  6
CONTINUOUS
 62
    7
 10
220.42643750000002
 20
446.07463050000001
 11
789.43142750000004
 21
446.07463050000001
  0
LINE
  8
_0-0_0
  6
CONTINUOUS
 62
    7
 10
806.92892449999999
 20
427.87464950000003
 11
806.42892449999999
 21
427.87464950000003
  0
LINE
  8
_0-0_0
  6
CONTINUOUS
 62
    7
 10
806.92892449999999
 20
455.47465550000004
 11
806.92892449999999
 21
456.27464350000002
  0
LINE
  8
_0-0_0
  6
CONTINUOUS
 62
    7
 10
806.92892449999999
 20
427.67463650000002
 11
806.92892449999999
 21
455.47465550000004
  0
LINE
  8
_0-0_0
  6
CONTINUOUS
 62
    7
 10
202.92892449999999
 20
455.47465550000004
 11
202.92892449999999
 21
456.27464350000002
  0
LINE
  8
_0-0_0
  6
CONTINUOUS
 62
    7
 10
202.92892449999999
 20
427.67463650000002
 11
202.92892449999999
 21
455.47465550000004
  0
ARC
  8
_0-0_0
  6
CONTINUOUS
 62
    7
 10
212.42892449999999
 20
446.57463050000001
 40
12.800000000000001
 50
73.932597000000001
 51
106.06740099999999
  0
ARC
  8
_0-0_0
  6
CONTINUOUS
 62
    7
 10
797.42892449999999
 20
446.57463050000001
 40
12.800000000000001
 50
73.932597000000001
 51
106.06740099999999
  0
LINE
  8
_0-0_0
  6
CONTINUOUS
 62
    7
 10
806.92892449999999
 20
456.37464950000003
 11
806.92892449999999
 21
458.87464950000003
  0
LINE
  8
_0-0_0
  6
CONTINUOUS
 62
    7
 10
202.92892449999999
 20
458.87464950000003
 11
806.92892449999999
 21
458.87464950000003
  0
LINE
  8
_0-0_0
  6
CONTINUOUS
 62
    7
 10
202.92892449999999
 20
456.37464950000003
 11
202.92892449999999
 21
458.87464950000003
  0
LINE
  8
_0-0_0
  6
CONTINUOUS
 62
    7
 10
202.92892449999999
 20
427.87464950000003
 11
203.42892449999999
 21
427.87464950000003
  0
ARC
  8
_0-0_0
  6
CONTINUOUS
 62
    7
 10
745.22891249999998
 20
432.77464350000002
 40
0.2
 50
339.62356199999999
 51
90.000002999999978
  0
LINE
  8
_0-0_0
  6
CONTINUOUS
 62
    7
 10
745.41641249999998
 20
432.70500149999998
 11
744.11642449999999
 21
429.20500149999998
  0
ARC
  8
_0-0_0
  6
CONTINUOUS
 62
    7
 10
743.92892449999999
 20
429.27464350000002
 40
0.2
 50
200.37643
 51
339.62356199999999
  0
LINE
  8
_0-0_0
  6
CONTINUOUS
 62
    7
 10
742.44143650000001
 20
432.70500149999998
 11
743.74142449999999
 21
429.20500149999998
  0
ARC
  8
_0-0_0
  6
CONTINUOUS
 62
    7
 10
742.62893650000001
 20
432.77464350000002
 40
0.2
 50
90.000003000000007
 51
200.37643
  0
LINE
  8
_0-0_0
  6
CONTINUOUS
 62
    7
 10
742.62893650000001
 20
432.97465550000004
 11
745.22891249999998
 21
432.97465550000004
  0
ARC
  8
_0-0_0
  6
CONTINUOUS
 62
    7
 10
275.2289275
 20
432.77464350000002
 40
0.2
 50
339.62356199999999
 51
90.000002999999978
  0
LINE
  8
_0-0_0
  6
CONTINUOUS
 62
    7
 10
275.41641249999998
 20
432.70500149999998
 11
274.11640950000003
 21
429.20500149999998
  0
ARC
  8
_0-0_0
  6
CONTINUOUS
 62
    7
 10
273.92892449999999
 20
429.27464350000002
 40
0.2
 50
200.37643
 51
339.62356199999999
  0
LINE
  8
_0-0_0
  6
CONTINUOUS
 62
    7
 10
272.44143650000001
 20
432.70500149999998
 11
273.74143950000001
 21
429.20500149999998
  0
ARC
  8
_0-0_0
  6
CONTINUOUS
 62
    7
 10
272.62892150000005
 20
432.77464350000002
 40
0.2
 50
90.000003000000007
 51
200.37643
  0
LINE
  8
_0-0_0
  6
CONTINUOUS
 62
    7
 10
272.62892150000005
 20
432.97465550000004
 11
275.2289275
 21
432.97465550000004
  0
CIRCLE
  8
_0-0_0
  6
CONTINUOUS
 62
    7
 10
212.42892449999999
 20
445.87464950000003
 40
5
  0
CIRCLE
  8
_0-0_0
  6
CONTINUOUS
 62
    7
 10
797.42892449999999
 20
445.87464950000003
 40
5
  0
LINE
  8
_0-0_0
  6
CONTINUOUS
 62
    7
 10
807.92892449999999
 20
455.47465550000004
 11
806.92892449999999
 21
455.47465550000004
  0
LINE
  8
_0-0_0
  6
CONTINUOUS
 62
    7
 10
807.92892449999999
 20
456.51161249999996
 11
806.92892449999999
 21
456.51161249999996
  0
LINE
  8
_0-0_0
  6
CONTINUOUS
 62
    7
 10
807.92892449999999
 20
427.67463650000002
 11
806.92892449999999
 21
427.67463650000002
  0
LINE
  8
_0-0_0
  6
CONTINUOUS
 62
    7
 10
201.92892449999999
 20
455.47465550000004
 11
202.92892449999999
 21
455.47465550000004
  0
LINE
  8
_0-0_0
  6
CONTINUOUS
 62
    7
 10
201.92892449999999
 20
456.47465550000004
 11
202.92892449999999
 21
456.47465550000004
  0
LINE
  8
_0-0_0
  6
CONTINUOUS
 62
    7
 10
201.92892449999999
 20
427.67463650000002
 11
202.92892449999999
 21
427.67463650000002
  0
LINE
  8
_0-0_0
  6
CONTINUOUS
 62
    7
 10
807.92892449999999
 20
458.67463650000002
 11
806.92892449999999
 21
458.67463650000002
  0
LINE
  8
_0-0_0
  6
CONTINUOUS
 62
    7
 10
201.92892449999999
 20
458.67463650000002
 11
202.92892449999999
 21
458.67463650000002
  0
LINE
  8
_0-0_0
  6
CONTINUOUS
 62
    7
 10
808.92892449999999
 20
455.06044050000003
 11
808.92794849999996
 21
455.07893350000006
  0
LINE
  8
_0-0_0
  6
CONTINUOUS
 62
    7
 10
808.92794849999996
 20
455.07893350000006
 11
808.9249575
 21
455.09736650000002
  0
LINE
  8
_0-0_0
  6
CONTINUOUS
 62
    7
 10
808.9249575
 20
455.09736650000002
 11
808.91970849999996
 21
455.11650050000003
  0
LINE
  8
_0-0_0
  6
CONTINUOUS
 62
    7
 10
808.91970849999996
 20
455.11650050000003
 11
808.91232349999996
 21
455.1355135
  0
LINE
  8
_0-0_0
  6
CONTINUOUS
 62
    7
 10
808.91232349999996
 20
455.1355135
 11
808.89175450000005
 21
455.1722565
  0
LINE
  8
_0-0_0
  6
CONTINUOUS
 62
    7
 10
808.89175450000005
 20
455.1722565
 11
808.86337249999997
 21
455.20793149999997
  0
LINE
  8
_0-0_0
  6
CONTINUOUS
 62
    7
 10
808.86337249999997
 20
455.20793149999997
 11
808.82748449999997
 21
455.24220249999996
  0
LINE
  8
_0-0_0
  6
CONTINUOUS
 62
    7
 10
808.82748449999997
 20
455.24220249999996
 11
808.7788395
 21
455.27867149999997
  0
LINE
  8
_0-0_0
  6
CONTINUOUS
 62
    7
 10
808.7788395
 20
455.27867149999997
 11
808.72207649999996
 21
455.31269850000001
  0
LINE
  8
_0-0_0
  6
CONTINUOUS
 62
    7
 10
808.72207649999996
 20
455.31269850000001
 11
808.65792850000003
 21
455.34394850000001
  0
LINE
  8
_0-0_0
  6
CONTINUOUS
 62
    7
 10
808.65792850000003
 20
455.34394850000001
 11
808.58731050000006
 21
455.37217750000002
  0
LINE
  8
_0-0_0
  6
CONTINUOUS
 62
    7
 10
808.58731050000006
 20
455.37217750000002
 11
808.53921549999995
 21
455.38853449999999
  0
LINE
  8
_0-0_0
  6
CONTINUOUS
 62
    7
 10
808.53921549999995
 20
455.38853449999999
 11
808.48904449999998
 21
455.40354950000005
  0
LINE
  8
_0-0_0
  6
CONTINUOUS
 62
    7
 10
808.48904449999998
 20
455.40354950000005
 11
808.4323425
 21
455.41831950000005
  0
LINE
  8
_0-0_0
  6
CONTINUOUS
 62
    7
 10
808.4323425
 20
455.41831950000005
 11
808.37374850000003
 21
455.43141149999997
  0
LINE
  8
_0-0_0
  6
CONTINUOUS
 62
    7
 10
808.37374850000003
 20
455.43141149999997
 11
808.25698850000003
 21
455.45173650000004
  0
LINE
  8
_0-0_0
  6
CONTINUOUS
 62
    7
 10
808.25698850000003
 20
455.45173650000004
 11
808.14956649999999
 21
455.46443150000005
  0
LINE
  8
_0-0_0
  6
CONTINUOUS
 62
    7
 10
808.14956649999999
 20
455.46443150000005
 11
808.03982550000001
 21
455.47209150000003
  0
LINE
  8
_0-0_0
  6
CONTINUOUS
 62
    7
 10
808.03982550000001
 20
455.47209150000003
 11
807.92892449999999
 21
455.47465550000004
  0
LINE
  8
_0-0_0
  6
CONTINUOUS
 62
    7
 10
808.92892449999999
 20
455.06044050000003
 11
808.92892449999999
 21
456.06050149999999
  0
LINE
  8
_0-0_0
  6
CONTINUOUS
 62
    7
 10
808.92892449999999
 20
456.06050149999999
 11
808.9259945
 21
456.09205650000001
  0
LINE
  8
_0-0_0
  6
CONTINUOUS
 62
    7
 10
808.9259945
 20
456.09205650000001
 11
808.91726649999998
 21
456.12413049999998
  0
LINE
  8
_0-0_0
  6
CONTINUOUS
 62
    7
 10
808.91726649999998
 20
456.12413049999998
 11
808.90274050000005
 21
456.15641749999998
  0
LINE
  8
_0-0_0
  6
CONTINUOUS
 62
    7
 10
808.90274050000005
 20
456.15641749999998
 11
808.88253750000001
 21
456.18858350000005
  0
LINE
  8
_0-0_0
  6
CONTINUOUS
 62
    7
 10
808.88253750000001
 20
456.18858350000005
 11
808.86593649999998
 21
456.20979350000005
  0
LINE
  8
_0-0_0
  6
CONTINUOUS
 62
    7
 10
808.86593649999998
 20
456.20979350000005
 11
808.84695450000004
 21
456.23075849999998
  0
LINE
  8
_0-0_0
  6
CONTINUOUS
 62
    7
 10
808.84695450000004
 20
456.23075849999998
 11
808.80221549999999
 21
456.27153050000004
  0
LINE
  8
_0-0_0
  6
CONTINUOUS
 62
    7
 10
808.80221549999999
 20
456.27153050000004
 11
808.74899249999999
 21
456.31028749999996
  0
LINE
  8
_0-0_0
  6
CONTINUOUS
 62
    7
 10
808.74899249999999
 20
456.31028749999996
 11
808.69906649999996
 21
456.34050049999996
  0
LINE
  8
_0-0_0
  6
CONTINUOUS
 62
    7
 10
808.69906649999996
 20
456.34050049999996
 11
808.64437850000002
 21
456.36869850000005
  0
LINE
  8
_0-0_0
  6
CONTINUOUS
 62
    7
 10
808.64437850000002
 20
456.36869850000005
 11
808.58541850000006
 21
456.39472950000004
  0
LINE
  8
_0-0_0
  6
CONTINUOUS
 62
    7
 10
808.58541850000006
 20
456.39472950000004
 11
808.53866549999998
 21
456.41273550000005
  0
LINE
  8
_0-0_0
  6
CONTINUOUS
 62
    7
 10
808.53866549999998
 20
456.41273550000005
 11
808.48995950000005
 21
456.42933649999998
  0
LINE
  8
_0-0_0
  6
CONTINUOUS
 62
    7
 10
808.48995950000005
 20
456.42933649999998
 11
808.3875425
 21
456.45820649999996
  0
LINE
  8
_0-0_0
  6
CONTINUOUS
 62
    7
 10
808.3875425
 20
456.45820649999996
 11
808.27981550000004
 21
456.4810635
  0
LINE
  8
_0-0_0
  6
CONTINUOUS
 62
    7
 10
808.27981550000004
 20
456.4810635
 11
808.16824350000002
 21
456.4976355
  0
LINE
  8
_0-0_0
  6
CONTINUOUS
 62
    7
 10
808.16824350000002
 20
456.4976355
 11
808.05416850000006
 21
456.50782749999996
  0
LINE
  8
_0-0_0
  6
CONTINUOUS
 62
    7
 10
808.05416850000006
 20
456.50782749999996
 11
807.92892449999999
 21
456.51161249999996
  0
ARC
  8
_0-0_0
  6
CONTINUOUS
 62
    7
 10
807.92892449999999
 20
428.67463650000002
 40
1
 50
269.99999700000001
 51
0
  0
LINE
  8
_0-0_0
  6
CONTINUOUS
 62
    7
 10
808.92892449999999
 20
428.67463650000002
 11
808.92892449999999
 21
455.06044050000003
  0
LINE
  8
_0-0_0
  6
CONTINUOUS
 62
    7
 10
200.92892449999999
 20
455.06044050000003
 11
200.92993150000001
 21
455.07893350000006
  0
LINE
  8
_0-0_0
  6
CONTINUOUS
 62
    7
 10
200.92993150000001
 20
455.07893350000006
 11
200.93292250000002
 21
455.09736650000002
  0
LINE
  8
_0-0_0
  6
CONTINUOUS
 62
    7
 10
200.93292250000002
 20
455.09736650000002
 11
200.93817150000001
 21
455.11650050000003
  0
LINE
  8
_0-0_0
  6
CONTINUOUS
 62
    7
 10
200.93817150000001
 20
455.11650050000003
 11
200.94554150000002
 21
455.1355135
  0
LINE
  8
_0-0_0
  6
CONTINUOUS
 62
    7
 10
200.94554150000002
 20
455.1355135
 11
200.96609549999999
 21
455.1722565
  0
LINE
  8
_0-0_0
  6
CONTINUOUS
 62
    7
 10
200.96609549999999
 20
455.1722565
 11
200.99449150000001
 21
455.20793149999997
  0
LINE
  8
_0-0_0
  6
CONTINUOUS
 62
    7
 10
200.99449150000001
 20
455.20793149999997
 11
201.03036550000002
 21
455.24220249999996
  0
LINE
  8
_0-0_0
  6
CONTINUOUS
 62
    7
 10
201.03036550000002
 20
455.24220249999996
 11
201.07899449999999
 21
455.27867149999997
  0
LINE
  8
_0-0_0
  6
CONTINUOUS
 62
    7
 10
201.07899449999999
 20
455.27867149999997
 11
201.1357725
 21
455.31269850000001
  0
LINE
  8
_0-0_0
  6
CONTINUOUS
 62
    7
 10
201.1357725
 20
455.31269850000001
 11
201.19992050000002
 21
455.34394850000001
  0
LINE
  8
_0-0_0
  6
CONTINUOUS
 62
    7
 10
201.19992050000002
 20
455.34394850000001
 11
201.2705685
 21
455.37217750000002
  0
LINE
  8
_0-0_0
  6
CONTINUOUS
 62
    7
 10
201.2705685
 20
455.37217750000002
 11
201.31864949999999
 21
455.38853449999999
  0
LINE
  8
_0-0_0
  6
CONTINUOUS
 62
    7
 10
201.31864949999999
 20
455.38853449999999
 11
201.36878950000002
 21
455.40354950000005
  0
LINE
  8
_0-0_0
  6
CONTINUOUS
 62
    7
 10
201.36878950000002
 20
455.40354950000005
 11
201.42549149999999
 21
455.41831950000005
  0
LINE
  8
_0-0_0
  6
CONTINUOUS
 62
    7
 10
201.42549149999999
 20
455.41831950000005
 11
201.48410050000001
 21
455.43141149999997
  0
LINE
  8
_0-0_0
  6
CONTINUOUS
 62
    7
 10
201.48410050000001
 20
455.43141149999997
 11
201.6008755
 21
455.45173650000004
  0
LINE
  8
_0-0_0
  6
CONTINUOUS
 62
    7
 10
201.6008755
 20
455.45173650000004
 11
201.7082825
 21
455.46443150000005
  0
LINE
  8
_0-0_0
  6
CONTINUOUS
 62
    7
 10
201.7082825
 20
455.46443150000005
 11
201.81805450000002
 21
455.47209150000003
  0
LINE
  8
_0-0_0
  6
CONTINUOUS
 62
    7
 10
201.81805450000002
 20
455.47209150000003
 11
201.92892449999999
 21
455.47465550000004
  0
LINE
  8
_0-0_0
  6
CONTINUOUS
 62
    7
 10
200.92892449999999
 20
456.03010549999999
 11
200.93182350000001
 21
456.06098950000001
  0
LINE
  8
_0-0_0
  6
CONTINUOUS
 62
    7
 10
200.93182350000001
 20
456.06098950000001
 11
200.94052150000002
 21
456.0924225
  0
LINE
  8
_0-0_0
  6
CONTINUOUS
 62
    7
 10
200.94052150000002
 20
456.0924225
 11
200.95500150000001
 21
456.12409950000006
  0
LINE
  8
_0-0_0
  6
CONTINUOUS
 62
    7
 10
200.95500150000001
 20
456.12409950000006
 11
200.97517450000001
 21
456.15571650000004
  0
LINE
  8
_0-0_0
  6
CONTINUOUS
 62
    7
 10
200.97517450000001
 20
456.15571650000004
 11
200.99169950000001
 21
456.17655950000005
  0
LINE
  8
_0-0_0
  6
CONTINUOUS
 62
    7
 10
200.99169950000001
 20
456.17655950000005
 11
201.01058950000001
 21
456.19718950000004
  0
LINE
  8
_0-0_0
  6
CONTINUOUS
 62
    7
 10
201.01058950000001
 20
456.19718950000004
 11
201.05523650000001
 21
456.23735050000005
  0
LINE
  8
_0-0_0
  6
CONTINUOUS
 62
    7
 10
201.05523650000001
 20
456.23735050000005
 11
201.10836750000001
 21
456.27552850000006
  0
LINE
  8
_0-0_0
  6
CONTINUOUS
 62
    7
 10
201.10836750000001
 20
456.27552850000006
 11
201.1582645
 21
456.30537449999997
  0
LINE
  8
_0-0_0
  6
CONTINUOUS
 62
    7
 10
201.1582645
 20
456.30537449999997
 11
201.21293650000001
 21
456.3332365
  0
LINE
  8
_0-0_0
  6
CONTINUOUS
 62
    7
 10
201.21293650000001
 20
456.3332365
 11
201.27191150000002
 21
456.35896349999996
  0
LINE
  8
_0-0_0
  6
CONTINUOUS
 62
    7
 10
201.27191150000002
 20
456.35896349999996
 11
201.31866450000001
 21
456.37675450000006
  0
LINE
  8
_0-0_0
  6
CONTINUOUS
 62
    7
 10
201.31866450000001
 20
456.37675450000006
 11
201.36737049999999
 21
456.39317349999999
  0
LINE
  8
_0-0_0
  6
CONTINUOUS
 62
    7
 10
201.36737049999999
 20
456.39317349999999
 11
201.46980250000001
 21
456.42176849999998
  0
LINE
  8
_0-0_0
  6
CONTINUOUS
 62
    7
 10
201.46980250000001
 20
456.42176849999998
 11
201.57762149999999
 21
456.44435150000004
  0
LINE
  8
_0-0_0
  6
CONTINUOUS
 62
    7
 10
201.57762149999999
 20
456.44435150000004
 11
201.6893005
 21
456.46076949999997
  0
LINE
  8
_0-0_0
  6
CONTINUOUS
 62
    7
 10
201.6893005
 20
456.46076949999997
 11
201.80346650000001
 21
456.47087150000004
  0
LINE
  8
_0-0_0
  6
CONTINUOUS
 62
    7
 10
201.80346650000001
 20
456.47087150000004
 11
201.92892449999999
 21
456.47465550000004
  0
LINE
  8
_0-0_0
  6
CONTINUOUS
 62
    7
 10
200.92892449999999
 20
455.06044050000003
 11
200.92892449999999
 21
456.03010549999999
  0
ARC
  8
_0-0_0
  6
CONTINUOUS
 62
    7
 10
201.92892449999999
 20
428.67463650000002
 40
1
 50
180.00000900000003
 51
269.99999700000001
  0
LINE
  8
_0-0_0
  6
CONTINUOUS
 62
    7
 10
200.92892449999999
 20
428.67463650000002
 11
200.92892449999999
 21
455.06044050000003
  0
LINE
  8
_0-0_0
  6
CONTINUOUS
 62
    7
 10
808.92892449999999
 20
456.06050149999999
 11
808.92892449999999
 21
457.67463650000002
  0
ARC
  8
_0-0_0
  6
CONTINUOUS
 62
    7
 10
807.92892449999999
 20
457.67463650000002
 40
1
 50
0
 51
90.000003000000007
  0
ARC
  8
_0-0_0
  6
CONTINUOUS
 62
    7
 10
201.92892449999999
 20
457.67463650000002
 40
1
 50
90.000003000000007
 51
180.00000900000001
  0
LINE
  8
_0-0_0
  6
CONTINUOUS
 62
    7
 10
200.92892449999999
 20
456.03010549999999
 11
200.92892449999999
 21
457.67463650000002
  0
LINE
  8
_0-0_0
  6
CONTINUOUS
 62
    7
 10
113.11325850000003
 20
425.57456950000005
 11
113.11325850000003
 21
425.54957550000006
  0
LINE
  8
_0-0_0
  6
CONTINUOUS
 62
    7
 10
113.11325850000003
 20
422.49745150000001
 11
113.11325850000003
 21
422.59956350000004
  0
LINE
  8
_0-0_0
  6
CONTINUOUS
 62
    7
 10
113.11325850000003
 20
401.47456350000004
 11
113.11325850000003
 21
402.25169349999999
  0
LINE
  8
_0-0_0
  6
CONTINUOUS
 62
    7
 10
96.313263500000005
 20
401.47456350000004
 11
113.11325850000003
 21
401.47456350000004
  0
LINE
  8
_0-0_0
  6
CONTINUOUS
 62
    7
 10
96.313263500000005
 20
409.37455750000004
 11
96.313263500000005
 21
401.47456350000004
  0
LINE
  8
_0-0_0
  6
CONTINUOUS
 62
    7
 10
96.313263500000005
 20
421.82987950000006
 11
96.313263500000005
 21
415.37455750000004
  0
LINE
  8
_0-0_0
  6
CONTINUOUS
 62
    7
 10
113.61324350000001
 20
404.97456350000004
 11
113.81326350000001
 21
404.97456350000004
  0
LINE
  8
_0-0_0
  6
CONTINUOUS
 62
    7
 10
113.81326350000001
 20
404.97456350000004
 11
113.81326350000001
 21
407.97456350000004
  0
LINE
  8
_0-0_0
  6
CONTINUOUS
 62
    7
 10
113.81326350000001
 20
421.57456950000005
 11
113.81326350000001
 21
407.97456350000004
  0
LINE
  8
_0-0_0
  6
CONTINUOUS
 62
    7
 10
113.61325850000003
 20
424.57456950000005
 11
113.81326350000001
 21
424.57456950000005
  0
LINE
  8
_0-0_0
  6
CONTINUOUS
 62
    7
 10
113.81326350000001
 20
421.57456950000005
 11
113.81326350000001
 21
424.57456950000005
  0
LINE
  8
_0-0_0
  6
CONTINUOUS
 62
    7
 10
112.91326149999998
 20
423.87364249999996
 11
112.91326149999998
 21
422.69444250000004
  0
LINE
  8
_0-0_0
  6
CONTINUOUS
 62
    7
 10
112.91326149999998
 20
426.07456950000005
 11
112.91326149999998
 21
425.57456950000005
  0
LINE
  8
_0-0_0
  6
CONTINUOUS
 62
    7
 10
111.91326149999998
 20
423.15806550000002
 11
111.91326149999998
 21
423.87455750000004
  0
ARC
  8
_0-0_0
  6
CONTINUOUS
 62
    7
 10
111.61325850000003
 20
421.17457550000006
 40
2
 50
0
 51
90.000003000000007
  0
LINE
  8
_0-0_0
  6
CONTINUOUS
 62
    7
 10
113.61325850000003
 20
417.67457550000006
 11
113.61325850000003
 21
420.67457550000006
  0
LINE
  8
_0-0_0
  6
CONTINUOUS
 62
    7
 10
113.61325850000003
 20
420.67457550000006
 11
113.61325850000003
 21
421.17457550000006
  0
LINE
  8
_0-0_0
  6
CONTINUOUS
 62
    7
 10
113.61325850000003
 20
403.57456950000005
 11
113.61325850000003
 21
417.17457550000006
  0
LINE
  8
_0-0_0
  6
CONTINUOUS
 62
    7
 10
113.61325850000003
 20
417.67457550000006
 11
113.61325850000003
 21
417.17457550000006
  0
ARC
  8
_0-0_0
  6
CONTINUOUS
 62
    7
 10
111.61325850000003
 20
403.57456950000005
 40
2
 50
273.84026500000004
 51
0.000010000000014
  0
LINE
  8
_0-0_0
  6
CONTINUOUS
 62
    7
 10
98.313263500000005
 20
423.15806550000002
 11
98.313263500000005
 21
423.87455750000004
  0
LINE
  8
_0-0_0
  6
CONTINUOUS
 62
    7
 10
98.313263500000005
 20
423.15806550000002
 11
98.313263500000005
 21
423.15193150000005
  0
LINE
  8
_0-0_0
  6
CONTINUOUS
 62
    7
 10
96.313263500000005
 20
421.82987950000006
 11
96.313263500000005
 21
422.32987950000006
  0
LINE
  8
_0-0_0
  6
CONTINUOUS
 62
    7
 10
96.613258500000029
 20
421.17457550000006
 11
96.613258500000029
 21
407.57456950000005
  0
LINE
  8
_0-0_0
  6
CONTINUOUS
 62
    7
 10
96.613258500000029
 20
407.07456950000005
 11
96.613258500000029
 21
407.57456950000005
  0
LINE
  8
_0-0_0
  6
CONTINUOUS
 62
    7
 10
96.613258500000029
 20
404.07456950000005
 11
96.613258500000029
 21
407.07456950000005
  0
LINE
  8
_0-0_0
  6
CONTINUOUS
 62
    7
 10
96.613258500000029
 20
403.57456950000005
 11
96.613258500000029
 21
404.07456950000005
  0
ARC
  8
_0-0_0
  6
CONTINUOUS
 62
    7
 10
98.613258500000029
 20
421.17457550000006
 40
2
 50
93.840255999999997
 51
180.00000900000001
  0
LINE
  8
_0-0_0
  6
CONTINUOUS
 62
    7
 10
96.313263500000005
 20
409.37455750000004
 11
96.313263500000005
 21
415.37455750000004
  0
LINE
  8
_0-0_0
  6
CONTINUOUS
 62
    7
 10
96.313263500000005
 20
423.87455750000004
 11
96.313263500000005
 21
422.32987950000006
  0
LINE
  8
_0-0_0
  6
CONTINUOUS
 62
    7
 10
96.313263500000005
 20
415.37455750000004
 11
96.613250499999992
 21
415.37455750000004
  0
LINE
  8
_0-0_0
  6
CONTINUOUS
 62
    7
 10
96.313263500000005
 20
409.37455750000004
 11
96.613250499999992
 21
409.37455750000004
  0
LINE
  8
_0-0_0
  6
CONTINUOUS
 62
    7
 10
111.61325850000003
 20
401.57456950000005
 11
102.61325850000003
 21
401.57456950000005
  0
LINE
  8
_0-0_0
  6
CONTINUOUS
 62
    7
 10
99.113258500000029
 20
401.57456950000005
 11
98.613258500000029
 21
401.57456950000005
  0
LINE
  8
_0-0_0
  6
CONTINUOUS
 62
    7
 10
102.11325850000003
 20
401.57456950000005
 11
99.113258500000029
 21
401.57456950000005
  0
LINE
  8
_0-0_0
  6
CONTINUOUS
 62
    7
 10
102.61325850000003
 20
401.57456950000005
 11
102.11325850000003
 21
401.57456950000005
  0
ARC
  8
_0-0_0
  6
CONTINUOUS
 62
    7
 10
98.613258500000029
 20
403.57456950000005
 40
2
 50
180.00000900000003
 51
269.99999700000001
  0
ARC
  8
_0-0_0
  6
CONTINUOUS
 62
    7
 10
112.41326149999998
 20
426.07456950000005
 40
0.5
 50
0
 51
90.000003000000007
  0
LINE
  8
_0-0_0
  6
CONTINUOUS
 62
    7
 10
110.91326149999998
 20
426.57456950000005
 11
112.41326149999998
 21
426.57456950000005
  0
ARC
  8
_0-0_0
  6
CONTINUOUS
 62
    7
 10
110.91326149999998
 20
427.57456950000005
 40
1
 50
180.00000900000003
 51
269.99999700000001
  0
LINE
  8
_0-0_0
  6
CONTINUOUS
 62
    7
 10
109.91326149999998
 20
427.57456950000005
 11
109.91326149999998
 21
427.67466750000006
  0
LINE
  8
_0-0_0
  6
CONTINUOUS
 62
    7
 10
109.41326149999998
 20
426.57456950000005
 11
109.41326149999998
 21
427.67466750000006
  0
ARC
  8
_0-0_0
  6
CONTINUOUS
 62
    7
 10
110.41326149999998
 20
426.57456950000005
 40
1
 50
180.00000900000003
 51
269.99999700000001
  0
LINE
  8
_0-0_0
  6
CONTINUOUS
 62
    7
 10
110.41326149999998
 20
425.57456950000005
 11
110.2132565
 21
425.57456950000005
  0
ARC
  8
_0-0_0
  6
CONTINUOUS
 62
    7
 10
110.2132565
 20
426.57456950000005
 40
1
 50
180.00000900000003
 51
269.99999700000001
  0
ARC
  8
_0-0_0
  6
CONTINUOUS
 62
    7
 10
100.0132595
 20
426.57456950000005
 40
1
 50
269.99999700000001
 51
0
  0
LINE
  8
_0-0_0
  6
CONTINUOUS
 62
    7
 10
100.0132595
 20
425.57456950000005
 11
99.313263500000005
 21
425.57456950000005
  0
LINE
  8
_0-0_0
  6
CONTINUOUS
 62
    7
 10
113.11325850000003
 20
425.57456950000005
 11
112.91326149999998
 21
425.57456950000005
  0
LINE
  8
_0-0_0
  6
CONTINUOUS
 62
    7
 10
96.313263500000005
 20
423.87455750000004
 11
113.11325850000003
 21
423.87455750000004
  0
LINE
  8
_0-0_0
  6
CONTINUOUS
 62
    7
 10
113.11325850000003
 20
423.87455750000004
 11
113.11325850000003
 21
425.57456950000005
  0
LINE
  8
_0-0_0
  6
CONTINUOUS
 62
    7
 10
109.2132565
 20
427.67466750000006
 11
109.2132565
 21
426.57456950000005
  0
LINE
  8
_0-0_0
  6
CONTINUOUS
 62
    7
 10
101.0132595
 20
426.57456950000005
 11
101.0132595
 21
427.67466750000006
  0
LINE
  8
_0-0_0
  6
CONTINUOUS
 62
    7
 10
97.313263500000005
 20
425.57456950000005
 11
96.313263500000005
 21
425.57456950000005
  0
LINE
  8
_0-0_0
  6
CONTINUOUS
 62
    7
 10
96.313263500000005
 20
423.87455750000004
 11
96.313263500000005
 21
425.57456950000005
  0
LINE
  8
_0-0_0
  6
CONTINUOUS
 62
    7
 10
111.61325850000003
 20
423.17457550000006
 11
111.11325850000003
 21
423.17457550000006
  0
CIRCLE
  8
_0-0_0
  6
CONTINUOUS
 62
    7
 10
111.11325850000003
 20
420.67457550000006
 40
2.5
  0
LINE
  8
_0-0_0
  6
CONTINUOUS
 62
    7
 10
98.613258500000029
 20
423.17457550000006
 11
107.61325850000003
 21
423.17457550000006
  0
LINE
  8
_0-0_0
  6
CONTINUOUS
 62
    7
 10
111.11325850000003
 20
423.17457550000006
 11
108.11325850000003
 21
423.17457550000006
  0
LINE
  8
_0-0_0
  6
CONTINUOUS
 62
    7
 10
107.61325850000003
 20
423.17457550000006
 11
108.11325850000003
 21
423.17457550000006
  0
ARC
  8
_0-0_0
  6
CONTINUOUS
 62
    7
 10
113.11325850000003
 20
417.17457550000006
 40
0.5
 50
0
 51
90.000003000000007
  0
LINE
  8
_0-0_0
  6
CONTINUOUS
 62
    7
 10
111.61325850000003
 20
401.67720050000003
 11
111.6291425
 21
401.64994850000005
  0
LINE
  8
_0-0_0
  6
CONTINUOUS
 62
    7
 10
111.6291425
 20
401.64994850000005
 11
111.64498950000001
 21
401.62696849999998
  0
LINE
  8
_0-0_0
  6
CONTINUOUS
 62
    7
 10
111.64498950000001
 20
401.62696849999998
 11
111.65896650000002
 21
401.61021449999998
  0
LINE
  8
_0-0_0
  6
CONTINUOUS
 62
    7
 10
111.65896650000002
 20
401.61021449999998
 11
111.6728665
 21
401.5968785
  0
LINE
  8
_0-0_0
  6
CONTINUOUS
 62
    7
 10
111.6728665
 20
401.5968785
 11
111.68508150000002
 21
401.58796749999999
  0
LINE
  8
_0-0_0
  6
CONTINUOUS
 62
    7
 10
111.68508150000002
 20
401.58796749999999
 11
111.6972045
 21
401.58174150000002
  0
LINE
  8
_0-0_0
  6
CONTINUOUS
 62
    7
 10
111.6972045
 20
401.58174150000002
 11
111.70806850000002
 21
401.57847649999997
  0
LINE
  8
_0-0_0
  6
CONTINUOUS
 62
    7
 10
111.70806850000002
 20
401.57847649999997
 11
111.71882649999998
 21
401.57740750000005
  0
LINE
  8
_0-0_0
  6
CONTINUOUS
 62
    7
 10
111.71882649999998
 20
401.57740750000005
 11
111.72128350000003
 21
401.57749950000004
  0
LINE
  8
_0-0_0
  6
CONTINUOUS
 62
    7
 10
97.313263500000005
 20
422.69444250000004
 11
97.313263500000005
 21
423.87364249999996
  0
ARC
  8
_0-0_0
  6
CONTINUOUS
 62
    7
 10
97.113258500000029
 20
407.57456950000005
 40
0.5
 50
180.00000900000003
 51
269.99999700000001
  0
CIRCLE
  8
_0-0_0
  6
CONTINUOUS
 62
    7
 10
99.113258500000029
 20
404.07456950000005
 40
2.5
  0
LINE
  8
_0-0_0
  6
CONTINUOUS
 62
    7
 10
98.613258500000029
 20
423.07194549999997
 11
98.597381499999983
 21
423.09919750000006
  0
LINE
  8
_0-0_0
  6
CONTINUOUS
 62
    7
 10
98.597381499999983
 20
423.09919750000006
 11
98.581535499999973
 21
423.12217750000002
  0
LINE
  8
_0-0_0
  6
CONTINUOUS
 62
    7
 10
98.581535499999973
 20
423.12217750000002
 11
98.567558500000018
 21
423.13893150000001
  0
LINE
  8
_0-0_0
  6
CONTINUOUS
 62
    7
 10
98.567558500000018
 20
423.13893150000001
 11
98.553657499999986
 21
423.15226749999999
  0
LINE
  8
_0-0_0
  6
CONTINUOUS
 62
    7
 10
98.553657499999986
 20
423.15226749999999
 11
98.541442500000016
 21
423.16117850000001
  0
LINE
  8
_0-0_0
  6
CONTINUOUS
 62
    7
 10
98.541442500000016
 20
423.16117850000001
 11
98.529319499999986
 21
423.16740449999998
  0
LINE
  8
_0-0_0
  6
CONTINUOUS
 62
    7
 10
98.529319499999986
 20
423.16740449999998
 11
98.518455500000016
 21
423.17066950000003
  0
LINE
  8
_0-0_0
  6
CONTINUOUS
 62
    7
 10
98.518455500000016
 20
423.17066950000003
 11
98.507698500000004
 21
423.17173750000006
  0
LINE
  8
_0-0_0
  6
CONTINUOUS
 62
    7
 10
98.507698500000004
 20
423.17173750000006
 11
98.505233500000031
 21
423.17164650000007
  0
LINE
  8
_0-0_0
  6
CONTINUOUS
 62
    7
 10
96.313263500000005
 20
404.97456350000004
 11
96.213264500000037
 21
404.97456350000004
  0
LINE
  8
_0-0_0
  6
CONTINUOUS
 62
    7
 10
96.213264500000037
 20
404.97456350000004
 11
96.213264500000037
 21
407.97456350000004
  0
LINE
  8
_0-0_0
  6
CONTINUOUS
 62
    7
 10
96.213264500000037
 20
407.97456350000004
 11
96.213264500000037
 21
421.57456950000005
  0
LINE
  8
_0-0_0
  6
CONTINUOUS
 62
    7
 10
96.313263500000005
 20
424.57456950000005
 11
96.213264500000037
 21
424.57456950000005
  0
LINE
  8
_0-0_0
  6
CONTINUOUS
 62
    7
 10
96.213264500000037
 20
421.57456950000005
 11
96.213264500000037
 21
424.57456950000005
  0
ARC
  8
_0-0_0
  6
CONTINUOUS
 62
    7
 10
102.61325850000003
 20
402.07456950000005
 40
0.5
 50
180.00000900000003
 51
269.99999700000001
  0
ARC
  8
_0-0_0
  6
CONTINUOUS
 62
    7
 10
99.313263500000005
 20
427.07463050000001
 40
1.5
 50
269.99999700000001
 51
0
  0
ARC
  8
_0-0_0
  6
CONTINUOUS
 62
    7
 10
97.813263500000005
 20
426.07463050000001
 40
0.5
 50
90.000003000000007
 51
180.00000900000001
  0
LINE
  8
_0-0_0
  6
CONTINUOUS
 62
    7
 10
97.813263500000005
 20
426.57463050000001
 11
99.313263500000005
 21
426.57463050000001
  0
ARC
  8
_0-0_0
  6
CONTINUOUS
 62
    7
 10
99.313263500000005
 20
427.57463050000001
 40
1
 50
269.99999700000001
 51
0
  0
LINE
  8
_0-0_0
  6
CONTINUOUS
 62
    7
 10
100.31326350000001
 20
427.67466750000006
 11
100.31326350000001
 21
427.57463050000001
  0
LINE
  8
_0-0_0
  6
CONTINUOUS
 62
    7
 10
100.81326350000001
 20
427.67466750000006
 11
100.81326350000001
 21
427.07463050000001
  0
LINE
  8
_0-0_0
  6
CONTINUOUS
 62
    7
 10
97.313263500000005
 20
425.57463050000001
 11
97.313263500000005
 21
426.07463050000001
  0
ARC
  8
_0-0_0
  6
CONTINUOUS
 62
    7
 10
107.61325850000003
 20
422.67457550000006
 40
0.5
 50
0
 51
90.000003000000007
  0
LINE
  8
_0-0_0
  6
CONTINUOUS
 62
    7
 10
108.11325850000003
 20
422.59761049999997
 11
108.11325850000003
 21
422.67457550000006
  0
LINE
  8
_0-0_0
  6
CONTINUOUS
 62
    7
 10
108.11325850000003
 20
421.15608250000002
 11
108.11325850000003
 21
422.59761049999997
  0
LINE
  8
_0-0_0
  6
CONTINUOUS
 62
    7
 10
108.11325850000003
 20
420.67457550000006
 11
108.11325850000003
 21
421.15608250000002
  0
ARC
  8
_0-0_0
  6
CONTINUOUS
 62
    7
 10
111.11325850000003
 20
420.67457550000006
 40
3
 50
180.00000900000003
 51
269.99999700000001
  0
LINE
  8
_0-0_0
  6
CONTINUOUS
 62
    7
 10
111.5947645
 20
417.67457550000006
 11
111.11325850000003
 21
417.67457550000006
  0
LINE
  8
_0-0_0
  6
CONTINUOUS
 62
    7
 10
111.5947645
 20
417.67457550000006
 11
113.03628550000002
 21
417.67457550000006
  0
LINE
  8
_0-0_0
  6
CONTINUOUS
 62
    7
 10
113.11325850000003
 20
417.67457550000006
 11
113.03628550000002
 21
417.67457550000006
  0
LINE
  8
_0-0_0
  6
CONTINUOUS
 62
    7
 10
97.190239500000018
 20
407.07456950000005
 11
97.113258500000029
 21
407.07456950000005
  0
LINE
  8
_0-0_0
  6
CONTINUOUS
 62
    7
 10
99.113258500000029
 20
407.07456950000005
 11
98.631759499999987
 21
407.07456950000005
  0
LINE
  8
_0-0_0
  6
CONTINUOUS
 62
    7
 10
98.631759499999987
 20
407.07456950000005
 11
97.190239500000018
 21
407.07456950000005
  0
LINE
  8
_0-0_0
  6
CONTINUOUS
 62
    7
 10
102.11325850000003
 20
402.07456950000005
 11
102.11325850000003
 21
402.15153550000002
  0
LINE
  8
_0-0_0
  6
CONTINUOUS
 62
    7
 10
102.11325850000003
 20
403.59306349999997
 11
102.11325850000003
 21
402.15153550000002
  0
LINE
  8
_0-0_0
  6
CONTINUOUS
 62
    7
 10
102.11325850000003
 20
403.59306349999997
 11
102.11325850000003
 21
404.07456950000005
  0
ARC
  8
_0-0_0
  6
CONTINUOUS
 62
    7
 10
99.113258500000029
 20
404.07456950000005
 40
3
 50
0
 51
89.999995999999996
  0
LINE
  8
_0-0_0
  6
CONTINUOUS
 62
    7
 10
113.61325850000003
 20
424.68583650000005
 11
113.61325850000003
 21
422.79957550000006
  0
LINE
  8
_0-0_0
  6
CONTINUOUS
 62
    7
 10
113.61325850000003
 20
425.34956350000004
 11
113.61325850000003
 21
424.68583650000005
  0
ARC
  8
_0-0_0
  6
CONTINUOUS
 62
    7
 10
108.34337649999998
 20
413.54780549999998
 40
3.063396
 50
19.82113
 51
25.289563000000001
  0
ARC
  8
_0-0_0
  6
CONTINUOUS
 62
    7
 10
108.34369650000002
 20
411.20118750000006
 40
3.0630519999999999
 50
334.71006
 51
340.17869200000001
  0
ARC
  8
_0-0_0
  6
CONTINUOUS
 62
    7
 10
101.8831485
 20
411.20133950000002
 40
3.063399
 50
199.82113599999997
 51
205.28948099999999
  0
ARC
  8
_0-0_0
  6
CONTINUOUS
 62
    7
 10
101.88282750000002
 20
413.54795850000005
 40
3.0630549999999999
 50
154.710137
 51
160.17869999999999
  0
ARC
  8
_0-0_0
  6
CONTINUOUS
 62
    7
 10
105.11325850000003
 20
412.37455750000004
 40
6.5
 50
340.10416099999998
 51
19.895609999999952
  0
ARC
  8
_0-0_0
  6
CONTINUOUS
 62
    7
 10
105.11325850000003
 20
412.37455750000004
 40
6.5
 50
160.10415599999999
 51
199.895612
  0
LINE
  8
_0-0_0
  6
CONTINUOUS
 62
    7
 10
96.613258500000029
 20
423.46336350000001
 11
96.613258500000029
 21
423.87370350000003
  0
LINE
  8
_0-0_0
  6
CONTINUOUS
 62
    7
 10
96.613258500000029
 20
422.80448950000005
 11
96.613258500000029
 21
423.46336350000001
  0
LINE
  8
_0-0_0
  6
CONTINUOUS
 62
    7
 10
104.37158950000003
 20
418.87455750000004
 11
99.854934500000013
 21
416.2668615
  0
LINE
  8
_0-0_0
  6
CONTINUOUS
 62
    7
 10
105.85493450000001
 20
418.87455750000004
 11
104.37158950000003
 21
418.87455750000004
  0
LINE
  8
_0-0_0
  6
CONTINUOUS
 62
    7
 10
110.37158950000003
 20
416.2668615
 11
105.85493450000001
 21
418.87455750000004
  0
LINE
  8
_0-0_0
  6
CONTINUOUS
 62
    7
 10
111.11325850000003
 20
414.98225450000007
 11
111.11325850000003
 21
409.7668615
  0
LINE
  8
_0-0_0
  6
CONTINUOUS
 62
    7
 10
110.37158950000003
 20
416.2668615
 11
111.11325850000003
 21
414.98225450000007
  0
LINE
  8
_0-0_0
  6
CONTINUOUS
 62
    7
 10
105.85493450000001
 20
405.87455750000004
 11
110.37158950000003
 21
408.48225450000007
  0
LINE
  8
_0-0_0
  6
CONTINUOUS
 62
    7
 10
110.66571850000003
 20
408.99171450000006
 11
111.11325850000003
 21
409.7668615
  0
LINE
  8
_0-0_0
  6
CONTINUOUS
 62
    7
 10
110.66571850000003
 20
408.99171450000006
 11
110.37158950000003
 21
408.48225450000007
  0
LINE
  8
_0-0_0
  6
CONTINUOUS
 62
    7
 10
104.37158950000003
 20
405.87455750000004
 11
105.85493450000001
 21
405.87455750000004
  0
LINE
  8
_0-0_0
  6
CONTINUOUS
 62
    7
 10
99.854934500000013
 20
408.48225450000007
 11
104.37158950000003
 21
405.87455750000004
  0
LINE
  8
_0-0_0
  6
CONTINUOUS
 62
    7
 10
99.113258500000029
 20
414.98225450000007
 11
99.113258500000029
 21
409.7668615
  0
LINE
  8
_0-0_0
  6
CONTINUOUS
 62
    7
 10
99.854934500000013
 20
408.48225450000007
 11
99.113258500000029
 21
409.7668615
  0
LINE
  8
_0-0_0
  6
CONTINUOUS
 62
    7
 10
99.560806500000012
 20
415.75743150000005
 11
99.113258500000029
 21
414.98225450000007
  0
LINE
  8
_0-0_0
  6
CONTINUOUS
 62
    7
 10
99.560806500000012
 20
415.75743150000005
 11
99.854934500000013
 21
416.2668615
  0
LINE
  8
_0-0_0
  6
CONTINUOUS
 62
    7
 10
113.00026750000001
 20
421.90000950000001
 11
113.27832050000001
 21
421.92457550000006
  0
LINE
  8
_0-0_0
  6
CONTINUOUS
 62
    7
 10
113.11802650000004
 20
421.69606050000004
 11
113.27832050000001
 21
421.92457550000006
  0
LINE
  8
_0-0_0
  6
CONTINUOUS
 62
    7
 10
112.86183949999997
 20
422.0905305
 11
113.13580350000001
 21
422.14402749999999
  0
LINE
  8
_0-0_0
  6
CONTINUOUS
 62
    7
 10
113.00026750000001
 20
421.90000950000001
 11
113.13580350000001
 21
422.14402749999999
  0
LINE
  8
_0-0_0
  6
CONTINUOUS
 62
    7
 10
112.70425449999999
 20
422.26554850000002
 11
112.97112249999998
 21
422.34739650000006
  0
LINE
  8
_0-0_0
  6
CONTINUOUS
 62
    7
 10
112.86183949999997
 20
422.0905305
 11
112.97112249999998
 21
422.34739650000006
  0
LINE
  8
_0-0_0
  6
CONTINUOUS
 62
    7
 10
112.52923550000003
 20
422.42314150000004
 11
112.78608750000001
 21
422.53242550000004
  0
LINE
  8
_0-0_0
  6
CONTINUOUS
 62
    7
 10
112.70425449999999
 20
422.26554850000002
 11
112.78608750000001
 21
422.53242550000004
  0
LINE
  8
_0-0_0
  6
CONTINUOUS
 62
    7
 10
112.33869950000002
 20
422.56156950000002
 11
112.58272550000004
 21
422.69709750000004
  0
LINE
  8
_0-0_0
  6
CONTINUOUS
 62
    7
 10
112.52923550000003
 20
422.42314150000004
 11
112.58272550000004
 21
422.69709750000004
  0
LINE
  8
_0-0_0
  6
CONTINUOUS
 62
    7
 10
112.13473550000003
 20
422.67933649999998
 11
112.36325850000003
 21
422.83964549999996
  0
LINE
  8
_0-0_0
  6
CONTINUOUS
 62
    7
 10
112.33869950000002
 20
422.56156950000002
 11
112.36325850000003
 21
422.83964549999996
  0
LINE
  8
_0-0_0
  6
CONTINUOUS
 62
    7
 10
111.91958650000004
 20
422.77513150000004
 11
112.13010450000002
 21
422.95845050000003
  0
LINE
  8
_0-0_0
  6
CONTINUOUS
 62
    7
 10
112.13473550000003
 20
422.67933649999998
 11
112.13010450000002
 21
422.95845050000003
  0
LINE
  8
_0-0_0
  6
CONTINUOUS
 62
    7
 10
111.69560250000001
 20
422.8479155
 11
111.88580350000001
 21
423.05220050000003
  0
LINE
  8
_0-0_0
  6
CONTINUOUS
 62
    7
 10
111.91958650000004
 20
422.77513150000004
 11
111.88580350000001
 21
423.05220050000003
  0
LINE
  8
_0-0_0
  6
CONTINUOUS
 62
    7
 10
111.46524049999999
 20
422.89686549999999
 11
111.63304149999999
 21
423.11994949999996
  0
LINE
  8
_0-0_0
  6
CONTINUOUS
 62
    7
 10
111.69560250000001
 20
422.8479155
 11
111.63304149999999
 21
423.11994949999996
  0
LINE
  8
_0-0_0
  6
CONTINUOUS
 62
    7
 10
111.2310185
 20
422.9214935
 11
111.37458049999998
 21
423.16087349999998
  0
LINE
  8
_0-0_0
  6
CONTINUOUS
 62
    7
 10
111.46524049999999
 20
422.89686549999999
 11
111.37458049999998
 21
423.16087349999998
  0
LINE
  8
_0-0_0
  6
CONTINUOUS
 62
    7
 10
110.99550650000003
 20
422.9214935
 11
111.11325850000003
 21
423.17457550000006
  0
LINE
  8
_0-0_0
  6
CONTINUOUS
 62
    7
 10
111.2310185
 20
422.9214935
 11
111.11325850000003
 21
423.17457550000006
  0
LINE
  8
_0-0_0
  6
CONTINUOUS
 62
    7
 10
110.76128349999999
 20
422.89686549999999
 11
110.8519445
 21
423.16087349999998
  0
LINE
  8
_0-0_0
  6
CONTINUOUS
 62
    7
 10
110.99550650000003
 20
422.9214935
 11
110.8519445
 21
423.16087349999998
  0
LINE
  8
_0-0_0
  6
CONTINUOUS
 62
    7
 10
110.53091449999999
 20
422.8479155
 11
110.59348349999999
 21
423.11994949999996
  0
LINE
  8
_0-0_0
  6
CONTINUOUS
 62
    7
 10
110.76128349999999
 20
422.89686549999999
 11
110.59348349999999
 21
423.11994949999996
  0
LINE
  8
_0-0_0
  6
CONTINUOUS
 62
    7
 10
110.30693050000002
 20
422.77513150000004
 11
110.34072149999997
 21
423.05220050000003
  0
LINE
  8
_0-0_0
  6
CONTINUOUS
 62
    7
 10
110.53091449999999
 20
422.8479155
 11
110.34072149999997
 21
423.05220050000003
  0
LINE
  8
_0-0_0
  6
CONTINUOUS
 62
    7
 10
110.09178150000002
 20
422.67933649999998
 11
110.09642050000002
 21
422.95845050000003
  0
LINE
  8
_0-0_0
  6
CONTINUOUS
 62
    7
 10
110.30693050000002
 20
422.77513150000004
 11
110.09642050000002
 21
422.95845050000003
  0
LINE
  8
_0-0_0
  6
CONTINUOUS
 62
    7
 10
109.97224449999999
 20
422.76319850000004
 11
109.86325850000003
 21
422.83964549999996
  0
LINE
  8
_0-0_0
  6
CONTINUOUS
 62
    7
 10
110.09178150000002
 20
422.67933649999998
 11
109.97224449999999
 21
422.76319850000004
  0
LINE
  8
_0-0_0
  6
CONTINUOUS
 62
    7
 10
109.88782550000002
 20
422.56156950000002
 11
109.86325850000003
 21
422.83964549999996
  0
LINE
  8
_0-0_0
  6
CONTINUOUS
 62
    7
 10
109.69728850000001
 20
422.42314150000004
 11
109.6437985
 21
422.69709750000004
  0
LINE
  8
_0-0_0
  6
CONTINUOUS
 62
    7
 10
109.88782550000002
 20
422.56156950000002
 11
109.6437985
 21
422.69709750000004
  0
LINE
  8
_0-0_0
  6
CONTINUOUS
 62
    7
 10
109.52227049999999
 20
422.26554850000002
 11
109.44042949999999
 21
422.53242550000004
  0
LINE
  8
_0-0_0
  6
CONTINUOUS
 62
    7
 10
109.69728850000001
 20
422.42314150000004
 11
109.44042949999999
 21
422.53242550000004
  0
LINE
  8
_0-0_0
  6
CONTINUOUS
 62
    7
 10
109.36468550000001
 20
422.0905305
 11
109.2554015
 21
422.34739650000006
  0
LINE
  8
_0-0_0
  6
CONTINUOUS
 62
    7
 10
109.52227049999999
 20
422.26554850000002
 11
109.2554015
 21
422.34739650000006
  0
LINE
  8
_0-0_0
  6
CONTINUOUS
 62
    7
 10
109.22624949999999
 20
421.90000950000001
 11
109.09072149999997
 21
422.14402749999999
  0
LINE
  8
_0-0_0
  6
CONTINUOUS
 62
    7
 10
109.36468550000001
 20
422.0905305
 11
109.09072149999997
 21
422.14402749999999
  0
LINE
  8
_0-0_0
  6
CONTINUOUS
 62
    7
 10
109.1084975
 20
421.69606050000004
 11
108.94819649999999
 21
421.92457550000006
  0
LINE
  8
_0-0_0
  6
CONTINUOUS
 62
    7
 10
109.22624949999999
 20
421.90000950000001
 11
108.94819649999999
 21
421.92457550000006
  0
LINE
  8
_0-0_0
  6
CONTINUOUS
 62
    7
 10
109.01270349999999
 20
421.48091150000005
 11
108.82939950000002
 21
421.69142150000005
  0
LINE
  8
_0-0_0
  6
CONTINUOUS
 62
    7
 10
109.1084975
 20
421.69606050000004
 11
108.82939950000002
 21
421.69142150000005
  0
LINE
  8
_0-0_0
  6
CONTINUOUS
 62
    7
 10
108.93992650000001
 20
421.2569125
 11
108.73561849999999
 21
421.44709750000004
  0
LINE
  8
_0-0_0
  6
CONTINUOUS
 62
    7
 10
109.01270349999999
 20
421.48091150000005
 11
108.73561849999999
 21
421.44709750000004
  0
LINE
  8
_0-0_0
  6
CONTINUOUS
 62
    7
 10
108.89096050000001
 20
421.02653550000002
 11
108.66789249999999
 21
421.19435150000004
  0
LINE
  8
_0-0_0
  6
CONTINUOUS
 62
    7
 10
108.93992650000001
 20
421.2569125
 11
108.66789249999999
 21
421.19435150000004
  0
LINE
  8
_0-0_0
  6
CONTINUOUS
 62
    7
 10
108.89096050000001
 20
421.02653550000002
 11
108.62695350000001
 21
420.93589750000001
  0
LINE
  8
_0-0_0
  6
CONTINUOUS
 62
    7
 10
108.86634850000002
 20
420.79231249999998
 11
108.62695350000001
 21
420.93589750000001
  0
LINE
  8
_0-0_0
  6
CONTINUOUS
 62
    7
 10
108.86634850000002
 20
420.55680849999999
 11
108.61325850000003
 21
420.67457550000006
  0
LINE
  8
_0-0_0
  6
CONTINUOUS
 62
    7
 10
108.86634850000002
 20
420.79231249999998
 11
108.61325850000003
 21
420.67457550000006
  0
LINE
  8
_0-0_0
  6
CONTINUOUS
 62
    7
 10
108.89096050000001
 20
420.32258650000006
 11
108.62695350000001
 21
420.4132535
  0
LINE
  8
_0-0_0
  6
CONTINUOUS
 62
    7
 10
108.86634850000002
 20
420.55680849999999
 11
108.62695350000001
 21
420.4132535
  0
LINE
  8
_0-0_0
  6
CONTINUOUS
 62
    7
 10
108.93992650000001
 20
420.09223950000001
 11
108.66789249999999
 21
420.15480049999996
  0
LINE
  8
_0-0_0
  6
CONTINUOUS
 62
    7
 10
108.89096050000001
 20
420.32258650000006
 11
108.66789249999999
 21
420.15480049999996
  0
LINE
  8
_0-0_0
  6
CONTINUOUS
 62
    7
 10
109.01270349999999
 20
419.86824049999996
 11
108.73561849999999
 21
419.90202350000004
  0
LINE
  8
_0-0_0
  6
CONTINUOUS
 62
    7
 10
108.93992650000001
 20
420.09223950000001
 11
108.73561849999999
 21
419.90202350000004
  0
LINE
  8
_0-0_0
  6
CONTINUOUS
 62
    7
 10
109.1084975
 20
419.65309149999996
 11
108.82939950000002
 21
419.65773049999996
  0
LINE
  8
_0-0_0
  6
CONTINUOUS
 62
    7
 10
109.01270349999999
 20
419.86824049999996
 11
108.82939950000002
 21
419.65773049999996
  0
LINE
  8
_0-0_0
  6
CONTINUOUS
 62
    7
 10
109.22624949999999
 20
419.44914249999999
 11
108.94819649999999
 21
419.42457550000006
  0
LINE
  8
_0-0_0
  6
CONTINUOUS
 62
    7
 10
109.1084975
 20
419.65309149999996
 11
108.94819649999999
 21
419.42457550000006
  0
LINE
  8
_0-0_0
  6
CONTINUOUS
 62
    7
 10
109.36468550000001
 20
419.25859049999997
 11
109.09072149999997
 21
419.20509349999998
  0
LINE
  8
_0-0_0
  6
CONTINUOUS
 62
    7
 10
109.22624949999999
 20
419.44914249999999
 11
109.09072149999997
 21
419.20509349999998
  0
LINE
  8
_0-0_0
  6
CONTINUOUS
 62
    7
 10
109.52227049999999
 20
419.08357250000006
 11
109.2554015
 21
419.00175450000006
  0
LINE
  8
_0-0_0
  6
CONTINUOUS
 62
    7
 10
109.36468550000001
 20
419.25859049999997
 11
109.2554015
 21
419.00175450000006
  0
LINE
  8
_0-0_0
  6
CONTINUOUS
 62
    7
 10
109.69728850000001
 20
418.92597950000004
 11
109.44042949999999
 21
418.81669650000003
  0
LINE
  8
_0-0_0
  6
CONTINUOUS
 62
    7
 10
109.52227049999999
 20
419.08357250000006
 11
109.44042949999999
 21
418.81669650000003
  0
LINE
  8
_0-0_0
  6
CONTINUOUS
 62
    7
 10
109.88782550000002
 20
418.78755250000006
 11
109.6437985
 21
418.65202350000004
  0
LINE
  8
_0-0_0
  6
CONTINUOUS
 62
    7
 10
109.69728850000001
 20
418.92597950000004
 11
109.6437985
 21
418.65202350000004
  0
LINE
  8
_0-0_0
  6
CONTINUOUS
 62
    7
 10
110.09178150000002
 20
418.66981550000003
 11
109.86325850000003
 21
418.50950650000004
  0
LINE
  8
_0-0_0
  6
CONTINUOUS
 62
    7
 10
109.88782550000002
 20
418.78755250000006
 11
109.86325850000003
 21
418.50950650000004
  0
LINE
  8
_0-0_0
  6
CONTINUOUS
 62
    7
 10
110.30693050000002
 20
418.57402049999996
 11
110.09642050000002
 21
418.39070149999998
  0
LINE
  8
_0-0_0
  6
CONTINUOUS
 62
    7
 10
110.09178150000002
 20
418.66981550000003
 11
110.09642050000002
 21
418.39070149999998
  0
LINE
  8
_0-0_0
  6
CONTINUOUS
 62
    7
 10
110.53091449999999
 20
418.5012365
 11
110.34072149999997
 21
418.29692050000006
  0
LINE
  8
_0-0_0
  6
CONTINUOUS
 62
    7
 10
110.30693050000002
 20
418.57402049999996
 11
110.34072149999997
 21
418.29692050000006
  0
LINE
  8
_0-0_0
  6
CONTINUOUS
 62
    7
 10
110.76128349999999
 20
418.45228550000002
 11
110.59348349999999
 21
418.22920250000004
  0
LINE
  8
_0-0_0
  6
CONTINUOUS
 62
    7
 10
110.53091449999999
 20
418.5012365
 11
110.59348349999999
 21
418.22920250000004
  0
LINE
  8
_0-0_0
  6
CONTINUOUS
 62
    7
 10
110.99550650000003
 20
418.42765850000001
 11
110.8519445
 21
418.18827850000002
  0
LINE
  8
_0-0_0
  6
CONTINUOUS
 62
    7
 10
110.76128349999999
 20
418.45228550000002
 11
110.8519445
 21
418.18827850000002
  0
LINE
  8
_0-0_0
  6
CONTINUOUS
 62
    7
 10
111.2310185
 20
418.42765850000001
 11
111.11325850000003
 21
418.17457550000006
  0
LINE
  8
_0-0_0
  6
CONTINUOUS
 62
    7
 10
110.99550650000003
 20
418.42765850000001
 11
111.11325850000003
 21
418.17457550000006
  0
LINE
  8
_0-0_0
  6
CONTINUOUS
 62
    7
 10
111.46524049999999
 20
418.45228550000002
 11
111.37458049999998
 21
418.18827850000002
  0
LINE
  8
_0-0_0
  6
CONTINUOUS
 62
    7
 10
111.2310185
 20
418.42765850000001
 11
111.37458049999998
 21
418.18827850000002
  0
LINE
  8
_0-0_0
  6
CONTINUOUS
 62
    7
 10
111.69560250000001
 20
418.5012365
 11
111.63304149999999
 21
418.22920250000004
  0
LINE
  8
_0-0_0
  6
CONTINUOUS
 62
    7
 10
111.46524049999999
 20
418.45228550000002
 11
111.63304149999999
 21
418.22920250000004
  0
LINE
  8
_0-0_0
  6
CONTINUOUS
 62
    7
 10
111.91958650000004
 20
418.57402049999996
 11
111.88580350000001
 21
418.29692050000006
  0
LINE
  8
_0-0_0
  6
CONTINUOUS
 62
    7
 10
111.69560250000001
 20
418.5012365
 11
111.88580350000001
 21
418.29692050000006
  0
LINE
  8
_0-0_0
  6
CONTINUOUS
 62
    7
 10
112.13473550000003
 20
418.66981550000003
 11
112.13010450000002
 21
418.39070149999998
  0
LINE
  8
_0-0_0
  6
CONTINUOUS
 62
    7
 10
111.91958650000004
 20
418.57402049999996
 11
112.13010450000002
 21
418.39070149999998
  0
LINE
  8
_0-0_0
  6
CONTINUOUS
 62
    7
 10
112.25427250000001
 20
418.58595249999996
 11
112.36325850000003
 21
418.50950650000004
  0
LINE
  8
_0-0_0
  6
CONTINUOUS
 62
    7
 10
112.13473550000003
 20
418.66981550000003
 11
112.25427250000001
 21
418.58595249999996
  0
LINE
  8
_0-0_0
  6
CONTINUOUS
 62
    7
 10
112.33869950000002
 20
418.78755250000006
 11
112.36325850000003
 21
418.50950650000004
  0
LINE
  8
_0-0_0
  6
CONTINUOUS
 62
    7
 10
112.52923550000003
 20
418.92597950000004
 11
112.58272550000004
 21
418.65202350000004
  0
LINE
  8
_0-0_0
  6
CONTINUOUS
 62
    7
 10
112.33869950000002
 20
418.78755250000006
 11
112.58272550000004
 21
418.65202350000004
  0
LINE
  8
_0-0_0
  6
CONTINUOUS
 62
    7
 10
112.70425449999999
 20
419.08357250000006
 11
112.78608750000001
 21
418.81669650000003
  0
LINE
  8
_0-0_0
  6
CONTINUOUS
 62
    7
 10
112.52923550000003
 20
418.92597950000004
 11
112.78608750000001
 21
418.81669650000003
  0
LINE
  8
_0-0_0
  6
CONTINUOUS
 62
    7
 10
112.86183949999997
 20
419.25859049999997
 11
112.97112249999998
 21
419.00175450000006
  0
LINE
  8
_0-0_0
  6
CONTINUOUS
 62
    7
 10
112.70425449999999
 20
419.08357250000006
 11
112.97112249999998
 21
419.00175450000006
  0
LINE
  8
_0-0_0
  6
CONTINUOUS
 62
    7
 10
113.00026750000001
 20
419.44914249999999
 11
113.13580350000001
 21
419.20509349999998
  0
LINE
  8
_0-0_0
  6
CONTINUOUS
 62
    7
 10
112.86183949999997
 20
419.25859049999997
 11
113.13580350000001
 21
419.20509349999998
  0
LINE
  8
_0-0_0
  6
CONTINUOUS
 62
    7
 10
113.11802650000004
 20
419.65309149999996
 11
113.27832050000001
 21
419.42457550000006
  0
LINE
  8
_0-0_0
  6
CONTINUOUS
 62
    7
 10
113.00026750000001
 20
419.44914249999999
 11
113.27832050000001
 21
419.42457550000006
  0
LINE
  8
_0-0_0
  6
CONTINUOUS
 62
    7
 10
113.21382149999999
 20
419.86824049999996
 11
113.39712550000002
 21
419.65773049999996
  0
LINE
  8
_0-0_0
  6
CONTINUOUS
 62
    7
 10
113.11802650000004
 20
419.65309149999996
 11
113.39712550000002
 21
419.65773049999996
  0
LINE
  8
_0-0_0
  6
CONTINUOUS
 62
    7
 10
113.28659049999999
 20
420.09223950000001
 11
113.4909055
 21
419.90202350000004
  0
LINE
  8
_0-0_0
  6
CONTINUOUS
 62
    7
 10
113.21382149999999
 20
419.86824049999996
 11
113.4909055
 21
419.90202350000004
  0
LINE
  8
_0-0_0
  6
CONTINUOUS
 62
    7
 10
113.3355565
 20
420.32258650000006
 11
113.55863149999999
 21
420.15480049999996
  0
LINE
  8
_0-0_0
  6
CONTINUOUS
 62
    7
 10
113.28659049999999
 20
420.09223950000001
 11
113.55863149999999
 21
420.15480049999996
  0
LINE
  8
_0-0_0
  6
CONTINUOUS
 62
    7
 10
113.36017650000002
 20
420.55680849999999
 11
113.59956349999999
 21
420.4132535
  0
LINE
  8
_0-0_0
  6
CONTINUOUS
 62
    7
 10
113.3355565
 20
420.32258650000006
 11
113.59956349999999
 21
420.4132535
  0
LINE
  8
_0-0_0
  6
CONTINUOUS
 62
    7
 10
113.36017650000002
 20
420.79231249999998
 11
113.61325850000003
 21
420.67457550000006
  0
LINE
  8
_0-0_0
  6
CONTINUOUS
 62
    7
 10
113.36017650000002
 20
420.55680849999999
 11
113.61325850000003
 21
420.67457550000006
  0
LINE
  8
_0-0_0
  6
CONTINUOUS
 62
    7
 10
113.3355565
 20
421.02653550000002
 11
113.59956349999999
 21
420.93589750000001
  0
LINE
  8
_0-0_0
  6
CONTINUOUS
 62
    7
 10
113.36017650000002
 20
420.79231249999998
 11
113.59956349999999
 21
420.93589750000001
  0
LINE
  8
_0-0_0
  6
CONTINUOUS
 62
    7
 10
113.28659049999999
 20
421.2569125
 11
113.55863149999999
 21
421.19435150000004
  0
LINE
  8
_0-0_0
  6
CONTINUOUS
 62
    7
 10
113.3355565
 20
421.02653550000002
 11
113.55863149999999
 21
421.19435150000004
  0
LINE
  8
_0-0_0
  6
CONTINUOUS
 62
    7
 10
113.21382149999999
 20
421.48091150000005
 11
113.4909055
 21
421.44709750000004
  0
LINE
  8
_0-0_0
  6
CONTINUOUS
 62
    7
 10
113.28659049999999
 20
421.2569125
 11
113.4909055
 21
421.44709750000004
  0
LINE
  8
_0-0_0
  6
CONTINUOUS
 62
    7
 10
113.11802650000004
 20
421.69606050000004
 11
113.39712550000002
 21
421.69142150000005
  0
LINE
  8
_0-0_0
  6
CONTINUOUS
 62
    7
 10
113.21382149999999
 20
421.48091150000005
 11
113.39712550000002
 21
421.69142150000005
  0
CIRCLE
  8
_0-0_0
  6
CONTINUOUS
 62
    7
 10
105.11325850000003
 20
412.37455750000004
 40
5.25
  0
LINE
  8
_0-0_0
  6
CONTINUOUS
 62
    7
 10
101.00026750000001
 20
405.3000035
 11
101.27832050000001
 21
405.32456950000005
  0
LINE
  8
_0-0_0
  6
CONTINUOUS
 62
    7
 10
101.11802650000004
 20
405.09605450000004
 11
101.27832050000001
 21
405.32456950000005
  0
LINE
  8
_0-0_0
  6
CONTINUOUS
 62
    7
 10
100.86183949999997
 20
405.49055450000003
 11
101.13580350000001
 21
405.54402149999999
  0
LINE
  8
_0-0_0
  6
CONTINUOUS
 62
    7
 10
101.00026750000001
 20
405.3000035
 11
101.13580350000001
 21
405.54402149999999
  0
LINE
  8
_0-0_0
  6
CONTINUOUS
 62
    7
 10
100.70425449999999
 20
405.66557350000005
 11
100.97112249999998
 21
405.74739050000005
  0
LINE
  8
_0-0_0
  6
CONTINUOUS
 62
    7
 10
100.86183949999997
 20
405.49055450000003
 11
100.97112249999998
 21
405.74739050000005
  0
LINE
  8
_0-0_0
  6
CONTINUOUS
 62
    7
 10
100.52923550000003
 20
405.82313550000003
 11
100.78608750000001
 21
405.93241850000004
  0
LINE
  8
_0-0_0
  6
CONTINUOUS
 62
    7
 10
100.70425449999999
 20
405.66557350000005
 11
100.78608750000001
 21
405.93241850000004
  0
LINE
  8
_0-0_0
  6
CONTINUOUS
 62
    7
 10
100.33869950000002
 20
405.96159350000005
 11
100.58272550000004
 21
406.09712249999995
  0
LINE
  8
_0-0_0
  6
CONTINUOUS
 62
    7
 10
100.52923550000003
 20
405.82313550000003
 11
100.58272550000004
 21
406.09712249999995
  0
LINE
  8
_0-0_0
  6
CONTINUOUS
 62
    7
 10
100.13474250000002
 20
406.07933049999997
 11
100.36325850000003
 21
406.23963950000007
  0
LINE
  8
_0-0_0
  6
CONTINUOUS
 62
    7
 10
100.33869950000002
 20
405.96159350000005
 11
100.36325850000003
 21
406.23963950000007
  0
LINE
  8
_0-0_0
  6
CONTINUOUS
 62
    7
 10
99.919586500000037
 20
406.17512550000004
 11
100.13010450000002
 21
406.35844450000002
  0
LINE
  8
_0-0_0
  6
CONTINUOUS
 62
    7
 10
100.13474250000002
 20
406.07933049999997
 11
100.13010450000002
 21
406.35844450000002
  0
LINE
  8
_0-0_0
  6
CONTINUOUS
 62
    7
 10
99.695602500000007
 20
406.24790949999999
 11
99.885803500000009
 21
406.45222450000006
  0
LINE
  8
_0-0_0
  6
CONTINUOUS
 62
    7
 10
99.919586500000037
 20
406.17512550000004
 11
99.885803500000009
 21
406.45222450000006
  0
LINE
  8
_0-0_0
  6
CONTINUOUS
 62
    7
 10
99.465240499999993
 20
406.29685949999998
 11
99.63304149999999
 21
406.51994350000007
  0
LINE
  8
_0-0_0
  6
CONTINUOUS
 62
    7
 10
99.695602500000007
 20
406.24790949999999
 11
99.63304149999999
 21
406.51994350000007
  0
LINE
  8
_0-0_0
  6
CONTINUOUS
 62
    7
 10
99.231018500000005
 20
406.32148749999999
 11
99.374580499999979
 21
406.56086749999997
  0
LINE
  8
_0-0_0
  6
CONTINUOUS
 62
    7
 10
99.465240499999993
 20
406.29685949999998
 11
99.374580499999979
 21
406.56086749999997
  0
LINE
  8
_0-0_0
  6
CONTINUOUS
 62
    7
 10
98.995506500000033
 20
406.32148749999999
 11
99.113258500000029
 21
406.57456950000005
  0
LINE
  8
_0-0_0
  6
CONTINUOUS
 62
    7
 10
99.231018500000005
 20
406.32148749999999
 11
99.113258500000029
 21
406.57456950000005
  0
LINE
  8
_0-0_0
  6
CONTINUOUS
 62
    7
 10
98.76128349999999
 20
406.29685949999998
 11
98.851944500000002
 21
406.56086749999997
  0
LINE
  8
_0-0_0
  6
CONTINUOUS
 62
    7
 10
98.995506500000033
 20
406.32148749999999
 11
98.851944500000002
 21
406.56086749999997
  0
LINE
  8
_0-0_0
  6
CONTINUOUS
 62
    7
 10
98.530914499999994
 20
406.24790949999999
 11
98.593483499999991
 21
406.51994350000007
  0
LINE
  8
_0-0_0
  6
CONTINUOUS
 62
    7
 10
98.76128349999999
 20
406.29685949999998
 11
98.593483499999991
 21
406.51994350000007
  0
LINE
  8
_0-0_0
  6
CONTINUOUS
 62
    7
 10
98.306930500000021
 20
406.17512550000004
 11
98.340721499999972
 21
406.45222450000006
  0
LINE
  8
_0-0_0
  6
CONTINUOUS
 62
    7
 10
98.530914499999994
 20
406.24790949999999
 11
98.340721499999972
 21
406.45222450000006
  0
LINE
  8
_0-0_0
  6
CONTINUOUS
 62
    7
 10
98.091781500000025
 20
406.07933049999997
 11
98.096420500000022
 21
406.35844450000002
  0
LINE
  8
_0-0_0
  6
CONTINUOUS
 62
    7
 10
98.306930500000021
 20
406.17512550000004
 11
98.096420500000022
 21
406.35844450000002
  0
LINE
  8
_0-0_0
  6
CONTINUOUS
 62
    7
 10
97.972244499999988
 20
406.16319250000004
 11
97.863258500000029
 21
406.23963950000007
  0
LINE
  8
_0-0_0
  6
CONTINUOUS
 62
    7
 10
98.091781500000025
 20
406.07933049999997
 11
97.972244499999988
 21
406.16319250000004
  0
LINE
  8
_0-0_0
  6
CONTINUOUS
 62
    7
 10
97.887825500000019
 20
405.96159350000005
 11
97.863258500000029
 21
406.23963950000007
  0
LINE
  8
_0-0_0
  6
CONTINUOUS
 62
    7
 10
97.697288500000013
 20
405.82313550000003
 11
97.643798500000003
 21
406.09712249999995
  0
LINE
  8
_0-0_0
  6
CONTINUOUS
 62
    7
 10
97.887825500000019
 20
405.96159350000005
 11
97.643798500000003
 21
406.09712249999995
  0
LINE
  8
_0-0_0
  6
CONTINUOUS
 62
    7
 10
97.522270499999991
 20
405.66557350000005
 11
97.44043750000003
 21
405.93241850000004
  0
LINE
  8
_0-0_0
  6
CONTINUOUS
 62
    7
 10
97.697288500000013
 20
405.82313550000003
 11
97.44043750000003
 21
405.93241850000004
  0
LINE
  8
_0-0_0
  6
CONTINUOUS
 62
    7
 10
97.364685500000007
 20
405.49055450000003
 11
97.255401500000005
 21
405.74739050000005
  0
LINE
  8
_0-0_0
  6
CONTINUOUS
 62
    7
 10
97.522270499999991
 20
405.66557350000005
 11
97.255401500000005
 21
405.74739050000005
  0
LINE
  8
_0-0_0
  6
CONTINUOUS
 62
    7
 10
97.226249499999994
 20
405.3000035
 11
97.090721499999972
 21
405.54402149999999
  0
LINE
  8
_0-0_0
  6
CONTINUOUS
 62
    7
 10
97.364685500000007
 20
405.49055450000003
 11
97.090721499999972
 21
405.54402149999999
  0
LINE
  8
_0-0_0
  6
CONTINUOUS
 62
    7
 10
97.108497499999999
 20
405.09605450000004
 11
96.948196499999995
 21
405.32456950000005
  0
LINE
  8
_0-0_0
  6
CONTINUOUS
 62
    7
 10
97.226249499999994
 20
405.3000035
 11
96.948196499999995
 21
405.32456950000005
  0
LINE
  8
_0-0_0
  6
CONTINUOUS
 62
    7
 10
97.012703499999986
 20
404.88090550000004
 11
96.829399500000022
 21
405.09141550000004
  0
LINE
  8
_0-0_0
  6
CONTINUOUS
 62
    7
 10
97.108497499999999
 20
405.09605450000004
 11
96.829399500000022
 21
405.09141550000004
  0
LINE
  8
_0-0_0
  6
CONTINUOUS
 62
    7
 10
96.939926500000013
 20
404.65690649999999
 11
96.735618499999987
 21
404.84712249999995
  0
LINE
  8
_0-0_0
  6
CONTINUOUS
 62
    7
 10
97.012703499999986
 20
404.88090550000004
 11
96.735618499999987
 21
404.84712249999995
  0
LINE
  8
_0-0_0
  6
CONTINUOUS
 62
    7
 10
96.890960500000006
 20
404.42655950000005
 11
96.667892499999994
 21
404.59434550000003
  0
LINE
  8
_0-0_0
  6
CONTINUOUS
 62
    7
 10
96.939926500000013
 20
404.65690649999999
 11
96.667892499999994
 21
404.59434550000003
  0
LINE
  8
_0-0_0
  6
CONTINUOUS
 62
    7
 10
96.890960500000006
 20
404.42655950000005
 11
96.626953500000013
 21
404.3358915
  0
LINE
  8
_0-0_0
  6
CONTINUOUS
 62
    7
 10
96.866340499999978
 20
404.19233750000001
 11
96.626953500000013
 21
404.3358915
  0
LINE
  8
_0-0_0
  6
CONTINUOUS
 62
    7
 10
96.866340499999978
 20
403.95680249999998
 11
96.613258500000029
 21
404.07456950000005
  0
LINE
  8
_0-0_0
  6
CONTINUOUS
 62
    7
 10
96.866340499999978
 20
404.19233750000001
 11
96.613258500000029
 21
404.07456950000005
  0
LINE
  8
_0-0_0
  6
CONTINUOUS
 62
    7
 10
96.890960500000006
 20
403.72258050000005
 11
96.626953500000013
 21
403.81324749999999
  0
LINE
  8
_0-0_0
  6
CONTINUOUS
 62
    7
 10
96.866340499999978
 20
403.95680249999998
 11
96.626953500000013
 21
403.81324749999999
  0
LINE
  8
_0-0_0
  6
CONTINUOUS
 62
    7
 10
96.939926500000013
 20
403.4922335
 11
96.667892499999994
 21
403.55479449999996
  0
LINE
  8
_0-0_0
  6
CONTINUOUS
 62
    7
 10
96.890960500000006
 20
403.72258050000005
 11
96.667892499999994
 21
403.55479449999996
  0
LINE
  8
_0-0_0
  6
CONTINUOUS
 62
    7
 10
97.012703499999986
 20
403.26823450000006
 11
96.735618499999987
 21
403.30201750000003
  0
LINE
  8
_0-0_0
  6
CONTINUOUS
 62
    7
 10
96.939926500000013
 20
403.4922335
 11
96.735618499999987
 21
403.30201750000003
  0
LINE
  8
_0-0_0
  6
CONTINUOUS
 62
    7
 10
97.108497499999999
 20
403.05308550000007
 11
96.829399500000022
 21
403.05772450000006
  0
LINE
  8
_0-0_0
  6
CONTINUOUS
 62
    7
 10
97.012703499999986
 20
403.26823450000006
 11
96.829399500000022
 21
403.05772450000006
  0
LINE
  8
_0-0_0
  6
CONTINUOUS
 62
    7
 10
97.226249499999994
 20
402.84913649999999
 11
96.948196499999995
 21
402.82456950000005
  0
LINE
  8
_0-0_0
  6
CONTINUOUS
 62
    7
 10
97.108497499999999
 20
403.05308550000007
 11
96.948196499999995
 21
402.82456950000005
  0
LINE
  8
_0-0_0
  6
CONTINUOUS
 62
    7
 10
97.364685500000007
 20
402.65858449999996
 11
97.090721499999972
 21
402.60511750000001
  0
LINE
  8
_0-0_0
  6
CONTINUOUS
 62
    7
 10
97.226249499999994
 20
402.84913649999999
 11
97.090721499999972
 21
402.60511750000001
  0
LINE
  8
_0-0_0
  6
CONTINUOUS
 62
    7
 10
97.522270499999991
 20
402.48359649999998
 11
97.255401500000005
 21
402.40174850000005
  0
LINE
  8
_0-0_0
  6
CONTINUOUS
 62
    7
 10
97.364685500000007
 20
402.65858449999996
 11
97.255401500000005
 21
402.40174850000005
  0
LINE
  8
_0-0_0
  6
CONTINUOUS
 62
    7
 10
97.697288500000013
 20
402.32600450000007
 11
97.44043750000003
 21
402.21672050000006
  0
LINE
  8
_0-0_0
  6
CONTINUOUS
 62
    7
 10
97.522270499999991
 20
402.48359649999998
 11
97.44043750000003
 21
402.21672050000006
  0
LINE
  8
_0-0_0
  6
CONTINUOUS
 62
    7
 10
97.887825500000019
 20
402.18754550000006
 11
97.643798500000003
 21
402.05201750000003
  0
LINE
  8
_0-0_0
  6
CONTINUOUS
 62
    7
 10
97.697288500000013
 20
402.32600450000007
 11
97.643798500000003
 21
402.05201750000003
  0
LINE
  8
_0-0_0
  6
CONTINUOUS
 62
    7
 10
98.091781500000025
 20
402.06980950000002
 11
97.863258500000029
 21
401.90950050000004
  0
LINE
  8
_0-0_0
  6
CONTINUOUS
 62
    7
 10
97.887825500000019
 20
402.18754550000006
 11
97.863258500000029
 21
401.90950050000004
  0
LINE
  8
_0-0_0
  6
CONTINUOUS
 62
    7
 10
98.306930500000021
 20
401.97401450000007
 11
98.096420500000022
 21
401.79069549999997
  0
LINE
  8
_0-0_0
  6
CONTINUOUS
 62
    7
 10
98.091781500000025
 20
402.06980950000002
 11
98.096420500000022
 21
401.79069549999997
  0
LINE
  8
_0-0_0
  6
CONTINUOUS
 62
    7
 10
98.530914499999994
 20
401.9012295
 11
98.340721499999972
 21
401.69691450000005
  0
LINE
  8
_0-0_0
  6
CONTINUOUS
 62
    7
 10
98.306930500000021
 20
401.97401450000007
 11
98.340721499999972
 21
401.69691450000005
  0
LINE
  8
_0-0_0
  6
CONTINUOUS
 62
    7
 10
98.76128349999999
 20
401.85227950000001
 11
98.593483499999991
 21
401.62919650000003
  0
LINE
  8
_0-0_0
  6
CONTINUOUS
 62
    7
 10
98.530914499999994
 20
401.9012295
 11
98.593483499999991
 21
401.62919650000003
  0
LINE
  8
_0-0_0
  6
CONTINUOUS
 62
    7
 10
98.995506500000033
 20
401.8276525
 11
98.851944500000002
 21
401.58827250000002
  0
LINE
  8
_0-0_0
  6
CONTINUOUS
 62
    7
 10
98.76128349999999
 20
401.85227950000001
 11
98.851944500000002
 21
401.58827250000002
  0
LINE
  8
_0-0_0
  6
CONTINUOUS
 62
    7
 10
99.231018500000005
 20
401.8276525
 11
99.113258500000029
 21
401.57456950000005
  0
LINE
  8
_0-0_0
  6
CONTINUOUS
 62
    7
 10
98.995506500000033
 20
401.8276525
 11
99.113258500000029
 21
401.57456950000005
  0
LINE
  8
_0-0_0
  6
CONTINUOUS
 62
    7
 10
99.465240499999993
 20
401.85227950000001
 11
99.374580499999979
 21
401.58827250000002
  0
LINE
  8
_0-0_0
  6
CONTINUOUS
 62
    7
 10
99.231018500000005
 20
401.8276525
 11
99.374580499999979
 21
401.58827250000002
  0
LINE
  8
_0-0_0
  6
CONTINUOUS
 62
    7
 10
99.695602500000007
 20
401.9012295
 11
99.63304149999999
 21
401.62919650000003
  0
LINE
  8
_0-0_0
  6
CONTINUOUS
 62
    7
 10
99.465240499999993
 20
401.85227950000001
 11
99.63304149999999
 21
401.62919650000003
  0
LINE
  8
_0-0_0
  6
CONTINUOUS
 62
    7
 10
99.919586500000037
 20
401.97401450000007
 11
99.885803500000009
 21
401.69691450000005
  0
LINE
  8
_0-0_0
  6
CONTINUOUS
 62
    7
 10
99.695602500000007
 20
401.9012295
 11
99.885803500000009
 21
401.69691450000005
  0
LINE
  8
_0-0_0
  6
CONTINUOUS
 62
    7
 10
100.13474250000002
 20
402.06980950000002
 11
100.13010450000002
 21
401.79069549999997
  0
LINE
  8
_0-0_0
  6
CONTINUOUS
 62
    7
 10
99.919586500000037
 20
401.97401450000007
 11
100.13010450000002
 21
401.79069549999997
  0
LINE
  8
_0-0_0
  6
CONTINUOUS
 62
    7
 10
100.25427250000001
 20
401.98594650000007
 11
100.36325850000003
 21
401.90950050000004
  0
LINE
  8
_0-0_0
  6
CONTINUOUS
 62
    7
 10
100.13474250000002
 20
402.06980950000002
 11
100.25427250000001
 21
401.98594650000007
  0
LINE
  8
_0-0_0
  6
CONTINUOUS
 62
    7
 10
100.33869950000002
 20
402.18754550000006
 11
100.36325850000003
 21
401.90950050000004
  0
LINE
  8
_0-0_0
  6
CONTINUOUS
 62
    7
 10
100.52923550000003
 20
402.32600450000007
 11
100.58272550000004
 21
402.05201750000003
  0
LINE
  8
_0-0_0
  6
CONTINUOUS
 62
    7
 10
100.33869950000002
 20
402.18754550000006
 11
100.58272550000004
 21
402.05201750000003
  0
LINE
  8
_0-0_0
  6
CONTINUOUS
 62
    7
 10
100.70425449999999
 20
402.48359649999998
 11
100.78608750000001
 21
402.21672050000006
  0
LINE
  8
_0-0_0
  6
CONTINUOUS
 62
    7
 10
100.52923550000003
 20
402.32600450000007
 11
100.78608750000001
 21
402.21672050000006
  0
LINE
  8
_0-0_0
  6
CONTINUOUS
 62
    7
 10
100.86183949999997
 20
402.65858449999996
 11
100.97112249999998
 21
402.40174850000005
  0
LINE
  8
_0-0_0
  6
CONTINUOUS
 62
    7
 10
100.70425449999999
 20
402.48359649999998
 11
100.97112249999998
 21
402.40174850000005
  0
LINE
  8
_0-0_0
  6
CONTINUOUS
 62
    7
 10
101.00026750000001
 20
402.84913649999999
 11
101.13580350000001
 21
402.60511750000001
  0
LINE
  8
_0-0_0
  6
CONTINUOUS
 62
    7
 10
100.86183949999997
 20
402.65858449999996
 11
101.13580350000001
 21
402.60511750000001
  0
LINE
  8
_0-0_0
  6
CONTINUOUS
 62
    7
 10
101.11802650000004
 20
403.05308550000007
 11
101.27832050000001
 21
402.82456950000005
  0
LINE
  8
_0-0_0
  6
CONTINUOUS
 62
    7
 10
101.00026750000001
 20
402.84913649999999
 11
101.27832050000001
 21
402.82456950000005
  0
LINE
  8
_0-0_0
  6
CONTINUOUS
 62
    7
 10
101.21382149999999
 20
403.26823450000006
 11
101.39712550000002
 21
403.05772450000006
  0
LINE
  8
_0-0_0
  6
CONTINUOUS
 62
    7
 10
101.11802650000004
 20
403.05308550000007
 11
101.39712550000002
 21
403.05772450000006
  0
LINE
  8
_0-0_0
  6
CONTINUOUS
 62
    7
 10
101.28659049999999
 20
403.4922335
 11
101.4909055
 21
403.30201750000003
  0
LINE
  8
_0-0_0
  6
CONTINUOUS
 62
    7
 10
101.21382149999999
 20
403.26823450000006
 11
101.4909055
 21
403.30201750000003
  0
LINE
  8
_0-0_0
  6
CONTINUOUS
 62
    7
 10
101.3355565
 20
403.72258050000005
 11
101.55863149999999
 21
403.55479449999996
  0
LINE
  8
_0-0_0
  6
CONTINUOUS
 62
    7
 10
101.28659049999999
 20
403.4922335
 11
101.55863149999999
 21
403.55479449999996
  0
LINE
  8
_0-0_0
  6
CONTINUOUS
 62
    7
 10
101.36017650000002
 20
403.95680249999998
 11
101.59956349999999
 21
403.81324749999999
  0
LINE
  8
_0-0_0
  6
CONTINUOUS
 62
    7
 10
101.3355565
 20
403.72258050000005
 11
101.59956349999999
 21
403.81324749999999
  0
LINE
  8
_0-0_0
  6
CONTINUOUS
 62
    7
 10
101.36017650000002
 20
404.19233750000001
 11
101.61325850000003
 21
404.07456950000005
  0
LINE
  8
_0-0_0
  6
CONTINUOUS
 62
    7
 10
101.36017650000002
 20
403.95680249999998
 11
101.61325850000003
 21
404.07456950000005
  0
LINE
  8
_0-0_0
  6
CONTINUOUS
 62
    7
 10
101.3355565
 20
404.42655950000005
 11
101.59956349999999
 21
404.3358915
  0
LINE
  8
_0-0_0
  6
CONTINUOUS
 62
    7
 10
101.36017650000002
 20
404.19233750000001
 11
101.59956349999999
 21
404.3358915
  0
LINE
  8
_0-0_0
  6
CONTINUOUS
 62
    7
 10
101.28659049999999
 20
404.65690649999999
 11
101.55863149999999
 21
404.59434550000003
  0
LINE
  8
_0-0_0
  6
CONTINUOUS
 62
    7
 10
101.3355565
 20
404.42655950000005
 11
101.55863149999999
 21
404.59434550000003
  0
LINE
  8
_0-0_0
  6
CONTINUOUS
 62
    7
 10
101.21382149999999
 20
404.88090550000004
 11
101.4909055
 21
404.84712249999995
  0
LINE
  8
_0-0_0
  6
CONTINUOUS
 62
    7
 10
101.28659049999999
 20
404.65690649999999
 11
101.4909055
 21
404.84712249999995
  0
LINE
  8
_0-0_0
  6
CONTINUOUS
 62
    7
 10
101.11802650000004
 20
405.09605450000004
 11
101.39712550000002
 21
405.09141550000004
  0
LINE
  8
_0-0_0
  6
CONTINUOUS
 62
    7
 10
101.21382149999999
 20
404.88090550000004
 11
101.39712550000002
 21
405.09141550000004
  0
CIRCLE
  8
_0-0_0
  6
CONTINUOUS
 62
    7
 10
111.11325850000003
 20
420.67457550000006
 40
2
  0
CIRCLE
  8
_0-0_0
  6
CONTINUOUS
 62
    7
 10
99.113258500000029
 20
404.07456950000005
 40
2
  0
LINE
  8
_0-0_0
  6
CONTINUOUS
 62
    7
 10
111.69537350000002
 20
419.67457550000006
 11
110.53115050000002
 21
419.67457550000006
  0
LINE
  8
_0-0_0
  6
CONTINUOUS
 62
    7
 10
110.53115050000002
 20
419.67457550000006
 11
109.9632565
 21
420.67457550000006
  0
LINE
  8
_0-0_0
  6
CONTINUOUS
 62
    7
 10
109.9632565
 20
420.67457550000006
 11
110.53115050000002
 21
421.67457550000006
  0
LINE
  8
_0-0_0
  6
CONTINUOUS
 62
    7
 10
110.53115050000002
 20
421.67457550000006
 11
111.69537350000002
 21
421.67457550000006
  0
LINE
  8
_0-0_0
  6
CONTINUOUS
 62
    7
 10
111.69537350000002
 20
421.67457550000006
 11
112.2632595
 21
420.67457550000006
  0
LINE
  8
_0-0_0
  6
CONTINUOUS
 62
    7
 10
112.2632595
 20
420.67457550000006
 11
111.69537350000002
 21
419.67457550000006
  0
CIRCLE
  8
_0-0_0
  6
CONTINUOUS
 62
    7
 10
105.11325850000003
 20
412.37455750000004
 40
5
  0
LINE
  8
_0-0_0
  6
CONTINUOUS
 62
    7
 10
99.695373500000017
 20
403.07456950000005
 11
98.531150500000024
 21
403.07456950000005
  0
LINE
  8
_0-0_0
  6
CONTINUOUS
 62
    7
 10
98.531150500000024
 20
403.07456950000005
 11
97.963264500000037
 21
404.07456950000005
  0
LINE
  8
_0-0_0
  6
CONTINUOUS
 62
    7
 10
97.963264500000037
 20
404.07456950000005
 11
98.531150500000024
 21
405.07456950000005
  0
LINE
  8
_0-0_0
  6
CONTINUOUS
 62
    7
 10
98.531150500000024
 20
405.07456950000005
 11
99.695373500000017
 21
405.07456950000005
  0
LINE
  8
_0-0_0
  6
CONTINUOUS
 62
    7
 10
99.695373500000017
 20
405.07456950000005
 11
100.2632595
 21
404.07456950000005
  0
LINE
  8
_0-0_0
  6
CONTINUOUS
 62
    7
 10
100.2632595
 20
404.07456950000005
 11
99.695373500000017
 21
403.07456950000005
  0
CIRCLE
  8
_0-0_0
  6
CONTINUOUS
 62
    7
 10
105.11325850000003
 20
412.37455750000004
 40
4.5381200000000002
  0
CIRCLE
  8
_0-0_0
  6
CONTINUOUS
 62
    7
 10
105.11325850000003
 20
412.37455750000004
 40
4
  0
LINE
  8
_0-0_0
  6
CONTINUOUS
 62
    7
 10
96.9806825
 20
422.32987950000006
 11
96.313263500000005
 21
422.32987950000006
  0
ARC
  8
_0-0_0
  6
CONTINUOUS
 62
    7
 10
113.11325850000003
 20
422.79957550000006
 40
0.2
 50
179.94055499999999
 51
269.99997000000002
  0
ARC
  8
_0-0_0
  6
CONTINUOUS
 62
    7
 10
111.61325850000003
 20
403.57456950000005
 40
2
 50
269.99999700000001
 51
273.84026499999999
  0
ARC
  8
_0-0_0
  6
CONTINUOUS
 62
    7
 10
98.613258500000029
 20
421.17457550000006
 40
2
 50
90.000003000000007
 51
93.840255999999997
  0
LINE
  8
_0-0_0
  6
CONTINUOUS
 62
    7
 10
113.41326149999998
 20
422.59956350000004
 11
113.11325850000003
 21
422.59956350000004
  0
LINE
  8
_0-0_0
  6
CONTINUOUS
 62
    7
 10
113.41326149999998
 20
425.54957550000006
 11
113.11325850000003
 21
425.54957550000006
  0
ARC
  8
_0-0_0
  6
CONTINUOUS
 62
    7
 10
97.113258500000029
 20
422.79963650000002
 40
0.2
 50
270.00002499999994
 51
0.0594439999999606
  0
ARC
  8
_0-0_0
  6
CONTINUOUS
 62
    7
 10
113.41322350000002
 20
422.79960649999998
 40
0.200055
 50
270.00964199999999
 51
1.3705509999999435
  0
ARC
  8
_0-0_0
  6
CONTINUOUS
 62
    7
 10
113.41326149999998
 20
425.34956350000004
 40
0.2
 50
359.91222800000003
 51
89.999948000000003
  0
LINE
  8
_0-0_0
  6
CONTINUOUS
 62
    7
 10
96.813263500000005
 20
422.59965550000004
 11
97.113258500000029
 21
422.59965550000004
  0
ARC
  8
_0-0_0
  6
CONTINUOUS
 62
    7
 10
96.813293499999986
 20
422.79969849999998
 40
0.200055
 50
178.629446
 51
269.99035300000003
  0
LINE
  8
_0-0_0
  6
CONTINUOUS
 62
    7
 10
113.81326350000001
 20
428.07463050000001
 11
113.81326350000001
 21
441.27464350000002
  0
ARC
  8
_0-0_0
  6
CONTINUOUS
 62
    7
 10
113.31326350000001
 20
428.07463050000001
 40
0.5
 50
269.99999700000001
 51
0
  0
ARC
  8
_0-0_0
  6
CONTINUOUS
 62
    7
 10
113.7546845
 20
441.47465550000004
 40
0.1
 50
135
 51
225
  0
LINE
  8
_0-0_0
  6
CONTINUOUS
 62
    7
 10
113.68397549999997
 20
441.40394649999996
 11
113.81326350000001
 21
441.27464350000002
  0
LINE
  8
_0-0_0
  6
CONTINUOUS
 62
    7
 10
113.31326350000001
 20
427.57463050000001
 11
111.41326149999998
 21
427.57463050000001
  0
ARC
  8
_0-0_0
  6
CONTINUOUS
 62
    7
 10
111.41326149999998
 20
428.07463050000001
 40
0.5
 50
233.12990600000001
 51
269.99999700000001
  0
ARC
  8
_0-0_0
  6
CONTINUOUS
 62
    7
 10
98.713264500000037
 20
428.07463050000001
 40
0.5
 50
269.99999700000001
 51
306.87009999999998
  0
LINE
  8
_0-0_0
  6
CONTINUOUS
 62
    7
 10
98.713264500000037
 20
427.57463050000001
 11
96.813263500000005
 21
427.57463050000001
  0
ARC
  8
_0-0_0
  6
CONTINUOUS
 62
    7
 10
96.813263500000005
 20
428.07463050000001
 40
0.5
 50
180.00000900000003
 51
269.99999700000001
  0
LINE
  8
_0-0_0
  6
CONTINUOUS
 62
    7
 10
96.313263500000005
 20
437.5096585
 11
96.313263500000005
 21
428.07463050000001
  0
LINE
  8
_0-0_0
  6
CONTINUOUS
 62
    7
 10
96.313263500000005
 20
437.5096585
 11
97.013259500000004
 21
437.5096585
  0
LINE
  8
_0-0_0
  6
CONTINUOUS
 62
    7
 10
113.0132595
 20
456.07463050000001
 11
113.2192915
 21
456.07463050000001
  0
LINE
  8
_0-0_0
  6
CONTINUOUS
 62
    7
 10
113.2192915
 20
456.07463050000001
 11
113.81326350000001
 21
455.48066749999998
  0
LINE
  8
_0-0_0
  6
CONTINUOUS
 62
    7
 10
113.81326350000001
 20
450.47465550000004
 11
113.81326350000001
 21
455.48066749999998
  0
LINE
  8
_0-0_0
  6
CONTINUOUS
 62
    7
 10
113.68397549999997
 20
450.34535249999999
 11
113.81326350000001
 21
450.47465550000004
  0
ARC
  8
_0-0_0
  6
CONTINUOUS
 62
    7
 10
113.7546845
 20
450.27464350000002
 40
0.1
 50
135
 51
225
  0
LINE
  8
_0-0_0
  6
CONTINUOUS
 62
    7
 10
113.68397549999997
 20
450.20393350000006
 11
113.81326350000001
 21
450.07463050000001
  0
LINE
  8
_0-0_0
  6
CONTINUOUS
 62
    7
 10
113.81326350000001
 20
449.37464950000003
 11
113.81326350000001
 21
450.07463050000001
  0
LINE
  8
_0-0_0
  6
CONTINUOUS
 62
    7
 10
113.68397549999997
 20
449.24534649999998
 11
113.81326350000001
 21
449.37464950000003
  0
ARC
  8
_0-0_0
  6
CONTINUOUS
 62
    7
 10
113.7546845
 20
449.17463650000002
 40
0.1
 50
135
 51
225
  0
LINE
  8
_0-0_0
  6
CONTINUOUS
 62
    7
 10
113.68397549999997
 20
449.10392750000005
 11
113.81326350000001
 21
448.97465550000004
  0
LINE
  8
_0-0_0
  6
CONTINUOUS
 62
    7
 10
113.81326350000001
 20
448.27464350000002
 11
113.81326350000001
 21
448.97465550000004
  0
LINE
  8
_0-0_0
  6
CONTINUOUS
 62
    7
 10
113.68397549999997
 20
448.14534049999997
 11
113.81326350000001
 21
448.27464350000002
  0
ARC
  8
_0-0_0
  6
CONTINUOUS
 62
    7
 10
113.7546845
 20
448.07463050000001
 40
0.1
 50
135
 51
225
  0
LINE
  8
_0-0_0
  6
CONTINUOUS
 62
    7
 10
113.68397549999997
 20
448.00392150000005
 11
113.81326350000001
 21
447.87464950000003
  0
LINE
  8
_0-0_0
  6
CONTINUOUS
 62
    7
 10
113.81326350000001
 20
447.17463650000002
 11
113.81326350000001
 21
447.87464950000003
  0
LINE
  8
_0-0_0
  6
CONTINUOUS
 62
    7
 10
113.68397549999997
 20
447.04536450000001
 11
113.81326350000001
 21
447.17463650000002
  0
ARC
  8
_0-0_0
  6
CONTINUOUS
 62
    7
 10
113.7546845
 20
446.97465550000004
 40
0.1
 50
135
 51
225
  0
LINE
  8
_0-0_0
  6
CONTINUOUS
 62
    7
 10
113.68397549999997
 20
446.90394649999996
 11
113.81326350000001
 21
446.77464350000002
  0
LINE
  8
_0-0_0
  6
CONTINUOUS
 62
    7
 10
113.81326350000001
 20
446.07463050000001
 11
113.81326350000001
 21
446.77464350000002
  0
LINE
  8
_0-0_0
  6
CONTINUOUS
 62
    7
 10
113.68397549999997
 20
445.9453585
 11
113.81326350000001
 21
446.07463050000001
  0
ARC
  8
_0-0_0
  6
CONTINUOUS
 62
    7
 10
113.7546845
 20
445.87464950000003
 40
0.1
 50
135
 51
225
  0
LINE
  8
_0-0_0
  6
CONTINUOUS
 62
    7
 10
113.68397549999997
 20
445.80393949999996
 11
113.81326350000001
 21
445.67463650000002
  0
LINE
  8
_0-0_0
  6
CONTINUOUS
 62
    7
 10
113.81326350000001
 20
444.97465550000004
 11
113.81326350000001
 21
445.67463650000002
  0
LINE
  8
_0-0_0
  6
CONTINUOUS
 62
    7
 10
113.68397549999997
 20
444.84535249999999
 11
113.81326350000001
 21
444.97465550000004
  0
ARC
  8
_0-0_0
  6
CONTINUOUS
 62
    7
 10
113.7546845
 20
444.77464350000002
 40
0.1
 50
135
 51
225
  0
LINE
  8
_0-0_0
  6
CONTINUOUS
 62
    7
 10
113.68397549999997
 20
444.70393350000006
 11
113.81326350000001
 21
444.57463050000001
  0
LINE
  8
_0-0_0
  6
CONTINUOUS
 62
    7
 10
113.81326350000001
 20
443.87464950000003
 11
113.81326350000001
 21
444.57463050000001
  0
LINE
  8
_0-0_0
  6
CONTINUOUS
 62
    7
 10
113.68397549999997
 20
443.74534649999998
 11
113.81326350000001
 21
443.87464950000003
  0
ARC
  8
_0-0_0
  6
CONTINUOUS
 62
    7
 10
113.7546845
 20
443.67463650000002
 40
0.1
 50
135
 51
225
  0
LINE
  8
_0-0_0
  6
CONTINUOUS
 62
    7
 10
113.68397549999997
 20
443.60392750000005
 11
113.81326350000001
 21
443.47465550000004
  0
LINE
  8
_0-0_0
  6
CONTINUOUS
 62
    7
 10
113.81326350000001
 20
442.77464350000002
 11
113.81326350000001
 21
443.47465550000004
  0
LINE
  8
_0-0_0
  6
CONTINUOUS
 62
    7
 10
113.68397549999997
 20
442.64534049999997
 11
113.81326350000001
 21
442.77464350000002
  0
ARC
  8
_0-0_0
  6
CONTINUOUS
 62
    7
 10
113.7546845
 20
442.57466150000005
 40
0.1
 50
135
 51
225
  0
LINE
  8
_0-0_0
  6
CONTINUOUS
 62
    7
 10
113.68397549999997
 20
442.50392150000005
 11
113.81326350000001
 21
442.37464950000003
  0
LINE
  8
_0-0_0
  6
CONTINUOUS
 62
    7
 10
113.81326350000001
 20
441.67463650000002
 11
113.81326350000001
 21
442.37464950000003
  0
LINE
  8
_0-0_0
  6
CONTINUOUS
 62
    7
 10
113.68397549999997
 20
441.54536450000001
 11
113.81326350000001
 21
441.67463650000002
  0
LINE
  8
_0-0_0
  6
CONTINUOUS
 62
    7
 10
113.81326350000001
 20
433.57466150000005
 11
113.91326149999998
 21
433.57466150000005
  0
LINE
  8
_0-0_0
  6
CONTINUOUS
 62
    7
 10
113.91326149999998
 20
433.07466150000005
 11
113.91326149999998
 21
433.57466150000005
  0
LINE
  8
_0-0_0
  6
CONTINUOUS
 62
    7
 10
113.91326149999998
 20
433.07466150000005
 11
113.91326149999998
 21
429.07463050000001
  0
LINE
  8
_0-0_0
  6
CONTINUOUS
 62
    7
 10
113.81326350000001
 20
428.57463050000001
 11
113.91326149999998
 21
428.57463050000001
  0
LINE
  8
_0-0_0
  6
CONTINUOUS
 62
    7
 10
113.91326149999998
 20
428.57463050000001
 11
113.91326149999998
 21
429.07463050000001
  0
LINE
  8
_0-0_0
  6
CONTINUOUS
 62
    7
 10
96.313263500000005
 20
437.57466150000005
 11
96.313263500000005
 21
437.5096585
  0
LINE
  8
_0-0_0
  6
CONTINUOUS
 62
    7
 10
112.81326350000001
 20
456.37464950000003
 11
112.81326350000001
 21
456.27464350000002
  0
LINE
  8
_0-0_0
  6
CONTINUOUS
 62
    7
 10
96.213264500000037
 20
437.57466150000005
 11
97.013259500000004
 21
437.57466150000005
  0
LINE
  8
_0-0_0
  6
CONTINUOUS
 62
    7
 10
96.713264500000037
 20
459.37464950000003
 11
96.713264500000037
 21
455.15309149999996
  0
LINE
  8
_0-0_0
  6
CONTINUOUS
 62
    7
 10
97.813263500000005
 20
459.37464950000003
 11
97.813263500000005
 21
456.37464950000003
  0
LINE
  8
_0-0_0
  6
CONTINUOUS
 62
    7
 10
96.713264500000037
 20
455.15309149999996
 11
97.013259500000004
 21
455.15309149999996
  0
ARC
  8
_0-0_0
  6
CONTINUOUS
 62
    7
 10
100.31326350000001
 20
456.37464950000003
 40
2.5
 50
90.000003000000007
 51
180.00000900000001
  0
ARC
  8
_0-0_0
  6
CONTINUOUS
 62
    7
 10
110.31326350000001
 20
456.37464950000003
 40
2.5
 50
0
 51
90.000003000000007
  0
LINE
  8
_0-0_0
  6
CONTINUOUS
 62
    7
 10
97.813263500000005
 20
456.27464350000002
 11
97.813263500000005
 21
456.37464950000003
  0
LINE
  8
_0-0_0
  6
CONTINUOUS
 62
    7
 10
110.31326350000001
 20
458.87464950000003
 11
100.31326350000001
 21
458.87464950000003
  0
LINE
  8
_0-0_0
  6
CONTINUOUS
 62
    7
 10
114.0132595
 20
429.07463050000001
 11
114.0132595
 21
429.20500149999998
  0
LINE
  8
_0-0_0
  6
CONTINUOUS
 62
    7
 10
114.0132595
 20
432.70500149999998
 11
114.0132595
 21
429.20500149999998
  0
LINE
  8
_0-0_0
  6
CONTINUOUS
 62
    7
 10
113.91326149999998
 20
432.97465550000004
 11
114.0132595
 21
432.97465550000004
  0
LINE
  8
_0-0_0
  6
CONTINUOUS
 62
    7
 10
114.0132595
 20
432.70500149999998
 11
114.0132595
 21
432.97465550000004
  0
LINE
  8
_0-0_0
  6
CONTINUOUS
 62
    7
 10
113.61326650000001
 20
455.47465550000004
 11
112.61326650000001
 21
456.47465550000004
  0
LINE
  8
_0-0_0
  6
CONTINUOUS
 62
    7
 10
113.61325850000003
 20
427.67463650000002
 11
113.61326650000001
 21
455.47465550000004
  0
LINE
  8
_0-0_0
  6
CONTINUOUS
 62
    7
 10
97.013259500000004
 20
427.67463650000002
 11
113.61325850000003
 21
427.67463650000002
  0
LINE
  8
_0-0_0
  6
CONTINUOUS
 62
    7
 10
97.013259500000004
 20
455.47465550000004
 11
97.013259500000004
 21
427.67463650000002
  0
LINE
  8
_0-0_0
  6
CONTINUOUS
 62
    7
 10
96.213264500000037
 20
437.57466150000005
 11
96.213264500000037
 21
454.38746649999996
  0
LINE
  8
_0-0_0
  6
CONTINUOUS
 62
    7
 10
96.213264500000037
 20
458.87464950000003
 11
96.213264500000037
 21
454.38746649999996
  0
ARC
  8
_0-0_0
  6
CONTINUOUS
 62
    7
 10
127.66500050000002
 20
434.39247150000006
 40
37.269466000000001
 50
146.14857699999999
 51
147.55443399999999
  0
ARC
  8
_0-0_0
  6
CONTINUOUS
 62
    7
 10
110.04421250000001
 20
456.07463050000001
 40
2.6000000000000001
 50
8.8498839999999994
 51
90.000002999999992
  0
LINE
  8
_0-0_0
  6
CONTINUOUS
 62
    7
 10
110.04421250000001
 20
458.67463650000002
 11
100.58230550000002
 21
458.67463650000002
  0
ARC
  8
_0-0_0
  6
CONTINUOUS
 62
    7
 10
100.58230550000002
 20
456.07466150000005
 40
2.6000000000000001
 50
90.000003000000007
 51
171.150115
  0
LINE
  8
_0-0_0
  6
CONTINUOUS
 62
    7
 10
97.013259500000004
 20
455.47465550000004
 11
98.013259500000004
 21
456.47465550000004
  0
LINE
  8
_0-0_0
  6
CONTINUOUS
 62
    7
 10
112.61326650000001
 20
455.06044050000003
 11
113.61326650000001
 21
455.47465550000004
  0
ARC
  8
_0-0_0
  6
CONTINUOUS
 62
    7
 10
107.07072449999998
 20
467.26075750000007
 40
12.126564999999999
 50
292.155034
 51
297.19674500000002
  0
LINE
  8
_0-0_0
  6
CONTINUOUS
 62
    7
 10
112.61325850000003
 20
428.67463650000002
 11
113.61325850000003
 21
427.67463650000002
  0
LINE
  8
_0-0_0
  6
CONTINUOUS
 62
    7
 10
98.013259500000004
 20
428.67463650000002
 11
97.013259500000004
 21
427.67463650000002
  0
LINE
  8
_0-0_0
  6
CONTINUOUS
 62
    7
 10
98.013259500000004
 20
455.06044050000003
 11
97.013259500000004
 21
455.47465550000004
  0
ARC
  8
_0-0_0
  6
CONTINUOUS
 62
    7
 10
103.55580150000003
 20
467.26075750000007
 40
12.126567
 50
242.80325699999997
 51
247.84494000000001
  0
CIRCLE
  8
_0-0_0
  6
CONTINUOUS
 62
    7
 10
105.31326350000001
 20
435.87464950000003
 40
2.0670000000000002
  0
LINE
  8
_0-0_0
  6
CONTINUOUS
 62
    7
 10
97.813263500000005
 20
459.37464950000003
 11
96.713264500000037
 21
459.37464950000003
  0
LINE
  8
_0-0_0
  6
CONTINUOUS
 62
    7
 10
113.91326149999998
 20
429.07463050000001
 11
114.0132595
 21
429.07463050000001
  0
LINE
  8
_0-0_0
  6
CONTINUOUS
 62
    7
 10
113.91326149999998
 20
429.07463050000001
 11
114.0132595
 21
429.07463050000001
  0
LINE
  8
_0-0_0
  6
CONTINUOUS
 62
    7
 10
96.213264500000037
 20
458.87464950000003
 11
96.713264500000037
 21
459.37464950000003
  0
ENDSEC
  0
EOF
