  0
SECTION
  2
HEADER
  9
$ACADVER
  1
AC1009
  9
$INSBASE
 10
0
 20
0
 30
0
  9
$EXTMIN
 10
0
 20
0
  9
$EXTMAX
 10
420.5
 20
297
  9
$LIMMIN
 10
0
 20
0
  9
$LIMMAX
 10
420.5
 20
297
  9
$LTSCALE
 40
0.5
  0
ENDSEC
  0
SECTION
  2
TABLES
  0
TABLE
  2
LTYPE
 70
     9
  0
LTYPE
  2
CONTINUOUS
 70
    64
  3
実線
 72
    65
 73
     0
 40
0.0
  0
LTYPE
  2
DASHED1
 70
    64
  3
--  --  --  --  --  --  --  --  
 72
    65
 73
     2
 40
2.5
 49
1.25
 49
-1.25
  0
LTYPE
  2
DASHED2
 70
    64
  3
----    ----    ----    ----    
 72
    65
 73
     2
 40
5.0
 49
2.5
 49
-2.5
  0
LTYPE
  2
DASHED3
 70
    64
  3
------  ------  ------  ------  
 72
    65
 73
     2
 40
5.0
 49
3.75
 49
-1.25
  0
LTYPE
  2
CENTER1
 70
    64
  3
----- - ----- - ----- - ----- - 
 72
    65
 73
     4
 40
10.0
 49
6.25
 49
-1.25
 49
1.25
 49
-1.25
  0
LTYPE
  2
CENTER2
 70
    64
  3
----------  --  ----------  --  
 72
    65
 73
     4
 40
20.0
 49
12.5
 49
-2.5
 49
2.5
 49
-2.5
  0
LTYPE
  2
PHANTOM1
 70
    64
  3
--- - - --- - - --- - - --- - - 
 72
    65
 73
     6
 40
10.0
 49
3.25
 49
-1.25
 49
1.25
 49
-1.25
 49
1.25
 49
-1.25
  0
LTYPE
  2
PHANTOM2
 70
    64
  3
--------  -  -  --------  -  -  
 72
    65
 73
     6
 40
20.0
 49
10.0
 49
-2.5
 49
1.25
 49
-2.5
 49
1.25
 49
-2.5
  0
LTYPE
  2
DOT
 70
    64
  3
-   -   -   -   -   -   -   -   
 72
    65
 73
     2
 40
2.5
 49
0.625
 49
-1.875
  0
LTYPE
  2
DUMMY
 70
    64
  3
ダミー
 72
    65
 73
     0
 40
0.0
  0
LTYPE
  2
RAND1
 70
    64
  3
ランダム線1
 72
    65
 73
     4
 40
10.0
 49
1.0
 49
-2.0
 49
3.0
 49
-4.0
  0
LTYPE
  2
RAND2
 70
    64
  3
ランダム線2
 72
    65
 73
     4
 40
14.0
 49
2.0
 49
-3.0
 49
4.0
 49
-5.0
  0
LTYPE
  2
RAND3
 70
    64
  3
ランダム線3
 72
    65
 73
     4
 40
18.0
 49
3.0
 49
-4.0
 49
5.0
 49
-6.0
  0
LTYPE
  2
RAND4
 70
    64
  3
ランダム線4
 72
    65
 73
     4
 40
22.0
 49
4.0
 49
-5.0
 49
6.0
 49
-7.0
  0
LTYPE
  2
RAND5
 70
    64
  3
ランダム線5
 72
    65
 73
     4
 40
26.0
 49
5.0
 49
-6.0
 49
7.0
 49
-8.0
  0
LTYPE
  2
LONG1
 70
    64
  3
----------  --  ----------  --  
 72
    65
 73
     4
 40
40.0
 49
32.5
 49
-2.5
 49
2.5
 49
-2.5
  0
LTYPE
  2
LONG2
 70
    64
  3
--------  -  -  --------  -  -  
 72
    65
 73
     6
 40
40.0
 49
30.0
 49
-2.5
 49
1.25
 49
-2.5
 49
1.25
 49
-2.5
  0
LTYPE
  2
LONG3
 70
    64
  3
+++++++++++++++..+++++++++++++++
 72
    65
 73
     2
 40
40.0
 49
37.5
 49
-2.5
  0
LTYPE
  2
LONG4
 70
    64
  3
+++++++++++++++..+++++++++++++++
 72
    65
 73
     2
 40
80.0
 49
75.0
 49
-5.0
  0
LTYPE
  2
LONG5
 70
    64
  3
----------  --  ----------  --  
 72
    65
 73
     4
 40
60.0
 49
37.5
 49
-7.5
 49
7.5
 49
-7.5
  0
LTYPE
  2
dashed
 70
   64
  3
-------   -------------   ------
 72
   65
 73
    2
 40
7.5
 49
6
 49
-1.5
  0
LTYPE
  2
dashed_spaced
 70
   64
  3
----        --------        ----
 72
   65
 73
    2
 40
12
 49
6
 49
-6
  0
LTYPE
  2
long_dashed_dotted
 70
   64
  3
------------- --- --------------
 72
   65
 73
    4
 40
15.25
 49
12
 49
-1.5
 49
0.25
 49
-1.5
  0
LTYPE
  2
long_dashed_double-dotted
 70
   64
  3
----------- --- --- ------------
 72
   65
 73
    6
 40
17
 49
12
 49
-1.5
 49
0.25
 49
-1.5
 49
0.25
 49
-1.5
  0
LTYPE
  2
long_dashed_triplicate-dotted
 70
   64
  3
--------- --- --- --- ----------
 72
   65
 73
    8
 40
18.75
 49
12
 49
-1.5
 49
0.25
 49
-1.5
 49
0.25
 49
-1.5
 49
0.25
 49
-1.5
  0
LTYPE
  2
dotted
 70
   64
  3
   -       -       -       -    
 72
   65
 73
    2
 40
1.75
 49
0.25
 49
-1.5
  0
LTYPE
  2
chain
 70
   64
  3
-------------- -- --------------
 72
   65
 73
    4
 40
18.5
 49
12
 49
-1.5
 49
3.5
 49
-1.5
  0
LTYPE
  2
chain_double_dash
 70
   64
  3
------------ -- -- -------------
 72
   65
 73
    6
 40
23.5
 49
12
 49
-1.5
 49
3.5
 49
-1.5
 49
3.5
 49
-1.5
  0
LTYPE
  2
dashed_dotted
 70
   64
  3
-----------     -     ----------
 72
   65
 73
    4
 40
9.25
 49
6
 49
-1.5
 49
0.25
 49
-1.5
  0
LTYPE
  2
double-dashed_dotted
 70
   64
  3
------   -----------   -   -----
 72
   65
 73
    6
 40
16.75
 49
6
 49
-1.5
 49
6
 49
-1.5
 49
0.25
 49
-1.5
  0
LTYPE
  2
dashed_double-dotted
 70
   64
  3
---------    -    -    ---------
 72
   65
 73
    6
 40
11
 49
6
 49
-1.5
 49
0.25
 49
-1.5
 49
0.25
 49
-1.5
  0
LTYPE
  2
double-dashed_double-dotted
 70
   64
  3
-----   ---------   -   -   ----
 72
   65
 73
    8
 40
18.5
 49
6
 49
-1.5
 49
6
 49
-1.5
 49
0.25
 49
-1.5
 49
0.25
 49
-1.5
  0
LTYPE
  2
dashed_triplicate-dotted
 70
   64
  3
-------    -    -    -    ------
 72
   65
 73
    8
 40
12.75
 49
6
 49
-1.5
 49
0.25
 49
-1.5
 49
0.25
 49
-1.5
 49
0.25
 49
-1.5
  0
LTYPE
  2
double-dashed_triplicate-dotted
 70
   64
  3
-----  ---------  -  -  -  -----
 72
   65
 73
   10
 40
20.25
 49
6
 49
-1.5
 49
6
 49
-1.5
 49
0.25
 49
-1.5
 49
0.25
 49
-1.5
 49
0.25
 49
-1.5
  0
LTYPE
  2
undefined
 70
   64
  3
--------------------------------
 72
   65
 73
    0
 40
0
  0
ENDTAB
  0
TABLE
  2
STYLE
  5
3
100
AcDbSymbolTable
 70
     1
  0
STYLE
  5
10
100
AcDbSymbolTableRecord
100
AcDbTextStyleTableRecord
  2
STANDARD
 70
     0
 40
0.0
 41
1.0
 50
0.0
 71
     0
 42
0.2
  3
txt
  4
bigfont.shx
  0
STYLE
  5
26
100
AcDbSymbolTableRecord
100
AcDbTextStyleTableRecord
  2
TATEGAKI
 70
    68
 40
0.0
 41
1.0
 50
0.0
 71
     0
 42
1.0
  3
txt
  4
bigfont.shx
  0
ENDTAB
  0
TABLE
  2
LAYER
 70
    2
  0
LAYER
  2
_0-0_0
 70
   64
 62
    7
  6
CONTINUOUS
  0
LAYER
  2
ADD_LINE
 70
   64
 62
    7
  6
CONTINUOUS
  0
ENDTAB
  0
ENDSEC
  0
SECTION
  2
BLOCKS
  0
ENDSEC
  0
SECTION
  2
ENTITIES
  0
LINE
  8
_0-0_0
  6
CONTINUOUS
 62
    7
 10
36.428916500000014
 20
268.1751405
 11
36.428916500000014
 21
268.1741485
  0
LINE
  8
_0-0_0
  6
CONTINUOUS
 62
    7
 10
189.24142449999999
 20
229.2442015
 11
187.94142150000002
 21
225.7442015
  0
ARC
  8
_0-0_0
  6
CONTINUOUS
 62
    7
 10
189.4289095
 20
229.1745755
 40
0.2
 50
20.376434999999997
 51
159.62357000000003
  0
ARC
  8
_0-0_0
  6
CONTINUOUS
 62
    7
 10
227.42892449999999
 20
232.0745695
 40
2.2000000000000002
 50
180.00000900000003
 51
303.74900400000001
  0
LINE
  8
_0-0_0
  6
CONTINUOUS
 62
    7
 10
225.22891249999998
 20
233.5745695
 11
225.22891249999998
 21
232.0745695
  0
LINE
  8
_0-0_0
  6
CONTINUOUS
 62
    7
 10
225.22891249999998
 20
233.5745695
 11
150.62892150000002
 21
233.5745695
  0
LINE
  8
_0-0_0
  6
CONTINUOUS
 62
    7
 10
150.62892150000002
 20
233.5745695
 11
150.62892150000002
 21
232.0745695
  0
ARC
  8
_0-0_0
  6
CONTINUOUS
 62
    7
 10
148.4289095
 20
232.0745695
 40
2.2000000000000002
 50
236.25102899999999
 51
0
  0
ARC
  8
_0-0_0
  6
CONTINUOUS
 62
    7
 10
146.9289095
 20
229.82957450000001
 40
0.5
 50
56.251010000000008
 51
180.00000900000001
  0
LINE
  8
_0-0_0
  6
CONTINUOUS
 62
    7
 10
146.4289095
 20
209.47456350000002
 11
146.4289095
 21
210.25169350000002
  0
LINE
  8
_0-0_0
  6
CONTINUOUS
 62
    7
 10
146.4289095
 20
209.47456350000002
 11
156.22891250000001
 21
209.47456350000002
  0
ARC
  8
_0-0_0
  6
CONTINUOUS
 62
    7
 10
156.22891250000001
 20
209.6745755
 40
0.2
 50
269.99999700000001
 51
0
  0
LINE
  8
_0-0_0
  6
CONTINUOUS
 62
    7
 10
156.4289095
 20
211.3745725
 11
156.4289095
 21
209.6745755
  0
ARC
  8
_0-0_0
  6
CONTINUOUS
 62
    7
 10
156.62892150000002
 20
211.3745725
 40
0.2
 50
90.000003000000007
 51
180.00000900000001
  0
LINE
  8
_0-0_0
  6
CONTINUOUS
 62
    7
 10
157.12892150000002
 20
211.5745695
 11
156.62892150000002
 21
211.5745695
  0
ARC
  8
_0-0_0
  6
CONTINUOUS
 62
    7
 10
157.12892150000002
 20
211.0745695
 40
0.5
 50
90.000003000000007
 51
180.00000900000001
  0
LINE
  8
_0-0_0
  6
CONTINUOUS
 62
    7
 10
156.62892150000002
 20
209.5745695
 11
156.62892150000002
 21
211.0745695
  0
LINE
  8
_0-0_0
  6
CONTINUOUS
 62
    7
 10
226.22891249999998
 20
209.5745695
 11
156.62892150000002
 21
209.5745695
  0
LINE
  8
_0-0_0
  6
CONTINUOUS
 62
    7
 10
226.22891249999998
 20
209.5745695
 11
226.22891249999998
 21
211.0745695
  0
ARC
  8
_0-0_0
  6
CONTINUOUS
 62
    7
 10
225.72891249999998
 20
211.0745695
 40
0.5
 50
0
 51
90.000003000000007
  0
LINE
  8
_0-0_0
  6
CONTINUOUS
 62
    7
 10
226.22891249999998
 20
211.5745695
 11
225.72891249999998
 21
211.5745695
  0
ARC
  8
_0-0_0
  6
CONTINUOUS
 62
    7
 10
226.22891249999998
 20
211.3745725
 40
0.2
 50
0
 51
90.000003000000007
  0
LINE
  8
_0-0_0
  6
CONTINUOUS
 62
    7
 10
226.42892449999999
 20
209.6745755
 11
226.42892449999999
 21
211.3745725
  0
ARC
  8
_0-0_0
  6
CONTINUOUS
 62
    7
 10
226.62890650000003
 20
209.6745755
 40
0.2
 50
180.00000900000003
 51
269.99999700000001
  0
LINE
  8
_0-0_0
  6
CONTINUOUS
 62
    7
 10
226.62890650000003
 20
209.47456350000002
 11
227.42892449999999
 21
209.47456350000002
  0
ARC
  8
_0-0_0
  6
CONTINUOUS
 62
    7
 10
227.42892449999999
 20
211.47456350000002
 40
2
 50
269.99999700000001
 51
0.0000099999999886
  0
LINE
  8
_0-0_0
  6
CONTINUOUS
 62
    7
 10
229.42892449999999
 20
229.82957450000001
 11
229.42892449999999
 21
211.47456350000002
  0
ARC
  8
_0-0_0
  6
CONTINUOUS
 62
    7
 10
228.92892449999999
 20
229.82957450000001
 40
0.5
 50
0
 51
123.74898500000002
  0
LINE
  8
_0-0_0
  6
CONTINUOUS
 62
    7
 10
157.9289095
 20
211.77456649999999
 11
157.9289095
 21
211.97456350000002
  0
LINE
  8
_0-0_0
  6
CONTINUOUS
 62
    7
 10
157.9289095
 20
211.97456350000002
 11
224.92892449999999
 21
211.97456350000002
  0
LINE
  8
_0-0_0
  6
CONTINUOUS
 62
    7
 10
224.92892449999999
 20
211.77456649999999
 11
224.92892449999999
 21
211.97456350000002
  0
ARC
  8
_0-0_0
  6
CONTINUOUS
 62
    7
 10
225.12890650000003
 20
211.77456649999999
 40
0.2
 50
180.00000900000003
 51
269.99999700000001
  0
LINE
  8
_0-0_0
  6
CONTINUOUS
 62
    7
 10
225.12890650000003
 20
211.5745695
 11
157.72891250000001
 21
211.5745695
  0
ARC
  8
_0-0_0
  6
CONTINUOUS
 62
    7
 10
157.72891250000001
 20
211.77456649999999
 40
0.2
 50
269.99999700000001
 51
0
  0
ARC
  8
_0-0_0
  6
CONTINUOUS
 62
    7
 10
188.1289065
 20
225.6745755
 40
0.2
 50
159.62357
 51
269.99999700000001
  0
LINE
  8
_0-0_0
  6
CONTINUOUS
 62
    7
 10
188.1289065
 20
225.47457850000001
 11
190.72891250000001
 21
225.47457850000001
  0
ARC
  8
_0-0_0
  6
CONTINUOUS
 62
    7
 10
190.72891250000001
 20
225.6745755
 40
0.2
 50
269.99999700000001
 51
20.376435000000019
  0
LINE
  8
_0-0_0
  6
CONTINUOUS
 62
    7
 10
190.91639750000002
 20
225.7442015
 11
189.61639450000001
 21
229.2442015
  0
LINE
  8
_0-0_0
  6
CONTINUOUS
 62
    7
 10
146.4289095
 20
229.1745755
 11
146.4289095
 21
231.15194650000001
  0
LINE
  8
_0-0_0
  6
CONTINUOUS
 62
    7
 10
146.4289095
 20
229.1745755
 11
146.4289095
 21
211.5745695
  0
LINE
  8
_0-0_0
  6
CONTINUOUS
 62
    7
 10
146.4289095
 20
210.25169350000002
 11
146.4289095
 21
211.5745695
  0
LINE
  8
_0-0_0
  6
CONTINUOUS
 62
    7
 10
229.42892449999999
 20
235.5745695
 11
229.42892449999999
 21
234.5745695
  0
LINE
  8
_0-0_0
  6
CONTINUOUS
 62
    7
 10
229.42892449999999
 20
234.5745695
 11
229.42892449999999
 21
234.0745695
  0
LINE
  8
_0-0_0
  6
CONTINUOUS
 62
    7
 10
229.42892449999999
 20
234.0745695
 11
229.42892449999999
 21
232.0745695
  0
LINE
  8
_0-0_0
  6
CONTINUOUS
 62
    7
 10
229.42892449999999
 20
232.0745695
 11
229.42892449999999
 21
229.82957450000001
  0
LINE
  8
_0-0_0
  6
CONTINUOUS
 62
    7
 10
207.42892449999999
 20
229.5745695
 11
207.42892449999999
 21
215.97456350000002
  0
ARC
  8
_0-0_0
  6
CONTINUOUS
 62
    7
 10
210.42892449999999
 20
229.5745695
 40
3
 50
90.000003000000007
 51
180.00000900000001
  0
LINE
  8
_0-0_0
  6
CONTINUOUS
 62
    7
 10
223.76284750000002
 20
232.5745695
 11
210.42892449999999
 21
232.5745695
  0
ARC
  8
_0-0_0
  6
CONTINUOUS
 62
    7
 10
223.76284750000002
 20
231.5745695
 40
1
 50
7.7664340000000012
 51
90.000002999999992
  0
ARC
  8
_0-0_0
  6
CONTINUOUS
 62
    7
 10
227.42892449999999
 20
232.0745695
 40
2.7000000000000002
 50
187.76643899999999
 51
254.31966600000001
  0
ARC
  8
_0-0_0
  6
CONTINUOUS
 62
    7
 10
226.42892449999999
 20
228.51226750000001
 40
1
 50
0
 51
74.319649999999996
  0
LINE
  8
_0-0_0
  6
CONTINUOUS
 62
    7
 10
227.42892449999999
 20
215.97456350000002
 11
227.42892449999999
 21
228.51226750000001
  0
ARC
  8
_0-0_0
  6
CONTINUOUS
 62
    7
 10
224.42892449999999
 20
215.97456350000002
 40
3
 50
269.99999700000001
 51
0.0000099999999886
  0
LINE
  8
_0-0_0
  6
CONTINUOUS
 62
    7
 10
210.42892449999999
 20
212.97456350000002
 11
224.42892449999999
 21
212.97456350000002
  0
ARC
  8
_0-0_0
  6
CONTINUOUS
 62
    7
 10
210.42892449999999
 20
215.97456350000002
 40
3
 50
180.00000900000003
 51
269.99999700000001
  0
LINE
  8
_0-0_0
  6
CONTINUOUS
 62
    7
 10
153.4289095
 20
212.97456350000002
 11
168.4289095
 21
212.97456350000002
  0
ARC
  8
_0-0_0
  6
CONTINUOUS
 62
    7
 10
153.4289095
 20
215.97456350000002
 40
3
 50
180.00000900000003
 51
269.99999700000001
  0
LINE
  8
_0-0_0
  6
CONTINUOUS
 62
    7
 10
150.4289095
 20
229.5745695
 11
150.4289095
 21
215.97456350000002
  0
ARC
  8
_0-0_0
  6
CONTINUOUS
 62
    7
 10
153.4289095
 20
229.5745695
 40
3
 50
90.000003000000007
 51
180.00000900000001
  0
LINE
  8
_0-0_0
  6
CONTINUOUS
 62
    7
 10
168.4289095
 20
232.5745695
 11
153.4289095
 21
232.5745695
  0
ARC
  8
_0-0_0
  6
CONTINUOUS
 62
    7
 10
168.4289095
 20
229.5745695
 40
3
 50
0
 51
90.000003000000007
  0
LINE
  8
_0-0_0
  6
CONTINUOUS
 62
    7
 10
171.4289095
 20
215.97456350000002
 11
171.4289095
 21
229.5745695
  0
ARC
  8
_0-0_0
  6
CONTINUOUS
 62
    7
 10
168.4289095
 20
215.97456350000002
 40
3
 50
269.99999700000001
 51
0.0000099999999886
  0
LINE
  8
_0-0_0
  6
CONTINUOUS
 62
    7
 10
225.42892449999999
 20
233.5745695
 11
225.22891249999998
 21
233.5745695
  0
ARC
  8
_0-0_0
  6
CONTINUOUS
 62
    7
 10
227.42892449999999
 20
232.0745695
 40
2
 50
180.00000900000003
 51
0.0000000000000254
  0
LINE
  8
_0-0_0
  6
CONTINUOUS
 62
    7
 10
225.42892449999999
 20
233.5745695
 11
225.42892449999999
 21
232.0745695
  0
LINE
  8
_0-0_0
  6
CONTINUOUS
 62
    7
 10
150.62892150000002
 20
233.5745695
 11
150.4289095
 21
233.5745695
  0
LINE
  8
_0-0_0
  6
CONTINUOUS
 62
    7
 10
150.4289095
 20
233.5745695
 11
150.4289095
 21
232.0745695
  0
ARC
  8
_0-0_0
  6
CONTINUOUS
 62
    7
 10
148.4289095
 20
232.0745695
 40
2
 50
180.00000900000003
 51
0.0000000000000254
  0
LINE
  8
_0-0_0
  6
CONTINUOUS
 62
    7
 10
132.92892449999999
 20
234.0745695
 11
132.92892449999999
 21
233.5745695
  0
LINE
  8
_0-0_0
  6
CONTINUOUS
 62
    7
 10
146.4289095
 20
231.1580505
 11
146.4289095
 21
231.8745725
  0
LINE
  8
_0-0_0
  6
CONTINUOUS
 62
    7
 10
146.4289095
 20
231.1580505
 11
146.4289095
 21
231.15194650000001
  0
LINE
  8
_0-0_0
  6
CONTINUOUS
 62
    7
 10
146.4289095
 20
229.9434205
 11
146.4289095
 21
229.82957450000001
  0
LINE
  8
_0-0_0
  6
CONTINUOUS
 62
    7
 10
134.42892449999999
 20
231.1745755
 11
134.42892449999999
 21
229.1745755
  0
LINE
  8
_0-0_0
  6
CONTINUOUS
 62
    7
 10
146.4289095
 20
231.1745755
 11
134.42892449999999
 21
231.1745755
  0
LINE
  8
_0-0_0
  6
CONTINUOUS
 62
    7
 10
134.42892449999999
 20
225.6745755
 11
134.42892449999999
 21
228.6745755
  0
LINE
  8
_0-0_0
  6
CONTINUOUS
 62
    7
 10
134.42892449999999
 20
228.6745755
 11
134.42892449999999
 21
229.1745755
  0
LINE
  8
_0-0_0
  6
CONTINUOUS
 62
    7
 10
134.42892449999999
 20
225.6745755
 11
134.42892449999999
 21
225.1745755
  0
ARC
  8
_0-0_0
  6
CONTINUOUS
 62
    7
 10
140.42892449999999
 20
225.87455750000001
 40
0.500016
 50
0.001164
 51
179.99560600000004
  0
LINE
  8
_0-0_0
  6
CONTINUOUS
 62
    7
 10
139.9289095
 20
225.8745725
 11
139.9289095
 21
213.8745725
  0
ARC
  8
_0-0_0
  6
CONTINUOUS
 62
    7
 10
140.42892449999999
 20
213.87458749999999
 40
0.500016
 50
180.00117
 51
359.995611
  0
LINE
  8
_0-0_0
  6
CONTINUOUS
 62
    7
 10
140.9289095
 20
225.8745725
 11
140.9289095
 21
213.8745725
  0
ARC
  8
_0-0_0
  6
CONTINUOUS
 62
    7
 10
138.92892449999999
 20
225.87455750000001
 40
0.500016
 50
0.001164
 51
179.99560600000004
  0
LINE
  8
_0-0_0
  6
CONTINUOUS
 62
    7
 10
138.4289095
 20
225.8745725
 11
138.4289095
 21
213.8745725
  0
ARC
  8
_0-0_0
  6
CONTINUOUS
 62
    7
 10
138.92892449999999
 20
213.87458749999999
 40
0.500016
 50
180.00117
 51
359.995611
  0
LINE
  8
_0-0_0
  6
CONTINUOUS
 62
    7
 10
139.4289095
 20
225.8745725
 11
139.4289095
 21
213.8745725
  0
ARC
  8
_0-0_0
  6
CONTINUOUS
 62
    7
 10
137.42892449999999
 20
225.87455750000001
 40
0.500016
 50
0.001164
 51
179.99560600000004
  0
LINE
  8
_0-0_0
  6
CONTINUOUS
 62
    7
 10
136.9289095
 20
225.8745725
 11
136.9289095
 21
213.8745725
  0
ARC
  8
_0-0_0
  6
CONTINUOUS
 62
    7
 10
137.42892449999999
 20
213.87458749999999
 40
0.500016
 50
180.00117
 51
359.995611
  0
LINE
  8
_0-0_0
  6
CONTINUOUS
 62
    7
 10
137.9289095
 20
225.8745725
 11
137.9289095
 21
213.8745725
  0
ARC
  8
_0-0_0
  6
CONTINUOUS
 62
    7
 10
135.92892449999999
 20
225.87455750000001
 40
0.500016
 50
0.001164
 51
179.99560600000004
  0
LINE
  8
_0-0_0
  6
CONTINUOUS
 62
    7
 10
135.42892449999999
 20
225.8745725
 11
135.42892449999999
 21
213.8745725
  0
ARC
  8
_0-0_0
  6
CONTINUOUS
 62
    7
 10
135.92892449999999
 20
213.87458749999999
 40
0.500016
 50
180.00117
 51
359.995611
  0
LINE
  8
_0-0_0
  6
CONTINUOUS
 62
    7
 10
136.4289095
 20
225.8745725
 11
136.4289095
 21
213.8745725
  0
LINE
  8
_0-0_0
  6
CONTINUOUS
 62
    7
 10
146.4289095
 20
209.5745695
 11
129.7534795
 21
209.5745695
  0
LINE
  8
_0-0_0
  6
CONTINUOUS
 62
    7
 10
156.97891250000001
 20
211.55154450000001
 11
156.97891250000001
 21
211.5745695
  0
LINE
  8
_0-0_0
  6
CONTINUOUS
 62
    7
 10
225.87890650000003
 20
211.55154450000001
 11
225.87890650000003
 21
211.5745695
  0
LINE
  8
_0-0_0
  6
CONTINUOUS
 62
    7
 10
132.92892449999999
 20
234.0745695
 11
132.92892449999999
 21
234.5745695
  0
LINE
  8
_0-0_0
  6
CONTINUOUS
 62
    7
 10
229.42892449999999
 20
234.5745695
 11
132.92892449999999
 21
234.5745695
  0
LINE
  8
_0-0_0
  6
CONTINUOUS
 62
    7
 10
132.92892449999999
 20
234.5745695
 11
132.92892449999999
 21
235.5745695
  0
LINE
  8
_0-0_0
  6
CONTINUOUS
 62
    7
 10
229.42904650000003
 20
235.57463050000001
 11
229.42904650000003
 21
235.0746455
  0
LINE
  8
_0-0_0
  6
CONTINUOUS
 62
    7
 10
229.42904650000003
 20
235.0746455
 11
229.42904650000003
 21
233.5746455
  0
ARC
  8
_0-0_0
  6
CONTINUOUS
 62
    7
 10
219.92892449999999
 20
225.1745755
 40
4.5
 50
269.99999700000001
 51
90.000002999999992
  0
LINE
  8
_0-0_0
  6
CONTINUOUS
 62
    7
 10
219.92892449999999
 20
220.6745755
 11
214.92892449999999
 21
220.6745755
  0
ARC
  8
_0-0_0
  6
CONTINUOUS
 62
    7
 10
214.92892449999999
 20
225.1745755
 40
4.5
 50
90.000003000000007
 51
269.99999700000006
  0
LINE
  8
_0-0_0
  6
CONTINUOUS
 62
    7
 10
214.92892449999999
 20
229.6745755
 11
219.92892449999999
 21
229.6745755
  0
ARC
  8
_0-0_0
  6
CONTINUOUS
 62
    7
 10
163.9289095
 20
225.1745755
 40
4.5
 50
269.99999700000001
 51
90.000002999999992
  0
LINE
  8
_0-0_0
  6
CONTINUOUS
 62
    7
 10
163.9289095
 20
220.6745755
 11
158.9289095
 21
220.6745755
  0
ARC
  8
_0-0_0
  6
CONTINUOUS
 62
    7
 10
158.9289095
 20
225.1745755
 40
4.5
 50
90.000003000000007
 51
269.99999700000006
  0
LINE
  8
_0-0_0
  6
CONTINUOUS
 62
    7
 10
158.9289095
 20
229.6745755
 11
163.9289095
 21
229.6745755
  0
LINE
  8
_0-0_0
  6
CONTINUOUS
 62
    7
 10
146.4289095
 20
231.8745725
 11
146.4289095
 21
233.5745695
  0
LINE
  8
_0-0_0
  6
CONTINUOUS
 62
    7
 10
146.4289095
 20
233.5745695
 11
132.92892449999999
 21
233.5745695
  0
LINE
  8
_0-0_0
  6
CONTINUOUS
 62
    7
 10
132.92892449999999
 20
231.8745725
 11
132.92892449999999
 21
233.5745695
  0
LINE
  8
_0-0_0
  6
CONTINUOUS
 62
    7
 10
134.42892449999999
 20
231.1745755
 11
129.7534795
 21
231.1745755
  0
LINE
  8
_0-0_0
  6
CONTINUOUS
 62
    7
 10
134.42892449999999
 20
225.6745755
 11
129.7534795
 21
225.6745755
  0
LINE
  8
_0-0_0
  6
CONTINUOUS
 62
    7
 10
129.12101749999999
 20
209.6772005
 11
129.2405095
 21
209.64158649999999
  0
LINE
  8
_0-0_0
  6
CONTINUOUS
 62
    7
 10
129.2405095
 20
209.64158649999999
 11
129.36206050000001
 21
209.6137085
  0
LINE
  8
_0-0_0
  6
CONTINUOUS
 62
    7
 10
129.36206050000001
 20
209.6137085
 11
129.48519949999999
 21
209.59367349999999
  0
LINE
  8
_0-0_0
  6
CONTINUOUS
 62
    7
 10
129.48519949999999
 20
209.59367349999999
 11
129.60943650000002
 21
209.5815585
  0
LINE
  8
_0-0_0
  6
CONTINUOUS
 62
    7
 10
129.60943650000002
 20
209.5815585
 11
129.7342525
 21
209.57742250000001
  0
LINE
  8
_0-0_0
  6
CONTINUOUS
 62
    7
 10
129.7342525
 20
209.57742250000001
 11
129.7534795
 21
209.5774845
  0
ARC
  8
_0-0_0
  6
CONTINUOUS
 62
    7
 10
129.7534795
 20
211.5745695
 40
2
 50
251.56498899999997
 51
269.99999700000001
  0
LINE
  8
_0-0_0
  6
CONTINUOUS
 62
    7
 10
132.92892449999999
 20
231.8745725
 11
146.4289095
 21
231.8745725
  0
CIRCLE
  8
_0-0_0
  6
CONTINUOUS
 62
    7
 10
227.42892449999999
 20
232.0745695
 40
1.4750000000000001
  0
CIRCLE
  8
_0-0_0
  6
CONTINUOUS
 62
    7
 10
148.4289095
 20
232.0745695
 40
1.4750000000000001
  0
ARC
  8
_0-0_0
  6
CONTINUOUS
 62
    7
 10
129.7534795
 20
229.1745755
 40
2
 50
90.000003000000007
 51
108.434997
  0
LINE
  8
_0-0_0
  6
CONTINUOUS
 62
    7
 10
124.95457450000001
 20
225.6745755
 11
124.26121550000002
 21
225.6745755
  0
LINE
  8
_0-0_0
  6
CONTINUOUS
 62
    7
 10
124.95457450000001
 20
225.6745755
 11
129.27912950000001
 21
225.6745755
  0
LINE
  8
_0-0_0
  6
CONTINUOUS
 62
    7
 10
129.7534795
 20
225.6745755
 11
129.27912950000001
 21
225.6745755
  0
LINE
  8
_0-0_0
  6
CONTINUOUS
 62
    7
 10
124.79646350000002
 20
211.1187285
 11
129.12101749999999
 21
209.6772005
  0
LINE
  8
_0-0_0
  6
CONTINUOUS
 62
    7
 10
223.97891249999998
 20
225.1745755
 11
221.66952550000002
 21
221.1745755
  0
LINE
  8
_0-0_0
  6
CONTINUOUS
 62
    7
 10
213.18832450000002
 20
221.1745755
 11
221.66952550000002
 21
221.1745755
  0
LINE
  8
_0-0_0
  6
CONTINUOUS
 62
    7
 10
213.18832450000002
 20
221.1745755
 11
210.87890650000003
 21
225.1745755
  0
LINE
  8
_0-0_0
  6
CONTINUOUS
 62
    7
 10
210.87890650000003
 20
225.1745755
 11
213.18832450000002
 21
229.1745755
  0
LINE
  8
_0-0_0
  6
CONTINUOUS
 62
    7
 10
221.66952550000002
 20
229.1745755
 11
213.18832450000002
 21
229.1745755
  0
LINE
  8
_0-0_0
  6
CONTINUOUS
 62
    7
 10
221.66952550000002
 20
229.1745755
 11
223.97891249999998
 21
225.1745755
  0
LINE
  8
_0-0_0
  6
CONTINUOUS
 62
    7
 10
157.18830850000001
 20
229.1745755
 11
154.87892150000002
 21
225.1745755
  0
LINE
  8
_0-0_0
  6
CONTINUOUS
 62
    7
 10
165.6695095
 20
229.1745755
 11
157.18830850000001
 21
229.1745755
  0
LINE
  8
_0-0_0
  6
CONTINUOUS
 62
    7
 10
167.97891250000001
 20
225.1745755
 11
165.6695095
 21
229.1745755
  0
LINE
  8
_0-0_0
  6
CONTINUOUS
 62
    7
 10
165.6695095
 20
221.1745755
 11
167.97891250000001
 21
225.1745755
  0
LINE
  8
_0-0_0
  6
CONTINUOUS
 62
    7
 10
157.18830850000001
 20
221.1745755
 11
165.6695095
 21
221.1745755
  0
LINE
  8
_0-0_0
  6
CONTINUOUS
 62
    7
 10
154.87892150000002
 20
225.1745755
 11
157.18830850000001
 21
221.1745755
  0
LINE
  8
_0-0_0
  6
CONTINUOUS
 62
    7
 10
128.6789095
 20
230.92456050000001
 11
129.12101749999999
 21
231.07192950000001
  0
LINE
  8
_0-0_0
  6
CONTINUOUS
 62
    7
 10
123.42892449999999
 20
226.42460650000001
 11
123.42892449999999
 21
225.30358849999999
  0
LINE
  8
_0-0_0
  6
CONTINUOUS
 62
    7
 10
123.42892449999999
 20
224.38226349999999
 11
123.42892449999999
 21
225.30358849999999
  0
LINE
  8
_0-0_0
  6
CONTINUOUS
 62
    7
 10
123.72891250000001
 20
222.5865785
 11
123.6701205
 21
222.8334045
  0
LINE
  8
_0-0_0
  6
CONTINUOUS
 62
    7
 10
123.6701205
 20
222.8334045
 11
123.6203615
 21
223.02574150000001
  0
LINE
  8
_0-0_0
  6
CONTINUOUS
 62
    7
 10
123.6203615
 20
223.02574150000001
 11
123.54922450000001
 21
223.29153450000001
  0
LINE
  8
_0-0_0
  6
CONTINUOUS
 62
    7
 10
123.54922450000001
 20
223.29153450000001
 11
123.5162655
 21
223.41824349999999
  0
LINE
  8
_0-0_0
  6
CONTINUOUS
 62
    7
 10
123.5162655
 20
223.41824349999999
 11
123.49099750000002
 21
223.52166750000001
  0
LINE
  8
_0-0_0
  6
CONTINUOUS
 62
    7
 10
123.49099750000002
 20
223.52166750000001
 11
123.46897850000002
 21
223.6216125
  0
LINE
  8
_0-0_0
  6
CONTINUOUS
 62
    7
 10
123.46897850000002
 20
223.6216125
 11
123.44760150000002
 21
223.7393185
  0
LINE
  8
_0-0_0
  6
CONTINUOUS
 62
    7
 10
123.44760150000002
 20
223.7393185
 11
123.43902550000001
 21
223.80145250000001
  0
LINE
  8
_0-0_0
  6
CONTINUOUS
 62
    7
 10
123.43902550000001
 20
223.80145250000001
 11
123.4329525
 21
223.86206050000001
  0
LINE
  8
_0-0_0
  6
CONTINUOUS
 62
    7
 10
123.4329525
 20
223.86206050000001
 11
123.42993150000001
 21
223.91128549999999
  0
LINE
  8
_0-0_0
  6
CONTINUOUS
 62
    7
 10
123.42993150000001
 20
223.91128549999999
 11
123.42892449999999
 21
223.9595185
  0
LINE
  8
_0-0_0
  6
CONTINUOUS
 62
    7
 10
123.72891250000001
 20
218.16255150000001
 11
123.8123775
 21
218.54122950000001
  0
LINE
  8
_0-0_0
  6
CONTINUOUS
 62
    7
 10
123.8123775
 20
218.54122950000001
 11
123.85247850000002
 21
218.73275749999999
  0
LINE
  8
_0-0_0
  6
CONTINUOUS
 62
    7
 10
123.85247850000002
 20
218.73275749999999
 11
123.90855450000001
 21
219.02278150000001
  0
LINE
  8
_0-0_0
  6
CONTINUOUS
 62
    7
 10
123.90855450000001
 20
219.02278150000001
 11
123.94615150000001
 21
219.24237049999999
  0
LINE
  8
_0-0_0
  6
CONTINUOUS
 62
    7
 10
123.94615150000001
 20
219.24237049999999
 11
123.9787905
 21
219.46362250000001
  0
LINE
  8
_0-0_0
  6
CONTINUOUS
 62
    7
 10
123.9787905
 20
219.46362250000001
 11
124.00595050000001
 21
219.6904145
  0
LINE
  8
_0-0_0
  6
CONTINUOUS
 62
    7
 10
124.00595050000001
 20
219.6904145
 11
124.02603150000002
 21
219.91781650000001
  0
LINE
  8
_0-0_0
  6
CONTINUOUS
 62
    7
 10
124.02603150000002
 20
219.91781650000001
 11
124.03317250000001
 21
220.03153950000001
  0
LINE
  8
_0-0_0
  6
CONTINUOUS
 62
    7
 10
124.03317250000001
 20
220.03153950000001
 11
124.0383305
 21
220.1452175
  0
LINE
  8
_0-0_0
  6
CONTINUOUS
 62
    7
 10
124.0383305
 20
220.1452175
 11
124.04205350000001
 21
220.2966615
  0
LINE
  8
_0-0_0
  6
CONTINUOUS
 62
    7
 10
124.04205350000001
 20
220.2966615
 11
124.0421145
 21
220.44790650000002
  0
LINE
  8
_0-0_0
  6
CONTINUOUS
 62
    7
 10
124.0421145
 20
220.44790650000002
 11
124.03852850000001
 21
220.59896850000001
  0
LINE
  8
_0-0_0
  6
CONTINUOUS
 62
    7
 10
124.03852850000001
 20
220.59896850000001
 11
124.0290225
 21
220.78750550000001
  0
LINE
  8
_0-0_0
  6
CONTINUOUS
 62
    7
 10
124.0290225
 20
220.78750550000001
 11
124.0141605
 21
220.97576850000002
  0
LINE
  8
_0-0_0
  6
CONTINUOUS
 62
    7
 10
124.0141605
 20
220.97576850000002
 11
123.99423250000001
 21
221.16369650000001
  0
LINE
  8
_0-0_0
  6
CONTINUOUS
 62
    7
 10
123.99423250000001
 20
221.16369650000001
 11
123.9778445
 21
221.29257150000001
  0
LINE
  8
_0-0_0
  6
CONTINUOUS
 62
    7
 10
123.9778445
 20
221.29257150000001
 11
123.95944249999999
 21
221.4212345
  0
LINE
  8
_0-0_0
  6
CONTINUOUS
 62
    7
 10
123.95944249999999
 20
221.4212345
 11
123.9352725
 21
221.57316550000002
  0
LINE
  8
_0-0_0
  6
CONTINUOUS
 62
    7
 10
123.9352725
 20
221.57316550000002
 11
123.9088745
 21
221.7245025
  0
LINE
  8
_0-0_0
  6
CONTINUOUS
 62
    7
 10
123.9088745
 20
221.7245025
 11
123.8527225
 21
222.01512149999999
  0
LINE
  8
_0-0_0
  6
CONTINUOUS
 62
    7
 10
123.8527225
 20
222.01512149999999
 11
123.81256150000002
 21
222.2070765
  0
LINE
  8
_0-0_0
  6
CONTINUOUS
 62
    7
 10
123.81256150000002
 20
222.2070765
 11
123.72891250000001
 21
222.5865785
  0
LINE
  8
_0-0_0
  6
CONTINUOUS
 62
    7
 10
123.72891250000001
 20
218.16255150000001
 11
123.67010550000001
 21
217.91571049999999
  0
LINE
  8
_0-0_0
  6
CONTINUOUS
 62
    7
 10
123.67010550000001
 20
217.91571049999999
 11
123.6203615
 21
217.72337350000001
  0
LINE
  8
_0-0_0
  6
CONTINUOUS
 62
    7
 10
123.6203615
 20
217.72337350000001
 11
123.54922450000001
 21
217.4576265
  0
LINE
  8
_0-0_0
  6
CONTINUOUS
 62
    7
 10
123.54922450000001
 20
217.4576265
 11
123.5162655
 21
217.33093249999999
  0
LINE
  8
_0-0_0
  6
CONTINUOUS
 62
    7
 10
123.5162655
 20
217.33093249999999
 11
123.49101250000001
 21
217.22749350000001
  0
LINE
  8
_0-0_0
  6
CONTINUOUS
 62
    7
 10
123.49101250000001
 20
217.22749350000001
 11
123.46897850000002
 21
217.12751750000001
  0
LINE
  8
_0-0_0
  6
CONTINUOUS
 62
    7
 10
123.46897850000002
 20
217.12751750000001
 11
123.44760150000002
 21
217.0098265
  0
LINE
  8
_0-0_0
  6
CONTINUOUS
 62
    7
 10
123.44760150000002
 20
217.0098265
 11
123.43902550000001
 21
216.94769250000002
  0
LINE
  8
_0-0_0
  6
CONTINUOUS
 62
    7
 10
123.43902550000001
 20
216.94769250000002
 11
123.4329525
 21
216.88708450000001
  0
LINE
  8
_0-0_0
  6
CONTINUOUS
 62
    7
 10
123.4329525
 20
216.88708450000001
 11
123.42993150000001
 21
216.83784449999999
  0
LINE
  8
_0-0_0
  6
CONTINUOUS
 62
    7
 10
123.42993150000001
 20
216.83784449999999
 11
123.42892449999999
 21
216.7896265
  0
LINE
  8
_0-0_0
  6
CONTINUOUS
 62
    7
 10
123.42892449999999
 20
213.0160975
 11
123.42892449999999
 21
216.3668825
  0
ARC
  8
_0-0_0
  6
CONTINUOUS
 62
    7
 10
125.42892449999999
 20
213.0160975
 40
2
 50
180.00000900000003
 51
251.56498900000003
  0
LINE
  8
_0-0_0
  6
CONTINUOUS
 62
    7
 10
227.87890650000003
 20
231.8745725
 11
228.52890050000002
 21
231.8745725
  0
ARC
  8
_0-0_0
  6
CONTINUOUS
 62
    7
 10
227.87890650000003
 20
231.6245725
 40
0.25
 50
90.000003000000007
 51
180.00000900000001
  0
LINE
  8
_0-0_0
  6
CONTINUOUS
 62
    7
 10
227.62890650000003
 20
231.6245725
 11
227.62890650000003
 21
230.97457850000001
  0
LINE
  8
_0-0_0
  6
CONTINUOUS
 62
    7
 10
227.22891249999998
 20
230.97457850000001
 11
227.62890650000003
 21
230.97457850000001
  0
LINE
  8
_0-0_0
  6
CONTINUOUS
 62
    7
 10
227.22891249999998
 20
230.97457850000001
 11
227.22891249999998
 21
231.6245725
  0
ARC
  8
_0-0_0
  6
CONTINUOUS
 62
    7
 10
226.97891249999998
 20
231.6245725
 40
0.25
 50
0
 51
90.000003000000007
  0
LINE
  8
_0-0_0
  6
CONTINUOUS
 62
    7
 10
226.32891849999999
 20
231.8745725
 11
226.97891249999998
 21
231.8745725
  0
LINE
  8
_0-0_0
  6
CONTINUOUS
 62
    7
 10
226.32891849999999
 20
231.8745725
 11
226.32891849999999
 21
232.27456649999999
  0
LINE
  8
_0-0_0
  6
CONTINUOUS
 62
    7
 10
226.97891249999998
 20
232.27456649999999
 11
226.32891849999999
 21
232.27456649999999
  0
ARC
  8
_0-0_0
  6
CONTINUOUS
 62
    7
 10
226.97891249999998
 20
232.52456649999999
 40
0.25
 50
269.99999700000001
 51
0
  0
LINE
  8
_0-0_0
  6
CONTINUOUS
 62
    7
 10
227.22891249999998
 20
232.52456649999999
 11
227.22891249999998
 21
233.1745755
  0
LINE
  8
_0-0_0
  6
CONTINUOUS
 62
    7
 10
227.62890650000003
 20
233.1745755
 11
227.22891249999998
 21
233.1745755
  0
LINE
  8
_0-0_0
  6
CONTINUOUS
 62
    7
 10
227.62890650000003
 20
233.1745755
 11
227.62890650000003
 21
232.52456649999999
  0
ARC
  8
_0-0_0
  6
CONTINUOUS
 62
    7
 10
227.87890650000003
 20
232.52456649999999
 40
0.25
 50
180.00000900000003
 51
269.99999700000001
  0
LINE
  8
_0-0_0
  6
CONTINUOUS
 62
    7
 10
228.52890050000002
 20
232.27456649999999
 11
227.87890650000003
 21
232.27456649999999
  0
LINE
  8
_0-0_0
  6
CONTINUOUS
 62
    7
 10
228.52890050000002
 20
232.27456649999999
 11
228.52890050000002
 21
231.8745725
  0
LINE
  8
_0-0_0
  6
CONTINUOUS
 62
    7
 10
148.87892150000002
 20
231.8745725
 11
149.52891550000001
 21
231.8745725
  0
ARC
  8
_0-0_0
  6
CONTINUOUS
 62
    7
 10
148.87892150000002
 20
231.6245725
 40
0.25
 50
90.000003000000007
 51
180.00000900000001
  0
LINE
  8
_0-0_0
  6
CONTINUOUS
 62
    7
 10
148.62892150000002
 20
231.6245725
 11
148.62892150000002
 21
230.97457850000001
  0
LINE
  8
_0-0_0
  6
CONTINUOUS
 62
    7
 10
148.22891250000001
 20
230.97457850000001
 11
148.62892150000002
 21
230.97457850000001
  0
LINE
  8
_0-0_0
  6
CONTINUOUS
 62
    7
 10
148.22891250000001
 20
230.97457850000001
 11
148.22891250000001
 21
231.6245725
  0
ARC
  8
_0-0_0
  6
CONTINUOUS
 62
    7
 10
147.97891250000001
 20
231.6245725
 40
0.25
 50
0
 51
90.000003000000007
  0
LINE
  8
_0-0_0
  6
CONTINUOUS
 62
    7
 10
147.32891850000001
 20
231.8745725
 11
147.97891250000001
 21
231.8745725
  0
LINE
  8
_0-0_0
  6
CONTINUOUS
 62
    7
 10
147.32891850000001
 20
231.8745725
 11
147.32891850000001
 21
232.27456649999999
  0
LINE
  8
_0-0_0
  6
CONTINUOUS
 62
    7
 10
147.97891250000001
 20
232.27456649999999
 11
147.32891850000001
 21
232.27456649999999
  0
ARC
  8
_0-0_0
  6
CONTINUOUS
 62
    7
 10
147.97891250000001
 20
232.52456649999999
 40
0.25
 50
269.99999700000001
 51
0
  0
LINE
  8
_0-0_0
  6
CONTINUOUS
 62
    7
 10
148.22891250000001
 20
232.52456649999999
 11
148.22891250000001
 21
233.1745755
  0
LINE
  8
_0-0_0
  6
CONTINUOUS
 62
    7
 10
148.62892150000002
 20
233.1745755
 11
148.22891250000001
 21
233.1745755
  0
LINE
  8
_0-0_0
  6
CONTINUOUS
 62
    7
 10
148.62892150000002
 20
233.1745755
 11
148.62892150000002
 21
232.52456649999999
  0
ARC
  8
_0-0_0
  6
CONTINUOUS
 62
    7
 10
148.87892150000002
 20
232.52456649999999
 40
0.25
 50
180.00000900000003
 51
269.99999700000001
  0
LINE
  8
_0-0_0
  6
CONTINUOUS
 62
    7
 10
149.52891550000001
 20
232.27456649999999
 11
148.87892150000002
 21
232.27456649999999
  0
LINE
  8
_0-0_0
  6
CONTINUOUS
 62
    7
 10
149.52891550000001
 20
232.27456649999999
 11
149.52891550000001
 21
231.8745725
  0
LINE
  8
_0-0_0
  6
CONTINUOUS
 62
    7
 10
108.42892449999999
 20
229.90000950000001
 11
108.42892449999999
 21
229.75328049999999
  0
LINE
  8
_0-0_0
  6
CONTINUOUS
 62
    7
 10
108.42892449999999
 20
230.09054549999999
 11
108.42892449999999
 21
229.90000950000001
  0
LINE
  8
_0-0_0
  6
CONTINUOUS
 62
    7
 10
108.42892449999999
 20
230.26556350000001
 11
108.42892449999999
 21
230.09054549999999
  0
LINE
  8
_0-0_0
  6
CONTINUOUS
 62
    7
 10
108.42892449999999
 20
230.4231565
 11
108.42892449999999
 21
230.26556350000001
  0
LINE
  8
_0-0_0
  6
CONTINUOUS
 62
    7
 10
108.42892449999999
 20
230.56158450000001
 11
108.42892449999999
 21
230.4231565
  0
LINE
  8
_0-0_0
  6
CONTINUOUS
 62
    7
 10
108.42892449999999
 20
230.67933650000001
 11
108.42892449999999
 21
230.56158450000001
  0
LINE
  8
_0-0_0
  6
CONTINUOUS
 62
    7
 10
108.42892449999999
 20
230.77513150000001
 11
108.42892449999999
 21
230.67933650000001
  0
LINE
  8
_0-0_0
  6
CONTINUOUS
 62
    7
 10
108.42892449999999
 20
230.84790050000001
 11
108.42892449999999
 21
230.77513150000001
  0
LINE
  8
_0-0_0
  6
CONTINUOUS
 62
    7
 10
108.42892449999999
 20
230.89686549999999
 11
108.42892449999999
 21
230.84790050000001
  0
LINE
  8
_0-0_0
  6
CONTINUOUS
 62
    7
 10
108.42892449999999
 20
230.9214935
 11
108.42892449999999
 21
230.89686549999999
  0
LINE
  8
_0-0_0
  6
CONTINUOUS
 62
    7
 10
108.42892449999999
 20
230.9245755
 11
108.42892449999999
 21
230.9214935
  0
LINE
  8
_0-0_0
  6
CONTINUOUS
 62
    7
 10
108.42892449999999
 20
226.42765750000001
 11
108.42892449999999
 21
226.4245755
  0
LINE
  8
_0-0_0
  6
CONTINUOUS
 62
    7
 10
108.42892449999999
 20
226.4522705
 11
108.42892449999999
 21
226.42765750000001
  0
LINE
  8
_0-0_0
  6
CONTINUOUS
 62
    7
 10
108.42892449999999
 20
226.50123550000001
 11
108.42892449999999
 21
226.4522705
  0
LINE
  8
_0-0_0
  6
CONTINUOUS
 62
    7
 10
108.42892449999999
 20
226.57402049999999
 11
108.42892449999999
 21
226.50123550000001
  0
LINE
  8
_0-0_0
  6
CONTINUOUS
 62
    7
 10
108.42892449999999
 20
226.66979950000001
 11
108.42892449999999
 21
226.57402049999999
  0
LINE
  8
_0-0_0
  6
CONTINUOUS
 62
    7
 10
108.42892449999999
 20
226.70001250000001
 11
108.42892449999999
 21
226.66979950000001
  0
LINE
  8
_0-0_0
  6
CONTINUOUS
 62
    7
 10
108.42892449999999
 20
226.78756749999999
 11
108.42892449999999
 21
226.70001250000001
  0
LINE
  8
_0-0_0
  6
CONTINUOUS
 62
    7
 10
108.42892449999999
 20
226.9259945
 11
108.42892449999999
 21
226.78756749999999
  0
LINE
  8
_0-0_0
  6
CONTINUOUS
 62
    7
 10
108.42892449999999
 20
227.08358749999999
 11
108.42892449999999
 21
226.9259945
  0
LINE
  8
_0-0_0
  6
CONTINUOUS
 62
    7
 10
108.42892449999999
 20
227.25860550000002
 11
108.42892449999999
 21
227.08358749999999
  0
LINE
  8
_0-0_0
  6
CONTINUOUS
 62
    7
 10
108.42892449999999
 20
227.4491275
 11
108.42892449999999
 21
227.25860550000002
  0
LINE
  8
_0-0_0
  6
CONTINUOUS
 62
    7
 10
108.42892449999999
 20
227.65309150000002
 11
108.42892449999999
 21
227.4491275
  0
LINE
  8
_0-0_0
  6
CONTINUOUS
 62
    7
 10
108.42892449999999
 20
227.86824050000001
 11
108.42892449999999
 21
227.65309150000002
  0
LINE
  8
_0-0_0
  6
CONTINUOUS
 62
    7
 10
108.42892449999999
 20
228.09222450000001
 11
108.42892449999999
 21
227.86824050000001
  0
LINE
  8
_0-0_0
  6
CONTINUOUS
 62
    7
 10
108.42892449999999
 20
228.32260149999999
 11
108.42892449999999
 21
228.09222450000001
  0
LINE
  8
_0-0_0
  6
CONTINUOUS
 62
    7
 10
108.42892449999999
 20
228.55682350000001
 11
108.42892449999999
 21
228.32260149999999
  0
LINE
  8
_0-0_0
  6
CONTINUOUS
 62
    7
 10
108.42892449999999
 20
228.7923275
 11
108.42892449999999
 21
228.55682350000001
  0
LINE
  8
_0-0_0
  6
CONTINUOUS
 62
    7
 10
108.42892449999999
 20
229.02655050000001
 11
108.42892449999999
 21
228.7923275
  0
LINE
  8
_0-0_0
  6
CONTINUOUS
 62
    7
 10
108.42892449999999
 20
229.2569125
 11
108.42892449999999
 21
229.02655050000001
  0
LINE
  8
_0-0_0
  6
CONTINUOUS
 62
    7
 10
108.42892449999999
 20
229.4808955
 11
108.42892449999999
 21
229.2569125
  0
LINE
  8
_0-0_0
  6
CONTINUOUS
 62
    7
 10
108.42892449999999
 20
229.6960445
 11
108.42892449999999
 21
229.4808955
  0
LINE
  8
_0-0_0
  6
CONTINUOUS
 62
    7
 10
108.42892449999999
 20
229.75328049999999
 11
108.42892449999999
 21
229.6960445
  0
LINE
  8
_0-0_0
  6
CONTINUOUS
 62
    7
 10
123.42892449999999
 20
221.93661449999999
 11
123.42892449999999
 21
222.9822695
  0
LINE
  8
_0-0_0
  6
CONTINUOUS
 62
    7
 10
123.42892449999999
 20
224.2668765
 11
123.42892449999999
 21
222.9822695
  0
LINE
  8
_0-0_0
  6
CONTINUOUS
 62
    7
 10
123.42892449999999
 20
224.38226349999999
 11
123.42892449999999
 21
224.2668765
  0
LINE
  8
_0-0_0
  6
CONTINUOUS
 62
    7
 10
123.42892449999999
 20
221.93661449999999
 11
123.42892449999999
 21
218.81251549999999
  0
LINE
  8
_0-0_0
  6
CONTINUOUS
 62
    7
 10
123.42892449999999
 20
216.3668825
 11
123.42892449999999
 21
216.4822695
  0
LINE
  8
_0-0_0
  6
CONTINUOUS
 62
    7
 10
123.42892449999999
 20
217.7668765
 11
123.42892449999999
 21
216.4822695
  0
LINE
  8
_0-0_0
  6
CONTINUOUS
 62
    7
 10
123.42892449999999
 20
217.7668765
 11
123.42892449999999
 21
218.81251549999999
  0
LINE
  8
_0-0_0
  6
CONTINUOUS
 62
    7
 10
108.42892449999999
 20
213.30000250000001
 11
108.42892449999999
 21
213.15327450000001
  0
LINE
  8
_0-0_0
  6
CONTINUOUS
 62
    7
 10
108.42892449999999
 20
213.49053950000001
 11
108.42892449999999
 21
213.30000250000001
  0
LINE
  8
_0-0_0
  6
CONTINUOUS
 62
    7
 10
108.42892449999999
 20
213.66555750000001
 11
108.42892449999999
 21
213.49053950000001
  0
LINE
  8
_0-0_0
  6
CONTINUOUS
 62
    7
 10
108.42892449999999
 20
213.8231505
 11
108.42892449999999
 21
213.66555750000001
  0
LINE
  8
_0-0_0
  6
CONTINUOUS
 62
    7
 10
108.42892449999999
 20
213.9615785
 11
108.42892449999999
 21
213.8231505
  0
LINE
  8
_0-0_0
  6
CONTINUOUS
 62
    7
 10
108.42892449999999
 20
214.0793305
 11
108.42892449999999
 21
213.9615785
  0
LINE
  8
_0-0_0
  6
CONTINUOUS
 62
    7
 10
108.42892449999999
 20
214.17512550000001
 11
108.42892449999999
 21
214.0793305
  0
LINE
  8
_0-0_0
  6
CONTINUOUS
 62
    7
 10
108.42892449999999
 20
214.24790949999999
 11
108.42892449999999
 21
214.17512550000001
  0
LINE
  8
_0-0_0
  6
CONTINUOUS
 62
    7
 10
108.42892449999999
 20
214.3245695
 11
108.42892449999999
 21
214.24790949999999
  0
LINE
  8
_0-0_0
  6
CONTINUOUS
 62
    7
 10
108.42892449999999
 20
214.32148749999999
 11
108.42892449999999
 21
214.2968745
  0
LINE
  8
_0-0_0
  6
CONTINUOUS
 62
    7
 10
108.42892449999999
 20
214.3245695
 11
108.42892449999999
 21
214.32148749999999
  0
LINE
  8
_0-0_0
  6
CONTINUOUS
 62
    7
 10
108.42892449999999
 20
209.8276515
 11
108.42892449999999
 21
209.8245695
  0
LINE
  8
_0-0_0
  6
CONTINUOUS
 62
    7
 10
108.42892449999999
 20
209.85226449999999
 11
108.42892449999999
 21
209.8276515
  0
LINE
  8
_0-0_0
  6
CONTINUOUS
 62
    7
 10
108.42892449999999
 20
209.90124449999999
 11
108.42892449999999
 21
209.85226449999999
  0
LINE
  8
_0-0_0
  6
CONTINUOUS
 62
    7
 10
108.42892449999999
 20
209.97401450000001
 11
108.42892449999999
 21
209.90124449999999
  0
LINE
  8
_0-0_0
  6
CONTINUOUS
 62
    7
 10
108.42892449999999
 20
210.06980849999999
 11
108.42892449999999
 21
209.97401450000001
  0
LINE
  8
_0-0_0
  6
CONTINUOUS
 62
    7
 10
108.42892449999999
 20
210.10000550000001
 11
108.42892449999999
 21
210.06980849999999
  0
LINE
  8
_0-0_0
  6
CONTINUOUS
 62
    7
 10
108.42892449999999
 20
210.18756049999999
 11
108.42892449999999
 21
210.10000550000001
  0
LINE
  8
_0-0_0
  6
CONTINUOUS
 62
    7
 10
108.42892449999999
 20
210.32598849999999
 11
108.42892449999999
 21
210.18756049999999
  0
LINE
  8
_0-0_0
  6
CONTINUOUS
 62
    7
 10
108.42892449999999
 20
210.48358150000001
 11
108.42892449999999
 21
210.32598849999999
  0
LINE
  8
_0-0_0
  6
CONTINUOUS
 62
    7
 10
108.42892449999999
 20
210.65859950000001
 11
108.42892449999999
 21
210.48358150000001
  0
LINE
  8
_0-0_0
  6
CONTINUOUS
 62
    7
 10
108.42892449999999
 20
210.84913650000001
 11
108.42892449999999
 21
210.65859950000001
  0
LINE
  8
_0-0_0
  6
CONTINUOUS
 62
    7
 10
108.42892449999999
 20
211.05308550000001
 11
108.42892449999999
 21
210.84913650000001
  0
LINE
  8
_0-0_0
  6
CONTINUOUS
 62
    7
 10
108.42892449999999
 20
211.26823450000001
 11
108.42892449999999
 21
211.05308550000001
  0
LINE
  8
_0-0_0
  6
CONTINUOUS
 62
    7
 10
108.42892449999999
 20
211.4922335
 11
108.42892449999999
 21
211.26823450000001
  0
LINE
  8
_0-0_0
  6
CONTINUOUS
 62
    7
 10
108.42892449999999
 20
211.72259550000001
 11
108.42892449999999
 21
211.4922335
  0
LINE
  8
_0-0_0
  6
CONTINUOUS
 62
    7
 10
108.42892449999999
 20
211.9568175
 11
108.42892449999999
 21
211.72259550000001
  0
LINE
  8
_0-0_0
  6
CONTINUOUS
 62
    7
 10
108.42892449999999
 20
212.19232149999999
 11
108.42892449999999
 21
211.9568175
  0
LINE
  8
_0-0_0
  6
CONTINUOUS
 62
    7
 10
108.42892449999999
 20
212.42654450000001
 11
108.42892449999999
 21
212.19232149999999
  0
LINE
  8
_0-0_0
  6
CONTINUOUS
 62
    7
 10
108.42892449999999
 20
212.65692150000001
 11
108.42892449999999
 21
212.42654450000001
  0
LINE
  8
_0-0_0
  6
CONTINUOUS
 62
    7
 10
108.42892449999999
 20
212.88090550000001
 11
108.42892449999999
 21
212.65692150000001
  0
LINE
  8
_0-0_0
  6
CONTINUOUS
 62
    7
 10
108.42892449999999
 20
213.09605350000001
 11
108.42892449999999
 21
212.88090550000001
  0
LINE
  8
_0-0_0
  6
CONTINUOUS
 62
    7
 10
108.42892449999999
 20
213.15327450000001
 11
108.42892449999999
 21
213.09605350000001
  0
LINE
  8
_0-0_0
  6
CONTINUOUS
 62
    7
 10
219.42892449999999
 20
222.9245755
 11
215.42892449999999
 21
222.9245755
  0
ARC
  8
_0-0_0
  6
CONTINUOUS
 62
    7
 10
215.42892449999999
 20
225.1745755
 40
2.25
 50
90.000003000000007
 51
269.99999700000006
  0
LINE
  8
_0-0_0
  6
CONTINUOUS
 62
    7
 10
215.42892449999999
 20
227.4245755
 11
219.42892449999999
 21
227.4245755
  0
ARC
  8
_0-0_0
  6
CONTINUOUS
 62
    7
 10
219.42892449999999
 20
225.1745755
 40
2.25
 50
269.99999700000001
 51
90.000002999999992
  0
ARC
  8
_0-0_0
  6
CONTINUOUS
 62
    7
 10
159.4289095
 20
225.1745755
 40
2.25
 50
90.000003000000007
 51
269.99999700000006
  0
LINE
  8
_0-0_0
  6
CONTINUOUS
 62
    7
 10
159.4289095
 20
227.4245755
 11
163.4289095
 21
227.4245755
  0
ARC
  8
_0-0_0
  6
CONTINUOUS
 62
    7
 10
163.4289095
 20
225.1745755
 40
2.25
 50
269.99999700000001
 51
90.000002999999992
  0
LINE
  8
_0-0_0
  6
CONTINUOUS
 62
    7
 10
163.4289095
 20
222.9245755
 11
159.4289095
 21
222.9245755
  0
LINE
  8
_0-0_0
  6
CONTINUOUS
 62
    7
 10
108.42892449999999
 20
229.90000950000001
 11
108.17892449999999
 21
229.9245755
  0
LINE
  8
_0-0_0
  6
CONTINUOUS
 62
    7
 10
108.42892449999999
 20
229.6960445
 11
108.17892449999999
 21
229.9245755
  0
LINE
  8
_0-0_0
  6
CONTINUOUS
 62
    7
 10
108.42892449999999
 20
230.09054549999999
 11
108.17892449999999
 21
230.14404250000001
  0
LINE
  8
_0-0_0
  6
CONTINUOUS
 62
    7
 10
108.42892449999999
 20
229.90000950000001
 11
108.17892449999999
 21
230.14404250000001
  0
LINE
  8
_0-0_0
  6
CONTINUOUS
 62
    7
 10
108.42892449999999
 20
230.26556350000001
 11
108.17892449999999
 21
230.3473965
  0
LINE
  8
_0-0_0
  6
CONTINUOUS
 62
    7
 10
108.42892449999999
 20
230.09054549999999
 11
108.17892449999999
 21
230.3473965
  0
LINE
  8
_0-0_0
  6
CONTINUOUS
 62
    7
 10
108.42892449999999
 20
230.4231565
 11
108.17892449999999
 21
230.53244050000001
  0
LINE
  8
_0-0_0
  6
CONTINUOUS
 62
    7
 10
108.42892449999999
 20
230.26556350000001
 11
108.17892449999999
 21
230.53244050000001
  0
LINE
  8
_0-0_0
  6
CONTINUOUS
 62
    7
 10
108.42892449999999
 20
230.56158450000001
 11
108.17892449999999
 21
230.6971125
  0
LINE
  8
_0-0_0
  6
CONTINUOUS
 62
    7
 10
108.42892449999999
 20
230.4231565
 11
108.17892449999999
 21
230.6971125
  0
LINE
  8
_0-0_0
  6
CONTINUOUS
 62
    7
 10
108.42892449999999
 20
230.67933650000001
 11
108.17892449999999
 21
230.8396305
  0
LINE
  8
_0-0_0
  6
CONTINUOUS
 62
    7
 10
108.42892449999999
 20
230.56158450000001
 11
108.17892449999999
 21
230.8396305
  0
LINE
  8
_0-0_0
  6
CONTINUOUS
 62
    7
 10
108.42892449999999
 20
230.77513150000001
 11
108.17892449999999
 21
230.95843450000001
  0
LINE
  8
_0-0_0
  6
CONTINUOUS
 62
    7
 10
108.42892449999999
 20
230.67933650000001
 11
108.17892449999999
 21
230.95843450000001
  0
LINE
  8
_0-0_0
  6
CONTINUOUS
 62
    7
 10
108.42892449999999
 20
230.84790050000001
 11
108.17892449999999
 21
231.05221549999999
  0
LINE
  8
_0-0_0
  6
CONTINUOUS
 62
    7
 10
108.42892449999999
 20
230.77513150000001
 11
108.17892449999999
 21
231.05221549999999
  0
LINE
  8
_0-0_0
  6
CONTINUOUS
 62
    7
 10
108.42892449999999
 20
230.89686549999999
 11
108.17892449999999
 21
231.1199335
  0
LINE
  8
_0-0_0
  6
CONTINUOUS
 62
    7
 10
108.42892449999999
 20
230.84790050000001
 11
108.17892449999999
 21
231.1199335
  0
LINE
  8
_0-0_0
  6
CONTINUOUS
 62
    7
 10
108.42892449999999
 20
230.9214935
 11
108.17892449999999
 21
231.16087350000001
  0
LINE
  8
_0-0_0
  6
CONTINUOUS
 62
    7
 10
108.42892449999999
 20
230.89686549999999
 11
108.17892449999999
 21
231.16087350000001
  0
LINE
  8
_0-0_0
  6
CONTINUOUS
 62
    7
 10
108.42892449999999
 20
230.9214935
 11
108.17892449999999
 21
231.1745755
  0
LINE
  8
_0-0_0
  6
CONTINUOUS
 62
    7
 10
108.42892449999999
 20
226.42765750000001
 11
108.17892449999999
 21
226.1745755
  0
LINE
  8
_0-0_0
  6
CONTINUOUS
 62
    7
 10
108.42892449999999
 20
226.4522705
 11
108.17892449999999
 21
226.18826250000001
  0
LINE
  8
_0-0_0
  6
CONTINUOUS
 62
    7
 10
108.42892449999999
 20
226.42765750000001
 11
108.17892449999999
 21
226.18826250000001
  0
LINE
  8
_0-0_0
  6
CONTINUOUS
 62
    7
 10
108.42892449999999
 20
226.50123550000001
 11
108.17892449999999
 21
226.22920250000001
  0
LINE
  8
_0-0_0
  6
CONTINUOUS
 62
    7
 10
108.42892449999999
 20
226.4522705
 11
108.17892449999999
 21
226.22920250000001
  0
LINE
  8
_0-0_0
  6
CONTINUOUS
 62
    7
 10
108.42892449999999
 20
226.57402049999999
 11
108.17892449999999
 21
226.29693549999999
  0
LINE
  8
_0-0_0
  6
CONTINUOUS
 62
    7
 10
108.42892449999999
 20
226.50123550000001
 11
108.17892449999999
 21
226.29693549999999
  0
LINE
  8
_0-0_0
  6
CONTINUOUS
 62
    7
 10
108.42892449999999
 20
226.66979950000001
 11
108.17892449999999
 21
226.39070150000001
  0
LINE
  8
_0-0_0
  6
CONTINUOUS
 62
    7
 10
108.42892449999999
 20
226.57402049999999
 11
108.17892449999999
 21
226.39070150000001
  0
LINE
  8
_0-0_0
  6
CONTINUOUS
 62
    7
 10
108.42892449999999
 20
226.66979950000001
 11
108.29895050000002
 21
226.58595249999999
  0
LINE
  8
_0-0_0
  6
CONTINUOUS
 62
    7
 10
108.42892449999999
 20
226.78756749999999
 11
108.17892449999999
 21
226.50950650000001
  0
LINE
  8
_0-0_0
  6
CONTINUOUS
 62
    7
 10
108.29895050000002
 20
226.58595249999999
 11
108.17892449999999
 21
226.50950650000001
  0
LINE
  8
_0-0_0
  6
CONTINUOUS
 62
    7
 10
108.42892449999999
 20
226.9259945
 11
108.17892449999999
 21
226.65202350000001
  0
LINE
  8
_0-0_0
  6
CONTINUOUS
 62
    7
 10
108.42892449999999
 20
226.78756749999999
 11
108.17892449999999
 21
226.65202350000001
  0
LINE
  8
_0-0_0
  6
CONTINUOUS
 62
    7
 10
108.42892449999999
 20
227.08358749999999
 11
108.17892449999999
 21
226.8167115
  0
LINE
  8
_0-0_0
  6
CONTINUOUS
 62
    7
 10
108.42892449999999
 20
226.9259945
 11
108.17892449999999
 21
226.8167115
  0
LINE
  8
_0-0_0
  6
CONTINUOUS
 62
    7
 10
108.42892449999999
 20
227.25860550000002
 11
108.17892449999999
 21
227.00173950000001
  0
LINE
  8
_0-0_0
  6
CONTINUOUS
 62
    7
 10
108.42892449999999
 20
227.08358749999999
 11
108.17892449999999
 21
227.00173950000001
  0
LINE
  8
_0-0_0
  6
CONTINUOUS
 62
    7
 10
108.42892449999999
 20
227.4491275
 11
108.17892449999999
 21
227.20510849999999
  0
LINE
  8
_0-0_0
  6
CONTINUOUS
 62
    7
 10
108.42892449999999
 20
227.25860550000002
 11
108.17892449999999
 21
227.20510849999999
  0
LINE
  8
_0-0_0
  6
CONTINUOUS
 62
    7
 10
108.42892449999999
 20
227.65309150000002
 11
108.17892449999999
 21
227.4245755
  0
LINE
  8
_0-0_0
  6
CONTINUOUS
 62
    7
 10
108.42892449999999
 20
227.4491275
 11
108.17892449999999
 21
227.4245755
  0
LINE
  8
_0-0_0
  6
CONTINUOUS
 62
    7
 10
108.42892449999999
 20
227.86824050000001
 11
108.17892449999999
 21
227.65772950000002
  0
LINE
  8
_0-0_0
  6
CONTINUOUS
 62
    7
 10
108.42892449999999
 20
227.65309150000002
 11
108.17892449999999
 21
227.65772950000002
  0
LINE
  8
_0-0_0
  6
CONTINUOUS
 62
    7
 10
108.42892449999999
 20
228.09222450000001
 11
108.17892449999999
 21
227.90202350000001
  0
LINE
  8
_0-0_0
  6
CONTINUOUS
 62
    7
 10
108.42892449999999
 20
227.86824050000001
 11
108.17892449999999
 21
227.90202350000001
  0
LINE
  8
_0-0_0
  6
CONTINUOUS
 62
    7
 10
108.42892449999999
 20
228.32260149999999
 11
108.17892449999999
 21
228.1547855
  0
LINE
  8
_0-0_0
  6
CONTINUOUS
 62
    7
 10
108.42892449999999
 20
228.09222450000001
 11
108.17892449999999
 21
228.1547855
  0
LINE
  8
_0-0_0
  6
CONTINUOUS
 62
    7
 10
108.42892449999999
 20
228.55682350000001
 11
108.17892449999999
 21
228.4132535
  0
LINE
  8
_0-0_0
  6
CONTINUOUS
 62
    7
 10
108.42892449999999
 20
228.32260149999999
 11
108.17892449999999
 21
228.4132535
  0
LINE
  8
_0-0_0
  6
CONTINUOUS
 62
    7
 10
108.42892449999999
 20
228.7923275
 11
108.17892449999999
 21
228.6745755
  0
LINE
  8
_0-0_0
  6
CONTINUOUS
 62
    7
 10
108.42892449999999
 20
228.55682350000001
 11
108.17892449999999
 21
228.6745755
  0
LINE
  8
_0-0_0
  6
CONTINUOUS
 62
    7
 10
108.42892449999999
 20
229.02655050000001
 11
108.17892449999999
 21
228.93589750000001
  0
LINE
  8
_0-0_0
  6
CONTINUOUS
 62
    7
 10
108.42892449999999
 20
228.7923275
 11
108.17892449999999
 21
228.93589750000001
  0
LINE
  8
_0-0_0
  6
CONTINUOUS
 62
    7
 10
108.42892449999999
 20
229.2569125
 11
108.17892449999999
 21
229.19435150000001
  0
LINE
  8
_0-0_0
  6
CONTINUOUS
 62
    7
 10
108.42892449999999
 20
229.02655050000001
 11
108.17892449999999
 21
229.19435150000001
  0
LINE
  8
_0-0_0
  6
CONTINUOUS
 62
    7
 10
108.42892449999999
 20
229.4808955
 11
108.17892449999999
 21
229.4471125
  0
LINE
  8
_0-0_0
  6
CONTINUOUS
 62
    7
 10
108.42892449999999
 20
229.2569125
 11
108.17892449999999
 21
229.4471125
  0
LINE
  8
_0-0_0
  6
CONTINUOUS
 62
    7
 10
108.42892449999999
 20
229.6960445
 11
108.17892449999999
 21
229.6914065
  0
LINE
  8
_0-0_0
  6
CONTINUOUS
 62
    7
 10
108.42892449999999
 20
229.4808955
 11
108.17892449999999
 21
229.6914065
  0
LINE
  8
_0-0_0
  6
CONTINUOUS
 62
    7
 10
123.42892449999999
 20
224.2668765
 11
113.72109950000001
 21
224.2668765
  0
LINE
  8
_0-0_0
  6
CONTINUOUS
 62
    7
 10
113.72109950000001
 20
224.2668765
 11
113.66661050000002
 21
224.33682250000001
  0
LINE
  8
_0-0_0
  6
CONTINUOUS
 62
    7
 10
113.66661050000002
 20
224.33682250000001
 11
113.6155095
 21
224.40563950000001
  0
LINE
  8
_0-0_0
  6
CONTINUOUS
 62
    7
 10
113.6155095
 20
224.40563950000001
 11
113.5678715
 21
224.47314449999999
  0
LINE
  8
_0-0_0
  6
CONTINUOUS
 62
    7
 10
113.5678715
 20
224.47314449999999
 11
113.52337650000001
 21
224.53968750000001
  0
LINE
  8
_0-0_0
  6
CONTINUOUS
 62
    7
 10
113.52337650000001
 20
224.53968750000001
 11
113.46864350000001
 21
224.6272275
  0
LINE
  8
_0-0_0
  6
CONTINUOUS
 62
    7
 10
113.46864350000001
 20
224.6272275
 11
113.41914350000002
 21
224.7133335
  0
LINE
  8
_0-0_0
  6
CONTINUOUS
 62
    7
 10
113.41914350000002
 20
224.7133335
 11
113.37466449999999
 21
224.7981715
  0
LINE
  8
_0-0_0
  6
CONTINUOUS
 62
    7
 10
113.37466449999999
 20
224.7981715
 11
113.3276975
 21
224.8984835
  0
LINE
  8
_0-0_0
  6
CONTINUOUS
 62
    7
 10
113.3276975
 20
224.8984835
 11
113.28750650000001
 21
224.99740550000001
  0
LINE
  8
_0-0_0
  6
CONTINUOUS
 62
    7
 10
113.28750650000001
 20
224.99740550000001
 11
113.25383049999999
 21
225.0951685
  0
LINE
  8
_0-0_0
  6
CONTINUOUS
 62
    7
 10
113.25383049999999
 20
225.0951685
 11
113.22654750000001
 21
225.1919705
  0
LINE
  8
_0-0_0
  6
CONTINUOUS
 62
    7
 10
113.22654750000001
 20
225.1919705
 11
113.20550550000002
 21
225.28802450000001
  0
LINE
  8
_0-0_0
  6
CONTINUOUS
 62
    7
 10
113.20550550000002
 20
225.28802450000001
 11
113.18957550000002
 21
225.3918765
  0
LINE
  8
_0-0_0
  6
CONTINUOUS
 62
    7
 10
113.18957550000002
 20
225.3918765
 11
113.18081650000002
 21
225.49530050000001
  0
LINE
  8
_0-0_0
  6
CONTINUOUS
 62
    7
 10
113.18081650000002
 20
225.49530050000001
 11
113.1791685
 21
225.59854150000001
  0
LINE
  8
_0-0_0
  6
CONTINUOUS
 62
    7
 10
113.1791685
 20
225.59854150000001
 11
113.18464650000001
 21
225.70182750000001
  0
LINE
  8
_0-0_0
  6
CONTINUOUS
 62
    7
 10
113.18464650000001
 20
225.70182750000001
 11
113.1972505
 21
225.8054195
  0
LINE
  8
_0-0_0
  6
CONTINUOUS
 62
    7
 10
113.1972505
 20
225.8054195
 11
113.2170715
 21
225.90957650000001
  0
LINE
  8
_0-0_0
  6
CONTINUOUS
 62
    7
 10
113.2170715
 20
225.90957650000001
 11
113.24421649999999
 21
226.01452649999999
  0
LINE
  8
_0-0_0
  6
CONTINUOUS
 62
    7
 10
113.24421649999999
 20
226.01452649999999
 11
113.27886950000001
 21
226.12055950000001
  0
LINE
  8
_0-0_0
  6
CONTINUOUS
 62
    7
 10
113.27886950000001
 20
226.12055950000001
 11
113.32119750000001
 21
226.2279355
  0
LINE
  8
_0-0_0
  6
CONTINUOUS
 62
    7
 10
113.32119750000001
 20
226.2279355
 11
113.3715215
 21
226.33694450000002
  0
LINE
  8
_0-0_0
  6
CONTINUOUS
 62
    7
 10
113.3715215
 20
226.33694450000002
 11
113.41722150000001
 21
226.42460650000001
  0
LINE
  8
_0-0_0
  6
CONTINUOUS
 62
    7
 10
123.42892449999999
 20
222.9822695
 11
113.72109950000001
 21
222.9822695
  0
LINE
  8
_0-0_0
  6
CONTINUOUS
 62
    7
 10
113.72109950000001
 20
222.9822695
 11
113.6267545
 21
222.73564150000001
  0
LINE
  8
_0-0_0
  6
CONTINUOUS
 62
    7
 10
113.6267545
 20
222.73564150000001
 11
113.54281650000001
 21
222.49568149999999
  0
LINE
  8
_0-0_0
  6
CONTINUOUS
 62
    7
 10
113.54281650000001
 20
222.49568149999999
 11
113.46864350000001
 21
222.26156650000001
  0
LINE
  8
_0-0_0
  6
CONTINUOUS
 62
    7
 10
113.46864350000001
 20
222.26156650000001
 11
113.40377850000002
 21
222.03251650000001
  0
LINE
  8
_0-0_0
  6
CONTINUOUS
 62
    7
 10
113.40377850000002
 20
222.03251650000001
 11
113.34773250000001
 21
221.80784550000001
  0
LINE
  8
_0-0_0
  6
CONTINUOUS
 62
    7
 10
113.34773250000001
 20
221.80784550000001
 11
113.30017050000001
 21
221.58686850000001
  0
LINE
  8
_0-0_0
  6
CONTINUOUS
 62
    7
 10
113.30017050000001
 20
221.58686850000001
 11
113.26075750000001
 21
221.36895749999999
  0
LINE
  8
_0-0_0
  6
CONTINUOUS
 62
    7
 10
113.26075750000001
 20
221.36895749999999
 11
113.2292635
 21
221.1535035
  0
LINE
  8
_0-0_0
  6
CONTINUOUS
 62
    7
 10
113.2292635
 20
221.1535035
 11
113.20550550000002
 21
220.93997150000001
  0
LINE
  8
_0-0_0
  6
CONTINUOUS
 62
    7
 10
113.20550550000002
 20
220.93997150000001
 11
113.18957550000002
 21
220.73225350000001
  0
LINE
  8
_0-0_0
  6
CONTINUOUS
 62
    7
 10
113.18957550000002
 20
220.73225350000001
 11
113.18081650000002
 21
220.52540550000001
  0
LINE
  8
_0-0_0
  6
CONTINUOUS
 62
    7
 10
113.18081650000002
 20
220.52540550000001
 11
113.1791685
 21
220.3189395
  0
LINE
  8
_0-0_0
  6
CONTINUOUS
 62
    7
 10
113.1791685
 20
220.3189395
 11
113.18464650000001
 21
220.11235049999999
  0
LINE
  8
_0-0_0
  6
CONTINUOUS
 62
    7
 10
113.18464650000001
 20
220.11235049999999
 11
113.1972505
 21
219.90516650000001
  0
LINE
  8
_0-0_0
  6
CONTINUOUS
 62
    7
 10
113.1972505
 20
219.90516650000001
 11
113.2170715
 21
219.69686849999999
  0
LINE
  8
_0-0_0
  6
CONTINUOUS
 62
    7
 10
113.2170715
 20
219.69686849999999
 11
113.24421649999999
 21
219.4869535
  0
LINE
  8
_0-0_0
  6
CONTINUOUS
 62
    7
 10
113.24421649999999
 20
219.4869535
 11
113.27886950000001
 21
219.27488650000001
  0
LINE
  8
_0-0_0
  6
CONTINUOUS
 62
    7
 10
113.27886950000001
 20
219.27488650000001
 11
113.32119750000001
 21
219.0601345
  0
LINE
  8
_0-0_0
  6
CONTINUOUS
 62
    7
 10
113.32119750000001
 20
219.0601345
 11
113.3715215
 21
218.84213249999999
  0
LINE
  8
_0-0_0
  6
CONTINUOUS
 62
    7
 10
113.3715215
 20
218.84213249999999
 11
113.4257815
 21
218.63584850000001
  0
LINE
  8
_0-0_0
  6
CONTINUOUS
 62
    7
 10
113.4257815
 20
218.63584850000001
 11
113.48748750000001
 21
218.4257355
  0
LINE
  8
_0-0_0
  6
CONTINUOUS
 62
    7
 10
113.48748750000001
 20
218.4257355
 11
113.5570065
 21
218.2112735
  0
LINE
  8
_0-0_0
  6
CONTINUOUS
 62
    7
 10
113.5570065
 20
218.2112735
 11
113.6347045
 21
217.9918515
  0
LINE
  8
_0-0_0
  6
CONTINUOUS
 62
    7
 10
113.6347045
 20
217.9918515
 11
113.72109950000001
 21
217.7668765
  0
LINE
  8
_0-0_0
  6
CONTINUOUS
 62
    7
 10
123.42892449999999
 20
217.7668765
 11
113.72109950000001
 21
217.7668765
  0
ARC
  8
_0-0_0
  6
CONTINUOUS
 62
    7
 10
118.59265150000002
 20
223.6245725
 40
4.9136889999999998
 50
172.48898299999999
 51
187.51101699999998
  0
LINE
  8
_0-0_0
  6
CONTINUOUS
 62
    7
 10
123.42892449999999
 20
216.4822695
 11
113.72109950000001
 21
216.4822695
  0
LINE
  8
_0-0_0
  6
CONTINUOUS
 62
    7
 10
113.72109950000001
 20
213.8745725
 11
113.66661050000002
 21
213.9445035
  0
LINE
  8
_0-0_0
  6
CONTINUOUS
 62
    7
 10
113.66661050000002
 20
213.9445035
 11
113.6155095
 21
214.01333650000001
  0
LINE
  8
_0-0_0
  6
CONTINUOUS
 62
    7
 10
113.6155095
 20
214.01333650000001
 11
113.5678715
 21
214.08084049999999
  0
LINE
  8
_0-0_0
  6
CONTINUOUS
 62
    7
 10
113.5678715
 20
214.08084049999999
 11
113.52337650000001
 21
214.14738450000002
  0
LINE
  8
_0-0_0
  6
CONTINUOUS
 62
    7
 10
113.52337650000001
 20
214.14738450000002
 11
113.46864350000001
 21
214.23492450000001
  0
LINE
  8
_0-0_0
  6
CONTINUOUS
 62
    7
 10
113.46864350000001
 20
214.23492450000001
 11
113.41914350000002
 21
214.32102950000001
  0
LINE
  8
_0-0_0
  6
CONTINUOUS
 62
    7
 10
113.41914350000002
 20
214.32102950000001
 11
113.37466449999999
 21
214.40585350000001
  0
LINE
  8
_0-0_0
  6
CONTINUOUS
 62
    7
 10
113.37466449999999
 20
214.40585350000001
 11
113.3276975
 21
214.5061795
  0
LINE
  8
_0-0_0
  6
CONTINUOUS
 62
    7
 10
113.3276975
 20
214.5061795
 11
113.28750650000001
 21
214.60510250000002
  0
LINE
  8
_0-0_0
  6
CONTINUOUS
 62
    7
 10
113.28750650000001
 20
214.60510250000002
 11
113.25383049999999
 21
214.7028655
  0
LINE
  8
_0-0_0
  6
CONTINUOUS
 62
    7
 10
113.25383049999999
 20
214.7028655
 11
113.22654750000001
 21
214.7996675
  0
LINE
  8
_0-0_0
  6
CONTINUOUS
 62
    7
 10
113.22654750000001
 20
214.7996675
 11
113.20550550000002
 21
214.89572150000001
  0
LINE
  8
_0-0_0
  6
CONTINUOUS
 62
    7
 10
113.20550550000002
 20
214.89572150000001
 11
113.18957550000002
 21
214.9995725
  0
LINE
  8
_0-0_0
  6
CONTINUOUS
 62
    7
 10
113.18957550000002
 20
214.9995725
 11
113.18081650000002
 21
215.10299649999999
  0
LINE
  8
_0-0_0
  6
CONTINUOUS
 62
    7
 10
113.18081650000002
 20
215.10299649999999
 11
113.1791685
 21
215.20623750000001
  0
LINE
  8
_0-0_0
  6
CONTINUOUS
 62
    7
 10
113.1791685
 20
215.20623750000001
 11
113.18464650000001
 21
215.30952450000001
  0
LINE
  8
_0-0_0
  6
CONTINUOUS
 62
    7
 10
113.18464650000001
 20
215.30952450000001
 11
113.1972505
 21
215.4131165
  0
LINE
  8
_0-0_0
  6
CONTINUOUS
 62
    7
 10
113.1972505
 20
215.4131165
 11
113.2170715
 21
215.51727249999999
  0
LINE
  8
_0-0_0
  6
CONTINUOUS
 62
    7
 10
113.2170715
 20
215.51727249999999
 11
113.24421649999999
 21
215.62222249999999
  0
LINE
  8
_0-0_0
  6
CONTINUOUS
 62
    7
 10
113.24421649999999
 20
215.62222249999999
 11
113.27886950000001
 21
215.72825650000001
  0
LINE
  8
_0-0_0
  6
CONTINUOUS
 62
    7
 10
113.27886950000001
 20
215.72825650000001
 11
113.32119750000001
 21
215.8356325
  0
LINE
  8
_0-0_0
  6
CONTINUOUS
 62
    7
 10
113.32119750000001
 20
215.8356325
 11
113.3715215
 21
215.94464049999999
  0
LINE
  8
_0-0_0
  6
CONTINUOUS
 62
    7
 10
113.3715215
 20
215.94464049999999
 11
113.4257815
 21
216.04779049999999
  0
LINE
  8
_0-0_0
  6
CONTINUOUS
 62
    7
 10
113.4257815
 20
216.04779049999999
 11
113.48748750000001
 21
216.15283149999999
  0
LINE
  8
_0-0_0
  6
CONTINUOUS
 62
    7
 10
113.48748750000001
 20
216.15283149999999
 11
113.5570065
 21
216.26007050000001
  0
LINE
  8
_0-0_0
  6
CONTINUOUS
 62
    7
 10
113.5570065
 20
216.26007050000001
 11
113.6347045
 21
216.36978150000002
  0
LINE
  8
_0-0_0
  6
CONTINUOUS
 62
    7
 10
113.6347045
 20
216.36978150000002
 11
113.72109950000001
 21
216.4822695
  0
LINE
  8
_0-0_0
  6
CONTINUOUS
 62
    7
 10
123.42892449999999
 20
213.8745725
 11
113.72109950000001
 21
213.8745725
  0
ARC
  8
_0-0_0
  6
CONTINUOUS
 62
    7
 10
118.6028135
 20
217.12368749999999
 40
4.9238749999999998
 50
172.49424200000001
 51
181.535968
  0
ARC
  8
_0-0_0
  6
CONTINUOUS
 62
    7
 10
118.6408385
 20
217.12863150000001
 40
4.9620009999999999
 50
181.58130700000004
 51
187.48478900000003
  0
LINE
  8
_0-0_0
  6
CONTINUOUS
 62
    7
 10
113.67892449999999
 20
213.8745725
 11
113.72109950000001
 21
213.8745725
  0
LINE
  8
_0-0_0
  6
CONTINUOUS
 62
    7
 10
108.42892449999999
 20
213.30000250000001
 11
108.17892449999999
 21
213.3245695
  0
LINE
  8
_0-0_0
  6
CONTINUOUS
 62
    7
 10
108.42892449999999
 20
213.09605350000001
 11
108.17892449999999
 21
213.3245695
  0
LINE
  8
_0-0_0
  6
CONTINUOUS
 62
    7
 10
108.42892449999999
 20
213.49053950000001
 11
108.17892449999999
 21
213.5440365
  0
LINE
  8
_0-0_0
  6
CONTINUOUS
 62
    7
 10
108.42892449999999
 20
213.30000250000001
 11
108.17892449999999
 21
213.5440365
  0
LINE
  8
_0-0_0
  6
CONTINUOUS
 62
    7
 10
108.42892449999999
 20
213.66555750000001
 11
108.17892449999999
 21
213.74740550000001
  0
LINE
  8
_0-0_0
  6
CONTINUOUS
 62
    7
 10
108.42892449999999
 20
213.49053950000001
 11
108.17892449999999
 21
213.74740550000001
  0
LINE
  8
_0-0_0
  6
CONTINUOUS
 62
    7
 10
108.42892449999999
 20
213.8231505
 11
108.17892449999999
 21
213.9324335
  0
LINE
  8
_0-0_0
  6
CONTINUOUS
 62
    7
 10
108.42892449999999
 20
213.66555750000001
 11
108.17892449999999
 21
213.9324335
  0
LINE
  8
_0-0_0
  6
CONTINUOUS
 62
    7
 10
108.42892449999999
 20
213.9615785
 11
108.17892449999999
 21
214.0971065
  0
LINE
  8
_0-0_0
  6
CONTINUOUS
 62
    7
 10
108.42892449999999
 20
213.8231505
 11
108.17892449999999
 21
214.0971065
  0
LINE
  8
_0-0_0
  6
CONTINUOUS
 62
    7
 10
108.42892449999999
 20
214.0793305
 11
108.17892449999999
 21
214.23963950000001
  0
LINE
  8
_0-0_0
  6
CONTINUOUS
 62
    7
 10
108.42892449999999
 20
213.9615785
 11
108.17892449999999
 21
214.23963950000001
  0
LINE
  8
_0-0_0
  6
CONTINUOUS
 62
    7
 10
108.42892449999999
 20
214.17512550000001
 11
108.17892449999999
 21
214.3584285
  0
LINE
  8
_0-0_0
  6
CONTINUOUS
 62
    7
 10
108.42892449999999
 20
214.0793305
 11
108.17892449999999
 21
214.3584285
  0
LINE
  8
_0-0_0
  6
CONTINUOUS
 62
    7
 10
108.42892449999999
 20
214.24790949999999
 11
108.17892449999999
 21
214.45220950000001
  0
LINE
  8
_0-0_0
  6
CONTINUOUS
 62
    7
 10
108.42892449999999
 20
214.17512550000001
 11
108.17892449999999
 21
214.45220950000001
  0
LINE
  8
_0-0_0
  6
CONTINUOUS
 62
    7
 10
108.42892449999999
 20
214.2968745
 11
108.17892449999999
 21
214.51994350000001
  0
LINE
  8
_0-0_0
  6
CONTINUOUS
 62
    7
 10
108.42892449999999
 20
214.24790949999999
 11
108.17892449999999
 21
214.51994350000001
  0
LINE
  8
_0-0_0
  6
CONTINUOUS
 62
    7
 10
108.42892449999999
 20
214.32148749999999
 11
108.17892449999999
 21
214.56088249999999
  0
LINE
  8
_0-0_0
  6
CONTINUOUS
 62
    7
 10
108.42892449999999
 20
214.2968745
 11
108.17892449999999
 21
214.56088249999999
  0
LINE
  8
_0-0_0
  6
CONTINUOUS
 62
    7
 10
108.42892449999999
 20
214.32148749999999
 11
108.17892449999999
 21
214.5745695
  0
LINE
  8
_0-0_0
  6
CONTINUOUS
 62
    7
 10
108.42892449999999
 20
209.8276515
 11
108.17892449999999
 21
209.5745695
  0
LINE
  8
_0-0_0
  6
CONTINUOUS
 62
    7
 10
108.42892449999999
 20
209.85226449999999
 11
108.17892449999999
 21
209.58827149999999
  0
LINE
  8
_0-0_0
  6
CONTINUOUS
 62
    7
 10
108.42892449999999
 20
209.8276515
 11
108.17892449999999
 21
209.58827149999999
  0
LINE
  8
_0-0_0
  6
CONTINUOUS
 62
    7
 10
108.42892449999999
 20
209.90124449999999
 11
108.17892449999999
 21
209.6292115
  0
LINE
  8
_0-0_0
  6
CONTINUOUS
 62
    7
 10
108.42892449999999
 20
209.85226449999999
 11
108.17892449999999
 21
209.6292115
  0
LINE
  8
_0-0_0
  6
CONTINUOUS
 62
    7
 10
108.42892449999999
 20
209.97401450000001
 11
108.17892449999999
 21
209.69692950000001
  0
LINE
  8
_0-0_0
  6
CONTINUOUS
 62
    7
 10
108.42892449999999
 20
209.90124449999999
 11
108.17892449999999
 21
209.69692950000001
  0
LINE
  8
_0-0_0
  6
CONTINUOUS
 62
    7
 10
108.42892449999999
 20
210.06980849999999
 11
108.17892449999999
 21
209.79071049999999
  0
LINE
  8
_0-0_0
  6
CONTINUOUS
 62
    7
 10
108.42892449999999
 20
209.97401450000001
 11
108.17892449999999
 21
209.79071049999999
  0
LINE
  8
_0-0_0
  6
CONTINUOUS
 62
    7
 10
108.42892449999999
 20
210.06980849999999
 11
108.29895050000002
 21
209.9859615
  0
LINE
  8
_0-0_0
  6
CONTINUOUS
 62
    7
 10
108.42892449999999
 20
210.18756049999999
 11
108.17892449999999
 21
209.9095155
  0
LINE
  8
_0-0_0
  6
CONTINUOUS
 62
    7
 10
108.29895050000002
 20
209.9859615
 11
108.17892449999999
 21
209.9095155
  0
LINE
  8
_0-0_0
  6
CONTINUOUS
 62
    7
 10
108.42892449999999
 20
210.32598849999999
 11
108.17892449999999
 21
210.0520325
  0
LINE
  8
_0-0_0
  6
CONTINUOUS
 62
    7
 10
108.42892449999999
 20
210.18756049999999
 11
108.17892449999999
 21
210.0520325
  0
LINE
  8
_0-0_0
  6
CONTINUOUS
 62
    7
 10
108.42892449999999
 20
210.48358150000001
 11
108.17892449999999
 21
210.21670549999999
  0
LINE
  8
_0-0_0
  6
CONTINUOUS
 62
    7
 10
108.42892449999999
 20
210.32598849999999
 11
108.17892449999999
 21
210.21670549999999
  0
LINE
  8
_0-0_0
  6
CONTINUOUS
 62
    7
 10
108.42892449999999
 20
210.65859950000001
 11
108.17892449999999
 21
210.4017485
  0
LINE
  8
_0-0_0
  6
CONTINUOUS
 62
    7
 10
108.42892449999999
 20
210.48358150000001
 11
108.17892449999999
 21
210.4017485
  0
LINE
  8
_0-0_0
  6
CONTINUOUS
 62
    7
 10
108.42892449999999
 20
210.84913650000001
 11
108.17892449999999
 21
210.60510250000002
  0
LINE
  8
_0-0_0
  6
CONTINUOUS
 62
    7
 10
108.42892449999999
 20
210.65859950000001
 11
108.17892449999999
 21
210.60510250000002
  0
LINE
  8
_0-0_0
  6
CONTINUOUS
 62
    7
 10
108.42892449999999
 20
211.05308550000001
 11
108.17892449999999
 21
210.8245695
  0
LINE
  8
_0-0_0
  6
CONTINUOUS
 62
    7
 10
108.42892449999999
 20
210.84913650000001
 11
108.17892449999999
 21
210.8245695
  0
LINE
  8
_0-0_0
  6
CONTINUOUS
 62
    7
 10
108.42892449999999
 20
211.26823450000001
 11
108.17892449999999
 21
211.05772350000001
  0
LINE
  8
_0-0_0
  6
CONTINUOUS
 62
    7
 10
108.42892449999999
 20
211.05308550000001
 11
108.17892449999999
 21
211.05772350000001
  0
LINE
  8
_0-0_0
  6
CONTINUOUS
 62
    7
 10
108.42892449999999
 20
211.4922335
 11
108.17892449999999
 21
211.3020325
  0
LINE
  8
_0-0_0
  6
CONTINUOUS
 62
    7
 10
108.42892449999999
 20
211.26823450000001
 11
108.17892449999999
 21
211.3020325
  0
LINE
  8
_0-0_0
  6
CONTINUOUS
 62
    7
 10
108.42892449999999
 20
211.72259550000001
 11
108.17892449999999
 21
211.55479450000001
  0
LINE
  8
_0-0_0
  6
CONTINUOUS
 62
    7
 10
108.42892449999999
 20
211.4922335
 11
108.17892449999999
 21
211.55479450000001
  0
LINE
  8
_0-0_0
  6
CONTINUOUS
 62
    7
 10
108.42892449999999
 20
211.9568175
 11
108.17892449999999
 21
211.81324749999999
  0
LINE
  8
_0-0_0
  6
CONTINUOUS
 62
    7
 10
108.42892449999999
 20
211.72259550000001
 11
108.17892449999999
 21
211.81324749999999
  0
LINE
  8
_0-0_0
  6
CONTINUOUS
 62
    7
 10
108.42892449999999
 20
212.19232149999999
 11
108.17892449999999
 21
212.0745695
  0
LINE
  8
_0-0_0
  6
CONTINUOUS
 62
    7
 10
108.42892449999999
 20
211.9568175
 11
108.17892449999999
 21
212.0745695
  0
LINE
  8
_0-0_0
  6
CONTINUOUS
 62
    7
 10
108.42892449999999
 20
212.42654450000001
 11
108.17892449999999
 21
212.3358915
  0
LINE
  8
_0-0_0
  6
CONTINUOUS
 62
    7
 10
108.42892449999999
 20
212.19232149999999
 11
108.17892449999999
 21
212.3358915
  0
LINE
  8
_0-0_0
  6
CONTINUOUS
 62
    7
 10
108.42892449999999
 20
212.65692150000001
 11
108.17892449999999
 21
212.59434450000001
  0
LINE
  8
_0-0_0
  6
CONTINUOUS
 62
    7
 10
108.42892449999999
 20
212.42654450000001
 11
108.17892449999999
 21
212.59434450000001
  0
LINE
  8
_0-0_0
  6
CONTINUOUS
 62
    7
 10
108.42892449999999
 20
212.88090550000001
 11
108.17892449999999
 21
212.8471065
  0
LINE
  8
_0-0_0
  6
CONTINUOUS
 62
    7
 10
108.42892449999999
 20
212.65692150000001
 11
108.17892449999999
 21
212.8471065
  0
LINE
  8
_0-0_0
  6
CONTINUOUS
 62
    7
 10
108.42892449999999
 20
213.09605350000001
 11
108.17892449999999
 21
213.09141550000001
  0
LINE
  8
_0-0_0
  6
CONTINUOUS
 62
    7
 10
108.42892449999999
 20
212.88090550000001
 11
108.17892449999999
 21
213.09141550000001
  0
LINE
  8
_0-0_0
  6
CONTINUOUS
 62
    7
 10
98.678924499999994
 20
229.90000950000001
 11
98.928924499999994
 21
229.9245755
  0
LINE
  8
_0-0_0
  6
CONTINUOUS
 62
    7
 10
98.928924499999994
 20
229.9245755
 11
108.17892449999999
 21
229.9245755
  0
LINE
  8
_0-0_0
  6
CONTINUOUS
 62
    7
 10
98.678924499999994
 20
229.6960445
 11
98.928924499999994
 21
229.9245755
  0
LINE
  8
_0-0_0
  6
CONTINUOUS
 62
    7
 10
98.678924499999994
 20
229.6960445
 11
108.42892449999999
 21
229.6960445
  0
LINE
  8
_0-0_0
  6
CONTINUOUS
 62
    7
 10
98.678924499999994
 20
230.09054549999999
 11
98.928924499999994
 21
230.14404250000001
  0
LINE
  8
_0-0_0
  6
CONTINUOUS
 62
    7
 10
98.928924499999994
 20
230.14404250000001
 11
108.17892449999999
 21
230.14404250000001
  0
LINE
  8
_0-0_0
  6
CONTINUOUS
 62
    7
 10
98.678924499999994
 20
229.90000950000001
 11
98.928924499999994
 21
230.14404250000001
  0
LINE
  8
_0-0_0
  6
CONTINUOUS
 62
    7
 10
98.678924499999994
 20
230.26556350000001
 11
98.928924499999994
 21
230.3473965
  0
LINE
  8
_0-0_0
  6
CONTINUOUS
 62
    7
 10
98.928924499999994
 20
230.3473965
 11
108.17892449999999
 21
230.3473965
  0
LINE
  8
_0-0_0
  6
CONTINUOUS
 62
    7
 10
98.678924499999994
 20
230.09054549999999
 11
98.928924499999994
 21
230.3473965
  0
LINE
  8
_0-0_0
  6
CONTINUOUS
 62
    7
 10
98.678924499999994
 20
230.4231565
 11
98.928924499999994
 21
230.53244050000001
  0
LINE
  8
_0-0_0
  6
CONTINUOUS
 62
    7
 10
98.928924499999994
 20
230.53244050000001
 11
108.17892449999999
 21
230.53244050000001
  0
LINE
  8
_0-0_0
  6
CONTINUOUS
 62
    7
 10
98.678924499999994
 20
230.26556350000001
 11
98.928924499999994
 21
230.53244050000001
  0
LINE
  8
_0-0_0
  6
CONTINUOUS
 62
    7
 10
98.678924499999994
 20
230.56158450000001
 11
98.928924499999994
 21
230.6971125
  0
LINE
  8
_0-0_0
  6
CONTINUOUS
 62
    7
 10
98.928924499999994
 20
230.6971125
 11
108.17892449999999
 21
230.6971125
  0
LINE
  8
_0-0_0
  6
CONTINUOUS
 62
    7
 10
98.678924499999994
 20
230.4231565
 11
98.928924499999994
 21
230.6971125
  0
LINE
  8
_0-0_0
  6
CONTINUOUS
 62
    7
 10
98.678924499999994
 20
230.67933650000001
 11
98.928924499999994
 21
230.8396305
  0
LINE
  8
_0-0_0
  6
CONTINUOUS
 62
    7
 10
98.928924499999994
 20
230.8396305
 11
108.17892449999999
 21
230.8396305
  0
LINE
  8
_0-0_0
  6
CONTINUOUS
 62
    7
 10
98.678924499999994
 20
230.56158450000001
 11
98.928924499999994
 21
230.8396305
  0
LINE
  8
_0-0_0
  6
CONTINUOUS
 62
    7
 10
98.678924499999994
 20
230.77513150000001
 11
98.928924499999994
 21
230.95843450000001
  0
LINE
  8
_0-0_0
  6
CONTINUOUS
 62
    7
 10
98.928924499999994
 20
230.95843450000001
 11
108.17892449999999
 21
230.95843450000001
  0
LINE
  8
_0-0_0
  6
CONTINUOUS
 62
    7
 10
98.678924499999994
 20
230.67933650000001
 11
98.928924499999994
 21
230.95843450000001
  0
LINE
  8
_0-0_0
  6
CONTINUOUS
 62
    7
 10
98.678924499999994
 20
230.84790050000001
 11
98.928924499999994
 21
231.05221549999999
  0
LINE
  8
_0-0_0
  6
CONTINUOUS
 62
    7
 10
98.928924499999994
 20
231.05221549999999
 11
108.17892449999999
 21
231.05221549999999
  0
LINE
  8
_0-0_0
  6
CONTINUOUS
 62
    7
 10
98.678924499999994
 20
230.77513150000001
 11
98.928924499999994
 21
231.05221549999999
  0
LINE
  8
_0-0_0
  6
CONTINUOUS
 62
    7
 10
98.678924499999994
 20
230.89686549999999
 11
98.928924499999994
 21
231.1199335
  0
LINE
  8
_0-0_0
  6
CONTINUOUS
 62
    7
 10
98.928924499999994
 20
231.1199335
 11
108.17892449999999
 21
231.1199335
  0
LINE
  8
_0-0_0
  6
CONTINUOUS
 62
    7
 10
98.678924499999994
 20
230.84790050000001
 11
98.928924499999994
 21
231.1199335
  0
LINE
  8
_0-0_0
  6
CONTINUOUS
 62
    7
 10
98.678924499999994
 20
230.9214935
 11
98.928924499999994
 21
231.16087350000001
  0
LINE
  8
_0-0_0
  6
CONTINUOUS
 62
    7
 10
98.928924499999994
 20
231.16087350000001
 11
108.17892449999999
 21
231.16087350000001
  0
LINE
  8
_0-0_0
  6
CONTINUOUS
 62
    7
 10
98.678924499999994
 20
230.89686549999999
 11
98.928924499999994
 21
231.16087350000001
  0
LINE
  8
_0-0_0
  6
CONTINUOUS
 62
    7
 10
98.928924499999994
 20
231.1745755
 11
108.17892449999999
 21
231.1745755
  0
LINE
  8
_0-0_0
  6
CONTINUOUS
 62
    7
 10
98.678924499999994
 20
230.9214935
 11
98.928924499999994
 21
231.1745755
  0
LINE
  8
_0-0_0
  6
CONTINUOUS
 62
    7
 10
98.678924499999994
 20
226.42765750000001
 11
98.928924499999994
 21
226.1745755
  0
LINE
  8
_0-0_0
  6
CONTINUOUS
 62
    7
 10
98.928924499999994
 20
226.1745755
 11
108.17892449999999
 21
226.1745755
  0
LINE
  8
_0-0_0
  6
CONTINUOUS
 62
    7
 10
98.678924499999994
 20
226.4522705
 11
98.928924499999994
 21
226.18826250000001
  0
LINE
  8
_0-0_0
  6
CONTINUOUS
 62
    7
 10
98.928924499999994
 20
226.18826250000001
 11
108.17892449999999
 21
226.18826250000001
  0
LINE
  8
_0-0_0
  6
CONTINUOUS
 62
    7
 10
98.678924499999994
 20
226.42765750000001
 11
98.928924499999994
 21
226.18826250000001
  0
LINE
  8
_0-0_0
  6
CONTINUOUS
 62
    7
 10
98.678924499999994
 20
226.50123550000001
 11
98.928924499999994
 21
226.22920250000001
  0
LINE
  8
_0-0_0
  6
CONTINUOUS
 62
    7
 10
98.928924499999994
 20
226.22920250000001
 11
108.17892449999999
 21
226.22920250000001
  0
LINE
  8
_0-0_0
  6
CONTINUOUS
 62
    7
 10
98.678924499999994
 20
226.4522705
 11
98.928924499999994
 21
226.22920250000001
  0
LINE
  8
_0-0_0
  6
CONTINUOUS
 62
    7
 10
98.678924499999994
 20
226.57402049999999
 11
98.928924499999994
 21
226.29693549999999
  0
LINE
  8
_0-0_0
  6
CONTINUOUS
 62
    7
 10
98.928924499999994
 20
226.29693549999999
 11
108.17892449999999
 21
226.29693549999999
  0
LINE
  8
_0-0_0
  6
CONTINUOUS
 62
    7
 10
98.678924499999994
 20
226.50123550000001
 11
98.928924499999994
 21
226.29693549999999
  0
LINE
  8
_0-0_0
  6
CONTINUOUS
 62
    7
 10
98.678924499999994
 20
226.66979950000001
 11
98.928924499999994
 21
226.39070150000001
  0
LINE
  8
_0-0_0
  6
CONTINUOUS
 62
    7
 10
98.928924499999994
 20
226.39070150000001
 11
108.17892449999999
 21
226.39070150000001
  0
LINE
  8
_0-0_0
  6
CONTINUOUS
 62
    7
 10
98.678924499999994
 20
226.57402049999999
 11
98.928924499999994
 21
226.39070150000001
  0
LINE
  8
_0-0_0
  6
CONTINUOUS
 62
    7
 10
98.928924499999994
 20
226.50950650000001
 11
108.17892449999999
 21
226.50950650000001
  0
LINE
  8
_0-0_0
  6
CONTINUOUS
 62
    7
 10
98.808883500000007
 20
226.58595249999999
 11
98.928924499999994
 21
226.50950650000001
  0
LINE
  8
_0-0_0
  6
CONTINUOUS
 62
    7
 10
98.678924499999994
 20
226.66979950000001
 11
98.808883500000007
 21
226.58595249999999
  0
LINE
  8
_0-0_0
  6
CONTINUOUS
 62
    7
 10
98.678924499999994
 20
226.78756749999999
 11
98.928924499999994
 21
226.50950650000001
  0
LINE
  8
_0-0_0
  6
CONTINUOUS
 62
    7
 10
98.678924499999994
 20
226.9259945
 11
98.928924499999994
 21
226.65202350000001
  0
LINE
  8
_0-0_0
  6
CONTINUOUS
 62
    7
 10
98.928924499999994
 20
226.65202350000001
 11
108.17892449999999
 21
226.65202350000001
  0
LINE
  8
_0-0_0
  6
CONTINUOUS
 62
    7
 10
98.678924499999994
 20
226.78756749999999
 11
98.928924499999994
 21
226.65202350000001
  0
LINE
  8
_0-0_0
  6
CONTINUOUS
 62
    7
 10
98.678924499999994
 20
227.08358749999999
 11
98.928924499999994
 21
226.8167115
  0
LINE
  8
_0-0_0
  6
CONTINUOUS
 62
    7
 10
98.928924499999994
 20
226.8167115
 11
108.17892449999999
 21
226.8167115
  0
LINE
  8
_0-0_0
  6
CONTINUOUS
 62
    7
 10
98.678924499999994
 20
226.9259945
 11
98.928924499999994
 21
226.8167115
  0
LINE
  8
_0-0_0
  6
CONTINUOUS
 62
    7
 10
98.678924499999994
 20
227.25860550000002
 11
98.928924499999994
 21
227.00173950000001
  0
LINE
  8
_0-0_0
  6
CONTINUOUS
 62
    7
 10
98.928924499999994
 20
227.00173950000001
 11
108.17892449999999
 21
227.00173950000001
  0
LINE
  8
_0-0_0
  6
CONTINUOUS
 62
    7
 10
98.678924499999994
 20
227.08358749999999
 11
98.928924499999994
 21
227.00173950000001
  0
LINE
  8
_0-0_0
  6
CONTINUOUS
 62
    7
 10
98.678924499999994
 20
227.4491275
 11
98.928924499999994
 21
227.20510849999999
  0
LINE
  8
_0-0_0
  6
CONTINUOUS
 62
    7
 10
98.928924499999994
 20
227.20510849999999
 11
108.17892449999999
 21
227.20510849999999
  0
LINE
  8
_0-0_0
  6
CONTINUOUS
 62
    7
 10
98.678924499999994
 20
227.25860550000002
 11
98.928924499999994
 21
227.20510849999999
  0
LINE
  8
_0-0_0
  6
CONTINUOUS
 62
    7
 10
98.678924499999994
 20
227.65309150000002
 11
98.928924499999994
 21
227.4245755
  0
LINE
  8
_0-0_0
  6
CONTINUOUS
 62
    7
 10
98.928924499999994
 20
227.4245755
 11
108.17892449999999
 21
227.4245755
  0
LINE
  8
_0-0_0
  6
CONTINUOUS
 62
    7
 10
98.678924499999994
 20
227.65309150000002
 11
108.42892449999999
 21
227.65309150000002
  0
LINE
  8
_0-0_0
  6
CONTINUOUS
 62
    7
 10
98.678924499999994
 20
227.4491275
 11
98.928924499999994
 21
227.4245755
  0
LINE
  8
_0-0_0
  6
CONTINUOUS
 62
    7
 10
98.678924499999994
 20
227.86824050000001
 11
98.928924499999994
 21
227.65772950000002
  0
LINE
  8
_0-0_0
  6
CONTINUOUS
 62
    7
 10
98.928924499999994
 20
227.65772950000002
 11
108.17892449999999
 21
227.65772950000002
  0
LINE
  8
_0-0_0
  6
CONTINUOUS
 62
    7
 10
98.678924499999994
 20
227.86824050000001
 11
108.42892449999999
 21
227.86824050000001
  0
LINE
  8
_0-0_0
  6
CONTINUOUS
 62
    7
 10
98.678924499999994
 20
227.65309150000002
 11
98.928924499999994
 21
227.65772950000002
  0
LINE
  8
_0-0_0
  6
CONTINUOUS
 62
    7
 10
98.678924499999994
 20
228.09222450000001
 11
98.928924499999994
 21
227.90202350000001
  0
LINE
  8
_0-0_0
  6
CONTINUOUS
 62
    7
 10
98.928924499999994
 20
227.90202350000001
 11
108.17892449999999
 21
227.90202350000001
  0
LINE
  8
_0-0_0
  6
CONTINUOUS
 62
    7
 10
98.678924499999994
 20
228.09222450000001
 11
108.42892449999999
 21
228.09222450000001
  0
LINE
  8
_0-0_0
  6
CONTINUOUS
 62
    7
 10
98.678924499999994
 20
227.86824050000001
 11
98.928924499999994
 21
227.90202350000001
  0
LINE
  8
_0-0_0
  6
CONTINUOUS
 62
    7
 10
98.678924499999994
 20
228.32260149999999
 11
98.928924499999994
 21
228.1547855
  0
LINE
  8
_0-0_0
  6
CONTINUOUS
 62
    7
 10
98.928924499999994
 20
228.1547855
 11
108.17892449999999
 21
228.1547855
  0
LINE
  8
_0-0_0
  6
CONTINUOUS
 62
    7
 10
98.678924499999994
 20
228.32260149999999
 11
108.42892449999999
 21
228.32260149999999
  0
LINE
  8
_0-0_0
  6
CONTINUOUS
 62
    7
 10
98.678924499999994
 20
228.09222450000001
 11
98.928924499999994
 21
228.1547855
  0
LINE
  8
_0-0_0
  6
CONTINUOUS
 62
    7
 10
98.678924499999994
 20
228.55682350000001
 11
98.928924499999994
 21
228.4132535
  0
LINE
  8
_0-0_0
  6
CONTINUOUS
 62
    7
 10
98.928924499999994
 20
228.4132535
 11
108.17892449999999
 21
228.4132535
  0
LINE
  8
_0-0_0
  6
CONTINUOUS
 62
    7
 10
98.678924499999994
 20
228.55682350000001
 11
108.42892449999999
 21
228.55682350000001
  0
LINE
  8
_0-0_0
  6
CONTINUOUS
 62
    7
 10
98.678924499999994
 20
228.32260149999999
 11
98.928924499999994
 21
228.4132535
  0
LINE
  8
_0-0_0
  6
CONTINUOUS
 62
    7
 10
98.678924499999994
 20
228.7923275
 11
98.928924499999994
 21
228.6745755
  0
LINE
  8
_0-0_0
  6
CONTINUOUS
 62
    7
 10
98.928924499999994
 20
228.6745755
 11
108.17892449999999
 21
228.6745755
  0
LINE
  8
_0-0_0
  6
CONTINUOUS
 62
    7
 10
98.678924499999994
 20
228.7923275
 11
108.42892449999999
 21
228.7923275
  0
LINE
  8
_0-0_0
  6
CONTINUOUS
 62
    7
 10
98.678924499999994
 20
228.55682350000001
 11
98.928924499999994
 21
228.6745755
  0
LINE
  8
_0-0_0
  6
CONTINUOUS
 62
    7
 10
98.678924499999994
 20
229.02655050000001
 11
98.928924499999994
 21
228.93589750000001
  0
LINE
  8
_0-0_0
  6
CONTINUOUS
 62
    7
 10
98.928924499999994
 20
228.93589750000001
 11
108.17892449999999
 21
228.93589750000001
  0
LINE
  8
_0-0_0
  6
CONTINUOUS
 62
    7
 10
98.678924499999994
 20
229.02655050000001
 11
108.42892449999999
 21
229.02655050000001
  0
LINE
  8
_0-0_0
  6
CONTINUOUS
 62
    7
 10
98.678924499999994
 20
228.7923275
 11
98.928924499999994
 21
228.93589750000001
  0
LINE
  8
_0-0_0
  6
CONTINUOUS
 62
    7
 10
98.678924499999994
 20
229.2569125
 11
98.928924499999994
 21
229.19435150000001
  0
LINE
  8
_0-0_0
  6
CONTINUOUS
 62
    7
 10
98.928924499999994
 20
229.19435150000001
 11
108.17892449999999
 21
229.19435150000001
  0
LINE
  8
_0-0_0
  6
CONTINUOUS
 62
    7
 10
98.678924499999994
 20
229.2569125
 11
108.42892449999999
 21
229.2569125
  0
LINE
  8
_0-0_0
  6
CONTINUOUS
 62
    7
 10
98.678924499999994
 20
229.02655050000001
 11
98.928924499999994
 21
229.19435150000001
  0
LINE
  8
_0-0_0
  6
CONTINUOUS
 62
    7
 10
98.678924499999994
 20
229.4808955
 11
98.928924499999994
 21
229.4471125
  0
LINE
  8
_0-0_0
  6
CONTINUOUS
 62
    7
 10
98.928924499999994
 20
229.4471125
 11
108.17892449999999
 21
229.4471125
  0
LINE
  8
_0-0_0
  6
CONTINUOUS
 62
    7
 10
98.678924499999994
 20
229.4808955
 11
108.42892449999999
 21
229.4808955
  0
LINE
  8
_0-0_0
  6
CONTINUOUS
 62
    7
 10
98.678924499999994
 20
229.2569125
 11
98.928924499999994
 21
229.4471125
  0
LINE
  8
_0-0_0
  6
CONTINUOUS
 62
    7
 10
98.678924499999994
 20
229.6960445
 11
98.928924499999994
 21
229.6914065
  0
LINE
  8
_0-0_0
  6
CONTINUOUS
 62
    7
 10
98.928924499999994
 20
229.6914065
 11
108.17892449999999
 21
229.6914065
  0
LINE
  8
_0-0_0
  6
CONTINUOUS
 62
    7
 10
98.678924499999994
 20
229.4808955
 11
98.928924499999994
 21
229.6914065
  0
LINE
  8
_0-0_0
  6
CONTINUOUS
 62
    7
 10
112.42892449999999
 20
225.6245725
 11
112.42892449999999
 21
217.64302050000001
  0
LINE
  8
_0-0_0
  6
CONTINUOUS
 62
    7
 10
112.42892449999999
 20
217.64302050000001
 11
112.42892449999999
 21
215.1245725
  0
LINE
  8
_0-0_0
  6
CONTINUOUS
 62
    7
 10
98.678924499999994
 20
213.30000250000001
 11
98.928924499999994
 21
213.3245695
  0
LINE
  8
_0-0_0
  6
CONTINUOUS
 62
    7
 10
98.928924499999994
 20
213.3245695
 11
108.17892449999999
 21
213.3245695
  0
LINE
  8
_0-0_0
  6
CONTINUOUS
 62
    7
 10
98.678924499999994
 20
213.09605350000001
 11
98.928924499999994
 21
213.3245695
  0
LINE
  8
_0-0_0
  6
CONTINUOUS
 62
    7
 10
98.678924499999994
 20
213.09605350000001
 11
108.42892449999999
 21
213.09605350000001
  0
LINE
  8
_0-0_0
  6
CONTINUOUS
 62
    7
 10
98.678924499999994
 20
213.49053950000001
 11
98.928924499999994
 21
213.5440365
  0
LINE
  8
_0-0_0
  6
CONTINUOUS
 62
    7
 10
98.928924499999994
 20
213.5440365
 11
108.17892449999999
 21
213.5440365
  0
LINE
  8
_0-0_0
  6
CONTINUOUS
 62
    7
 10
98.678924499999994
 20
213.30000250000001
 11
98.928924499999994
 21
213.5440365
  0
LINE
  8
_0-0_0
  6
CONTINUOUS
 62
    7
 10
98.678924499999994
 20
213.66555750000001
 11
98.928924499999994
 21
213.74740550000001
  0
LINE
  8
_0-0_0
  6
CONTINUOUS
 62
    7
 10
98.928924499999994
 20
213.74740550000001
 11
108.17892449999999
 21
213.74740550000001
  0
LINE
  8
_0-0_0
  6
CONTINUOUS
 62
    7
 10
98.678924499999994
 20
213.49053950000001
 11
98.928924499999994
 21
213.74740550000001
  0
LINE
  8
_0-0_0
  6
CONTINUOUS
 62
    7
 10
98.678924499999994
 20
213.8231505
 11
98.928924499999994
 21
213.9324335
  0
LINE
  8
_0-0_0
  6
CONTINUOUS
 62
    7
 10
98.928924499999994
 20
213.9324335
 11
108.17892449999999
 21
213.9324335
  0
LINE
  8
_0-0_0
  6
CONTINUOUS
 62
    7
 10
98.678924499999994
 20
213.66555750000001
 11
98.928924499999994
 21
213.9324335
  0
LINE
  8
_0-0_0
  6
CONTINUOUS
 62
    7
 10
98.678924499999994
 20
213.9615785
 11
98.928924499999994
 21
214.0971065
  0
LINE
  8
_0-0_0
  6
CONTINUOUS
 62
    7
 10
98.928924499999994
 20
214.0971065
 11
108.17892449999999
 21
214.0971065
  0
LINE
  8
_0-0_0
  6
CONTINUOUS
 62
    7
 10
98.678924499999994
 20
213.8231505
 11
98.928924499999994
 21
214.0971065
  0
LINE
  8
_0-0_0
  6
CONTINUOUS
 62
    7
 10
98.678924499999994
 20
214.0793305
 11
98.928924499999994
 21
214.23963950000001
  0
LINE
  8
_0-0_0
  6
CONTINUOUS
 62
    7
 10
98.928924499999994
 20
214.23963950000001
 11
108.17892449999999
 21
214.23963950000001
  0
LINE
  8
_0-0_0
  6
CONTINUOUS
 62
    7
 10
98.678924499999994
 20
213.9615785
 11
98.928924499999994
 21
214.23963950000001
  0
LINE
  8
_0-0_0
  6
CONTINUOUS
 62
    7
 10
98.678924499999994
 20
214.17512550000001
 11
98.928924499999994
 21
214.3584285
  0
LINE
  8
_0-0_0
  6
CONTINUOUS
 62
    7
 10
98.928924499999994
 20
214.3584285
 11
108.17892449999999
 21
214.3584285
  0
LINE
  8
_0-0_0
  6
CONTINUOUS
 62
    7
 10
98.678924499999994
 20
214.0793305
 11
98.928924499999994
 21
214.3584285
  0
LINE
  8
_0-0_0
  6
CONTINUOUS
 62
    7
 10
98.678924499999994
 20
214.24790949999999
 11
98.928924499999994
 21
214.45220950000001
  0
LINE
  8
_0-0_0
  6
CONTINUOUS
 62
    7
 10
98.928924499999994
 20
214.45220950000001
 11
108.17892449999999
 21
214.45220950000001
  0
LINE
  8
_0-0_0
  6
CONTINUOUS
 62
    7
 10
98.678924499999994
 20
214.17512550000001
 11
98.928924499999994
 21
214.45220950000001
  0
LINE
  8
_0-0_0
  6
CONTINUOUS
 62
    7
 10
98.678924499999994
 20
214.2968745
 11
98.928924499999994
 21
214.51994350000001
  0
LINE
  8
_0-0_0
  6
CONTINUOUS
 62
    7
 10
98.928924499999994
 20
214.51994350000001
 11
108.17892449999999
 21
214.51994350000001
  0
LINE
  8
_0-0_0
  6
CONTINUOUS
 62
    7
 10
98.678924499999994
 20
214.24790949999999
 11
98.928924499999994
 21
214.51994350000001
  0
LINE
  8
_0-0_0
  6
CONTINUOUS
 62
    7
 10
98.678924499999994
 20
214.32148749999999
 11
98.928924499999994
 21
214.56088249999999
  0
LINE
  8
_0-0_0
  6
CONTINUOUS
 62
    7
 10
98.928924499999994
 20
214.56088249999999
 11
108.17892449999999
 21
214.56088249999999
  0
LINE
  8
_0-0_0
  6
CONTINUOUS
 62
    7
 10
98.678924499999994
 20
214.2968745
 11
98.928924499999994
 21
214.56088249999999
  0
LINE
  8
_0-0_0
  6
CONTINUOUS
 62
    7
 10
98.928924499999994
 20
214.5745695
 11
108.17892449999999
 21
214.5745695
  0
LINE
  8
_0-0_0
  6
CONTINUOUS
 62
    7
 10
98.678924499999994
 20
214.32148749999999
 11
98.928924499999994
 21
214.5745695
  0
LINE
  8
_0-0_0
  6
CONTINUOUS
 62
    7
 10
98.678924499999994
 20
209.8276515
 11
98.928924499999994
 21
209.5745695
  0
LINE
  8
_0-0_0
  6
CONTINUOUS
 62
    7
 10
98.928924499999994
 20
209.5745695
 11
108.17892449999999
 21
209.5745695
  0
LINE
  8
_0-0_0
  6
CONTINUOUS
 62
    7
 10
98.678924499999994
 20
209.85226449999999
 11
98.928924499999994
 21
209.58827149999999
  0
LINE
  8
_0-0_0
  6
CONTINUOUS
 62
    7
 10
98.928924499999994
 20
209.58827149999999
 11
108.17892449999999
 21
209.58827149999999
  0
LINE
  8
_0-0_0
  6
CONTINUOUS
 62
    7
 10
98.678924499999994
 20
209.8276515
 11
98.928924499999994
 21
209.58827149999999
  0
LINE
  8
_0-0_0
  6
CONTINUOUS
 62
    7
 10
98.678924499999994
 20
209.90124449999999
 11
98.928924499999994
 21
209.6292115
  0
LINE
  8
_0-0_0
  6
CONTINUOUS
 62
    7
 10
98.928924499999994
 20
209.6292115
 11
108.17892449999999
 21
209.6292115
  0
LINE
  8
_0-0_0
  6
CONTINUOUS
 62
    7
 10
98.678924499999994
 20
209.85226449999999
 11
98.928924499999994
 21
209.6292115
  0
LINE
  8
_0-0_0
  6
CONTINUOUS
 62
    7
 10
98.678924499999994
 20
209.97401450000001
 11
98.928924499999994
 21
209.69692950000001
  0
LINE
  8
_0-0_0
  6
CONTINUOUS
 62
    7
 10
98.928924499999994
 20
209.69692950000001
 11
108.17892449999999
 21
209.69692950000001
  0
LINE
  8
_0-0_0
  6
CONTINUOUS
 62
    7
 10
98.678924499999994
 20
209.90124449999999
 11
98.928924499999994
 21
209.69692950000001
  0
LINE
  8
_0-0_0
  6
CONTINUOUS
 62
    7
 10
98.678924499999994
 20
210.06980849999999
 11
98.928924499999994
 21
209.79071049999999
  0
LINE
  8
_0-0_0
  6
CONTINUOUS
 62
    7
 10
98.928924499999994
 20
209.79071049999999
 11
108.17892449999999
 21
209.79071049999999
  0
LINE
  8
_0-0_0
  6
CONTINUOUS
 62
    7
 10
98.678924499999994
 20
209.97401450000001
 11
98.928924499999994
 21
209.79071049999999
  0
LINE
  8
_0-0_0
  6
CONTINUOUS
 62
    7
 10
98.928924499999994
 20
209.9095155
 11
108.17892449999999
 21
209.9095155
  0
LINE
  8
_0-0_0
  6
CONTINUOUS
 62
    7
 10
98.808883500000007
 20
209.9859615
 11
98.928924499999994
 21
209.9095155
  0
LINE
  8
_0-0_0
  6
CONTINUOUS
 62
    7
 10
98.678924499999994
 20
210.06980849999999
 11
98.808883500000007
 21
209.9859615
  0
LINE
  8
_0-0_0
  6
CONTINUOUS
 62
    7
 10
98.678924499999994
 20
210.18756049999999
 11
98.928924499999994
 21
209.9095155
  0
LINE
  8
_0-0_0
  6
CONTINUOUS
 62
    7
 10
98.678924499999994
 20
210.32598849999999
 11
98.928924499999994
 21
210.0520325
  0
LINE
  8
_0-0_0
  6
CONTINUOUS
 62
    7
 10
98.928924499999994
 20
210.0520325
 11
108.17892449999999
 21
210.0520325
  0
LINE
  8
_0-0_0
  6
CONTINUOUS
 62
    7
 10
98.678924499999994
 20
210.18756049999999
 11
98.928924499999994
 21
210.0520325
  0
LINE
  8
_0-0_0
  6
CONTINUOUS
 62
    7
 10
98.678924499999994
 20
210.48358150000001
 11
98.928924499999994
 21
210.21670549999999
  0
LINE
  8
_0-0_0
  6
CONTINUOUS
 62
    7
 10
98.928924499999994
 20
210.21670549999999
 11
108.17892449999999
 21
210.21670549999999
  0
LINE
  8
_0-0_0
  6
CONTINUOUS
 62
    7
 10
98.678924499999994
 20
210.32598849999999
 11
98.928924499999994
 21
210.21670549999999
  0
LINE
  8
_0-0_0
  6
CONTINUOUS
 62
    7
 10
98.678924499999994
 20
210.65859950000001
 11
98.928924499999994
 21
210.4017485
  0
LINE
  8
_0-0_0
  6
CONTINUOUS
 62
    7
 10
98.928924499999994
 20
210.4017485
 11
108.17892449999999
 21
210.4017485
  0
LINE
  8
_0-0_0
  6
CONTINUOUS
 62
    7
 10
98.678924499999994
 20
210.48358150000001
 11
98.928924499999994
 21
210.4017485
  0
LINE
  8
_0-0_0
  6
CONTINUOUS
 62
    7
 10
98.678924499999994
 20
210.84913650000001
 11
98.928924499999994
 21
210.60510250000002
  0
LINE
  8
_0-0_0
  6
CONTINUOUS
 62
    7
 10
98.928924499999994
 20
210.60510250000002
 11
108.17892449999999
 21
210.60510250000002
  0
LINE
  8
_0-0_0
  6
CONTINUOUS
 62
    7
 10
98.678924499999994
 20
210.65859950000001
 11
98.928924499999994
 21
210.60510250000002
  0
LINE
  8
_0-0_0
  6
CONTINUOUS
 62
    7
 10
98.678924499999994
 20
211.05308550000001
 11
98.928924499999994
 21
210.8245695
  0
LINE
  8
_0-0_0
  6
CONTINUOUS
 62
    7
 10
98.928924499999994
 20
210.8245695
 11
108.17892449999999
 21
210.8245695
  0
LINE
  8
_0-0_0
  6
CONTINUOUS
 62
    7
 10
98.678924499999994
 20
211.05308550000001
 11
108.42892449999999
 21
211.05308550000001
  0
LINE
  8
_0-0_0
  6
CONTINUOUS
 62
    7
 10
98.678924499999994
 20
210.84913650000001
 11
98.928924499999994
 21
210.8245695
  0
LINE
  8
_0-0_0
  6
CONTINUOUS
 62
    7
 10
98.678924499999994
 20
211.26823450000001
 11
98.928924499999994
 21
211.05772350000001
  0
LINE
  8
_0-0_0
  6
CONTINUOUS
 62
    7
 10
98.928924499999994
 20
211.05772350000001
 11
108.17892449999999
 21
211.05772350000001
  0
LINE
  8
_0-0_0
  6
CONTINUOUS
 62
    7
 10
98.678924499999994
 20
211.26823450000001
 11
108.42892449999999
 21
211.26823450000001
  0
LINE
  8
_0-0_0
  6
CONTINUOUS
 62
    7
 10
98.678924499999994
 20
211.05308550000001
 11
98.928924499999994
 21
211.05772350000001
  0
LINE
  8
_0-0_0
  6
CONTINUOUS
 62
    7
 10
98.678924499999994
 20
211.4922335
 11
98.928924499999994
 21
211.3020325
  0
LINE
  8
_0-0_0
  6
CONTINUOUS
 62
    7
 10
98.928924499999994
 20
211.3020325
 11
108.17892449999999
 21
211.3020325
  0
LINE
  8
_0-0_0
  6
CONTINUOUS
 62
    7
 10
98.678924499999994
 20
211.4922335
 11
108.42892449999999
 21
211.4922335
  0
LINE
  8
_0-0_0
  6
CONTINUOUS
 62
    7
 10
98.678924499999994
 20
211.26823450000001
 11
98.928924499999994
 21
211.3020325
  0
LINE
  8
_0-0_0
  6
CONTINUOUS
 62
    7
 10
98.678924499999994
 20
211.72259550000001
 11
98.928924499999994
 21
211.55479450000001
  0
LINE
  8
_0-0_0
  6
CONTINUOUS
 62
    7
 10
98.928924499999994
 20
211.55479450000001
 11
108.17892449999999
 21
211.55479450000001
  0
LINE
  8
_0-0_0
  6
CONTINUOUS
 62
    7
 10
98.678924499999994
 20
211.72259550000001
 11
108.42892449999999
 21
211.72259550000001
  0
LINE
  8
_0-0_0
  6
CONTINUOUS
 62
    7
 10
98.678924499999994
 20
211.4922335
 11
98.928924499999994
 21
211.55479450000001
  0
LINE
  8
_0-0_0
  6
CONTINUOUS
 62
    7
 10
98.678924499999994
 20
211.9568175
 11
98.928924499999994
 21
211.81324749999999
  0
LINE
  8
_0-0_0
  6
CONTINUOUS
 62
    7
 10
98.928924499999994
 20
211.81324749999999
 11
108.17892449999999
 21
211.81324749999999
  0
LINE
  8
_0-0_0
  6
CONTINUOUS
 62
    7
 10
98.678924499999994
 20
211.9568175
 11
108.42892449999999
 21
211.9568175
  0
LINE
  8
_0-0_0
  6
CONTINUOUS
 62
    7
 10
98.678924499999994
 20
211.72259550000001
 11
98.928924499999994
 21
211.81324749999999
  0
LINE
  8
_0-0_0
  6
CONTINUOUS
 62
    7
 10
98.678924499999994
 20
212.19232149999999
 11
98.928924499999994
 21
212.0745695
  0
LINE
  8
_0-0_0
  6
CONTINUOUS
 62
    7
 10
98.928924499999994
 20
212.0745695
 11
108.17892449999999
 21
212.0745695
  0
LINE
  8
_0-0_0
  6
CONTINUOUS
 62
    7
 10
98.678924499999994
 20
212.19232149999999
 11
108.42892449999999
 21
212.19232149999999
  0
LINE
  8
_0-0_0
  6
CONTINUOUS
 62
    7
 10
98.678924499999994
 20
211.9568175
 11
98.928924499999994
 21
212.0745695
  0
LINE
  8
_0-0_0
  6
CONTINUOUS
 62
    7
 10
98.678924499999994
 20
212.42654450000001
 11
98.928924499999994
 21
212.3358915
  0
LINE
  8
_0-0_0
  6
CONTINUOUS
 62
    7
 10
98.928924499999994
 20
212.3358915
 11
108.17892449999999
 21
212.3358915
  0
LINE
  8
_0-0_0
  6
CONTINUOUS
 62
    7
 10
98.678924499999994
 20
212.42654450000001
 11
108.42892449999999
 21
212.42654450000001
  0
LINE
  8
_0-0_0
  6
CONTINUOUS
 62
    7
 10
98.678924499999994
 20
212.19232149999999
 11
98.928924499999994
 21
212.3358915
  0
LINE
  8
_0-0_0
  6
CONTINUOUS
 62
    7
 10
98.678924499999994
 20
212.65692150000001
 11
98.928924499999994
 21
212.59434450000001
  0
LINE
  8
_0-0_0
  6
CONTINUOUS
 62
    7
 10
98.928924499999994
 20
212.59434450000001
 11
108.17892449999999
 21
212.59434450000001
  0
LINE
  8
_0-0_0
  6
CONTINUOUS
 62
    7
 10
98.678924499999994
 20
212.65692150000001
 11
108.42892449999999
 21
212.65692150000001
  0
LINE
  8
_0-0_0
  6
CONTINUOUS
 62
    7
 10
98.678924499999994
 20
212.42654450000001
 11
98.928924499999994
 21
212.59434450000001
  0
LINE
  8
_0-0_0
  6
CONTINUOUS
 62
    7
 10
98.678924499999994
 20
212.88090550000001
 11
98.928924499999994
 21
212.8471065
  0
LINE
  8
_0-0_0
  6
CONTINUOUS
 62
    7
 10
98.928924499999994
 20
212.8471065
 11
108.17892449999999
 21
212.8471065
  0
LINE
  8
_0-0_0
  6
CONTINUOUS
 62
    7
 10
98.678924499999994
 20
212.88090550000001
 11
108.42892449999999
 21
212.88090550000001
  0
LINE
  8
_0-0_0
  6
CONTINUOUS
 62
    7
 10
98.678924499999994
 20
212.65692150000001
 11
98.928924499999994
 21
212.8471065
  0
LINE
  8
_0-0_0
  6
CONTINUOUS
 62
    7
 10
98.678924499999994
 20
213.09605350000001
 11
98.928924499999994
 21
213.09141550000001
  0
LINE
  8
_0-0_0
  6
CONTINUOUS
 62
    7
 10
98.928924499999994
 20
213.09141550000001
 11
108.17892449999999
 21
213.09141550000001
  0
LINE
  8
_0-0_0
  6
CONTINUOUS
 62
    7
 10
98.678924499999994
 20
212.88090550000001
 11
98.928924499999994
 21
213.09141550000001
  0
LINE
  8
_0-0_0
  6
CONTINUOUS
 62
    7
 10
98.428924499999994
 20
230.6745755
 11
98.428924499999994
 21
226.91940249999999
  0
LINE
  8
_0-0_0
  6
CONTINUOUS
 62
    7
 10
98.428924499999994
 20
226.91940249999999
 11
98.428924499999994
 21
226.6745755
  0
LINE
  8
_0-0_0
  6
CONTINUOUS
 62
    7
 10
98.428924499999994
 20
214.0745695
 11
98.428924499999994
 21
210.3194125
  0
LINE
  8
_0-0_0
  6
CONTINUOUS
 62
    7
 10
98.428924499999994
 20
210.3194125
 11
98.428924499999994
 21
210.0745695
  0
LINE
  8
_0-0_0
  6
CONTINUOUS
 62
    7
 10
112.02891550000001
 20
225.3745725
 11
112.02891550000001
 21
222.8745725
  0
LINE
  8
_0-0_0
  6
CONTINUOUS
 62
    7
 10
112.02891550000001
 20
222.8745725
 11
112.02891550000001
 21
215.3745725
  0
LINE
  8
_0-0_0
  6
CONTINUOUS
 62
    7
 10
111.22891250000001
 20
224.9126895
 11
111.22891250000001
 21
222.6436305
  0
LINE
  8
_0-0_0
  6
CONTINUOUS
 62
    7
 10
111.22891250000001
 20
222.6436305
 11
111.22891250000001
 21
215.8364565
  0
LINE
  8
_0-0_0
  6
CONTINUOUS
 62
    7
 10
53.228912500000007
 20
224.3745725
 11
53.228912500000007
 21
224.37322950000001
  0
LINE
  8
_0-0_0
  6
CONTINUOUS
 62
    7
 10
53.228912500000007
 20
224.37322950000001
 11
53.228912500000007
 21
216.3745725
  0
LINE
  8
_0-0_0
  6
CONTINUOUS
 62
    7
 10
134.42892449999999
 20
230.9245755
 11
108.42892449999999
 21
230.9245755
  0
LINE
  8
_0-0_0
  6
CONTINUOUS
 62
    7
 10
134.42892449999999
 20
226.4245755
 11
108.42892449999999
 21
226.4245755
  0
LINE
  8
_0-0_0
  6
CONTINUOUS
 62
    7
 10
113.22891250000001
 20
214.3245695
 11
108.42892449999999
 21
214.3245695
  0
LINE
  8
_0-0_0
  6
CONTINUOUS
 62
    7
 10
128.67889450000001
 20
209.8245695
 11
108.42892449999999
 21
209.8245695
  0
LINE
  8
_0-0_0
  6
CONTINUOUS
 62
    7
 10
108.42892449999999
 20
230.9245755
 11
108.17892449999999
 21
231.1745755
  0
LINE
  8
_0-0_0
  6
CONTINUOUS
 62
    7
 10
108.42892449999999
 20
226.4245755
 11
108.17892449999999
 21
226.1745755
  0
LINE
  8
_0-0_0
  6
CONTINUOUS
 62
    7
 10
108.42892449999999
 20
214.3245695
 11
108.17892449999999
 21
214.5745695
  0
LINE
  8
_0-0_0
  6
CONTINUOUS
 62
    7
 10
112.42892449999999
 20
225.6245725
 11
113.22891250000001
 21
226.42456050000001
  0
LINE
  8
_0-0_0
  6
CONTINUOUS
 62
    7
 10
112.42892449999999
 20
215.1245725
 11
113.67892449999999
 21
213.8745725
  0
LINE
  8
_0-0_0
  6
CONTINUOUS
 62
    7
 10
98.428924499999994
 20
230.6745755
 11
98.928772500000008
 21
231.1744075
  0
LINE
  8
_0-0_0
  6
CONTINUOUS
 62
    7
 10
98.428924499999994
 20
226.6745755
 11
98.928772500000008
 21
226.17472850000001
  0
LINE
  8
_0-0_0
  6
CONTINUOUS
 62
    7
 10
98.428924499999994
 20
214.0745695
 11
98.928772500000008
 21
214.57441650000001
  0
LINE
  8
_0-0_0
  6
CONTINUOUS
 62
    7
 10
98.428924499999994
 20
210.0745695
 11
98.928772500000008
 21
209.57472250000001
  0
LINE
  8
_0-0_0
  6
CONTINUOUS
 62
    7
 10
112.42892449999999
 20
225.3745725
 11
112.02891550000001
 21
225.3745725
  0
LINE
  8
_0-0_0
  6
CONTINUOUS
 62
    7
 10
112.42892449999999
 20
215.3745725
 11
112.02891550000001
 21
215.3745725
  0
LINE
  8
_0-0_0
  6
CONTINUOUS
 62
    7
 10
111.22891250000001
 20
224.9126895
 11
112.02891550000001
 21
225.3745725
  0
LINE
  8
_0-0_0
  6
CONTINUOUS
 62
    7
 10
111.22891250000001
 20
215.8364565
 11
112.02891550000001
 21
215.3745725
  0
LINE
  8
_0-0_0
  6
CONTINUOUS
 62
    7
 10
111.22891250000001
 20
224.3745725
 11
53.228912500000007
 21
224.3745725
  0
LINE
  8
_0-0_0
  6
CONTINUOUS
 62
    7
 10
111.22891250000001
 20
216.3745725
 11
53.228912500000007
 21
216.3745725
  0
LINE
  8
_0-0_0
  6
CONTINUOUS
 62
    7
 10
118.92892449999999
 20
249.2746425
 11
121.38369750000001
 21
249.2746425
  0
LINE
  8
_0-0_0
  6
CONTINUOUS
 62
    7
 10
118.92892449999999
 20
236.0746455
 11
118.92892449999999
 21
249.2746425
  0
LINE
  8
_0-0_0
  6
CONTINUOUS
 62
    7
 10
471.92892449999999
 20
236.0746455
 11
471.92892449999999
 21
249.2746425
  0
LINE
  8
_0-0_0
  6
CONTINUOUS
 62
    7
 10
469.47415150000006
 20
249.2746425
 11
471.92892449999999
 21
249.2746425
  0
ARC
  8
_0-0_0
  6
CONTINUOUS
 62
    7
 10
462.92892449999999
 20
253.87464850000001
 40
8
 50
215.099627
 51
324.90037799999999
  0
LINE
  8
_0-0_0
  6
CONTINUOUS
 62
    7
 10
134.4741515
 20
249.2746425
 11
456.38369749999998
 21
249.2746425
  0
ARC
  8
_0-0_0
  6
CONTINUOUS
 62
    7
 10
127.92892449999999
 20
253.87464850000001
 40
8
 50
215.099627
 51
324.90037799999999
  0
LINE
  8
_0-0_0
  6
CONTINUOUS
 62
    7
 10
121.38369750000001
 20
249.2746425
 11
121.29470850000001
 21
249.4039305
  0
LINE
  8
_0-0_0
  6
CONTINUOUS
 62
    7
 10
134.4741515
 20
249.2746425
 11
134.56312550000001
 21
249.4039305
  0
LINE
  8
_0-0_0
  6
CONTINUOUS
 62
    7
 10
134.65626550000002
 20
249.54534950000001
 11
134.56312550000001
 21
249.4039305
  0
LINE
  8
_0-0_0
  6
CONTINUOUS
 62
    7
 10
134.65626550000002
 20
249.54534950000001
 11
134.7377315
 21
249.67465150000001
  0
ARC
  8
_0-0_0
  6
CONTINUOUS
 62
    7
 10
127.92892449999999
 20
253.87464850000001
 40
8
 50
328.33175599999993
 51
334.05550899999992
  0
LINE
  8
_0-0_0
  6
CONTINUOUS
 62
    7
 10
135.12266550000001
 20
250.37464850000001
 11
135.1841435
 21
250.50393650000001
  0
LINE
  8
_0-0_0
  6
CONTINUOUS
 62
    7
 10
135.24818450000001
 20
250.64535549999999
 11
135.1841435
 21
250.50393650000001
  0
LINE
  8
_0-0_0
  6
CONTINUOUS
 62
    7
 10
135.24818450000001
 20
250.64535549999999
 11
135.3038785
 21
250.7746425
  0
ARC
  8
_0-0_0
  6
CONTINUOUS
 62
    7
 10
127.92892449999999
 20
253.87464850000001
 40
8
 50
337.20097500000003
 51
342.54240199999998
  0
LINE
  8
_0-0_0
  6
CONTINUOUS
 62
    7
 10
135.56042450000001
 20
251.47463949999999
 11
135.5998845
 21
251.60394250000002
  0
LINE
  8
_0-0_0
  6
CONTINUOUS
 62
    7
 10
135.64035050000001
 20
251.7453615
 11
135.5998845
 21
251.60394250000002
  0
LINE
  8
_0-0_0
  6
CONTINUOUS
 62
    7
 10
135.64035050000001
 20
251.7453615
 11
135.6748815
 21
251.87464850000001
  0
ARC
  8
_0-0_0
  6
CONTINUOUS
 62
    7
 10
127.92892449999999
 20
253.87464850000001
 40
8
 50
345.52249499999999
 51
350.64797900000002
  0
LINE
  8
_0-0_0
  6
CONTINUOUS
 62
    7
 10
135.8225865
 20
252.5746455
 11
135.84278850000001
 21
252.70393350000001
  0
LINE
  8
_0-0_0
  6
CONTINUOUS
 62
    7
 10
135.8624265
 20
252.84535249999999
 11
135.84278850000001
 21
252.70393350000001
  0
LINE
  8
_0-0_0
  6
CONTINUOUS
 62
    7
 10
135.8624265
 20
252.84535249999999
 11
135.8781285
 21
252.97463949999999
  0
ARC
  8
_0-0_0
  6
CONTINUOUS
 62
    7
 10
127.92892449999999
 20
253.87464850000001
 40
8
 50
353.54056400000002
 51
358.56744600000002
  0
LINE
  8
_0-0_0
  6
CONTINUOUS
 62
    7
 10
135.9264225
 20
253.67465150000001
 11
135.92860450000001
 21
253.80392449999999
  0
LINE
  8
_0-0_0
  6
CONTINUOUS
 62
    7
 10
135.92860450000001
 20
253.80392449999999
 11
135.92892449999999
 21
253.87464850000001
  0
LINE
  8
_0-0_0
  6
CONTINUOUS
 62
    7
 10
119.92922950000002
 20
253.80392449999999
 11
119.92892449999999
 21
253.87464850000001
  0
LINE
  8
_0-0_0
  6
CONTINUOUS
 62
    7
 10
119.93142750000001
 20
253.67465150000001
 11
119.92922950000002
 21
253.80392449999999
  0
ARC
  8
_0-0_0
  6
CONTINUOUS
 62
    7
 10
127.92892449999999
 20
253.87464850000001
 40
8
 50
181.432545
 51
186.45945499999999
  0
LINE
  8
_0-0_0
  6
CONTINUOUS
 62
    7
 10
119.9954075
 20
252.84535249999999
 11
119.97970549999999
 21
252.97463949999999
  0
LINE
  8
_0-0_0
  6
CONTINUOUS
 62
    7
 10
119.9954075
 20
252.84535249999999
 11
120.01504550000001
 21
252.70393350000001
  0
LINE
  8
_0-0_0
  6
CONTINUOUS
 62
    7
 10
120.0352475
 20
252.5746455
 11
120.01504550000001
 21
252.70393350000001
  0
ARC
  8
_0-0_0
  6
CONTINUOUS
 62
    7
 10
127.92892449999999
 20
253.87464850000001
 40
8
 50
189.35203999999999
 51
194.47751
  0
LINE
  8
_0-0_0
  6
CONTINUOUS
 62
    7
 10
120.2174985
 20
251.7453615
 11
120.1829525
 21
251.87464850000001
  0
LINE
  8
_0-0_0
  6
CONTINUOUS
 62
    7
 10
120.2174985
 20
251.7453615
 11
120.2579345
 21
251.60394250000002
  0
LINE
  8
_0-0_0
  6
CONTINUOUS
 62
    7
 10
120.2973935
 20
251.47463949999999
 11
120.2579345
 21
251.60394250000002
  0
ARC
  8
_0-0_0
  6
CONTINUOUS
 62
    7
 10
127.92892449999999
 20
253.87464850000001
 40
8
 50
197.45760300000001
 51
202.79902999999999
  0
LINE
  8
_0-0_0
  6
CONTINUOUS
 62
    7
 10
120.60964950000002
 20
250.64535549999999
 11
120.5539555
 21
250.7746425
  0
LINE
  8
_0-0_0
  6
CONTINUOUS
 62
    7
 10
120.60964950000002
 20
250.64535549999999
 11
120.67369049999999
 21
250.50393650000001
  0
LINE
  8
_0-0_0
  6
CONTINUOUS
 62
    7
 10
120.73516850000001
 20
250.37464850000001
 11
120.67369049999999
 21
250.50393650000001
  0
ARC
  8
_0-0_0
  6
CONTINUOUS
 62
    7
 10
127.92892449999999
 20
253.87464850000001
 40
8
 50
205.94448199999999
 51
211.66823500000001
  0
LINE
  8
_0-0_0
  6
CONTINUOUS
 62
    7
 10
121.20156850000001
 20
249.54534950000001
 11
121.1201015
 21
249.67465150000001
  0
LINE
  8
_0-0_0
  6
CONTINUOUS
 62
    7
 10
121.20156850000001
 20
249.54534950000001
 11
121.29470850000001
 21
249.4039305
  0
LINE
  8
_0-0_0
  6
CONTINUOUS
 62
    7
 10
456.38369749999998
 20
249.2746425
 11
456.29470850000001
 21
249.4039305
  0
LINE
  8
_0-0_0
  6
CONTINUOUS
 62
    7
 10
454.92922950000002
 20
253.80392449999999
 11
454.92892449999999
 21
253.87464850000001
  0
LINE
  8
_0-0_0
  6
CONTINUOUS
 62
    7
 10
454.93142749999998
 20
253.67465150000001
 11
454.92922950000002
 21
253.80392449999999
  0
ARC
  8
_0-0_0
  6
CONTINUOUS
 62
    7
 10
462.92892449999999
 20
253.87464850000001
 40
8
 50
181.432545
 51
186.45945499999999
  0
LINE
  8
_0-0_0
  6
CONTINUOUS
 62
    7
 10
454.99542250000002
 20
252.84535249999999
 11
454.97970550000002
 21
252.97463949999999
  0
LINE
  8
_0-0_0
  6
CONTINUOUS
 62
    7
 10
454.99542250000002
 20
252.84535249999999
 11
455.01504549999999
 21
252.70393350000001
  0
LINE
  8
_0-0_0
  6
CONTINUOUS
 62
    7
 10
455.03524750000003
 20
252.5746455
 11
455.01504549999999
 21
252.70393350000001
  0
ARC
  8
_0-0_0
  6
CONTINUOUS
 62
    7
 10
462.92892449999999
 20
253.87464850000001
 40
8
 50
189.35203999999999
 51
194.47751
  0
LINE
  8
_0-0_0
  6
CONTINUOUS
 62
    7
 10
455.21749850000003
 20
251.7453615
 11
455.1829525
 21
251.87464850000001
  0
LINE
  8
_0-0_0
  6
CONTINUOUS
 62
    7
 10
455.21749850000003
 20
251.7453615
 11
455.25793450000003
 21
251.60394250000002
  0
LINE
  8
_0-0_0
  6
CONTINUOUS
 62
    7
 10
455.29742450000003
 20
251.47463949999999
 11
455.25793450000003
 21
251.60394250000002
  0
ARC
  8
_0-0_0
  6
CONTINUOUS
 62
    7
 10
462.92892449999999
 20
253.87464850000001
 40
8
 50
197.45760300000001
 51
202.79902999999999
  0
LINE
  8
_0-0_0
  6
CONTINUOUS
 62
    7
 10
455.60964949999999
 20
250.64535549999999
 11
455.55395550000003
 21
250.7746425
  0
LINE
  8
_0-0_0
  6
CONTINUOUS
 62
    7
 10
455.60964949999999
 20
250.64535549999999
 11
455.67370649999998
 21
250.50393650000001
  0
LINE
  8
_0-0_0
  6
CONTINUOUS
 62
    7
 10
455.73516849999999
 20
250.37464850000001
 11
455.67370649999998
 21
250.50393650000001
  0
ARC
  8
_0-0_0
  6
CONTINUOUS
 62
    7
 10
462.92892449999999
 20
253.87464850000001
 40
8
 50
205.94448199999999
 51
211.66823500000001
  0
LINE
  8
_0-0_0
  6
CONTINUOUS
 62
    7
 10
456.20156850000001
 20
249.54534950000001
 11
456.12011749999999
 21
249.67465150000001
  0
LINE
  8
_0-0_0
  6
CONTINUOUS
 62
    7
 10
456.20156850000001
 20
249.54534950000001
 11
456.29470850000001
 21
249.4039305
  0
LINE
  8
_0-0_0
  6
CONTINUOUS
 62
    7
 10
469.47415150000006
 20
249.2746425
 11
469.56314050000003
 21
249.4039305
  0
LINE
  8
_0-0_0
  6
CONTINUOUS
 62
    7
 10
469.65628049999998
 20
249.54534950000001
 11
469.56314050000003
 21
249.4039305
  0
LINE
  8
_0-0_0
  6
CONTINUOUS
 62
    7
 10
469.65628049999998
 20
249.54534950000001
 11
469.73770149999996
 21
249.67465150000001
  0
ARC
  8
_0-0_0
  6
CONTINUOUS
 62
    7
 10
462.92892449999999
 20
253.87464850000001
 40
8
 50
328.33175599999993
 51
334.05550899999992
  0
LINE
  8
_0-0_0
  6
CONTINUOUS
 62
    7
 10
470.12271150000004
 20
250.37464850000001
 11
470.18411249999997
 21
250.50393650000001
  0
LINE
  8
_0-0_0
  6
CONTINUOUS
 62
    7
 10
470.24819950000006
 20
250.64535549999999
 11
470.18411249999997
 21
250.50393650000001
  0
LINE
  8
_0-0_0
  6
CONTINUOUS
 62
    7
 10
470.24819950000006
 20
250.64535549999999
 11
470.30386350000003
 21
250.7746425
  0
ARC
  8
_0-0_0
  6
CONTINUOUS
 62
    7
 10
462.92892449999999
 20
253.87464850000001
 40
8
 50
337.20097500000003
 51
342.54240199999998
  0
LINE
  8
_0-0_0
  6
CONTINUOUS
 62
    7
 10
470.56045549999999
 20
251.47463949999999
 11
470.59988450000003
 21
251.60394250000002
  0
LINE
  8
_0-0_0
  6
CONTINUOUS
 62
    7
 10
470.64035049999995
 20
251.7453615
 11
470.59988450000003
 21
251.60394250000002
  0
LINE
  8
_0-0_0
  6
CONTINUOUS
 62
    7
 10
470.64035049999995
 20
251.7453615
 11
470.67489650000005
 21
251.87464850000001
  0
ARC
  8
_0-0_0
  6
CONTINUOUS
 62
    7
 10
462.92892449999999
 20
253.87464850000001
 40
8
 50
345.52249499999999
 51
350.64797900000002
  0
LINE
  8
_0-0_0
  6
CONTINUOUS
 62
    7
 10
470.82260150000002
 20
252.5746455
 11
470.84280450000006
 21
252.70393350000001
  0
LINE
  8
_0-0_0
  6
CONTINUOUS
 62
    7
 10
470.8624575
 20
252.84535249999999
 11
470.84280450000006
 21
252.70393350000001
  0
LINE
  8
_0-0_0
  6
CONTINUOUS
 62
    7
 10
470.8624575
 20
252.84535249999999
 11
470.87814349999996
 21
252.97463949999999
  0
ARC
  8
_0-0_0
  6
CONTINUOUS
 62
    7
 10
462.92892449999999
 20
253.87464850000001
 40
8
 50
353.54056400000002
 51
358.56744600000002
  0
LINE
  8
_0-0_0
  6
CONTINUOUS
 62
    7
 10
470.92642250000006
 20
253.67465150000001
 11
470.92861949999997
 21
253.80392449999999
  0
LINE
  8
_0-0_0
  6
CONTINUOUS
 62
    7
 10
470.92861949999997
 20
253.80392449999999
 11
470.92892449999999
 21
253.87464850000001
  0
LINE
  8
_0-0_0
  6
CONTINUOUS
 62
    7
 10
471.92892449999999
 20
249.4039305
 11
471.92892449999999
 21
249.2746425
  0
LINE
  8
_0-0_0
  6
CONTINUOUS
 62
    7
 10
471.92892449999999
 20
258.20393350000001
 11
471.92892449999999
 21
258.34535249999999
  0
LINE
  8
_0-0_0
  6
CONTINUOUS
 62
    7
 10
471.92892449999999
 20
258.20393350000001
 11
471.92892449999999
 21
258.07464549999997
  0
LINE
  8
_0-0_0
  6
CONTINUOUS
 62
    7
 10
471.92892449999999
 20
257.37464850000003
 11
471.92892449999999
 21
258.07464549999997
  0
LINE
  8
_0-0_0
  6
CONTINUOUS
 62
    7
 10
471.92892449999999
 20
257.2453615
 11
471.92892449999999
 21
257.37464850000003
  0
LINE
  8
_0-0_0
  6
CONTINUOUS
 62
    7
 10
471.92892449999999
 20
257.1039275
 11
471.92892449999999
 21
257.2453615
  0
LINE
  8
_0-0_0
  6
CONTINUOUS
 62
    7
 10
471.92892449999999
 20
257.1039275
 11
471.92892449999999
 21
256.97463949999997
  0
LINE
  8
_0-0_0
  6
CONTINUOUS
 62
    7
 10
471.92892449999999
 20
256.27464250000003
 11
471.92892449999999
 21
256.97463949999997
  0
LINE
  8
_0-0_0
  6
CONTINUOUS
 62
    7
 10
471.92892449999999
 20
256.14535549999999
 11
471.92892449999999
 21
256.27464250000003
  0
LINE
  8
_0-0_0
  6
CONTINUOUS
 62
    7
 10
471.92892449999999
 20
256.00393650000001
 11
471.92892449999999
 21
256.14535549999999
  0
LINE
  8
_0-0_0
  6
CONTINUOUS
 62
    7
 10
471.92892449999999
 20
256.00393650000001
 11
471.92892449999999
 21
255.87464850000001
  0
LINE
  8
_0-0_0
  6
CONTINUOUS
 62
    7
 10
471.92892449999999
 20
255.17465150000001
 11
471.92892449999999
 21
255.87464850000001
  0
LINE
  8
_0-0_0
  6
CONTINUOUS
 62
    7
 10
471.92892449999999
 20
255.04534950000001
 11
471.92892449999999
 21
255.17465150000001
  0
LINE
  8
_0-0_0
  6
CONTINUOUS
 62
    7
 10
471.92892449999999
 20
254.9039305
 11
471.92892449999999
 21
255.04534950000001
  0
LINE
  8
_0-0_0
  6
CONTINUOUS
 62
    7
 10
471.92892449999999
 20
254.9039305
 11
471.92892449999999
 21
254.7746425
  0
LINE
  8
_0-0_0
  6
CONTINUOUS
 62
    7
 10
471.92892449999999
 20
254.0746455
 11
471.92892449999999
 21
254.7746425
  0
LINE
  8
_0-0_0
  6
CONTINUOUS
 62
    7
 10
471.92892449999999
 20
253.9453585
 11
471.92892449999999
 21
254.0746455
  0
LINE
  8
_0-0_0
  6
CONTINUOUS
 62
    7
 10
471.92892449999999
 20
253.80392449999999
 11
471.92892449999999
 21
253.9453585
  0
LINE
  8
_0-0_0
  6
CONTINUOUS
 62
    7
 10
471.92892449999999
 20
253.80392449999999
 11
471.92892449999999
 21
253.67465150000001
  0
LINE
  8
_0-0_0
  6
CONTINUOUS
 62
    7
 10
471.92892449999999
 20
252.97463949999999
 11
471.92892449999999
 21
253.67465150000001
  0
LINE
  8
_0-0_0
  6
CONTINUOUS
 62
    7
 10
471.92892449999999
 20
252.84535249999999
 11
471.92892449999999
 21
252.97463949999999
  0
LINE
  8
_0-0_0
  6
CONTINUOUS
 62
    7
 10
471.92892449999999
 20
252.70393350000001
 11
471.92892449999999
 21
252.84535249999999
  0
LINE
  8
_0-0_0
  6
CONTINUOUS
 62
    7
 10
471.92892449999999
 20
252.70393350000001
 11
471.92892449999999
 21
252.5746455
  0
LINE
  8
_0-0_0
  6
CONTINUOUS
 62
    7
 10
471.92892449999999
 20
251.87464850000001
 11
471.92892449999999
 21
252.5746455
  0
LINE
  8
_0-0_0
  6
CONTINUOUS
 62
    7
 10
471.92892449999999
 20
251.7453615
 11
471.92892449999999
 21
251.87464850000001
  0
LINE
  8
_0-0_0
  6
CONTINUOUS
 62
    7
 10
471.92892449999999
 20
251.60394250000002
 11
471.92892449999999
 21
251.7453615
  0
LINE
  8
_0-0_0
  6
CONTINUOUS
 62
    7
 10
471.92892449999999
 20
251.60394250000002
 11
471.92892449999999
 21
251.47463949999999
  0
LINE
  8
_0-0_0
  6
CONTINUOUS
 62
    7
 10
471.92892449999999
 20
250.7746425
 11
471.92892449999999
 21
251.47463949999999
  0
LINE
  8
_0-0_0
  6
CONTINUOUS
 62
    7
 10
471.92892449999999
 20
250.64535549999999
 11
471.92892449999999
 21
250.7746425
  0
LINE
  8
_0-0_0
  6
CONTINUOUS
 62
    7
 10
471.92892449999999
 20
250.50393650000001
 11
471.92892449999999
 21
250.64535549999999
  0
LINE
  8
_0-0_0
  6
CONTINUOUS
 62
    7
 10
471.92892449999999
 20
250.50393650000001
 11
471.92892449999999
 21
250.37464850000001
  0
LINE
  8
_0-0_0
  6
CONTINUOUS
 62
    7
 10
471.92892449999999
 20
249.67465150000001
 11
471.92892449999999
 21
250.37464850000001
  0
LINE
  8
_0-0_0
  6
CONTINUOUS
 62
    7
 10
471.92892449999999
 20
249.54534950000001
 11
471.92892449999999
 21
249.67465150000001
  0
LINE
  8
_0-0_0
  6
CONTINUOUS
 62
    7
 10
471.92892449999999
 20
249.4039305
 11
471.92892449999999
 21
249.54534950000001
  0
LINE
  8
_0-0_0
  6
CONTINUOUS
 62
    7
 10
471.92892449999999
 20
235.5746455
 11
471.92892449999999
 21
236.0746455
  0
LINE
  8
_0-0_0
  6
CONTINUOUS
 62
    7
 10
471.92892449999999
 20
264.07464549999997
 11
471.92892449999999
 21
263.4806825
  0
LINE
  8
_0-0_0
  6
CONTINUOUS
 62
    7
 10
471.92892449999999
 20
258.47463949999997
 11
471.92892449999999
 21
263.4806825
  0
LINE
  8
_0-0_0
  6
CONTINUOUS
 62
    7
 10
471.92892449999999
 20
258.34535249999999
 11
471.92892449999999
 21
258.47463949999997
  0
LINE
  8
_0-0_0
  6
CONTINUOUS
 62
    7
 10
118.92892449999999
 20
235.5746455
 11
118.92892449999999
 21
236.0746455
  0
LINE
  8
_0-0_0
  6
CONTINUOUS
 62
    7
 10
118.92892449999999
 20
235.5746455
 11
471.92892449999999
 21
235.5746455
  0
LINE
  8
_0-0_0
  6
CONTINUOUS
 62
    7
 10
118.92892449999999
 20
249.4039305
 11
118.92892449999999
 21
249.54534950000001
  0
LINE
  8
_0-0_0
  6
CONTINUOUS
 62
    7
 10
118.92892449999999
 20
249.4039305
 11
118.92892449999999
 21
249.2746425
  0
LINE
  8
_0-0_0
  6
CONTINUOUS
 62
    7
 10
118.92892449999999
 20
264.07464549999997
 11
118.92892449999999
 21
263.4806825
  0
LINE
  8
_0-0_0
  6
CONTINUOUS
 62
    7
 10
118.92892449999999
 20
258.47463949999997
 11
118.92892449999999
 21
263.4806825
  0
LINE
  8
_0-0_0
  6
CONTINUOUS
 62
    7
 10
118.92892449999999
 20
258.34535249999999
 11
118.92892449999999
 21
258.47463949999997
  0
LINE
  8
_0-0_0
  6
CONTINUOUS
 62
    7
 10
118.92892449999999
 20
258.20393350000001
 11
118.92892449999999
 21
258.34535249999999
  0
LINE
  8
_0-0_0
  6
CONTINUOUS
 62
    7
 10
118.92892449999999
 20
258.20393350000001
 11
118.92892449999999
 21
258.07464549999997
  0
LINE
  8
_0-0_0
  6
CONTINUOUS
 62
    7
 10
118.92892449999999
 20
257.37464850000003
 11
118.92892449999999
 21
258.07464549999997
  0
LINE
  8
_0-0_0
  6
CONTINUOUS
 62
    7
 10
118.92892449999999
 20
257.2453615
 11
118.92892449999999
 21
257.37464850000003
  0
LINE
  8
_0-0_0
  6
CONTINUOUS
 62
    7
 10
118.92892449999999
 20
257.1039275
 11
118.92892449999999
 21
257.2453615
  0
LINE
  8
_0-0_0
  6
CONTINUOUS
 62
    7
 10
118.92892449999999
 20
257.1039275
 11
118.92892449999999
 21
256.97463949999997
  0
LINE
  8
_0-0_0
  6
CONTINUOUS
 62
    7
 10
118.92892449999999
 20
256.27464250000003
 11
118.92892449999999
 21
256.97463949999997
  0
LINE
  8
_0-0_0
  6
CONTINUOUS
 62
    7
 10
118.92892449999999
 20
256.14535549999999
 11
118.92892449999999
 21
256.27464250000003
  0
LINE
  8
_0-0_0
  6
CONTINUOUS
 62
    7
 10
118.92892449999999
 20
256.00393650000001
 11
118.92892449999999
 21
256.14535549999999
  0
LINE
  8
_0-0_0
  6
CONTINUOUS
 62
    7
 10
118.92892449999999
 20
256.00393650000001
 11
118.92892449999999
 21
255.87464850000001
  0
LINE
  8
_0-0_0
  6
CONTINUOUS
 62
    7
 10
118.92892449999999
 20
255.17465150000001
 11
118.92892449999999
 21
255.87464850000001
  0
LINE
  8
_0-0_0
  6
CONTINUOUS
 62
    7
 10
118.92892449999999
 20
255.04534950000001
 11
118.92892449999999
 21
255.17465150000001
  0
LINE
  8
_0-0_0
  6
CONTINUOUS
 62
    7
 10
118.92892449999999
 20
254.9039305
 11
118.92892449999999
 21
255.04534950000001
  0
LINE
  8
_0-0_0
  6
CONTINUOUS
 62
    7
 10
118.92892449999999
 20
254.9039305
 11
118.92892449999999
 21
254.7746425
  0
LINE
  8
_0-0_0
  6
CONTINUOUS
 62
    7
 10
118.92892449999999
 20
254.0746455
 11
118.92892449999999
 21
254.7746425
  0
LINE
  8
_0-0_0
  6
CONTINUOUS
 62
    7
 10
118.92892449999999
 20
253.9453585
 11
118.92892449999999
 21
254.0746455
  0
LINE
  8
_0-0_0
  6
CONTINUOUS
 62
    7
 10
118.92892449999999
 20
253.80392449999999
 11
118.92892449999999
 21
253.9453585
  0
LINE
  8
_0-0_0
  6
CONTINUOUS
 62
    7
 10
118.92892449999999
 20
253.80392449999999
 11
118.92892449999999
 21
253.67465150000001
  0
LINE
  8
_0-0_0
  6
CONTINUOUS
 62
    7
 10
118.92892449999999
 20
252.97463949999999
 11
118.92892449999999
 21
253.67465150000001
  0
LINE
  8
_0-0_0
  6
CONTINUOUS
 62
    7
 10
118.92892449999999
 20
252.84535249999999
 11
118.92892449999999
 21
252.97463949999999
  0
LINE
  8
_0-0_0
  6
CONTINUOUS
 62
    7
 10
118.92892449999999
 20
252.70393350000001
 11
118.92892449999999
 21
252.84535249999999
  0
LINE
  8
_0-0_0
  6
CONTINUOUS
 62
    7
 10
118.92892449999999
 20
252.70393350000001
 11
118.92892449999999
 21
252.5746455
  0
LINE
  8
_0-0_0
  6
CONTINUOUS
 62
    7
 10
118.92892449999999
 20
251.87464850000001
 11
118.92892449999999
 21
252.5746455
  0
LINE
  8
_0-0_0
  6
CONTINUOUS
 62
    7
 10
118.92892449999999
 20
251.7453615
 11
118.92892449999999
 21
251.87464850000001
  0
LINE
  8
_0-0_0
  6
CONTINUOUS
 62
    7
 10
118.92892449999999
 20
251.60394250000002
 11
118.92892449999999
 21
251.7453615
  0
LINE
  8
_0-0_0
  6
CONTINUOUS
 62
    7
 10
118.92892449999999
 20
251.60394250000002
 11
118.92892449999999
 21
251.47463949999999
  0
LINE
  8
_0-0_0
  6
CONTINUOUS
 62
    7
 10
118.92892449999999
 20
250.7746425
 11
118.92892449999999
 21
251.47463949999999
  0
LINE
  8
_0-0_0
  6
CONTINUOUS
 62
    7
 10
118.92892449999999
 20
250.64535549999999
 11
118.92892449999999
 21
250.7746425
  0
LINE
  8
_0-0_0
  6
CONTINUOUS
 62
    7
 10
118.92892449999999
 20
250.50393650000001
 11
118.92892449999999
 21
250.64535549999999
  0
LINE
  8
_0-0_0
  6
CONTINUOUS
 62
    7
 10
118.92892449999999
 20
250.50393650000001
 11
118.92892449999999
 21
250.37464850000001
  0
LINE
  8
_0-0_0
  6
CONTINUOUS
 62
    7
 10
118.92892449999999
 20
249.67465150000001
 11
118.92892449999999
 21
250.37464850000001
  0
LINE
  8
_0-0_0
  6
CONTINUOUS
 62
    7
 10
118.92892449999999
 20
249.54534950000001
 11
118.92892449999999
 21
249.67465150000001
  0
LINE
  8
_0-0_0
  6
CONTINUOUS
 62
    7
 10
405.92892449999999
 20
241.5746455
 11
412.92892449999999
 21
241.5746455
  0
ARC
  8
_0-0_0
  6
CONTINUOUS
 62
    7
 10
405.92892449999999
 20
241.0746455
 40
0.5
 50
90.000003000000007
 51
180.00000900000001
  0
LINE
  8
_0-0_0
  6
CONTINUOUS
 62
    7
 10
405.42892449999999
 20
241.0746455
 11
405.42892449999999
 21
237.0746455
  0
ARC
  8
_0-0_0
  6
CONTINUOUS
 62
    7
 10
405.92892449999999
 20
237.0746455
 40
0.5
 50
180.00000900000003
 51
269.99999700000001
  0
LINE
  8
_0-0_0
  6
CONTINUOUS
 62
    7
 10
412.92892449999999
 20
236.5746455
 11
405.92892449999999
 21
236.5746455
  0
ARC
  8
_0-0_0
  6
CONTINUOUS
 62
    7
 10
412.92892449999999
 20
237.0746455
 40
0.5
 50
269.99999700000001
 51
0
  0
LINE
  8
_0-0_0
  6
CONTINUOUS
 62
    7
 10
413.42892449999999
 20
237.0746455
 11
413.42892449999999
 21
241.0746455
  0
ARC
  8
_0-0_0
  6
CONTINUOUS
 62
    7
 10
412.92892449999999
 20
241.0746455
 40
0.5
 50
0
 51
90.000003000000007
  0
ARC
  8
_0-0_0
  6
CONTINUOUS
 62
    7
 10
185.9289095
 20
241.0746455
 40
0.5
 50
90.000003000000007
 51
180.00000900000001
  0
LINE
  8
_0-0_0
  6
CONTINUOUS
 62
    7
 10
185.4289095
 20
241.0746455
 11
185.4289095
 21
237.0746455
  0
ARC
  8
_0-0_0
  6
CONTINUOUS
 62
    7
 10
185.9289095
 20
237.0746455
 40
0.5
 50
180.00000900000003
 51
269.99999700000001
  0
LINE
  8
_0-0_0
  6
CONTINUOUS
 62
    7
 10
192.9289095
 20
236.5746455
 11
185.9289095
 21
236.5746455
  0
ARC
  8
_0-0_0
  6
CONTINUOUS
 62
    7
 10
192.9289095
 20
237.0746455
 40
0.5
 50
269.99999700000001
 51
0
  0
LINE
  8
_0-0_0
  6
CONTINUOUS
 62
    7
 10
193.4289095
 20
237.0746455
 11
193.4289095
 21
241.0746455
  0
ARC
  8
_0-0_0
  6
CONTINUOUS
 62
    7
 10
192.9289095
 20
241.0746455
 40
0.5
 50
0
 51
90.000003000000007
  0
LINE
  8
_0-0_0
  6
CONTINUOUS
 62
    7
 10
185.9289095
 20
241.5746455
 11
192.9289095
 21
241.5746455
  0
LINE
  8
_0-0_0
  6
CONTINUOUS
 62
    7
 10
118.92892449999999
 20
249.67465150000001
 11
121.1201015
 21
249.67465150000001
  0
LINE
  8
_0-0_0
  6
CONTINUOUS
 62
    7
 10
118.92892449999999
 20
250.37464850000001
 11
120.73516850000001
 21
250.37464850000001
  0
LINE
  8
_0-0_0
  6
CONTINUOUS
 62
    7
 10
118.92892449999999
 20
250.7746425
 11
120.5539555
 21
250.7746425
  0
LINE
  8
_0-0_0
  6
CONTINUOUS
 62
    7
 10
118.92892449999999
 20
251.47463949999999
 11
120.2973935
 21
251.47463949999999
  0
LINE
  8
_0-0_0
  6
CONTINUOUS
 62
    7
 10
118.92892449999999
 20
251.87464850000001
 11
120.1829525
 21
251.87464850000001
  0
LINE
  8
_0-0_0
  6
CONTINUOUS
 62
    7
 10
118.92892449999999
 20
252.5746455
 11
120.0352475
 21
252.5746455
  0
LINE
  8
_0-0_0
  6
CONTINUOUS
 62
    7
 10
118.92892449999999
 20
252.97463949999999
 11
119.97970549999999
 21
252.97463949999999
  0
LINE
  8
_0-0_0
  6
CONTINUOUS
 62
    7
 10
118.92892449999999
 20
253.67465150000001
 11
119.93142750000001
 21
253.67465150000001
  0
LINE
  8
_0-0_0
  6
CONTINUOUS
 62
    7
 10
119.92892449999999
 20
253.87464850000001
 11
119.92922950000002
 21
253.9453585
  0
LINE
  8
_0-0_0
  6
CONTINUOUS
 62
    7
 10
135.92892449999999
 20
253.87464850000001
 11
135.92860450000001
 21
253.9453585
  0
LINE
  8
_0-0_0
  6
CONTINUOUS
 62
    7
 10
135.9264225
 20
254.0746455
 11
135.92860450000001
 21
253.9453585
  0
ARC
  8
_0-0_0
  6
CONTINUOUS
 62
    7
 10
127.92892449999999
 20
253.87464850000001
 40
8
 50
1.432544
 51
6.4594489999999993
  0
LINE
  8
_0-0_0
  6
CONTINUOUS
 62
    7
 10
135.8624265
 20
254.9039305
 11
135.8781285
 21
254.7746425
  0
LINE
  8
_0-0_0
  6
CONTINUOUS
 62
    7
 10
135.8624265
 20
254.9039305
 11
135.84278850000001
 21
255.04534950000001
  0
LINE
  8
_0-0_0
  6
CONTINUOUS
 62
    7
 10
135.8225865
 20
255.17465150000001
 11
135.84278850000001
 21
255.04534950000001
  0
ARC
  8
_0-0_0
  6
CONTINUOUS
 62
    7
 10
127.92892449999999
 20
253.87464850000001
 40
8
 50
9.3520350000000008
 51
14.477510999999998
  0
LINE
  8
_0-0_0
  6
CONTINUOUS
 62
    7
 10
135.64035050000001
 20
256.00393650000001
 11
135.6748815
 21
255.87464850000001
  0
LINE
  8
_0-0_0
  6
CONTINUOUS
 62
    7
 10
135.64035050000001
 20
256.00393650000001
 11
135.5998845
 21
256.14535549999999
  0
LINE
  8
_0-0_0
  6
CONTINUOUS
 62
    7
 10
135.56042450000001
 20
256.27464250000003
 11
135.5998845
 21
256.14535549999999
  0
ARC
  8
_0-0_0
  6
CONTINUOUS
 62
    7
 10
127.92892449999999
 20
253.87464850000001
 40
8
 50
17.457602999999999
 51
22.799030999999999
  0
LINE
  8
_0-0_0
  6
CONTINUOUS
 62
    7
 10
135.24818450000001
 20
257.1039275
 11
135.3038785
 21
256.97463949999997
  0
LINE
  8
_0-0_0
  6
CONTINUOUS
 62
    7
 10
135.24818450000001
 20
257.1039275
 11
135.1841435
 21
257.2453615
  0
LINE
  8
_0-0_0
  6
CONTINUOUS
 62
    7
 10
135.12266550000001
 20
257.37464850000003
 11
135.1841435
 21
257.2453615
  0
ARC
  8
_0-0_0
  6
CONTINUOUS
 62
    7
 10
127.92892449999999
 20
253.87464850000001
 40
8
 50
25.944476999999999
 51
31.668240000000001
  0
LINE
  8
_0-0_0
  6
CONTINUOUS
 62
    7
 10
134.65626550000002
 20
258.20393350000001
 11
134.7377315
 21
258.07464549999997
  0
LINE
  8
_0-0_0
  6
CONTINUOUS
 62
    7
 10
134.65626550000002
 20
258.20393350000001
 11
134.56312550000001
 21
258.34535249999999
  0
LINE
  8
_0-0_0
  6
CONTINUOUS
 62
    7
 10
134.4741515
 20
258.47463949999997
 11
134.56312550000001
 21
258.34535249999999
  0
ARC
  8
_0-0_0
  6
CONTINUOUS
 62
    7
 10
127.92892449999999
 20
253.87464850000001
 40
8
 50
35.099632
 51
144.900373
  0
LINE
  8
_0-0_0
  6
CONTINUOUS
 62
    7
 10
121.38369750000001
 20
258.47463949999997
 11
121.29470850000001
 21
258.34535249999999
  0
LINE
  8
_0-0_0
  6
CONTINUOUS
 62
    7
 10
121.20156850000001
 20
258.20393350000001
 11
121.29470850000001
 21
258.34535249999999
  0
LINE
  8
_0-0_0
  6
CONTINUOUS
 62
    7
 10
121.20156850000001
 20
258.20393350000001
 11
121.1201015
 21
258.07464549999997
  0
ARC
  8
_0-0_0
  6
CONTINUOUS
 62
    7
 10
127.92892449999999
 20
253.87464850000001
 40
8
 50
148.33176499999999
 51
154.05551800000001
  0
LINE
  8
_0-0_0
  6
CONTINUOUS
 62
    7
 10
120.73516850000001
 20
257.37464850000003
 11
120.67369049999999
 21
257.2453615
  0
LINE
  8
_0-0_0
  6
CONTINUOUS
 62
    7
 10
120.60964950000002
 20
257.1039275
 11
120.67369049999999
 21
257.2453615
  0
LINE
  8
_0-0_0
  6
CONTINUOUS
 62
    7
 10
120.60964950000002
 20
257.1039275
 11
120.5539555
 21
256.97463949999997
  0
ARC
  8
_0-0_0
  6
CONTINUOUS
 62
    7
 10
127.92892449999999
 20
253.87464850000001
 40
8
 50
157.20097000000001
 51
162.54239699999999
  0
LINE
  8
_0-0_0
  6
CONTINUOUS
 62
    7
 10
120.2973935
 20
256.27464250000003
 11
120.2579345
 21
256.14535549999999
  0
LINE
  8
_0-0_0
  6
CONTINUOUS
 62
    7
 10
120.2174985
 20
256.00393650000001
 11
120.2579345
 21
256.14535549999999
  0
LINE
  8
_0-0_0
  6
CONTINUOUS
 62
    7
 10
120.2174985
 20
256.00393650000001
 11
120.1829525
 21
255.87464850000001
  0
ARC
  8
_0-0_0
  6
CONTINUOUS
 62
    7
 10
127.92892449999999
 20
253.87464850000001
 40
8
 50
165.52249
 51
170.64796000000001
  0
LINE
  8
_0-0_0
  6
CONTINUOUS
 62
    7
 10
120.0352475
 20
255.17465150000001
 11
120.01504550000001
 21
255.04534950000001
  0
LINE
  8
_0-0_0
  6
CONTINUOUS
 62
    7
 10
119.9954075
 20
254.9039305
 11
120.01504550000001
 21
255.04534950000001
  0
LINE
  8
_0-0_0
  6
CONTINUOUS
 62
    7
 10
119.9954075
 20
254.9039305
 11
119.97970549999999
 21
254.7746425
  0
ARC
  8
_0-0_0
  6
CONTINUOUS
 62
    7
 10
127.92892449999999
 20
253.87464850000001
 40
8
 50
173.54054500000001
 51
178.567455
  0
LINE
  8
_0-0_0
  6
CONTINUOUS
 62
    7
 10
119.93142750000001
 20
254.0746455
 11
119.92922950000002
 21
253.9453585
  0
CIRCLE
  8
_0-0_0
  6
CONTINUOUS
 62
    7
 10
127.92892449999999
 20
253.87464850000001
 40
7.5
  0
LINE
  8
_0-0_0
  6
CONTINUOUS
 62
    7
 10
454.92892449999999
 20
253.87464850000001
 11
454.92922950000002
 21
253.9453585
  0
LINE
  8
_0-0_0
  6
CONTINUOUS
 62
    7
 10
135.9264225
 20
253.67465150000001
 11
454.93142749999998
 21
253.67465150000001
  0
LINE
  8
_0-0_0
  6
CONTINUOUS
 62
    7
 10
135.8781285
 20
252.97463949999999
 11
454.97970550000002
 21
252.97463949999999
  0
LINE
  8
_0-0_0
  6
CONTINUOUS
 62
    7
 10
135.8225865
 20
252.5746455
 11
455.03524750000003
 21
252.5746455
  0
LINE
  8
_0-0_0
  6
CONTINUOUS
 62
    7
 10
135.6748815
 20
251.87464850000001
 11
455.1829525
 21
251.87464850000001
  0
LINE
  8
_0-0_0
  6
CONTINUOUS
 62
    7
 10
135.56042450000001
 20
251.47463949999999
 11
455.29742450000003
 21
251.47463949999999
  0
LINE
  8
_0-0_0
  6
CONTINUOUS
 62
    7
 10
135.3038785
 20
250.7746425
 11
455.55395550000003
 21
250.7746425
  0
LINE
  8
_0-0_0
  6
CONTINUOUS
 62
    7
 10
135.12266550000001
 20
250.37464850000001
 11
455.73516849999999
 21
250.37464850000001
  0
LINE
  8
_0-0_0
  6
CONTINUOUS
 62
    7
 10
134.7377315
 20
249.67465150000001
 11
456.12011749999999
 21
249.67465150000001
  0
LINE
  8
_0-0_0
  6
CONTINUOUS
 62
    7
 10
470.92892449999999
 20
253.87464850000001
 11
470.92861949999997
 21
253.9453585
  0
LINE
  8
_0-0_0
  6
CONTINUOUS
 62
    7
 10
470.92642250000006
 20
253.67465150000001
 11
471.92892449999999
 21
253.67465150000001
  0
LINE
  8
_0-0_0
  6
CONTINUOUS
 62
    7
 10
470.87814349999996
 20
252.97463949999999
 11
471.92892449999999
 21
252.97463949999999
  0
LINE
  8
_0-0_0
  6
CONTINUOUS
 62
    7
 10
470.82260150000002
 20
252.5746455
 11
471.92892449999999
 21
252.5746455
  0
LINE
  8
_0-0_0
  6
CONTINUOUS
 62
    7
 10
470.67489650000005
 20
251.87464850000001
 11
471.92892449999999
 21
251.87464850000001
  0
LINE
  8
_0-0_0
  6
CONTINUOUS
 62
    7
 10
470.56045549999999
 20
251.47463949999999
 11
471.92892449999999
 21
251.47463949999999
  0
LINE
  8
_0-0_0
  6
CONTINUOUS
 62
    7
 10
470.30386350000003
 20
250.7746425
 11
471.92892449999999
 21
250.7746425
  0
LINE
  8
_0-0_0
  6
CONTINUOUS
 62
    7
 10
470.12271150000004
 20
250.37464850000001
 11
471.92892449999999
 21
250.37464850000001
  0
LINE
  8
_0-0_0
  6
CONTINUOUS
 62
    7
 10
469.73770149999996
 20
249.67465150000001
 11
471.92892449999999
 21
249.67465150000001
  0
LINE
  8
_0-0_0
  6
CONTINUOUS
 62
    7
 10
469.47415150000006
 20
258.47463949999997
 11
469.56314050000003
 21
258.34535249999999
  0
ARC
  8
_0-0_0
  6
CONTINUOUS
 62
    7
 10
462.92892449999999
 20
253.87464850000001
 40
8
 50
35.099632
 51
144.900373
  0
LINE
  8
_0-0_0
  6
CONTINUOUS
 62
    7
 10
456.38369749999998
 20
258.47463949999997
 11
456.29470850000001
 21
258.34535249999999
  0
LINE
  8
_0-0_0
  6
CONTINUOUS
 62
    7
 10
456.20156850000001
 20
258.20393350000001
 11
456.29470850000001
 21
258.34535249999999
  0
LINE
  8
_0-0_0
  6
CONTINUOUS
 62
    7
 10
456.20156850000001
 20
258.20393350000001
 11
456.12011749999999
 21
258.07464549999997
  0
ARC
  8
_0-0_0
  6
CONTINUOUS
 62
    7
 10
462.92892449999999
 20
253.87464850000001
 40
8
 50
148.33176499999999
 51
154.05551800000001
  0
LINE
  8
_0-0_0
  6
CONTINUOUS
 62
    7
 10
455.73516849999999
 20
257.37464850000003
 11
455.67370649999998
 21
257.2453615
  0
LINE
  8
_0-0_0
  6
CONTINUOUS
 62
    7
 10
455.60964949999999
 20
257.1039275
 11
455.67370649999998
 21
257.2453615
  0
LINE
  8
_0-0_0
  6
CONTINUOUS
 62
    7
 10
455.60964949999999
 20
257.1039275
 11
455.55395550000003
 21
256.97463949999997
  0
ARC
  8
_0-0_0
  6
CONTINUOUS
 62
    7
 10
462.92892449999999
 20
253.87464850000001
 40
8
 50
157.20097000000001
 51
162.54239699999999
  0
LINE
  8
_0-0_0
  6
CONTINUOUS
 62
    7
 10
455.29742450000003
 20
256.27464250000003
 11
455.25793450000003
 21
256.14535549999999
  0
LINE
  8
_0-0_0
  6
CONTINUOUS
 62
    7
 10
455.21749850000003
 20
256.00393650000001
 11
455.25793450000003
 21
256.14535549999999
  0
LINE
  8
_0-0_0
  6
CONTINUOUS
 62
    7
 10
455.21749850000003
 20
256.00393650000001
 11
455.1829525
 21
255.87464850000001
  0
ARC
  8
_0-0_0
  6
CONTINUOUS
 62
    7
 10
462.92892449999999
 20
253.87464850000001
 40
8
 50
165.52249
 51
170.64796000000001
  0
LINE
  8
_0-0_0
  6
CONTINUOUS
 62
    7
 10
455.03524750000003
 20
255.17465150000001
 11
455.01504549999999
 21
255.04534950000001
  0
LINE
  8
_0-0_0
  6
CONTINUOUS
 62
    7
 10
454.99542250000002
 20
254.9039305
 11
455.01504549999999
 21
255.04534950000001
  0
LINE
  8
_0-0_0
  6
CONTINUOUS
 62
    7
 10
454.99542250000002
 20
254.9039305
 11
454.97970550000002
 21
254.7746425
  0
ARC
  8
_0-0_0
  6
CONTINUOUS
 62
    7
 10
462.92892449999999
 20
253.87464850000001
 40
8
 50
173.54054500000001
 51
178.567455
  0
LINE
  8
_0-0_0
  6
CONTINUOUS
 62
    7
 10
454.93142749999998
 20
254.0746455
 11
454.92922950000002
 21
253.9453585
  0
LINE
  8
_0-0_0
  6
CONTINUOUS
 62
    7
 10
470.92642250000006
 20
254.0746455
 11
470.92861949999997
 21
253.9453585
  0
ARC
  8
_0-0_0
  6
CONTINUOUS
 62
    7
 10
462.92892449999999
 20
253.87464850000001
 40
8
 50
1.432544
 51
6.4594489999999993
  0
LINE
  8
_0-0_0
  6
CONTINUOUS
 62
    7
 10
470.8624575
 20
254.9039305
 11
470.87814349999996
 21
254.7746425
  0
LINE
  8
_0-0_0
  6
CONTINUOUS
 62
    7
 10
470.8624575
 20
254.9039305
 11
470.84280450000006
 21
255.04534950000001
  0
LINE
  8
_0-0_0
  6
CONTINUOUS
 62
    7
 10
470.82260150000002
 20
255.17465150000001
 11
470.84280450000006
 21
255.04534950000001
  0
ARC
  8
_0-0_0
  6
CONTINUOUS
 62
    7
 10
462.92892449999999
 20
253.87464850000001
 40
8
 50
9.3520350000000008
 51
14.477510999999998
  0
LINE
  8
_0-0_0
  6
CONTINUOUS
 62
    7
 10
470.64035049999995
 20
256.00393650000001
 11
470.67489650000005
 21
255.87464850000001
  0
LINE
  8
_0-0_0
  6
CONTINUOUS
 62
    7
 10
470.64035049999995
 20
256.00393650000001
 11
470.59988450000003
 21
256.14535549999999
  0
LINE
  8
_0-0_0
  6
CONTINUOUS
 62
    7
 10
470.56045549999999
 20
256.27464250000003
 11
470.59988450000003
 21
256.14535549999999
  0
ARC
  8
_0-0_0
  6
CONTINUOUS
 62
    7
 10
462.92892449999999
 20
253.87464850000001
 40
8
 50
17.457602999999999
 51
22.799030999999999
  0
LINE
  8
_0-0_0
  6
CONTINUOUS
 62
    7
 10
470.24819950000006
 20
257.1039275
 11
470.30386350000003
 21
256.97463949999997
  0
LINE
  8
_0-0_0
  6
CONTINUOUS
 62
    7
 10
470.24819950000006
 20
257.1039275
 11
470.18411249999997
 21
257.2453615
  0
LINE
  8
_0-0_0
  6
CONTINUOUS
 62
    7
 10
470.12271150000004
 20
257.37464850000003
 11
470.18411249999997
 21
257.2453615
  0
ARC
  8
_0-0_0
  6
CONTINUOUS
 62
    7
 10
462.92892449999999
 20
253.87464850000001
 40
8
 50
25.944476999999999
 51
31.668240000000001
  0
LINE
  8
_0-0_0
  6
CONTINUOUS
 62
    7
 10
469.65628049999998
 20
258.20393350000001
 11
469.73770149999996
 21
258.07464549999997
  0
LINE
  8
_0-0_0
  6
CONTINUOUS
 62
    7
 10
469.65628049999998
 20
258.20393350000001
 11
469.56314050000003
 21
258.34535249999999
  0
CIRCLE
  8
_0-0_0
  6
CONTINUOUS
 62
    7
 10
462.92892449999999
 20
253.87464850000001
 40
7.5
  0
LINE
  8
_0-0_0
  6
CONTINUOUS
 62
    7
 10
469.73770149999996
 20
258.07464549999997
 11
471.92892449999999
 21
258.07464549999997
  0
LINE
  8
_0-0_0
  6
CONTINUOUS
 62
    7
 10
470.12271150000004
 20
257.37464850000003
 11
471.92892449999999
 21
257.37464850000003
  0
LINE
  8
_0-0_0
  6
CONTINUOUS
 62
    7
 10
470.30386350000003
 20
256.97463949999997
 11
471.92892449999999
 21
256.97463949999997
  0
LINE
  8
_0-0_0
  6
CONTINUOUS
 62
    7
 10
470.56045549999999
 20
256.27464250000003
 11
471.92892449999999
 21
256.27464250000003
  0
LINE
  8
_0-0_0
  6
CONTINUOUS
 62
    7
 10
470.67489650000005
 20
255.87464850000001
 11
471.92892449999999
 21
255.87464850000001
  0
LINE
  8
_0-0_0
  6
CONTINUOUS
 62
    7
 10
470.82260150000002
 20
255.17465150000001
 11
471.92892449999999
 21
255.17465150000001
  0
LINE
  8
_0-0_0
  6
CONTINUOUS
 62
    7
 10
470.87814349999996
 20
254.7746425
 11
471.92892449999999
 21
254.7746425
  0
LINE
  8
_0-0_0
  6
CONTINUOUS
 62
    7
 10
470.92642250000006
 20
254.0746455
 11
471.92892449999999
 21
254.0746455
  0
LINE
  8
_0-0_0
  6
CONTINUOUS
 62
    7
 10
472.42892449999999
 20
237.37464850000001
 11
471.92892449999999
 21
237.37464850000001
  0
LINE
  8
_0-0_0
  6
CONTINUOUS
 62
    7
 10
472.42892449999999
 20
239.5746455
 11
471.92892449999999
 21
239.5746455
  0
LINE
  8
_0-0_0
  6
CONTINUOUS
 62
    7
 10
472.42892449999999
 20
241.87464850000001
 11
471.92892449999999
 21
241.87464850000001
  0
LINE
  8
_0-0_0
  6
CONTINUOUS
 62
    7
 10
471.92892449999999
 20
244.17465150000001
 11
472.42892449999999
 21
244.17465150000001
  0
LINE
  8
_0-0_0
  6
CONTINUOUS
 62
    7
 10
472.42892449999999
 20
264.37464850000003
 11
472.42892449999999
 21
264.27464250000003
  0
LINE
  8
_0-0_0
  6
CONTINUOUS
 62
    7
 10
118.42892449999999
 20
264.37464850000003
 11
118.42892449999999
 21
264.27464250000003
  0
LINE
  8
_0-0_0
  6
CONTINUOUS
 62
    7
 10
118.42892449999999
 20
244.17465150000001
 11
118.92892449999999
 21
244.17465150000001
  0
LINE
  8
_0-0_0
  6
CONTINUOUS
 62
    7
 10
118.92892449999999
 20
264.07464549999997
 11
471.92892449999999
 21
264.07464549999997
  0
LINE
  8
_0-0_0
  6
CONTINUOUS
 62
    7
 10
118.92892449999999
 20
263.4806825
 11
471.92892449999999
 21
263.4806825
  0
LINE
  8
_0-0_0
  6
CONTINUOUS
 62
    7
 10
134.4741515
 20
258.47463949999997
 11
456.38369749999998
 21
258.47463949999997
  0
LINE
  8
_0-0_0
  6
CONTINUOUS
 62
    7
 10
469.47415150000006
 20
258.47463949999997
 11
471.92892449999999
 21
258.47463949999997
  0
LINE
  8
_0-0_0
  6
CONTINUOUS
 62
    7
 10
118.92892449999999
 20
258.47463949999997
 11
121.38369750000001
 21
258.47463949999997
  0
LINE
  8
_0-0_0
  6
CONTINUOUS
 62
    7
 10
118.42892449999999
 20
237.37464850000001
 11
118.92892449999999
 21
237.37464850000001
  0
LINE
  8
_0-0_0
  6
CONTINUOUS
 62
    7
 10
118.42892449999999
 20
239.5746455
 11
118.92892449999999
 21
239.5746455
  0
LINE
  8
_0-0_0
  6
CONTINUOUS
 62
    7
 10
118.42892449999999
 20
241.87464850000001
 11
118.92892449999999
 21
241.87464850000001
  0
LINE
  8
_0-0_0
  6
CONTINUOUS
 62
    7
 10
118.92892449999999
 20
258.07464549999997
 11
121.1201015
 21
258.07464549999997
  0
LINE
  8
_0-0_0
  6
CONTINUOUS
 62
    7
 10
118.92892449999999
 20
257.37464850000003
 11
120.73516850000001
 21
257.37464850000003
  0
LINE
  8
_0-0_0
  6
CONTINUOUS
 62
    7
 10
118.92892449999999
 20
256.97463949999997
 11
120.5539555
 21
256.97463949999997
  0
LINE
  8
_0-0_0
  6
CONTINUOUS
 62
    7
 10
118.92892449999999
 20
256.27464250000003
 11
120.2973935
 21
256.27464250000003
  0
LINE
  8
_0-0_0
  6
CONTINUOUS
 62
    7
 10
118.92892449999999
 20
255.87464850000001
 11
120.1829525
 21
255.87464850000001
  0
LINE
  8
_0-0_0
  6
CONTINUOUS
 62
    7
 10
118.92892449999999
 20
255.17465150000001
 11
120.0352475
 21
255.17465150000001
  0
LINE
  8
_0-0_0
  6
CONTINUOUS
 62
    7
 10
118.92892449999999
 20
254.7746425
 11
119.97970549999999
 21
254.7746425
  0
LINE
  8
_0-0_0
  6
CONTINUOUS
 62
    7
 10
118.92892449999999
 20
254.0746455
 11
119.93142750000001
 21
254.0746455
  0
LINE
  8
_0-0_0
  6
CONTINUOUS
 62
    7
 10
134.7377315
 20
258.07464549999997
 11
456.12011749999999
 21
258.07464549999997
  0
LINE
  8
_0-0_0
  6
CONTINUOUS
 62
    7
 10
135.12266550000001
 20
257.37464850000003
 11
455.73516849999999
 21
257.37464850000003
  0
LINE
  8
_0-0_0
  6
CONTINUOUS
 62
    7
 10
135.3038785
 20
256.97463949999997
 11
455.55395550000003
 21
256.97463949999997
  0
LINE
  8
_0-0_0
  6
CONTINUOUS
 62
    7
 10
135.56042450000001
 20
256.27464250000003
 11
455.29742450000003
 21
256.27464250000003
  0
LINE
  8
_0-0_0
  6
CONTINUOUS
 62
    7
 10
135.6748815
 20
255.87464850000001
 11
455.1829525
 21
255.87464850000001
  0
LINE
  8
_0-0_0
  6
CONTINUOUS
 62
    7
 10
135.8225865
 20
255.17465150000001
 11
455.03524750000003
 21
255.17465150000001
  0
LINE
  8
_0-0_0
  6
CONTINUOUS
 62
    7
 10
135.8781285
 20
254.7746425
 11
454.97970550000002
 21
254.7746425
  0
LINE
  8
_0-0_0
  6
CONTINUOUS
 62
    7
 10
135.9264225
 20
254.0746455
 11
454.93142749999998
 21
254.0746455
  0
LINE
  8
_0-0_0
  6
CONTINUOUS
 62
    7
 10
472.42892449999999
 20
235.87464850000001
 11
471.92892449999999
 21
235.87464850000001
  0
LINE
  8
_0-0_0
  6
CONTINUOUS
 62
    7
 10
472.42892449999999
 20
263.47463949999997
 11
472.42892449999999
 21
264.27464250000003
  0
LINE
  8
_0-0_0
  6
CONTINUOUS
 62
    7
 10
472.42892449999999
 20
235.67465150000001
 11
472.42892449999999
 21
263.47463949999997
  0
LINE
  8
_0-0_0
  6
CONTINUOUS
 62
    7
 10
118.42892449999999
 20
263.47463949999997
 11
118.42892449999999
 21
264.27464250000003
  0
LINE
  8
_0-0_0
  6
CONTINUOUS
 62
    7
 10
118.42892449999999
 20
235.67465150000001
 11
118.42892449999999
 21
263.47463949999997
  0
ARC
  8
_0-0_0
  6
CONTINUOUS
 62
    7
 10
127.92892449999999
 20
254.5746455
 40
12.800000000000001
 50
73.932597000000001
 51
106.06740099999999
  0
ARC
  8
_0-0_0
  6
CONTINUOUS
 62
    7
 10
462.92892449999999
 20
254.5746455
 40
12.800000000000001
 50
73.932597000000001
 51
106.06740099999999
  0
LINE
  8
_0-0_0
  6
CONTINUOUS
 62
    7
 10
472.42892449999999
 20
264.37464850000003
 11
472.42892449999999
 21
266.87464850000003
  0
LINE
  8
_0-0_0
  6
CONTINUOUS
 62
    7
 10
118.42892449999999
 20
266.87464850000003
 11
472.42892449999999
 21
266.87464850000003
  0
LINE
  8
_0-0_0
  6
CONTINUOUS
 62
    7
 10
118.42892449999999
 20
264.37464850000003
 11
118.42892449999999
 21
266.87464850000003
  0
LINE
  8
_0-0_0
  6
CONTINUOUS
 62
    7
 10
118.42892449999999
 20
235.87464850000001
 11
118.92892449999999
 21
235.87464850000001
  0
ARC
  8
_0-0_0
  6
CONTINUOUS
 62
    7
 10
410.72891249999998
 20
240.7746425
 40
0.2
 50
339.62356199999999
 51
90.000002999999978
  0
LINE
  8
_0-0_0
  6
CONTINUOUS
 62
    7
 10
410.91641249999998
 20
240.70500150000001
 11
409.61642449999999
 21
237.20500150000001
  0
ARC
  8
_0-0_0
  6
CONTINUOUS
 62
    7
 10
409.42892449999999
 20
237.2746425
 40
0.2
 50
200.37643
 51
339.62356199999999
  0
LINE
  8
_0-0_0
  6
CONTINUOUS
 62
    7
 10
407.94143650000001
 20
240.70500150000001
 11
409.24142449999999
 21
237.20500150000001
  0
ARC
  8
_0-0_0
  6
CONTINUOUS
 62
    7
 10
408.12893650000001
 20
240.7746425
 40
0.2
 50
90.000003000000007
 51
200.37643
  0
LINE
  8
_0-0_0
  6
CONTINUOUS
 62
    7
 10
408.12893650000001
 20
240.97463949999999
 11
410.72891249999998
 21
240.97463949999999
  0
ARC
  8
_0-0_0
  6
CONTINUOUS
 62
    7
 10
190.72891250000001
 20
240.7746425
 40
0.2
 50
339.62356199999999
 51
90.000002999999978
  0
LINE
  8
_0-0_0
  6
CONTINUOUS
 62
    7
 10
190.91639750000002
 20
240.70500150000001
 11
189.61639450000001
 21
237.20500150000001
  0
ARC
  8
_0-0_0
  6
CONTINUOUS
 62
    7
 10
189.4289095
 20
237.2746425
 40
0.2
 50
200.37643
 51
339.62356199999999
  0
LINE
  8
_0-0_0
  6
CONTINUOUS
 62
    7
 10
187.94142150000002
 20
240.70500150000001
 11
189.24142449999999
 21
237.20500150000001
  0
ARC
  8
_0-0_0
  6
CONTINUOUS
 62
    7
 10
188.1289065
 20
240.7746425
 40
0.2
 50
90.000003000000007
 51
200.37643
  0
LINE
  8
_0-0_0
  6
CONTINUOUS
 62
    7
 10
188.1289065
 20
240.97463949999999
 11
190.72891250000001
 21
240.97463949999999
  0
CIRCLE
  8
_0-0_0
  6
CONTINUOUS
 62
    7
 10
127.92892449999999
 20
253.87464850000001
 40
5
  0
CIRCLE
  8
_0-0_0
  6
CONTINUOUS
 62
    7
 10
462.92892449999999
 20
253.87464850000001
 40
5
  0
LINE
  8
_0-0_0
  6
CONTINUOUS
 62
    7
 10
473.42892449999999
 20
263.47463949999997
 11
472.42892449999999
 21
263.47463949999997
  0
LINE
  8
_0-0_0
  6
CONTINUOUS
 62
    7
 10
473.42892449999999
 20
264.51162750000003
 11
472.42892449999999
 21
264.51162750000003
  0
LINE
  8
_0-0_0
  6
CONTINUOUS
 62
    7
 10
473.42892449999999
 20
235.67465150000001
 11
472.42892449999999
 21
235.67465150000001
  0
LINE
  8
_0-0_0
  6
CONTINUOUS
 62
    7
 10
117.42892449999999
 20
263.47463949999997
 11
118.42892449999999
 21
263.47463949999997
  0
LINE
  8
_0-0_0
  6
CONTINUOUS
 62
    7
 10
117.42892449999999
 20
264.47463949999997
 11
118.42892449999999
 21
264.47463949999997
  0
LINE
  8
_0-0_0
  6
CONTINUOUS
 62
    7
 10
117.42892449999999
 20
235.67465150000001
 11
118.42892449999999
 21
235.67465150000001
  0
LINE
  8
_0-0_0
  6
CONTINUOUS
 62
    7
 10
473.42892449999999
 20
266.67465149999998
 11
472.42892449999999
 21
266.67465149999998
  0
LINE
  8
_0-0_0
  6
CONTINUOUS
 62
    7
 10
117.42892449999999
 20
266.67465149999998
 11
118.42892449999999
 21
266.67465149999998
  0
LINE
  8
_0-0_0
  6
CONTINUOUS
 62
    7
 10
474.42892449999999
 20
263.06042450000001
 11
474.4278875
 21
263.07893350000001
  0
LINE
  8
_0-0_0
  6
CONTINUOUS
 62
    7
 10
474.4278875
 20
263.07893350000001
 11
474.4249575
 21
263.09738149999998
  0
LINE
  8
_0-0_0
  6
CONTINUOUS
 62
    7
 10
474.4249575
 20
263.09738149999998
 11
474.41970849999996
 21
263.11651549999999
  0
LINE
  8
_0-0_0
  6
CONTINUOUS
 62
    7
 10
474.41970849999996
 20
263.11651549999999
 11
474.41232349999996
 21
263.13552849999996
  0
LINE
  8
_0-0_0
  6
CONTINUOUS
 62
    7
 10
474.41232349999996
 20
263.13552849999996
 11
474.39175450000005
 21
263.17224150000004
  0
LINE
  8
_0-0_0
  6
CONTINUOUS
 62
    7
 10
474.39175450000005
 20
263.17224150000004
 11
474.36337249999997
 21
263.20793149999997
  0
LINE
  8
_0-0_0
  6
CONTINUOUS
 62
    7
 10
474.36337249999997
 20
263.20793149999997
 11
474.32748449999997
 21
263.24221750000004
  0
LINE
  8
_0-0_0
  6
CONTINUOUS
 62
    7
 10
474.32748449999997
 20
263.24221750000004
 11
474.2788395
 21
263.27867149999997
  0
LINE
  8
_0-0_0
  6
CONTINUOUS
 62
    7
 10
474.2788395
 20
263.27867149999997
 11
474.22207649999996
 21
263.31268249999999
  0
LINE
  8
_0-0_0
  6
CONTINUOUS
 62
    7
 10
474.22207649999996
 20
263.31268249999999
 11
474.15792850000003
 21
263.34393249999999
  0
LINE
  8
_0-0_0
  6
CONTINUOUS
 62
    7
 10
474.15792850000003
 20
263.34393249999999
 11
474.08731050000006
 21
263.37219249999998
  0
LINE
  8
_0-0_0
  6
CONTINUOUS
 62
    7
 10
474.08731050000006
 20
263.37219249999998
 11
474.03921549999995
 21
263.38853449999999
  0
LINE
  8
_0-0_0
  6
CONTINUOUS
 62
    7
 10
474.03921549999995
 20
263.38853449999999
 11
473.98904449999998
 21
263.40353349999998
  0
LINE
  8
_0-0_0
  6
CONTINUOUS
 62
    7
 10
473.98904449999998
 20
263.40353349999998
 11
473.93240349999996
 21
263.41830449999998
  0
LINE
  8
_0-0_0
  6
CONTINUOUS
 62
    7
 10
473.93240349999996
 20
263.41830449999998
 11
473.87380949999999
 21
263.43139650000001
  0
LINE
  8
_0-0_0
  6
CONTINUOUS
 62
    7
 10
473.87380949999999
 20
263.43139650000001
 11
473.75698850000003
 21
263.45172149999996
  0
LINE
  8
_0-0_0
  6
CONTINUOUS
 62
    7
 10
473.75698850000003
 20
263.45172149999996
 11
473.64956649999999
 21
263.46443149999999
  0
LINE
  8
_0-0_0
  6
CONTINUOUS
 62
    7
 10
473.64956649999999
 20
263.46443149999999
 11
473.53982550000001
 21
263.47209150000003
  0
LINE
  8
_0-0_0
  6
CONTINUOUS
 62
    7
 10
473.53982550000001
 20
263.47209150000003
 11
473.42892449999999
 21
263.47463949999997
  0
LINE
  8
_0-0_0
  6
CONTINUOUS
 62
    7
 10
474.42892449999999
 20
263.06042450000001
 11
474.42892449999999
 21
264.06048550000003
  0
LINE
  8
_0-0_0
  6
CONTINUOUS
 62
    7
 10
474.42892449999999
 20
264.06048550000003
 11
474.42605549999996
 21
264.09207149999997
  0
LINE
  8
_0-0_0
  6
CONTINUOUS
 62
    7
 10
474.42605549999996
 20
264.09207149999997
 11
474.41726649999998
 21
264.1241455
  0
LINE
  8
_0-0_0
  6
CONTINUOUS
 62
    7
 10
474.41726649999998
 20
264.1241455
 11
474.40274050000005
 21
264.15641749999998
  0
LINE
  8
_0-0_0
  6
CONTINUOUS
 62
    7
 10
474.40274050000005
 20
264.15641749999998
 11
474.38247650000005
 21
264.18856749999998
  0
LINE
  8
_0-0_0
  6
CONTINUOUS
 62
    7
 10
474.38247650000005
 20
264.18856749999998
 11
474.36593649999998
 21
264.20980850000001
  0
LINE
  8
_0-0_0
  6
CONTINUOUS
 62
    7
 10
474.36593649999998
 20
264.20980850000001
 11
474.34695450000004
 21
264.23075849999998
  0
LINE
  8
_0-0_0
  6
CONTINUOUS
 62
    7
 10
474.34695450000004
 20
264.23075849999998
 11
474.30227650000006
 21
264.27153050000004
  0
LINE
  8
_0-0_0
  6
CONTINUOUS
 62
    7
 10
474.30227650000006
 20
264.27153050000004
 11
474.24899249999999
 21
264.31028750000002
  0
LINE
  8
_0-0_0
  6
CONTINUOUS
 62
    7
 10
474.24899249999999
 20
264.31028750000002
 11
474.19906649999996
 21
264.3404845
  0
LINE
  8
_0-0_0
  6
CONTINUOUS
 62
    7
 10
474.19906649999996
 20
264.3404845
 11
474.14437850000002
 21
264.36871350000001
  0
LINE
  8
_0-0_0
  6
CONTINUOUS
 62
    7
 10
474.14437850000002
 20
264.36871350000001
 11
474.08535749999999
 21
264.3947445
  0
LINE
  8
_0-0_0
  6
CONTINUOUS
 62
    7
 10
474.08535749999999
 20
264.3947445
 11
474.03860450000002
 21
264.4127345
  0
LINE
  8
_0-0_0
  6
CONTINUOUS
 62
    7
 10
474.03860450000002
 20
264.4127345
 11
473.98995950000005
 21
264.4293515
  0
LINE
  8
_0-0_0
  6
CONTINUOUS
 62
    7
 10
473.98995950000005
 20
264.4293515
 11
473.88760349999995
 21
264.45822150000004
  0
LINE
  8
_0-0_0
  6
CONTINUOUS
 62
    7
 10
473.88760349999995
 20
264.45822150000004
 11
473.77981550000004
 21
264.48104850000004
  0
LINE
  8
_0-0_0
  6
CONTINUOUS
 62
    7
 10
473.77981550000004
 20
264.48104850000004
 11
473.66824350000002
 21
264.4976345
  0
LINE
  8
_0-0_0
  6
CONTINUOUS
 62
    7
 10
473.66824350000002
 20
264.4976345
 11
473.55410749999999
 21
264.50784250000004
  0
LINE
  8
_0-0_0
  6
CONTINUOUS
 62
    7
 10
473.55410749999999
 20
264.50784250000004
 11
473.42892449999999
 21
264.51162750000003
  0
ARC
  8
_0-0_0
  6
CONTINUOUS
 62
    7
 10
473.42892449999999
 20
236.67465150000001
 40
1
 50
269.99999700000001
 51
0
  0
LINE
  8
_0-0_0
  6
CONTINUOUS
 62
    7
 10
474.42892449999999
 20
236.67465150000001
 11
474.42892449999999
 21
263.06042450000001
  0
LINE
  8
_0-0_0
  6
CONTINUOUS
 62
    7
 10
116.42892449999999
 20
263.06042450000001
 11
116.42991650000002
 21
263.07893350000001
  0
LINE
  8
_0-0_0
  6
CONTINUOUS
 62
    7
 10
116.42991650000002
 20
263.07893350000001
 11
116.43292250000002
 21
263.09738149999998
  0
LINE
  8
_0-0_0
  6
CONTINUOUS
 62
    7
 10
116.43292250000002
 20
263.09738149999998
 11
116.4381405
 21
263.11651549999999
  0
LINE
  8
_0-0_0
  6
CONTINUOUS
 62
    7
 10
116.4381405
 20
263.11651549999999
 11
116.4455265
 21
263.13552849999996
  0
LINE
  8
_0-0_0
  6
CONTINUOUS
 62
    7
 10
116.4455265
 20
263.13552849999996
 11
116.46607950000001
 21
263.17224150000004
  0
LINE
  8
_0-0_0
  6
CONTINUOUS
 62
    7
 10
116.46607950000001
 20
263.17224150000004
 11
116.49447650000002
 21
263.20793149999997
  0
LINE
  8
_0-0_0
  6
CONTINUOUS
 62
    7
 10
116.49447650000002
 20
263.20793149999997
 11
116.53036550000002
 21
263.24221750000004
  0
LINE
  8
_0-0_0
  6
CONTINUOUS
 62
    7
 10
116.53036550000002
 20
263.24221750000004
 11
116.5789795
 21
263.27867149999997
  0
LINE
  8
_0-0_0
  6
CONTINUOUS
 62
    7
 10
116.5789795
 20
263.27867149999997
 11
116.6357725
 21
263.31268249999999
  0
LINE
  8
_0-0_0
  6
CONTINUOUS
 62
    7
 10
116.6357725
 20
263.31268249999999
 11
116.6999055
 21
263.34393249999999
  0
LINE
  8
_0-0_0
  6
CONTINUOUS
 62
    7
 10
116.6999055
 20
263.34393249999999
 11
116.77055350000001
 21
263.37219249999998
  0
LINE
  8
_0-0_0
  6
CONTINUOUS
 62
    7
 10
116.77055350000001
 20
263.37219249999998
 11
116.8186345
 21
263.38853449999999
  0
LINE
  8
_0-0_0
  6
CONTINUOUS
 62
    7
 10
116.8186345
 20
263.38853449999999
 11
116.8687745
 21
263.40353349999998
  0
LINE
  8
_0-0_0
  6
CONTINUOUS
 62
    7
 10
116.8687745
 20
263.40353349999998
 11
116.9254765
 21
263.41830449999998
  0
LINE
  8
_0-0_0
  6
CONTINUOUS
 62
    7
 10
116.9254765
 20
263.41830449999998
 11
116.9840695
 21
263.43139650000001
  0
LINE
  8
_0-0_0
  6
CONTINUOUS
 62
    7
 10
116.9840695
 20
263.43139650000001
 11
117.10086050000001
 21
263.45172149999996
  0
LINE
  8
_0-0_0
  6
CONTINUOUS
 62
    7
 10
117.10086050000001
 20
263.45172149999996
 11
117.20826750000001
 21
263.46443149999999
  0
LINE
  8
_0-0_0
  6
CONTINUOUS
 62
    7
 10
117.20826750000001
 20
263.46443149999999
 11
117.31802350000001
 21
263.47209150000003
  0
LINE
  8
_0-0_0
  6
CONTINUOUS
 62
    7
 10
117.31802350000001
 20
263.47209150000003
 11
117.42892449999999
 21
263.47463949999997
  0
LINE
  8
_0-0_0
  6
CONTINUOUS
 62
    7
 10
116.42892449999999
 20
264.03009050000003
 11
116.43180850000002
 21
264.06100449999997
  0
LINE
  8
_0-0_0
  6
CONTINUOUS
 62
    7
 10
116.43180850000002
 20
264.06100449999997
 11
116.4405065
 21
264.09243749999996
  0
LINE
  8
_0-0_0
  6
CONTINUOUS
 62
    7
 10
116.4405065
 20
264.09243749999996
 11
116.45498650000002
 21
264.12411450000002
  0
LINE
  8
_0-0_0
  6
CONTINUOUS
 62
    7
 10
116.45498650000002
 20
264.12411450000002
 11
116.47515850000002
 21
264.15570049999997
  0
LINE
  8
_0-0_0
  6
CONTINUOUS
 62
    7
 10
116.47515850000002
 20
264.15570049999997
 11
116.4916685
 21
264.17657450000002
  0
LINE
  8
_0-0_0
  6
CONTINUOUS
 62
    7
 10
116.4916685
 20
264.17657450000002
 11
116.51058950000001
 21
264.19718950000004
  0
LINE
  8
_0-0_0
  6
CONTINUOUS
 62
    7
 10
116.51058950000001
 20
264.19718950000004
 11
116.55522150000002
 21
264.23733549999997
  0
LINE
  8
_0-0_0
  6
CONTINUOUS
 62
    7
 10
116.55522150000002
 20
264.23733549999997
 11
116.6083525
 21
264.27554350000003
  0
LINE
  8
_0-0_0
  6
CONTINUOUS
 62
    7
 10
116.6083525
 20
264.27554350000003
 11
116.65824850000001
 21
264.30535850000001
  0
LINE
  8
_0-0_0
  6
CONTINUOUS
 62
    7
 10
116.65824850000001
 20
264.30535850000001
 11
116.71292149999999
 21
264.3332365
  0
LINE
  8
_0-0_0
  6
CONTINUOUS
 62
    7
 10
116.71292149999999
 20
264.3332365
 11
116.77188150000001
 21
264.35896249999996
  0
LINE
  8
_0-0_0
  6
CONTINUOUS
 62
    7
 10
116.77188150000001
 20
264.35896249999996
 11
116.81864949999999
 21
264.3767545
  0
LINE
  8
_0-0_0
  6
CONTINUOUS
 62
    7
 10
116.81864949999999
 20
264.3767545
 11
116.8673555
 21
264.39318850000001
  0
LINE
  8
_0-0_0
  6
CONTINUOUS
 62
    7
 10
116.8673555
 20
264.39318850000001
 11
116.9697875
 21
264.42175250000003
  0
LINE
  8
_0-0_0
  6
CONTINUOUS
 62
    7
 10
116.9697875
 20
264.42175250000003
 11
117.0776065
 21
264.4443665
  0
LINE
  8
_0-0_0
  6
CONTINUOUS
 62
    7
 10
117.0776065
 20
264.4443665
 11
117.1893005
 21
264.46076949999997
  0
LINE
  8
_0-0_0
  6
CONTINUOUS
 62
    7
 10
117.1893005
 20
264.46076949999997
 11
117.30345149999999
 21
264.47088650000001
  0
LINE
  8
_0-0_0
  6
CONTINUOUS
 62
    7
 10
117.30345149999999
 20
264.47088650000001
 11
117.42892449999999
 21
264.47463949999997
  0
LINE
  8
_0-0_0
  6
CONTINUOUS
 62
    7
 10
116.42892449999999
 20
263.06042450000001
 11
116.42892449999999
 21
264.03009050000003
  0
ARC
  8
_0-0_0
  6
CONTINUOUS
 62
    7
 10
117.42892449999999
 20
236.67465150000001
 40
1
 50
180.00000900000003
 51
269.99999700000001
  0
LINE
  8
_0-0_0
  6
CONTINUOUS
 62
    7
 10
116.42892449999999
 20
236.67465150000001
 11
116.42892449999999
 21
263.06042450000001
  0
LINE
  8
_0-0_0
  6
CONTINUOUS
 62
    7
 10
474.42892449999999
 20
264.06048550000003
 11
474.42892449999999
 21
265.67465149999998
  0
ARC
  8
_0-0_0
  6
CONTINUOUS
 62
    7
 10
473.42892449999999
 20
265.67465149999998
 40
1
 50
0
 51
90.000003000000007
  0
ARC
  8
_0-0_0
  6
CONTINUOUS
 62
    7
 10
117.42892449999999
 20
265.67465149999998
 40
1
 50
90.000003000000007
 51
180.00000900000001
  0
LINE
  8
_0-0_0
  6
CONTINUOUS
 62
    7
 10
116.42892449999999
 20
264.03009050000003
 11
116.42892449999999
 21
265.67465149999998
  0
LINE
  8
_0-0_0
  6
CONTINUOUS
 62
    7
 10
28.61324350000001
 20
233.5745695
 11
28.61324350000001
 21
233.5495755
  0
LINE
  8
_0-0_0
  6
CONTINUOUS
 62
    7
 10
28.61324350000001
 20
230.49745150000001
 11
28.61324350000001
 21
230.59957850000001
  0
LINE
  8
_0-0_0
  6
CONTINUOUS
 62
    7
 10
28.61324350000001
 20
209.47456350000002
 11
28.61324350000001
 21
210.25169350000002
  0
LINE
  8
_0-0_0
  6
CONTINUOUS
 62
    7
 10
11.813247499999989
 20
209.47456350000002
 11
28.61324350000001
 21
209.47456350000002
  0
LINE
  8
_0-0_0
  6
CONTINUOUS
 62
    7
 10
11.813247499999989
 20
217.3745725
 11
11.813247499999989
 21
209.47456350000002
  0
LINE
  8
_0-0_0
  6
CONTINUOUS
 62
    7
 10
11.813247499999989
 20
229.82989449999999
 11
11.813247499999989
 21
223.3745725
  0
LINE
  8
_0-0_0
  6
CONTINUOUS
 62
    7
 10
29.113227499999994
 20
212.97456350000002
 11
29.313247499999989
 21
212.97456350000002
  0
LINE
  8
_0-0_0
  6
CONTINUOUS
 62
    7
 10
29.313247499999989
 20
212.97456350000002
 11
29.313247499999989
 21
215.97456350000002
  0
LINE
  8
_0-0_0
  6
CONTINUOUS
 62
    7
 10
29.313247499999989
 20
229.5745695
 11
29.313247499999989
 21
215.97456350000002
  0
LINE
  8
_0-0_0
  6
CONTINUOUS
 62
    7
 10
29.11324350000001
 20
232.5745695
 11
29.313247499999989
 21
232.5745695
  0
LINE
  8
_0-0_0
  6
CONTINUOUS
 62
    7
 10
29.313247499999989
 20
229.5745695
 11
29.313247499999989
 21
232.5745695
  0
LINE
  8
_0-0_0
  6
CONTINUOUS
 62
    7
 10
28.413246500000014
 20
231.8736265
 11
28.413246500000014
 21
230.69444250000001
  0
LINE
  8
_0-0_0
  6
CONTINUOUS
 62
    7
 10
28.413246500000014
 20
234.0745695
 11
28.413246500000014
 21
233.5745695
  0
LINE
  8
_0-0_0
  6
CONTINUOUS
 62
    7
 10
27.413246500000014
 20
231.1580505
 11
27.413246500000014
 21
231.8745725
  0
ARC
  8
_0-0_0
  6
CONTINUOUS
 62
    7
 10
27.11324350000001
 20
229.1745755
 40
2
 50
0
 51
90.000003000000007
  0
LINE
  8
_0-0_0
  6
CONTINUOUS
 62
    7
 10
29.11324350000001
 20
225.6745755
 11
29.11324350000001
 21
228.6745755
  0
LINE
  8
_0-0_0
  6
CONTINUOUS
 62
    7
 10
29.11324350000001
 20
228.6745755
 11
29.11324350000001
 21
229.1745755
  0
LINE
  8
_0-0_0
  6
CONTINUOUS
 62
    7
 10
29.11324350000001
 20
211.5745695
 11
29.11324350000001
 21
225.1745755
  0
LINE
  8
_0-0_0
  6
CONTINUOUS
 62
    7
 10
29.11324350000001
 20
225.6745755
 11
29.11324350000001
 21
225.1745755
  0
ARC
  8
_0-0_0
  6
CONTINUOUS
 62
    7
 10
27.11324350000001
 20
211.5745695
 40
2
 50
273.84026500000004
 51
0.000010000000014
  0
LINE
  8
_0-0_0
  6
CONTINUOUS
 62
    7
 10
13.813247499999989
 20
231.1580505
 11
13.813247499999989
 21
231.8745725
  0
LINE
  8
_0-0_0
  6
CONTINUOUS
 62
    7
 10
13.813247499999989
 20
231.1580505
 11
13.813247499999989
 21
231.15194650000001
  0
LINE
  8
_0-0_0
  6
CONTINUOUS
 62
    7
 10
11.813247499999989
 20
229.82989449999999
 11
11.813247499999989
 21
230.32989449999999
  0
LINE
  8
_0-0_0
  6
CONTINUOUS
 62
    7
 10
12.11324350000001
 20
229.1745755
 11
12.11324350000001
 21
215.5745695
  0
LINE
  8
_0-0_0
  6
CONTINUOUS
 62
    7
 10
12.11324350000001
 20
215.0745695
 11
12.11324350000001
 21
215.5745695
  0
LINE
  8
_0-0_0
  6
CONTINUOUS
 62
    7
 10
12.11324350000001
 20
212.0745695
 11
12.11324350000001
 21
215.0745695
  0
LINE
  8
_0-0_0
  6
CONTINUOUS
 62
    7
 10
12.11324350000001
 20
211.5745695
 11
12.11324350000001
 21
212.0745695
  0
ARC
  8
_0-0_0
  6
CONTINUOUS
 62
    7
 10
14.11324350000001
 20
229.1745755
 40
2
 50
93.840255999999997
 51
180.00000900000001
  0
LINE
  8
_0-0_0
  6
CONTINUOUS
 62
    7
 10
11.813247499999989
 20
217.3745725
 11
11.813247499999989
 21
223.3745725
  0
LINE
  8
_0-0_0
  6
CONTINUOUS
 62
    7
 10
11.813247499999989
 20
231.8745725
 11
11.813247499999989
 21
230.3298795
  0
LINE
  8
_0-0_0
  6
CONTINUOUS
 62
    7
 10
11.813247499999989
 20
223.3745725
 11
12.113235500000002
 21
223.3745725
  0
LINE
  8
_0-0_0
  6
CONTINUOUS
 62
    7
 10
11.813247499999989
 20
217.3745725
 11
12.113235500000002
 21
217.3745725
  0
LINE
  8
_0-0_0
  6
CONTINUOUS
 62
    7
 10
27.11324350000001
 20
209.5745695
 11
18.11324350000001
 21
209.5745695
  0
LINE
  8
_0-0_0
  6
CONTINUOUS
 62
    7
 10
14.61324350000001
 20
209.5745695
 11
14.11324350000001
 21
209.5745695
  0
LINE
  8
_0-0_0
  6
CONTINUOUS
 62
    7
 10
17.61324350000001
 20
209.5745695
 11
14.61324350000001
 21
209.5745695
  0
LINE
  8
_0-0_0
  6
CONTINUOUS
 62
    7
 10
18.11324350000001
 20
209.5745695
 11
17.61324350000001
 21
209.5745695
  0
ARC
  8
_0-0_0
  6
CONTINUOUS
 62
    7
 10
14.11324350000001
 20
211.5745695
 40
2
 50
180.00000900000003
 51
269.99999700000001
  0
ARC
  8
_0-0_0
  6
CONTINUOUS
 62
    7
 10
27.913246500000014
 20
234.0745695
 40
0.5
 50
0
 51
90.000003000000007
  0
LINE
  8
_0-0_0
  6
CONTINUOUS
 62
    7
 10
26.413246500000014
 20
234.5745695
 11
27.913246500000014
 21
234.5745695
  0
ARC
  8
_0-0_0
  6
CONTINUOUS
 62
    7
 10
26.413246500000014
 20
235.5745695
 40
1
 50
180.00000900000003
 51
269.99999700000001
  0
LINE
  8
_0-0_0
  6
CONTINUOUS
 62
    7
 10
25.413246500000014
 20
235.5745695
 11
25.413246500000014
 21
235.67465150000001
  0
LINE
  8
_0-0_0
  6
CONTINUOUS
 62
    7
 10
24.913246500000014
 20
234.5745695
 11
24.913246500000014
 21
235.67465150000001
  0
ARC
  8
_0-0_0
  6
CONTINUOUS
 62
    7
 10
25.913246500000014
 20
234.5745695
 40
1
 50
180.00000900000003
 51
269.99999700000001
  0
LINE
  8
_0-0_0
  6
CONTINUOUS
 62
    7
 10
25.913246500000014
 20
233.5745695
 11
25.713241500000009
 21
233.5745695
  0
ARC
  8
_0-0_0
  6
CONTINUOUS
 62
    7
 10
25.713241500000009
 20
234.5745695
 40
1
 50
180.00000900000003
 51
269.99999700000001
  0
ARC
  8
_0-0_0
  6
CONTINUOUS
 62
    7
 10
15.513244500000013
 20
234.5745695
 40
1
 50
269.99999700000001
 51
0
  0
LINE
  8
_0-0_0
  6
CONTINUOUS
 62
    7
 10
15.513244500000013
 20
233.5745695
 11
14.813247499999989
 21
233.5745695
  0
LINE
  8
_0-0_0
  6
CONTINUOUS
 62
    7
 10
28.61324350000001
 20
233.5745695
 11
28.413246500000014
 21
233.5745695
  0
LINE
  8
_0-0_0
  6
CONTINUOUS
 62
    7
 10
11.813247499999989
 20
231.8745725
 11
28.61324350000001
 21
231.8745725
  0
LINE
  8
_0-0_0
  6
CONTINUOUS
 62
    7
 10
28.61324350000001
 20
231.8745725
 11
28.61324350000001
 21
233.5745695
  0
LINE
  8
_0-0_0
  6
CONTINUOUS
 62
    7
 10
24.713241500000009
 20
235.67465150000001
 11
24.713241500000009
 21
234.5745695
  0
LINE
  8
_0-0_0
  6
CONTINUOUS
 62
    7
 10
16.513244500000013
 20
234.5745695
 11
16.513244500000013
 21
235.67465150000001
  0
LINE
  8
_0-0_0
  6
CONTINUOUS
 62
    7
 10
12.813247499999989
 20
233.5745695
 11
11.813247499999989
 21
233.5745695
  0
LINE
  8
_0-0_0
  6
CONTINUOUS
 62
    7
 10
11.813247499999989
 20
231.8745725
 11
11.813247499999989
 21
233.5745695
  0
LINE
  8
_0-0_0
  6
CONTINUOUS
 62
    7
 10
27.11324350000001
 20
231.1745755
 11
26.61324350000001
 21
231.1745755
  0
CIRCLE
  8
_0-0_0
  6
CONTINUOUS
 62
    7
 10
26.61324350000001
 20
228.6745755
 40
2.5
  0
LINE
  8
_0-0_0
  6
CONTINUOUS
 62
    7
 10
14.11324350000001
 20
231.1745755
 11
23.11324350000001
 21
231.1745755
  0
LINE
  8
_0-0_0
  6
CONTINUOUS
 62
    7
 10
26.61324350000001
 20
231.1745755
 11
23.61324350000001
 21
231.1745755
  0
LINE
  8
_0-0_0
  6
CONTINUOUS
 62
    7
 10
23.11324350000001
 20
231.1745755
 11
23.61324350000001
 21
231.1745755
  0
ARC
  8
_0-0_0
  6
CONTINUOUS
 62
    7
 10
28.61324350000001
 20
225.1745755
 40
0.5
 50
0
 51
90.000003000000007
  0
LINE
  8
_0-0_0
  6
CONTINUOUS
 62
    7
 10
27.11324350000001
 20
209.6772005
 11
27.12912750000001
 21
209.64994849999999
  0
LINE
  8
_0-0_0
  6
CONTINUOUS
 62
    7
 10
27.12912750000001
 20
209.64994849999999
 11
27.144973499999992
 21
209.6269685
  0
LINE
  8
_0-0_0
  6
CONTINUOUS
 62
    7
 10
27.144973499999992
 20
209.6269685
 11
27.158950500000003
 21
209.61021450000001
  0
LINE
  8
_0-0_0
  6
CONTINUOUS
 62
    7
 10
27.158950500000003
 20
209.61021450000001
 11
27.172851500000007
 21
209.59689349999999
  0
LINE
  8
_0-0_0
  6
CONTINUOUS
 62
    7
 10
27.172851500000007
 20
209.59689349999999
 11
27.185066500000005
 21
209.58796649999999
  0
LINE
  8
_0-0_0
  6
CONTINUOUS
 62
    7
 10
27.185066500000005
 20
209.58796649999999
 11
27.197189500000007
 21
209.58174149999999
  0
LINE
  8
_0-0_0
  6
CONTINUOUS
 62
    7
 10
27.197189500000007
 20
209.58174149999999
 11
27.208053500000005
 21
209.57846050000001
  0
LINE
  8
_0-0_0
  6
CONTINUOUS
 62
    7
 10
27.208053500000005
 20
209.57846050000001
 11
27.218811500000015
 21
209.57740749999999
  0
LINE
  8
_0-0_0
  6
CONTINUOUS
 62
    7
 10
27.218811500000015
 20
209.57740749999999
 11
27.22126750000001
 21
209.5774845
  0
LINE
  8
_0-0_0
  6
CONTINUOUS
 62
    7
 10
12.813247499999989
 20
230.69444250000001
 11
12.813247499999989
 21
231.8736265
  0
ARC
  8
_0-0_0
  6
CONTINUOUS
 62
    7
 10
12.61324350000001
 20
215.5745695
 40
0.5
 50
180.00000900000003
 51
269.99999700000001
  0
CIRCLE
  8
_0-0_0
  6
CONTINUOUS
 62
    7
 10
14.61324350000001
 20
212.0745695
 40
2.5
  0
LINE
  8
_0-0_0
  6
CONTINUOUS
 62
    7
 10
14.11324350000001
 20
231.0719455
 11
14.097366500000021
 21
231.0991975
  0
LINE
  8
_0-0_0
  6
CONTINUOUS
 62
    7
 10
14.097366500000021
 20
231.0991975
 11
14.081520500000011
 21
231.12217749999999
  0
LINE
  8
_0-0_0
  6
CONTINUOUS
 62
    7
 10
14.081520500000011
 20
231.12217749999999
 11
14.067543499999999
 21
231.13893150000001
  0
LINE
  8
_0-0_0
  6
CONTINUOUS
 62
    7
 10
14.067543499999999
 20
231.13893150000001
 11
14.053642500000024
 21
231.1522525
  0
LINE
  8
_0-0_0
  6
CONTINUOUS
 62
    7
 10
14.053642500000024
 20
231.1522525
 11
14.041427499999998
 21
231.16117850000001
  0
LINE
  8
_0-0_0
  6
CONTINUOUS
 62
    7
 10
14.041427499999998
 20
231.16117850000001
 11
14.029304500000023
 21
231.16738850000002
  0
LINE
  8
_0-0_0
  6
CONTINUOUS
 62
    7
 10
14.029304500000023
 20
231.16738850000002
 11
14.018440499999997
 21
231.1706695
  0
LINE
  8
_0-0_0
  6
CONTINUOUS
 62
    7
 10
14.018440499999997
 20
231.1706695
 11
14.007682499999987
 21
231.17172250000002
  0
LINE
  8
_0-0_0
  6
CONTINUOUS
 62
    7
 10
14.007682499999987
 20
231.17172250000002
 11
14.005218500000012
 21
231.1716615
  0
LINE
  8
_0-0_0
  6
CONTINUOUS
 62
    7
 10
11.813247499999989
 20
212.97456350000002
 11
11.713249500000018
 21
212.97456350000002
  0
LINE
  8
_0-0_0
  6
CONTINUOUS
 62
    7
 10
11.713249500000018
 20
212.97456350000002
 11
11.713249500000018
 21
215.97456350000002
  0
LINE
  8
_0-0_0
  6
CONTINUOUS
 62
    7
 10
11.713249500000018
 20
215.97456350000002
 11
11.713249500000018
 21
229.5745695
  0
LINE
  8
_0-0_0
  6
CONTINUOUS
 62
    7
 10
11.813247499999989
 20
232.5745695
 11
11.713249500000018
 21
232.5745695
  0
LINE
  8
_0-0_0
  6
CONTINUOUS
 62
    7
 10
11.713249500000018
 20
229.5745695
 11
11.713249500000018
 21
232.5745695
  0
ARC
  8
_0-0_0
  6
CONTINUOUS
 62
    7
 10
18.11324350000001
 20
210.0745695
 40
0.5
 50
180.00000900000003
 51
269.99999700000001
  0
ARC
  8
_0-0_0
  6
CONTINUOUS
 62
    7
 10
14.813247499999989
 20
235.0746455
 40
1.5
 50
269.99999700000001
 51
0
  0
ARC
  8
_0-0_0
  6
CONTINUOUS
 62
    7
 10
13.313247499999989
 20
234.0746455
 40
0.5
 50
90.000003000000007
 51
180.00000900000001
  0
LINE
  8
_0-0_0
  6
CONTINUOUS
 62
    7
 10
13.313247499999989
 20
234.5746455
 11
14.813247499999989
 21
234.5746455
  0
ARC
  8
_0-0_0
  6
CONTINUOUS
 62
    7
 10
14.813247499999989
 20
235.5746455
 40
1
 50
269.99999700000001
 51
0
  0
LINE
  8
_0-0_0
  6
CONTINUOUS
 62
    7
 10
15.813247499999989
 20
235.67465150000001
 11
15.813247499999989
 21
235.5746455
  0
LINE
  8
_0-0_0
  6
CONTINUOUS
 62
    7
 10
16.313247499999989
 20
235.67465150000001
 11
16.313247499999989
 21
235.0746455
  0
LINE
  8
_0-0_0
  6
CONTINUOUS
 62
    7
 10
12.813247499999989
 20
233.5746455
 11
12.813247499999989
 21
234.0746455
  0
ARC
  8
_0-0_0
  6
CONTINUOUS
 62
    7
 10
23.11324350000001
 20
230.6745755
 40
0.5
 50
0
 51
90.000003000000007
  0
LINE
  8
_0-0_0
  6
CONTINUOUS
 62
    7
 10
23.61324350000001
 20
230.59759550000001
 11
23.61324350000001
 21
230.6745755
  0
LINE
  8
_0-0_0
  6
CONTINUOUS
 62
    7
 10
23.61324350000001
 20
229.15606650000001
 11
23.61324350000001
 21
230.59759550000001
  0
LINE
  8
_0-0_0
  6
CONTINUOUS
 62
    7
 10
23.61324350000001
 20
228.6745755
 11
23.61324350000001
 21
229.15606650000001
  0
ARC
  8
_0-0_0
  6
CONTINUOUS
 62
    7
 10
26.61324350000001
 20
228.6745755
 40
3
 50
180.00000900000003
 51
269.99999700000001
  0
LINE
  8
_0-0_0
  6
CONTINUOUS
 62
    7
 10
27.094749500000006
 20
225.6745755
 11
26.61324350000001
 21
225.6745755
  0
LINE
  8
_0-0_0
  6
CONTINUOUS
 62
    7
 10
27.094749500000006
 20
225.6745755
 11
28.536270500000001
 21
225.6745755
  0
LINE
  8
_0-0_0
  6
CONTINUOUS
 62
    7
 10
28.61324350000001
 20
225.6745755
 11
28.536270500000001
 21
225.6745755
  0
LINE
  8
_0-0_0
  6
CONTINUOUS
 62
    7
 10
12.690223500000002
 20
215.0745695
 11
12.61324350000001
 21
215.0745695
  0
LINE
  8
_0-0_0
  6
CONTINUOUS
 62
    7
 10
14.61324350000001
 20
215.0745695
 11
14.131744500000025
 21
215.0745695
  0
LINE
  8
_0-0_0
  6
CONTINUOUS
 62
    7
 10
14.131744500000025
 20
215.0745695
 11
12.690223500000002
 21
215.0745695
  0
LINE
  8
_0-0_0
  6
CONTINUOUS
 62
    7
 10
17.61324350000001
 20
210.0745695
 11
17.61324350000001
 21
210.15155050000001
  0
LINE
  8
_0-0_0
  6
CONTINUOUS
 62
    7
 10
17.61324350000001
 20
211.5930635
 11
17.61324350000001
 21
210.15155050000001
  0
LINE
  8
_0-0_0
  6
CONTINUOUS
 62
    7
 10
17.61324350000001
 20
211.5930635
 11
17.61324350000001
 21
212.0745695
  0
ARC
  8
_0-0_0
  6
CONTINUOUS
 62
    7
 10
14.61324350000001
 20
212.0745695
 40
3
 50
0
 51
89.999995999999996
  0
LINE
  8
_0-0_0
  6
CONTINUOUS
 62
    7
 10
29.11324350000001
 20
232.68583649999999
 11
29.11324350000001
 21
230.7995755
  0
LINE
  8
_0-0_0
  6
CONTINUOUS
 62
    7
 10
29.11324350000001
 20
233.34957850000001
 11
29.11324350000001
 21
232.68583649999999
  0
ARC
  8
_0-0_0
  6
CONTINUOUS
 62
    7
 10
23.843360500000017
 20
221.54780550000001
 40
3.063396
 50
19.82113
 51
25.289563000000001
  0
ARC
  8
_0-0_0
  6
CONTINUOUS
 62
    7
 10
23.843681500000002
 20
219.20120249999999
 40
3.0630519999999999
 50
334.71006
 51
340.17869200000001
  0
ARC
  8
_0-0_0
  6
CONTINUOUS
 62
    7
 10
17.383132499999988
 20
219.2013245
 40
3.063399
 50
199.82113599999997
 51
205.28948099999999
  0
ARC
  8
_0-0_0
  6
CONTINUOUS
 62
    7
 10
17.3828125
 20
221.5479425
 40
3.0630549999999999
 50
154.710137
 51
160.17869999999999
  0
ARC
  8
_0-0_0
  6
CONTINUOUS
 62
    7
 10
20.61324350000001
 20
220.3745725
 40
6.5
 50
340.10416099999998
 51
19.895609999999952
  0
ARC
  8
_0-0_0
  6
CONTINUOUS
 62
    7
 10
20.61324350000001
 20
220.3745725
 40
6.5
 50
160.10415599999999
 51
199.895612
  0
LINE
  8
_0-0_0
  6
CONTINUOUS
 62
    7
 10
12.11324350000001
 20
231.4633785
 11
12.11324350000001
 21
231.87368749999999
  0
LINE
  8
_0-0_0
  6
CONTINUOUS
 62
    7
 10
12.11324350000001
 20
230.8044735
 11
12.11324350000001
 21
231.4633785
  0
LINE
  8
_0-0_0
  6
CONTINUOUS
 62
    7
 10
19.871574500000008
 20
226.8745725
 11
15.354919499999994
 21
224.2668765
  0
LINE
  8
_0-0_0
  6
CONTINUOUS
 62
    7
 10
21.354919499999994
 20
226.8745725
 11
19.871574500000008
 21
226.8745725
  0
LINE
  8
_0-0_0
  6
CONTINUOUS
 62
    7
 10
25.871574500000008
 20
224.2668765
 11
21.354919499999994
 21
226.8745725
  0
LINE
  8
_0-0_0
  6
CONTINUOUS
 62
    7
 10
26.61324350000001
 20
222.9822695
 11
26.61324350000001
 21
217.7668765
  0
LINE
  8
_0-0_0
  6
CONTINUOUS
 62
    7
 10
25.871574500000008
 20
224.2668765
 11
26.61324350000001
 21
222.9822695
  0
LINE
  8
_0-0_0
  6
CONTINUOUS
 62
    7
 10
21.354919499999994
 20
213.8745725
 11
25.871574500000008
 21
216.4822695
  0
LINE
  8
_0-0_0
  6
CONTINUOUS
 62
    7
 10
26.165702500000009
 20
216.99169950000001
 11
26.61324350000001
 21
217.7668765
  0
LINE
  8
_0-0_0
  6
CONTINUOUS
 62
    7
 10
26.165702500000009
 20
216.99169950000001
 11
25.871574500000008
 21
216.4822695
  0
LINE
  8
_0-0_0
  6
CONTINUOUS
 62
    7
 10
19.871574500000008
 20
213.8745725
 11
21.354919499999994
 21
213.8745725
  0
LINE
  8
_0-0_0
  6
CONTINUOUS
 62
    7
 10
15.354919499999994
 20
216.4822695
 11
19.871574500000008
 21
213.8745725
  0
LINE
  8
_0-0_0
  6
CONTINUOUS
 62
    7
 10
14.61324350000001
 20
222.9822695
 11
14.61324350000001
 21
217.7668765
  0
LINE
  8
_0-0_0
  6
CONTINUOUS
 62
    7
 10
15.354919499999994
 20
216.4822695
 11
14.61324350000001
 21
217.7668765
  0
LINE
  8
_0-0_0
  6
CONTINUOUS
 62
    7
 10
15.060791499999993
 20
223.7574305
 11
14.61324350000001
 21
222.9822695
  0
LINE
  8
_0-0_0
  6
CONTINUOUS
 62
    7
 10
15.060791499999993
 20
223.7574305
 11
15.354919499999994
 21
224.2668765
  0
LINE
  8
_0-0_0
  6
CONTINUOUS
 62
    7
 10
28.50025149999999
 20
229.90000950000001
 11
28.778305499999988
 21
229.9245755
  0
LINE
  8
_0-0_0
  6
CONTINUOUS
 62
    7
 10
28.618011500000023
 20
229.6960445
 11
28.778305499999988
 21
229.9245755
  0
LINE
  8
_0-0_0
  6
CONTINUOUS
 62
    7
 10
28.361824500000012
 20
230.09054549999999
 11
28.63578849999999
 21
230.14402749999999
  0
LINE
  8
_0-0_0
  6
CONTINUOUS
 62
    7
 10
28.50025149999999
 20
229.90000950000001
 11
28.63578849999999
 21
230.14402749999999
  0
LINE
  8
_0-0_0
  6
CONTINUOUS
 62
    7
 10
28.204238500000002
 20
230.26556350000001
 11
28.471107500000016
 21
230.3473965
  0
LINE
  8
_0-0_0
  6
CONTINUOUS
 62
    7
 10
28.361824500000012
 20
230.09054549999999
 11
28.471107500000016
 21
230.3473965
  0
LINE
  8
_0-0_0
  6
CONTINUOUS
 62
    7
 10
28.029220500000008
 20
230.4231565
 11
28.286071499999991
 21
230.53244050000001
  0
LINE
  8
_0-0_0
  6
CONTINUOUS
 62
    7
 10
28.204238500000002
 20
230.26556350000001
 11
28.286071499999991
 21
230.53244050000001
  0
LINE
  8
_0-0_0
  6
CONTINUOUS
 62
    7
 10
27.838684499999999
 20
230.56158450000001
 11
28.082710500000019
 21
230.6971125
  0
LINE
  8
_0-0_0
  6
CONTINUOUS
 62
    7
 10
28.029220500000008
 20
230.4231565
 11
28.082710500000019
 21
230.6971125
  0
LINE
  8
_0-0_0
  6
CONTINUOUS
 62
    7
 10
27.634719500000017
 20
230.67933650000001
 11
27.86324350000001
 21
230.8396305
  0
LINE
  8
_0-0_0
  6
CONTINUOUS
 62
    7
 10
27.838684499999999
 20
230.56158450000001
 11
27.86324350000001
 21
230.8396305
  0
LINE
  8
_0-0_0
  6
CONTINUOUS
 62
    7
 10
27.41957050000002
 20
230.77513150000001
 11
27.630088499999999
 21
230.95843450000001
  0
LINE
  8
_0-0_0
  6
CONTINUOUS
 62
    7
 10
27.634719500000017
 20
230.67933650000001
 11
27.630088499999999
 21
230.95843450000001
  0
LINE
  8
_0-0_0
  6
CONTINUOUS
 62
    7
 10
27.195587499999988
 20
230.84790050000001
 11
27.38578849999999
 21
231.05221549999999
  0
LINE
  8
_0-0_0
  6
CONTINUOUS
 62
    7
 10
27.41957050000002
 20
230.77513150000001
 11
27.38578849999999
 21
231.05221549999999
  0
LINE
  8
_0-0_0
  6
CONTINUOUS
 62
    7
 10
26.965225500000003
 20
230.89686549999999
 11
27.1330265
 21
231.1199335
  0
LINE
  8
_0-0_0
  6
CONTINUOUS
 62
    7
 10
27.195587499999988
 20
230.84790050000001
 11
27.1330265
 21
231.1199335
  0
LINE
  8
_0-0_0
  6
CONTINUOUS
 62
    7
 10
26.731002499999988
 20
230.9214935
 11
26.874565500000017
 21
231.16087350000001
  0
LINE
  8
_0-0_0
  6
CONTINUOUS
 62
    7
 10
26.965225500000003
 20
230.89686549999999
 11
26.874565500000017
 21
231.16087350000001
  0
LINE
  8
_0-0_0
  6
CONTINUOUS
 62
    7
 10
26.495491500000014
 20
230.9214935
 11
26.61324350000001
 21
231.1745755
  0
LINE
  8
_0-0_0
  6
CONTINUOUS
 62
    7
 10
26.731002499999988
 20
230.9214935
 11
26.61324350000001
 21
231.1745755
  0
LINE
  8
_0-0_0
  6
CONTINUOUS
 62
    7
 10
26.2612685
 20
230.89686549999999
 11
26.351928499999985
 21
231.16087350000001
  0
LINE
  8
_0-0_0
  6
CONTINUOUS
 62
    7
 10
26.495491500000014
 20
230.9214935
 11
26.351928499999985
 21
231.16087350000001
  0
LINE
  8
_0-0_0
  6
CONTINUOUS
 62
    7
 10
26.030899500000004
 20
230.84790050000001
 11
26.093467500000003
 21
231.1199335
  0
LINE
  8
_0-0_0
  6
CONTINUOUS
 62
    7
 10
26.2612685
 20
230.89686549999999
 11
26.093467500000003
 21
231.1199335
  0
LINE
  8
_0-0_0
  6
CONTINUOUS
 62
    7
 10
25.806915500000002
 20
230.77513150000001
 11
25.840705500000013
 21
231.05221549999999
  0
LINE
  8
_0-0_0
  6
CONTINUOUS
 62
    7
 10
26.030899500000004
 20
230.84790050000001
 11
25.840705500000013
 21
231.05221549999999
  0
LINE
  8
_0-0_0
  6
CONTINUOUS
 62
    7
 10
25.591766500000006
 20
230.67933650000001
 11
25.596405500000003
 21
230.95843450000001
  0
LINE
  8
_0-0_0
  6
CONTINUOUS
 62
    7
 10
25.806915500000002
 20
230.77513150000001
 11
25.596405500000003
 21
230.95843450000001
  0
LINE
  8
_0-0_0
  6
CONTINUOUS
 62
    7
 10
25.472229500000026
 20
230.7631835
 11
25.36324350000001
 21
230.8396305
  0
LINE
  8
_0-0_0
  6
CONTINUOUS
 62
    7
 10
25.591766500000006
 20
230.67933650000001
 11
25.472229500000026
 21
230.7631835
  0
LINE
  8
_0-0_0
  6
CONTINUOUS
 62
    7
 10
25.387809500000003
 20
230.56158450000001
 11
25.36324350000001
 21
230.8396305
  0
LINE
  8
_0-0_0
  6
CONTINUOUS
 62
    7
 10
25.197273499999994
 20
230.4231565
 11
25.143783500000012
 21
230.6971125
  0
LINE
  8
_0-0_0
  6
CONTINUOUS
 62
    7
 10
25.387809500000003
 20
230.56158450000001
 11
25.143783500000012
 21
230.6971125
  0
LINE
  8
_0-0_0
  6
CONTINUOUS
 62
    7
 10
25.0222555
 20
230.26556350000001
 11
24.940414500000003
 21
230.53244050000001
  0
LINE
  8
_0-0_0
  6
CONTINUOUS
 62
    7
 10
25.197273499999994
 20
230.4231565
 11
24.940414500000003
 21
230.53244050000001
  0
LINE
  8
_0-0_0
  6
CONTINUOUS
 62
    7
 10
24.864669499999991
 20
230.09054549999999
 11
24.755386499999986
 21
230.3473965
  0
LINE
  8
_0-0_0
  6
CONTINUOUS
 62
    7
 10
25.0222555
 20
230.26556350000001
 11
24.755386499999986
 21
230.3473965
  0
LINE
  8
_0-0_0
  6
CONTINUOUS
 62
    7
 10
24.726234500000004
 20
229.90000950000001
 11
24.590705500000013
 21
230.14402749999999
  0
LINE
  8
_0-0_0
  6
CONTINUOUS
 62
    7
 10
24.864669499999991
 20
230.09054549999999
 11
24.590705500000013
 21
230.14402749999999
  0
LINE
  8
_0-0_0
  6
CONTINUOUS
 62
    7
 10
24.608482500000008
 20
229.6960445
 11
24.448181500000004
 21
229.9245755
  0
LINE
  8
_0-0_0
  6
CONTINUOUS
 62
    7
 10
24.726234500000004
 20
229.90000950000001
 11
24.448181500000004
 21
229.9245755
  0
LINE
  8
_0-0_0
  6
CONTINUOUS
 62
    7
 10
24.512687500000027
 20
229.4808955
 11
24.329383500000006
 21
229.6914065
  0
LINE
  8
_0-0_0
  6
CONTINUOUS
 62
    7
 10
24.608482500000008
 20
229.6960445
 11
24.329383500000006
 21
229.6914065
  0
LINE
  8
_0-0_0
  6
CONTINUOUS
 62
    7
 10
24.439910499999996
 20
229.2569125
 11
24.235603500000025
 21
229.4471125
  0
LINE
  8
_0-0_0
  6
CONTINUOUS
 62
    7
 10
24.512687500000027
 20
229.4808955
 11
24.235603500000025
 21
229.4471125
  0
LINE
  8
_0-0_0
  6
CONTINUOUS
 62
    7
 10
24.390945499999987
 20
229.02655050000001
 11
24.167877500000003
 21
229.19435150000001
  0
LINE
  8
_0-0_0
  6
CONTINUOUS
 62
    7
 10
24.439910499999996
 20
229.2569125
 11
24.167877500000003
 21
229.19435150000001
  0
LINE
  8
_0-0_0
  6
CONTINUOUS
 62
    7
 10
24.390945499999987
 20
229.02655050000001
 11
24.126937499999997
 21
228.93589750000001
  0
LINE
  8
_0-0_0
  6
CONTINUOUS
 62
    7
 10
24.366333499999996
 20
228.7923275
 11
24.126937499999997
 21
228.93589750000001
  0
LINE
  8
_0-0_0
  6
CONTINUOUS
 62
    7
 10
24.366333499999996
 20
228.55680849999999
 11
24.11324350000001
 21
228.6745755
  0
LINE
  8
_0-0_0
  6
CONTINUOUS
 62
    7
 10
24.366333499999996
 20
228.7923275
 11
24.11324350000001
 21
228.6745755
  0
LINE
  8
_0-0_0
  6
CONTINUOUS
 62
    7
 10
24.390945499999987
 20
228.32260149999999
 11
24.126937499999997
 21
228.4132535
  0
LINE
  8
_0-0_0
  6
CONTINUOUS
 62
    7
 10
24.366333499999996
 20
228.55680849999999
 11
24.126937499999997
 21
228.4132535
  0
LINE
  8
_0-0_0
  6
CONTINUOUS
 62
    7
 10
24.439910499999996
 20
228.09222450000001
 11
24.167877500000003
 21
228.1547855
  0
LINE
  8
_0-0_0
  6
CONTINUOUS
 62
    7
 10
24.390945499999987
 20
228.32260149999999
 11
24.167877500000003
 21
228.1547855
  0
LINE
  8
_0-0_0
  6
CONTINUOUS
 62
    7
 10
24.512687500000027
 20
227.86824050000001
 11
24.235603500000025
 21
227.90202350000001
  0
LINE
  8
_0-0_0
  6
CONTINUOUS
 62
    7
 10
24.439910499999996
 20
228.09222450000001
 11
24.235603500000025
 21
227.90202350000001
  0
LINE
  8
_0-0_0
  6
CONTINUOUS
 62
    7
 10
24.608482500000008
 20
227.65309150000002
 11
24.329383500000006
 21
227.65772950000002
  0
LINE
  8
_0-0_0
  6
CONTINUOUS
 62
    7
 10
24.512687500000027
 20
227.86824050000001
 11
24.329383500000006
 21
227.65772950000002
  0
LINE
  8
_0-0_0
  6
CONTINUOUS
 62
    7
 10
24.726234500000004
 20
227.4491275
 11
24.448181500000004
 21
227.4245755
  0
LINE
  8
_0-0_0
  6
CONTINUOUS
 62
    7
 10
24.608482500000008
 20
227.65309150000002
 11
24.448181500000004
 21
227.4245755
  0
LINE
  8
_0-0_0
  6
CONTINUOUS
 62
    7
 10
24.864669499999991
 20
227.25860550000002
 11
24.590705500000013
 21
227.20510849999999
  0
LINE
  8
_0-0_0
  6
CONTINUOUS
 62
    7
 10
24.726234500000004
 20
227.4491275
 11
24.590705500000013
 21
227.20510849999999
  0
LINE
  8
_0-0_0
  6
CONTINUOUS
 62
    7
 10
25.0222555
 20
227.08358749999999
 11
24.755386499999986
 21
227.00173950000001
  0
LINE
  8
_0-0_0
  6
CONTINUOUS
 62
    7
 10
24.864669499999991
 20
227.25860550000002
 11
24.755386499999986
 21
227.00173950000001
  0
LINE
  8
_0-0_0
  6
CONTINUOUS
 62
    7
 10
25.197273499999994
 20
226.9259945
 11
24.940414500000003
 21
226.8167115
  0
LINE
  8
_0-0_0
  6
CONTINUOUS
 62
    7
 10
25.0222555
 20
227.08358749999999
 11
24.940414500000003
 21
226.8167115
  0
LINE
  8
_0-0_0
  6
CONTINUOUS
 62
    7
 10
25.387809500000003
 20
226.78756749999999
 11
25.143783500000012
 21
226.65202350000001
  0
LINE
  8
_0-0_0
  6
CONTINUOUS
 62
    7
 10
25.197273499999994
 20
226.9259945
 11
25.143783500000012
 21
226.65202350000001
  0
LINE
  8
_0-0_0
  6
CONTINUOUS
 62
    7
 10
25.591766500000006
 20
226.66979950000001
 11
25.36324350000001
 21
226.50950650000001
  0
LINE
  8
_0-0_0
  6
CONTINUOUS
 62
    7
 10
25.387809500000003
 20
226.78756749999999
 11
25.36324350000001
 21
226.50950650000001
  0
LINE
  8
_0-0_0
  6
CONTINUOUS
 62
    7
 10
25.806915500000002
 20
226.57402049999999
 11
25.596405500000003
 21
226.39070150000001
  0
LINE
  8
_0-0_0
  6
CONTINUOUS
 62
    7
 10
25.591766500000006
 20
226.66979950000001
 11
25.596405500000003
 21
226.39070150000001
  0
LINE
  8
_0-0_0
  6
CONTINUOUS
 62
    7
 10
26.030899500000004
 20
226.50123550000001
 11
25.840705500000013
 21
226.29693549999999
  0
LINE
  8
_0-0_0
  6
CONTINUOUS
 62
    7
 10
25.806915500000002
 20
226.57402049999999
 11
25.840705500000013
 21
226.29693549999999
  0
LINE
  8
_0-0_0
  6
CONTINUOUS
 62
    7
 10
26.2612685
 20
226.4522705
 11
26.093467500000003
 21
226.22920250000001
  0
LINE
  8
_0-0_0
  6
CONTINUOUS
 62
    7
 10
26.030899500000004
 20
226.50123550000001
 11
26.093467500000003
 21
226.22920250000001
  0
LINE
  8
_0-0_0
  6
CONTINUOUS
 62
    7
 10
26.495491500000014
 20
226.42765750000001
 11
26.351928499999985
 21
226.18826250000001
  0
LINE
  8
_0-0_0
  6
CONTINUOUS
 62
    7
 10
26.2612685
 20
226.4522705
 11
26.351928499999985
 21
226.18826250000001
  0
LINE
  8
_0-0_0
  6
CONTINUOUS
 62
    7
 10
26.731002499999988
 20
226.42765750000001
 11
26.61324350000001
 21
226.1745755
  0
LINE
  8
_0-0_0
  6
CONTINUOUS
 62
    7
 10
26.495491500000014
 20
226.42765750000001
 11
26.61324350000001
 21
226.1745755
  0
LINE
  8
_0-0_0
  6
CONTINUOUS
 62
    7
 10
26.965225500000003
 20
226.4522705
 11
26.874565500000017
 21
226.18826250000001
  0
LINE
  8
_0-0_0
  6
CONTINUOUS
 62
    7
 10
26.731002499999988
 20
226.42765750000001
 11
26.874565500000017
 21
226.18826250000001
  0
LINE
  8
_0-0_0
  6
CONTINUOUS
 62
    7
 10
27.195587499999988
 20
226.50123550000001
 11
27.1330265
 21
226.22920250000001
  0
LINE
  8
_0-0_0
  6
CONTINUOUS
 62
    7
 10
26.965225500000003
 20
226.4522705
 11
27.1330265
 21
226.22920250000001
  0
LINE
  8
_0-0_0
  6
CONTINUOUS
 62
    7
 10
27.41957050000002
 20
226.57402049999999
 11
27.38578849999999
 21
226.29693549999999
  0
LINE
  8
_0-0_0
  6
CONTINUOUS
 62
    7
 10
27.195587499999988
 20
226.50123550000001
 11
27.38578849999999
 21
226.29693549999999
  0
LINE
  8
_0-0_0
  6
CONTINUOUS
 62
    7
 10
27.634719500000017
 20
226.66979950000001
 11
27.630088499999999
 21
226.39070150000001
  0
LINE
  8
_0-0_0
  6
CONTINUOUS
 62
    7
 10
27.41957050000002
 20
226.57402049999999
 11
27.630088499999999
 21
226.39070150000001
  0
LINE
  8
_0-0_0
  6
CONTINUOUS
 62
    7
 10
27.754257499999994
 20
226.58595249999999
 11
27.86324350000001
 21
226.50950650000001
  0
LINE
  8
_0-0_0
  6
CONTINUOUS
 62
    7
 10
27.634719500000017
 20
226.66979950000001
 11
27.754257499999994
 21
226.58595249999999
  0
LINE
  8
_0-0_0
  6
CONTINUOUS
 62
    7
 10
27.838684499999999
 20
226.78756749999999
 11
27.86324350000001
 21
226.50950650000001
  0
LINE
  8
_0-0_0
  6
CONTINUOUS
 62
    7
 10
28.029220500000008
 20
226.9259945
 11
28.082710500000019
 21
226.65202350000001
  0
LINE
  8
_0-0_0
  6
CONTINUOUS
 62
    7
 10
27.838684499999999
 20
226.78756749999999
 11
28.082710500000019
 21
226.65202350000001
  0
LINE
  8
_0-0_0
  6
CONTINUOUS
 62
    7
 10
28.204238500000002
 20
227.08358749999999
 11
28.286071499999991
 21
226.8167115
  0
LINE
  8
_0-0_0
  6
CONTINUOUS
 62
    7
 10
28.029220500000008
 20
226.9259945
 11
28.286071499999991
 21
226.8167115
  0
LINE
  8
_0-0_0
  6
CONTINUOUS
 62
    7
 10
28.361824500000012
 20
227.25860550000002
 11
28.471107500000016
 21
227.00173950000001
  0
LINE
  8
_0-0_0
  6
CONTINUOUS
 62
    7
 10
28.204238500000002
 20
227.08358749999999
 11
28.471107500000016
 21
227.00173950000001
  0
LINE
  8
_0-0_0
  6
CONTINUOUS
 62
    7
 10
28.50025149999999
 20
227.4491275
 11
28.63578849999999
 21
227.20510849999999
  0
LINE
  8
_0-0_0
  6
CONTINUOUS
 62
    7
 10
28.361824500000012
 20
227.25860550000002
 11
28.63578849999999
 21
227.20510849999999
  0
LINE
  8
_0-0_0
  6
CONTINUOUS
 62
    7
 10
28.618011500000023
 20
227.65309150000002
 11
28.778305499999988
 21
227.4245755
  0
LINE
  8
_0-0_0
  6
CONTINUOUS
 62
    7
 10
28.50025149999999
 20
227.4491275
 11
28.778305499999988
 21
227.4245755
  0
LINE
  8
_0-0_0
  6
CONTINUOUS
 62
    7
 10
28.713806500000004
 20
227.86824050000001
 11
28.897110499999997
 21
227.65772950000002
  0
LINE
  8
_0-0_0
  6
CONTINUOUS
 62
    7
 10
28.618011500000023
 20
227.65309150000002
 11
28.897110499999997
 21
227.65772950000002
  0
LINE
  8
_0-0_0
  6
CONTINUOUS
 62
    7
 10
28.786575500000026
 20
228.09222450000001
 11
28.990890500000006
 21
227.90202350000001
  0
LINE
  8
_0-0_0
  6
CONTINUOUS
 62
    7
 10
28.713806500000004
 20
227.86824050000001
 11
28.990890500000006
 21
227.90202350000001
  0
LINE
  8
_0-0_0
  6
CONTINUOUS
 62
    7
 10
28.835540500000008
 20
228.32260149999999
 11
29.058616499999999
 21
228.1547855
  0
LINE
  8
_0-0_0
  6
CONTINUOUS
 62
    7
 10
28.786575500000026
 20
228.09222450000001
 11
29.058616499999999
 21
228.1547855
  0
LINE
  8
_0-0_0
  6
CONTINUOUS
 62
    7
 10
28.860160500000006
 20
228.55680849999999
 11
29.099548500000026
 21
228.4132535
  0
LINE
  8
_0-0_0
  6
CONTINUOUS
 62
    7
 10
28.835540500000008
 20
228.32260149999999
 11
29.099548500000026
 21
228.4132535
  0
LINE
  8
_0-0_0
  6
CONTINUOUS
 62
    7
 10
28.860160500000006
 20
228.7923275
 11
29.11324350000001
 21
228.6745755
  0
LINE
  8
_0-0_0
  6
CONTINUOUS
 62
    7
 10
28.860160500000006
 20
228.55680849999999
 11
29.11324350000001
 21
228.6745755
  0
LINE
  8
_0-0_0
  6
CONTINUOUS
 62
    7
 10
28.835540500000008
 20
229.02655050000001
 11
29.099548500000026
 21
228.93589750000001
  0
LINE
  8
_0-0_0
  6
CONTINUOUS
 62
    7
 10
28.860160500000006
 20
228.7923275
 11
29.099548500000026
 21
228.93589750000001
  0
LINE
  8
_0-0_0
  6
CONTINUOUS
 62
    7
 10
28.786575500000026
 20
229.2569125
 11
29.058616499999999
 21
229.19435150000001
  0
LINE
  8
_0-0_0
  6
CONTINUOUS
 62
    7
 10
28.835540500000008
 20
229.02655050000001
 11
29.058616499999999
 21
229.19435150000001
  0
LINE
  8
_0-0_0
  6
CONTINUOUS
 62
    7
 10
28.713806500000004
 20
229.4808955
 11
28.990890500000006
 21
229.4471125
  0
LINE
  8
_0-0_0
  6
CONTINUOUS
 62
    7
 10
28.786575500000026
 20
229.2569125
 11
28.990890500000006
 21
229.4471125
  0
LINE
  8
_0-0_0
  6
CONTINUOUS
 62
    7
 10
28.618011500000023
 20
229.6960445
 11
28.897110499999997
 21
229.6914065
  0
LINE
  8
_0-0_0
  6
CONTINUOUS
 62
    7
 10
28.713806500000004
 20
229.4808955
 11
28.897110499999997
 21
229.6914065
  0
CIRCLE
  8
_0-0_0
  6
CONTINUOUS
 62
    7
 10
20.61324350000001
 20
220.3745725
 40
5.25
  0
LINE
  8
_0-0_0
  6
CONTINUOUS
 62
    7
 10
16.50025149999999
 20
213.30000250000001
 11
16.778305499999988
 21
213.3245695
  0
LINE
  8
_0-0_0
  6
CONTINUOUS
 62
    7
 10
16.618011500000023
 20
213.09605350000001
 11
16.778305499999988
 21
213.3245695
  0
LINE
  8
_0-0_0
  6
CONTINUOUS
 62
    7
 10
16.361824500000012
 20
213.49053950000001
 11
16.63578849999999
 21
213.5440365
  0
LINE
  8
_0-0_0
  6
CONTINUOUS
 62
    7
 10
16.50025149999999
 20
213.30000250000001
 11
16.63578849999999
 21
213.5440365
  0
LINE
  8
_0-0_0
  6
CONTINUOUS
 62
    7
 10
16.204238500000002
 20
213.66555750000001
 11
16.471107500000016
 21
213.74740550000001
  0
LINE
  8
_0-0_0
  6
CONTINUOUS
 62
    7
 10
16.361824500000012
 20
213.49053950000001
 11
16.471107500000016
 21
213.74740550000001
  0
LINE
  8
_0-0_0
  6
CONTINUOUS
 62
    7
 10
16.029220500000008
 20
213.8231505
 11
16.286071499999991
 21
213.9324335
  0
LINE
  8
_0-0_0
  6
CONTINUOUS
 62
    7
 10
16.204238500000002
 20
213.66555750000001
 11
16.286071499999991
 21
213.9324335
  0
LINE
  8
_0-0_0
  6
CONTINUOUS
 62
    7
 10
15.838684499999999
 20
213.9615785
 11
16.082710500000019
 21
214.0971065
  0
LINE
  8
_0-0_0
  6
CONTINUOUS
 62
    7
 10
16.029220500000008
 20
213.8231505
 11
16.082710500000019
 21
214.0971065
  0
LINE
  8
_0-0_0
  6
CONTINUOUS
 62
    7
 10
15.634727499999997
 20
214.0793305
 11
15.86324350000001
 21
214.23963950000001
  0
LINE
  8
_0-0_0
  6
CONTINUOUS
 62
    7
 10
15.838684499999999
 20
213.9615785
 11
15.86324350000001
 21
214.23963950000001
  0
LINE
  8
_0-0_0
  6
CONTINUOUS
 62
    7
 10
15.41957050000002
 20
214.17512550000001
 11
15.630088499999999
 21
214.3584285
  0
LINE
  8
_0-0_0
  6
CONTINUOUS
 62
    7
 10
15.634727499999997
 20
214.0793305
 11
15.630088499999999
 21
214.3584285
  0
LINE
  8
_0-0_0
  6
CONTINUOUS
 62
    7
 10
15.195587499999988
 20
214.24790949999999
 11
15.38578849999999
 21
214.45220950000001
  0
LINE
  8
_0-0_0
  6
CONTINUOUS
 62
    7
 10
15.41957050000002
 20
214.17512550000001
 11
15.38578849999999
 21
214.45220950000001
  0
LINE
  8
_0-0_0
  6
CONTINUOUS
 62
    7
 10
14.965225500000003
 20
214.2968745
 11
15.1330265
 21
214.51994350000001
  0
LINE
  8
_0-0_0
  6
CONTINUOUS
 62
    7
 10
15.195587499999988
 20
214.24790949999999
 11
15.1330265
 21
214.51994350000001
  0
LINE
  8
_0-0_0
  6
CONTINUOUS
 62
    7
 10
14.731002499999988
 20
214.32148749999999
 11
14.874565500000017
 21
214.56088249999999
  0
LINE
  8
_0-0_0
  6
CONTINUOUS
 62
    7
 10
14.965225500000003
 20
214.2968745
 11
14.874565500000017
 21
214.56088249999999
  0
LINE
  8
_0-0_0
  6
CONTINUOUS
 62
    7
 10
14.495491500000014
 20
214.32148749999999
 11
14.61324350000001
 21
214.5745695
  0
LINE
  8
_0-0_0
  6
CONTINUOUS
 62
    7
 10
14.731002499999988
 20
214.32148749999999
 11
14.61324350000001
 21
214.5745695
  0
LINE
  8
_0-0_0
  6
CONTINUOUS
 62
    7
 10
14.2612685
 20
214.2968745
 11
14.351928499999985
 21
214.56088249999999
  0
LINE
  8
_0-0_0
  6
CONTINUOUS
 62
    7
 10
14.495491500000014
 20
214.32148749999999
 11
14.351928499999985
 21
214.56088249999999
  0
LINE
  8
_0-0_0
  6
CONTINUOUS
 62
    7
 10
14.030899500000004
 20
214.24790949999999
 11
14.093467500000003
 21
214.51994350000001
  0
LINE
  8
_0-0_0
  6
CONTINUOUS
 62
    7
 10
14.2612685
 20
214.2968745
 11
14.093467500000003
 21
214.51994350000001
  0
LINE
  8
_0-0_0
  6
CONTINUOUS
 62
    7
 10
13.806915500000002
 20
214.17512550000001
 11
13.840705500000013
 21
214.45220950000001
  0
LINE
  8
_0-0_0
  6
CONTINUOUS
 62
    7
 10
14.030899500000004
 20
214.24790949999999
 11
13.840705500000013
 21
214.45220950000001
  0
LINE
  8
_0-0_0
  6
CONTINUOUS
 62
    7
 10
13.591766500000006
 20
214.0793305
 11
13.596405500000003
 21
214.3584285
  0
LINE
  8
_0-0_0
  6
CONTINUOUS
 62
    7
 10
13.806915500000002
 20
214.17512550000001
 11
13.596405500000003
 21
214.3584285
  0
LINE
  8
_0-0_0
  6
CONTINUOUS
 62
    7
 10
13.472229500000026
 20
214.16319250000001
 11
13.36324350000001
 21
214.23963950000001
  0
LINE
  8
_0-0_0
  6
CONTINUOUS
 62
    7
 10
13.591766500000006
 20
214.0793305
 11
13.472229500000026
 21
214.16319250000001
  0
LINE
  8
_0-0_0
  6
CONTINUOUS
 62
    7
 10
13.387809500000003
 20
213.9615785
 11
13.36324350000001
 21
214.23963950000001
  0
LINE
  8
_0-0_0
  6
CONTINUOUS
 62
    7
 10
13.197273499999994
 20
213.8231505
 11
13.143783500000012
 21
214.0971065
  0
LINE
  8
_0-0_0
  6
CONTINUOUS
 62
    7
 10
13.387809500000003
 20
213.9615785
 11
13.143783500000012
 21
214.0971065
  0
LINE
  8
_0-0_0
  6
CONTINUOUS
 62
    7
 10
13.0222555
 20
213.66555750000001
 11
12.940422500000011
 21
213.9324335
  0
LINE
  8
_0-0_0
  6
CONTINUOUS
 62
    7
 10
13.197273499999994
 20
213.8231505
 11
12.940422500000011
 21
213.9324335
  0
LINE
  8
_0-0_0
  6
CONTINUOUS
 62
    7
 10
12.864669499999991
 20
213.49053950000001
 11
12.755386499999986
 21
213.74740550000001
  0
LINE
  8
_0-0_0
  6
CONTINUOUS
 62
    7
 10
13.0222555
 20
213.66555750000001
 11
12.755386499999986
 21
213.74740550000001
  0
LINE
  8
_0-0_0
  6
CONTINUOUS
 62
    7
 10
12.726234500000004
 20
213.30000250000001
 11
12.590705500000013
 21
213.5440365
  0
LINE
  8
_0-0_0
  6
CONTINUOUS
 62
    7
 10
12.864669499999991
 20
213.49053950000001
 11
12.590705500000013
 21
213.5440365
  0
LINE
  8
_0-0_0
  6
CONTINUOUS
 62
    7
 10
12.608482500000008
 20
213.09605350000001
 11
12.448181500000004
 21
213.3245695
  0
LINE
  8
_0-0_0
  6
CONTINUOUS
 62
    7
 10
12.726234500000004
 20
213.30000250000001
 11
12.448181500000004
 21
213.3245695
  0
LINE
  8
_0-0_0
  6
CONTINUOUS
 62
    7
 10
12.512687500000027
 20
212.88090550000001
 11
12.329383500000006
 21
213.09141550000001
  0
LINE
  8
_0-0_0
  6
CONTINUOUS
 62
    7
 10
12.608482500000008
 20
213.09605350000001
 11
12.329383500000006
 21
213.09141550000001
  0
LINE
  8
_0-0_0
  6
CONTINUOUS
 62
    7
 10
12.439910499999996
 20
212.65692150000001
 11
12.235603500000025
 21
212.8471065
  0
LINE
  8
_0-0_0
  6
CONTINUOUS
 62
    7
 10
12.512687500000027
 20
212.88090550000001
 11
12.235603500000025
 21
212.8471065
  0
LINE
  8
_0-0_0
  6
CONTINUOUS
 62
    7
 10
12.390945499999987
 20
212.42654450000001
 11
12.167877500000003
 21
212.59434450000001
  0
LINE
  8
_0-0_0
  6
CONTINUOUS
 62
    7
 10
12.439910499999996
 20
212.65692150000001
 11
12.167877500000003
 21
212.59434450000001
  0
LINE
  8
_0-0_0
  6
CONTINUOUS
 62
    7
 10
12.390945499999987
 20
212.42654450000001
 11
12.126937499999997
 21
212.3358915
  0
LINE
  8
_0-0_0
  6
CONTINUOUS
 62
    7
 10
12.366325500000016
 20
212.19232149999999
 11
12.126937499999997
 21
212.3358915
  0
LINE
  8
_0-0_0
  6
CONTINUOUS
 62
    7
 10
12.366325500000016
 20
211.9568175
 11
12.11324350000001
 21
212.0745695
  0
LINE
  8
_0-0_0
  6
CONTINUOUS
 62
    7
 10
12.366325500000016
 20
212.19232149999999
 11
12.11324350000001
 21
212.0745695
  0
LINE
  8
_0-0_0
  6
CONTINUOUS
 62
    7
 10
12.390945499999987
 20
211.72259550000001
 11
12.126937499999997
 21
211.81324749999999
  0
LINE
  8
_0-0_0
  6
CONTINUOUS
 62
    7
 10
12.366325500000016
 20
211.9568175
 11
12.126937499999997
 21
211.81324749999999
  0
LINE
  8
_0-0_0
  6
CONTINUOUS
 62
    7
 10
12.439910499999996
 20
211.4922335
 11
12.167877500000003
 21
211.55479450000001
  0
LINE
  8
_0-0_0
  6
CONTINUOUS
 62
    7
 10
12.390945499999987
 20
211.72259550000001
 11
12.167877500000003
 21
211.55479450000001
  0
LINE
  8
_0-0_0
  6
CONTINUOUS
 62
    7
 10
12.512687500000027
 20
211.26823450000001
 11
12.235603500000025
 21
211.3020325
  0
LINE
  8
_0-0_0
  6
CONTINUOUS
 62
    7
 10
12.439910499999996
 20
211.4922335
 11
12.235603500000025
 21
211.3020325
  0
LINE
  8
_0-0_0
  6
CONTINUOUS
 62
    7
 10
12.608482500000008
 20
211.05308550000001
 11
12.329383500000006
 21
211.05772350000001
  0
LINE
  8
_0-0_0
  6
CONTINUOUS
 62
    7
 10
12.512687500000027
 20
211.26823450000001
 11
12.329383500000006
 21
211.05772350000001
  0
LINE
  8
_0-0_0
  6
CONTINUOUS
 62
    7
 10
12.726234500000004
 20
210.84913650000001
 11
12.448181500000004
 21
210.8245695
  0
LINE
  8
_0-0_0
  6
CONTINUOUS
 62
    7
 10
12.608482500000008
 20
211.05308550000001
 11
12.448181500000004
 21
210.8245695
  0
LINE
  8
_0-0_0
  6
CONTINUOUS
 62
    7
 10
12.864669499999991
 20
210.65859950000001
 11
12.590705500000013
 21
210.60510250000002
  0
LINE
  8
_0-0_0
  6
CONTINUOUS
 62
    7
 10
12.726234500000004
 20
210.84913650000001
 11
12.590705500000013
 21
210.60510250000002
  0
LINE
  8
_0-0_0
  6
CONTINUOUS
 62
    7
 10
13.0222555
 20
210.48358150000001
 11
12.755386499999986
 21
210.4017485
  0
LINE
  8
_0-0_0
  6
CONTINUOUS
 62
    7
 10
12.864669499999991
 20
210.65859950000001
 11
12.755386499999986
 21
210.4017485
  0
LINE
  8
_0-0_0
  6
CONTINUOUS
 62
    7
 10
13.197273499999994
 20
210.32598849999999
 11
12.940422500000011
 21
210.21670549999999
  0
LINE
  8
_0-0_0
  6
CONTINUOUS
 62
    7
 10
13.0222555
 20
210.48358150000001
 11
12.940422500000011
 21
210.21670549999999
  0
LINE
  8
_0-0_0
  6
CONTINUOUS
 62
    7
 10
13.387809500000003
 20
210.18756049999999
 11
13.143783500000012
 21
210.0520325
  0
LINE
  8
_0-0_0
  6
CONTINUOUS
 62
    7
 10
13.197273499999994
 20
210.32598849999999
 11
13.143783500000012
 21
210.0520325
  0
LINE
  8
_0-0_0
  6
CONTINUOUS
 62
    7
 10
13.591766500000006
 20
210.06980849999999
 11
13.36324350000001
 21
209.9095155
  0
LINE
  8
_0-0_0
  6
CONTINUOUS
 62
    7
 10
13.387809500000003
 20
210.18756049999999
 11
13.36324350000001
 21
209.9095155
  0
LINE
  8
_0-0_0
  6
CONTINUOUS
 62
    7
 10
13.806915500000002
 20
209.97401450000001
 11
13.596405500000003
 21
209.79071049999999
  0
LINE
  8
_0-0_0
  6
CONTINUOUS
 62
    7
 10
13.591766500000006
 20
210.06980849999999
 11
13.596405500000003
 21
209.79071049999999
  0
LINE
  8
_0-0_0
  6
CONTINUOUS
 62
    7
 10
14.030899500000004
 20
209.90124449999999
 11
13.840705500000013
 21
209.69692950000001
  0
LINE
  8
_0-0_0
  6
CONTINUOUS
 62
    7
 10
13.806915500000002
 20
209.97401450000001
 11
13.840705500000013
 21
209.69692950000001
  0
LINE
  8
_0-0_0
  6
CONTINUOUS
 62
    7
 10
14.2612685
 20
209.85226449999999
 11
14.093467500000003
 21
209.6292115
  0
LINE
  8
_0-0_0
  6
CONTINUOUS
 62
    7
 10
14.030899500000004
 20
209.90124449999999
 11
14.093467500000003
 21
209.6292115
  0
LINE
  8
_0-0_0
  6
CONTINUOUS
 62
    7
 10
14.495491500000014
 20
209.8276515
 11
14.351928499999985
 21
209.58827149999999
  0
LINE
  8
_0-0_0
  6
CONTINUOUS
 62
    7
 10
14.2612685
 20
209.85226449999999
 11
14.351928499999985
 21
209.58827149999999
  0
LINE
  8
_0-0_0
  6
CONTINUOUS
 62
    7
 10
14.731002499999988
 20
209.8276515
 11
14.61324350000001
 21
209.5745695
  0
LINE
  8
_0-0_0
  6
CONTINUOUS
 62
    7
 10
14.495491500000014
 20
209.8276515
 11
14.61324350000001
 21
209.5745695
  0
LINE
  8
_0-0_0
  6
CONTINUOUS
 62
    7
 10
14.965225500000003
 20
209.85226449999999
 11
14.874565500000017
 21
209.58827149999999
  0
LINE
  8
_0-0_0
  6
CONTINUOUS
 62
    7
 10
14.731002499999988
 20
209.8276515
 11
14.874565500000017
 21
209.58827149999999
  0
LINE
  8
_0-0_0
  6
CONTINUOUS
 62
    7
 10
15.195587499999988
 20
209.90124449999999
 11
15.1330265
 21
209.6292115
  0
LINE
  8
_0-0_0
  6
CONTINUOUS
 62
    7
 10
14.965225500000003
 20
209.85226449999999
 11
15.1330265
 21
209.6292115
  0
LINE
  8
_0-0_0
  6
CONTINUOUS
 62
    7
 10
15.41957050000002
 20
209.97401450000001
 11
15.38578849999999
 21
209.69692950000001
  0
LINE
  8
_0-0_0
  6
CONTINUOUS
 62
    7
 10
15.195587499999988
 20
209.90124449999999
 11
15.38578849999999
 21
209.69692950000001
  0
LINE
  8
_0-0_0
  6
CONTINUOUS
 62
    7
 10
15.634727499999997
 20
210.06980849999999
 11
15.630088499999999
 21
209.79071049999999
  0
LINE
  8
_0-0_0
  6
CONTINUOUS
 62
    7
 10
15.41957050000002
 20
209.97401450000001
 11
15.630088499999999
 21
209.79071049999999
  0
LINE
  8
_0-0_0
  6
CONTINUOUS
 62
    7
 10
15.754257499999994
 20
209.9859615
 11
15.86324350000001
 21
209.9095155
  0
LINE
  8
_0-0_0
  6
CONTINUOUS
 62
    7
 10
15.634727499999997
 20
210.06980849999999
 11
15.754257499999994
 21
209.9859615
  0
LINE
  8
_0-0_0
  6
CONTINUOUS
 62
    7
 10
15.838684499999999
 20
210.18756049999999
 11
15.86324350000001
 21
209.9095155
  0
LINE
  8
_0-0_0
  6
CONTINUOUS
 62
    7
 10
16.029220500000008
 20
210.32598849999999
 11
16.082710500000019
 21
210.0520325
  0
LINE
  8
_0-0_0
  6
CONTINUOUS
 62
    7
 10
15.838684499999999
 20
210.18756049999999
 11
16.082710500000019
 21
210.0520325
  0
LINE
  8
_0-0_0
  6
CONTINUOUS
 62
    7
 10
16.204238500000002
 20
210.48358150000001
 11
16.286071499999991
 21
210.21670549999999
  0
LINE
  8
_0-0_0
  6
CONTINUOUS
 62
    7
 10
16.029220500000008
 20
210.32598849999999
 11
16.286071499999991
 21
210.21670549999999
  0
LINE
  8
_0-0_0
  6
CONTINUOUS
 62
    7
 10
16.361824500000012
 20
210.65859950000001
 11
16.471107500000016
 21
210.4017485
  0
LINE
  8
_0-0_0
  6
CONTINUOUS
 62
    7
 10
16.204238500000002
 20
210.48358150000001
 11
16.471107500000016
 21
210.4017485
  0
LINE
  8
_0-0_0
  6
CONTINUOUS
 62
    7
 10
16.50025149999999
 20
210.84913650000001
 11
16.63578849999999
 21
210.60510250000002
  0
LINE
  8
_0-0_0
  6
CONTINUOUS
 62
    7
 10
16.361824500000012
 20
210.65859950000001
 11
16.63578849999999
 21
210.60510250000002
  0
LINE
  8
_0-0_0
  6
CONTINUOUS
 62
    7
 10
16.618011500000023
 20
211.05308550000001
 11
16.778305499999988
 21
210.8245695
  0
LINE
  8
_0-0_0
  6
CONTINUOUS
 62
    7
 10
16.50025149999999
 20
210.84913650000001
 11
16.778305499999988
 21
210.8245695
  0
LINE
  8
_0-0_0
  6
CONTINUOUS
 62
    7
 10
16.713806500000004
 20
211.26823450000001
 11
16.897110499999997
 21
211.05772350000001
  0
LINE
  8
_0-0_0
  6
CONTINUOUS
 62
    7
 10
16.618011500000023
 20
211.05308550000001
 11
16.897110499999997
 21
211.05772350000001
  0
LINE
  8
_0-0_0
  6
CONTINUOUS
 62
    7
 10
16.786575500000026
 20
211.4922335
 11
16.990890500000006
 21
211.3020325
  0
LINE
  8
_0-0_0
  6
CONTINUOUS
 62
    7
 10
16.713806500000004
 20
211.26823450000001
 11
16.990890500000006
 21
211.3020325
  0
LINE
  8
_0-0_0
  6
CONTINUOUS
 62
    7
 10
16.835540500000008
 20
211.72259550000001
 11
17.058616499999999
 21
211.55479450000001
  0
LINE
  8
_0-0_0
  6
CONTINUOUS
 62
    7
 10
16.786575500000026
 20
211.4922335
 11
17.058616499999999
 21
211.55479450000001
  0
LINE
  8
_0-0_0
  6
CONTINUOUS
 62
    7
 10
16.860160500000006
 20
211.9568175
 11
17.099548500000026
 21
211.81324749999999
  0
LINE
  8
_0-0_0
  6
CONTINUOUS
 62
    7
 10
16.835540500000008
 20
211.72259550000001
 11
17.099548500000026
 21
211.81324749999999
  0
LINE
  8
_0-0_0
  6
CONTINUOUS
 62
    7
 10
16.860160500000006
 20
212.19232149999999
 11
17.11324350000001
 21
212.0745695
  0
LINE
  8
_0-0_0
  6
CONTINUOUS
 62
    7
 10
16.860160500000006
 20
211.9568175
 11
17.11324350000001
 21
212.0745695
  0
LINE
  8
_0-0_0
  6
CONTINUOUS
 62
    7
 10
16.835540500000008
 20
212.42654450000001
 11
17.099548500000026
 21
212.3358915
  0
LINE
  8
_0-0_0
  6
CONTINUOUS
 62
    7
 10
16.860160500000006
 20
212.19232149999999
 11
17.099548500000026
 21
212.3358915
  0
LINE
  8
_0-0_0
  6
CONTINUOUS
 62
    7
 10
16.786575500000026
 20
212.65692150000001
 11
17.058616499999999
 21
212.59434450000001
  0
LINE
  8
_0-0_0
  6
CONTINUOUS
 62
    7
 10
16.835540500000008
 20
212.42654450000001
 11
17.058616499999999
 21
212.59434450000001
  0
LINE
  8
_0-0_0
  6
CONTINUOUS
 62
    7
 10
16.713806500000004
 20
212.88090550000001
 11
16.990890500000006
 21
212.8471065
  0
LINE
  8
_0-0_0
  6
CONTINUOUS
 62
    7
 10
16.786575500000026
 20
212.65692150000001
 11
16.990890500000006
 21
212.8471065
  0
LINE
  8
_0-0_0
  6
CONTINUOUS
 62
    7
 10
16.618011500000023
 20
213.09605350000001
 11
16.897110499999997
 21
213.09141550000001
  0
LINE
  8
_0-0_0
  6
CONTINUOUS
 62
    7
 10
16.713806500000004
 20
212.88090550000001
 11
16.897110499999997
 21
213.09141550000001
  0
CIRCLE
  8
_0-0_0
  6
CONTINUOUS
 62
    7
 10
26.61324350000001
 20
228.6745755
 40
2
  0
CIRCLE
  8
_0-0_0
  6
CONTINUOUS
 62
    7
 10
14.61324350000001
 20
212.0745695
 40
2
  0
LINE
  8
_0-0_0
  6
CONTINUOUS
 62
    7
 10
27.195358499999998
 20
227.6745755
 11
26.031135500000005
 21
227.6745755
  0
LINE
  8
_0-0_0
  6
CONTINUOUS
 62
    7
 10
26.031135500000005
 20
227.6745755
 11
25.463241500000009
 21
228.6745755
  0
LINE
  8
_0-0_0
  6
CONTINUOUS
 62
    7
 10
25.463241500000009
 20
228.6745755
 11
26.031135500000005
 21
229.6745755
  0
LINE
  8
_0-0_0
  6
CONTINUOUS
 62
    7
 10
26.031135500000005
 20
229.6745755
 11
27.195358499999998
 21
229.6745755
  0
LINE
  8
_0-0_0
  6
CONTINUOUS
 62
    7
 10
27.195358499999998
 20
229.6745755
 11
27.763244500000013
 21
228.6745755
  0
LINE
  8
_0-0_0
  6
CONTINUOUS
 62
    7
 10
27.763244500000013
 20
228.6745755
 11
27.195358499999998
 21
227.6745755
  0
CIRCLE
  8
_0-0_0
  6
CONTINUOUS
 62
    7
 10
20.61324350000001
 20
220.3745725
 40
5
  0
LINE
  8
_0-0_0
  6
CONTINUOUS
 62
    7
 10
15.195358499999998
 20
211.0745695
 11
14.031135500000005
 21
211.0745695
  0
LINE
  8
_0-0_0
  6
CONTINUOUS
 62
    7
 10
14.031135500000005
 20
211.0745695
 11
13.463249500000018
 21
212.0745695
  0
LINE
  8
_0-0_0
  6
CONTINUOUS
 62
    7
 10
13.463249500000018
 20
212.0745695
 11
14.031135500000005
 21
213.0745695
  0
LINE
  8
_0-0_0
  6
CONTINUOUS
 62
    7
 10
14.031135500000005
 20
213.0745695
 11
15.195358499999998
 21
213.0745695
  0
LINE
  8
_0-0_0
  6
CONTINUOUS
 62
    7
 10
15.195358499999998
 20
213.0745695
 11
15.763244500000013
 21
212.0745695
  0
LINE
  8
_0-0_0
  6
CONTINUOUS
 62
    7
 10
15.763244500000013
 20
212.0745695
 11
15.195358499999998
 21
211.0745695
  0
CIRCLE
  8
_0-0_0
  6
CONTINUOUS
 62
    7
 10
20.61324350000001
 20
220.3745725
 40
4.5381200000000002
  0
CIRCLE
  8
_0-0_0
  6
CONTINUOUS
 62
    7
 10
20.61324350000001
 20
220.3745725
 40
4
  0
LINE
  8
_0-0_0
  6
CONTINUOUS
 62
    7
 10
12.48066750000001
 20
230.32989449999999
 11
11.813247499999989
 21
230.32989449999999
  0
ARC
  8
_0-0_0
  6
CONTINUOUS
 62
    7
 10
28.61324350000001
 20
230.7995755
 40
0.2
 50
179.94055499999999
 51
269.99997000000002
  0
ARC
  8
_0-0_0
  6
CONTINUOUS
 62
    7
 10
27.11324350000001
 20
211.5745695
 40
2
 50
269.99999700000001
 51
273.84026499999999
  0
ARC
  8
_0-0_0
  6
CONTINUOUS
 62
    7
 10
14.11324350000001
 20
229.1745755
 40
2
 50
90.000003000000007
 51
93.840255999999997
  0
LINE
  8
_0-0_0
  6
CONTINUOUS
 62
    7
 10
28.913246500000014
 20
230.59957850000001
 11
28.61324350000001
 21
230.59957850000001
  0
LINE
  8
_0-0_0
  6
CONTINUOUS
 62
    7
 10
28.913246500000014
 20
233.5495755
 11
28.61324350000001
 21
233.5495755
  0
ARC
  8
_0-0_0
  6
CONTINUOUS
 62
    7
 10
12.61324350000001
 20
230.79965150000001
 40
0.2
 50
270.00002499999994
 51
0.0594439999999606
  0
ARC
  8
_0-0_0
  6
CONTINUOUS
 62
    7
 10
28.913208499999996
 20
230.7996215
 40
0.200055
 50
270.00964199999999
 51
1.3705509999999435
  0
ARC
  8
_0-0_0
  6
CONTINUOUS
 62
    7
 10
28.913246500000014
 20
233.34957850000001
 40
0.2
 50
359.91222800000003
 51
89.999948000000003
  0
LINE
  8
_0-0_0
  6
CONTINUOUS
 62
    7
 10
12.313247499999989
 20
230.59963949999999
 11
12.61324350000001
 21
230.59963949999999
  0
ARC
  8
_0-0_0
  6
CONTINUOUS
 62
    7
 10
12.313278500000024
 20
230.79969750000001
 40
0.200055
 50
178.629446
 51
269.99035300000003
  0
LINE
  8
_0-0_0
  6
CONTINUOUS
 62
    7
 10
29.313247499999989
 20
236.0746455
 11
29.313247499999989
 21
249.2746425
  0
ARC
  8
_0-0_0
  6
CONTINUOUS
 62
    7
 10
28.813247499999989
 20
236.0746455
 40
0.5
 50
269.99999700000001
 51
0
  0
ARC
  8
_0-0_0
  6
CONTINUOUS
 62
    7
 10
29.254669500000006
 20
249.47463949999999
 40
0.1
 50
135
 51
225
  0
LINE
  8
_0-0_0
  6
CONTINUOUS
 62
    7
 10
29.183960500000012
 20
249.4039305
 11
29.313247499999989
 21
249.2746425
  0
LINE
  8
_0-0_0
  6
CONTINUOUS
 62
    7
 10
28.813247499999989
 20
235.5746455
 11
26.913246500000014
 21
235.5746455
  0
ARC
  8
_0-0_0
  6
CONTINUOUS
 62
    7
 10
26.913246500000014
 20
236.0746455
 40
0.5
 50
233.12990600000001
 51
269.99999700000001
  0
ARC
  8
_0-0_0
  6
CONTINUOUS
 62
    7
 10
14.213249500000018
 20
236.0746455
 40
0.5
 50
269.99999700000001
 51
306.87009999999998
  0
LINE
  8
_0-0_0
  6
CONTINUOUS
 62
    7
 10
14.213249500000018
 20
235.5746455
 11
12.313247499999989
 21
235.5746455
  0
ARC
  8
_0-0_0
  6
CONTINUOUS
 62
    7
 10
12.313247499999989
 20
236.0746455
 40
0.5
 50
180.00000900000003
 51
269.99999700000001
  0
LINE
  8
_0-0_0
  6
CONTINUOUS
 62
    7
 10
11.813247499999989
 20
245.50964350000001
 11
11.813247499999989
 21
236.0746455
  0
LINE
  8
_0-0_0
  6
CONTINUOUS
 62
    7
 10
11.813247499999989
 20
245.50964350000001
 11
12.513244500000013
 21
245.50964350000001
  0
LINE
  8
_0-0_0
  6
CONTINUOUS
 62
    7
 10
28.513244500000013
 20
264.07464549999997
 11
28.719276500000007
 21
264.07464549999997
  0
LINE
  8
_0-0_0
  6
CONTINUOUS
 62
    7
 10
28.719276500000007
 20
264.07464549999997
 11
29.313247499999989
 21
263.4806825
  0
LINE
  8
_0-0_0
  6
CONTINUOUS
 62
    7
 10
29.313247499999989
 20
258.47463949999997
 11
29.313247499999989
 21
263.4806825
  0
LINE
  8
_0-0_0
  6
CONTINUOUS
 62
    7
 10
29.183960500000012
 20
258.34535249999999
 11
29.313247499999989
 21
258.47463949999997
  0
ARC
  8
_0-0_0
  6
CONTINUOUS
 62
    7
 10
29.254669500000006
 20
258.27464250000003
 40
0.1
 50
135
 51
225
  0
LINE
  8
_0-0_0
  6
CONTINUOUS
 62
    7
 10
29.183960500000012
 20
258.20393350000001
 11
29.313247499999989
 21
258.07464549999997
  0
LINE
  8
_0-0_0
  6
CONTINUOUS
 62
    7
 10
29.313247499999989
 20
257.37464850000003
 11
29.313247499999989
 21
258.07464549999997
  0
LINE
  8
_0-0_0
  6
CONTINUOUS
 62
    7
 10
29.183960500000012
 20
257.2453615
 11
29.313247499999989
 21
257.37464850000003
  0
ARC
  8
_0-0_0
  6
CONTINUOUS
 62
    7
 10
29.254669500000006
 20
257.17465149999998
 40
0.1
 50
135
 51
225
  0
LINE
  8
_0-0_0
  6
CONTINUOUS
 62
    7
 10
29.183960500000012
 20
257.1039275
 11
29.313247499999989
 21
256.97463949999997
  0
LINE
  8
_0-0_0
  6
CONTINUOUS
 62
    7
 10
29.313247499999989
 20
256.27464250000003
 11
29.313247499999989
 21
256.97463949999997
  0
LINE
  8
_0-0_0
  6
CONTINUOUS
 62
    7
 10
29.183960500000012
 20
256.14535549999999
 11
29.313247499999989
 21
256.27464250000003
  0
ARC
  8
_0-0_0
  6
CONTINUOUS
 62
    7
 10
29.254669500000006
 20
256.07464549999997
 40
0.1
 50
135
 51
225
  0
LINE
  8
_0-0_0
  6
CONTINUOUS
 62
    7
 10
29.183960500000012
 20
256.00393650000001
 11
29.313247499999989
 21
255.87464850000001
  0
LINE
  8
_0-0_0
  6
CONTINUOUS
 62
    7
 10
29.313247499999989
 20
255.17465150000001
 11
29.313247499999989
 21
255.87464850000001
  0
LINE
  8
_0-0_0
  6
CONTINUOUS
 62
    7
 10
29.183960500000012
 20
255.04534950000001
 11
29.313247499999989
 21
255.17465150000001
  0
ARC
  8
_0-0_0
  6
CONTINUOUS
 62
    7
 10
29.254669500000006
 20
254.97463949999999
 40
0.1
 50
135
 51
225
  0
LINE
  8
_0-0_0
  6
CONTINUOUS
 62
    7
 10
29.183960500000012
 20
254.9039305
 11
29.313247499999989
 21
254.7746425
  0
LINE
  8
_0-0_0
  6
CONTINUOUS
 62
    7
 10
29.313247499999989
 20
254.0746455
 11
29.313247499999989
 21
254.7746425
  0
LINE
  8
_0-0_0
  6
CONTINUOUS
 62
    7
 10
29.183960500000012
 20
253.9453585
 11
29.313247499999989
 21
254.0746455
  0
ARC
  8
_0-0_0
  6
CONTINUOUS
 62
    7
 10
29.254669500000006
 20
253.87464850000001
 40
0.1
 50
135
 51
225
  0
LINE
  8
_0-0_0
  6
CONTINUOUS
 62
    7
 10
29.183960500000012
 20
253.80392449999999
 11
29.313247499999989
 21
253.67465150000001
  0
LINE
  8
_0-0_0
  6
CONTINUOUS
 62
    7
 10
29.313247499999989
 20
252.97463949999999
 11
29.313247499999989
 21
253.67465150000001
  0
LINE
  8
_0-0_0
  6
CONTINUOUS
 62
    7
 10
29.183960500000012
 20
252.84535249999999
 11
29.313247499999989
 21
252.97463949999999
  0
ARC
  8
_0-0_0
  6
CONTINUOUS
 62
    7
 10
29.254669500000006
 20
252.7746425
 40
0.1
 50
135
 51
225
  0
LINE
  8
_0-0_0
  6
CONTINUOUS
 62
    7
 10
29.183960500000012
 20
252.70393350000001
 11
29.313247499999989
 21
252.5746455
  0
LINE
  8
_0-0_0
  6
CONTINUOUS
 62
    7
 10
29.313247499999989
 20
251.87464850000001
 11
29.313247499999989
 21
252.5746455
  0
LINE
  8
_0-0_0
  6
CONTINUOUS
 62
    7
 10
29.183960500000012
 20
251.7453615
 11
29.313247499999989
 21
251.87464850000001
  0
ARC
  8
_0-0_0
  6
CONTINUOUS
 62
    7
 10
29.254669500000006
 20
251.67465150000001
 40
0.1
 50
135
 51
225
  0
LINE
  8
_0-0_0
  6
CONTINUOUS
 62
    7
 10
29.183960500000012
 20
251.60394250000002
 11
29.313247499999989
 21
251.47463949999999
  0
LINE
  8
_0-0_0
  6
CONTINUOUS
 62
    7
 10
29.313247499999989
 20
250.7746425
 11
29.313247499999989
 21
251.47463949999999
  0
LINE
  8
_0-0_0
  6
CONTINUOUS
 62
    7
 10
29.183960500000012
 20
250.64535549999999
 11
29.313247499999989
 21
250.7746425
  0
ARC
  8
_0-0_0
  6
CONTINUOUS
 62
    7
 10
29.254669500000006
 20
250.5746455
 40
0.1
 50
135
 51
225
  0
LINE
  8
_0-0_0
  6
CONTINUOUS
 62
    7
 10
29.183960500000012
 20
250.50393650000001
 11
29.313247499999989
 21
250.37464850000001
  0
LINE
  8
_0-0_0
  6
CONTINUOUS
 62
    7
 10
29.313247499999989
 20
249.67465150000001
 11
29.313247499999989
 21
250.37464850000001
  0
LINE
  8
_0-0_0
  6
CONTINUOUS
 62
    7
 10
29.183960500000012
 20
249.54534950000001
 11
29.313247499999989
 21
249.67465150000001
  0
LINE
  8
_0-0_0
  6
CONTINUOUS
 62
    7
 10
29.313247499999989
 20
241.5746455
 11
29.413246500000014
 21
241.5746455
  0
LINE
  8
_0-0_0
  6
CONTINUOUS
 62
    7
 10
29.413246500000014
 20
241.0746455
 11
29.413246500000014
 21
241.5746455
  0
LINE
  8
_0-0_0
  6
CONTINUOUS
 62
    7
 10
29.413246500000014
 20
241.0746455
 11
29.413246500000014
 21
237.0746455
  0
LINE
  8
_0-0_0
  6
CONTINUOUS
 62
    7
 10
29.313247499999989
 20
236.5746455
 11
29.413246500000014
 21
236.5746455
  0
LINE
  8
_0-0_0
  6
CONTINUOUS
 62
    7
 10
29.413246500000014
 20
236.5746455
 11
29.413246500000014
 21
237.0746455
  0
LINE
  8
_0-0_0
  6
CONTINUOUS
 62
    7
 10
11.813247499999989
 20
245.57466149999999
 11
11.813247499999989
 21
245.50964350000001
  0
LINE
  8
_0-0_0
  6
CONTINUOUS
 62
    7
 10
28.313247499999989
 20
264.37464850000003
 11
28.313247499999989
 21
264.27464250000003
  0
LINE
  8
_0-0_0
  6
CONTINUOUS
 62
    7
 10
11.713249500000018
 20
245.5746455
 11
12.513244500000013
 21
245.5746455
  0
LINE
  8
_0-0_0
  6
CONTINUOUS
 62
    7
 10
12.213249500000018
 20
267.37464850000003
 11
12.213249500000018
 21
263.15310650000004
  0
LINE
  8
_0-0_0
  6
CONTINUOUS
 62
    7
 10
13.313247499999989
 20
267.37464850000003
 11
13.313247499999989
 21
264.37464850000003
  0
LINE
  8
_0-0_0
  6
CONTINUOUS
 62
    7
 10
12.213249500000018
 20
263.15310650000004
 11
12.513244500000013
 21
263.15310650000004
  0
ARC
  8
_0-0_0
  6
CONTINUOUS
 62
    7
 10
15.813247499999989
 20
264.37464850000003
 40
2.5
 50
90.000003000000007
 51
180.00000900000001
  0
ARC
  8
_0-0_0
  6
CONTINUOUS
 62
    7
 10
25.813247499999989
 20
264.37464850000003
 40
2.5
 50
0
 51
90.000003000000007
  0
LINE
  8
_0-0_0
  6
CONTINUOUS
 62
    7
 10
13.313247499999989
 20
264.27464250000003
 11
13.313247499999989
 21
264.37464850000003
  0
LINE
  8
_0-0_0
  6
CONTINUOUS
 62
    7
 10
25.813247499999989
 20
266.87464850000003
 11
15.813247499999989
 21
266.87464850000003
  0
LINE
  8
_0-0_0
  6
CONTINUOUS
 62
    7
 10
29.513244500000013
 20
237.0746455
 11
29.513244500000013
 21
237.20500150000001
  0
LINE
  8
_0-0_0
  6
CONTINUOUS
 62
    7
 10
29.513244500000013
 20
240.70500150000001
 11
29.513244500000013
 21
237.20500150000001
  0
LINE
  8
_0-0_0
  6
CONTINUOUS
 62
    7
 10
29.413246500000014
 20
240.97463949999999
 11
29.513244500000013
 21
240.97463949999999
  0
LINE
  8
_0-0_0
  6
CONTINUOUS
 62
    7
 10
29.513244500000013
 20
240.70500150000001
 11
29.513244500000013
 21
240.97463949999999
  0
LINE
  8
_0-0_0
  6
CONTINUOUS
 62
    7
 10
29.113250499999992
 20
263.47463949999997
 11
28.113250499999992
 21
264.47463949999997
  0
LINE
  8
_0-0_0
  6
CONTINUOUS
 62
    7
 10
29.11324350000001
 20
235.67465150000001
 11
29.113250499999992
 21
263.47463949999997
  0
LINE
  8
_0-0_0
  6
CONTINUOUS
 62
    7
 10
12.513244500000013
 20
235.67465150000001
 11
29.11324350000001
 21
235.67465150000001
  0
LINE
  8
_0-0_0
  6
CONTINUOUS
 62
    7
 10
12.513244500000013
 20
263.47463949999997
 11
12.513244500000013
 21
235.67465150000001
  0
LINE
  8
_0-0_0
  6
CONTINUOUS
 62
    7
 10
11.713249500000018
 20
245.5746455
 11
11.713249500000018
 21
262.3874515
  0
LINE
  8
_0-0_0
  6
CONTINUOUS
 62
    7
 10
11.713249500000018
 20
266.87464850000003
 11
11.713249500000018
 21
262.3874515
  0
ARC
  8
_0-0_0
  6
CONTINUOUS
 62
    7
 10
43.1649855
 20
242.3924715
 40
37.269466000000001
 50
146.14857699999999
 51
147.55443399999999
  0
ARC
  8
_0-0_0
  6
CONTINUOUS
 62
    7
 10
25.544197499999996
 20
264.07464549999997
 40
2.6000000000000001
 50
8.8498839999999994
 51
90.000002999999992
  0
LINE
  8
_0-0_0
  6
CONTINUOUS
 62
    7
 10
25.544197499999996
 20
266.67465149999998
 11
16.082290499999999
 21
266.67465149999998
  0
ARC
  8
_0-0_0
  6
CONTINUOUS
 62
    7
 10
16.082290499999999
 20
264.07464549999997
 40
2.6000000000000001
 50
90.000003000000007
 51
171.150115
  0
LINE
  8
_0-0_0
  6
CONTINUOUS
 62
    7
 10
12.513244500000013
 20
263.47463949999997
 11
13.513244500000013
 21
264.47463949999997
  0
LINE
  8
_0-0_0
  6
CONTINUOUS
 62
    7
 10
28.113250499999992
 20
263.06042450000001
 11
29.113250499999992
 21
263.47463949999997
  0
ARC
  8
_0-0_0
  6
CONTINUOUS
 62
    7
 10
22.570709500000021
 20
275.26077250000003
 40
12.126564999999999
 50
292.155034
 51
297.19674500000002
  0
LINE
  8
_0-0_0
  6
CONTINUOUS
 62
    7
 10
28.11324350000001
 20
236.67465150000001
 11
29.11324350000001
 21
235.67465150000001
  0
LINE
  8
_0-0_0
  6
CONTINUOUS
 62
    7
 10
13.513244500000013
 20
236.67465150000001
 11
12.513244500000013
 21
235.67465150000001
  0
LINE
  8
_0-0_0
  6
CONTINUOUS
 62
    7
 10
13.513244500000013
 20
263.06042450000001
 11
12.513244500000013
 21
263.47463949999997
  0
ARC
  8
_0-0_0
  6
CONTINUOUS
 62
    7
 10
19.055786500000011
 20
275.26077250000003
 40
12.126567
 50
242.80325699999997
 51
247.84494000000001
  0
CIRCLE
  8
_0-0_0
  6
CONTINUOUS
 62
    7
 10
20.813247499999989
 20
243.87464850000001
 40
2.0670000000000002
  0
LINE
  8
_0-0_0
  6
CONTINUOUS
 62
    7
 10
13.313247499999989
 20
267.37464850000003
 11
12.213249500000018
 21
267.37464850000003
  0
LINE
  8
_0-0_0
  6
CONTINUOUS
 62
    7
 10
29.413246500000014
 20
237.0746455
 11
29.513244500000013
 21
237.0746455
  0
LINE
  8
_0-0_0
  6
CONTINUOUS
 62
    7
 10
29.413246500000014
 20
237.0746455
 11
29.513244500000013
 21
237.0746455
  0
LINE
  8
_0-0_0
  6
CONTINUOUS
 62
    7
 10
11.713249500000018
 20
266.87464850000003
 11
12.213249500000018
 21
267.37464850000003
  0
ENDSEC
  0
EOF
