  0
SECTION
  2
HEADER
  9
$ACADVER
  1
AC1009
  9
$INSBASE
 10
0
 20
0
 30
0
  9
$EXTMIN
 10
0
 20
0
  9
$EXTMAX
 10
210.25
 20
148.5
  9
$LIMMIN
 10
0
 20
0
  9
$LIMMAX
 10
210.25
 20
148.5
  9
$LTSCALE
 40
0.25
  0
ENDSEC
  0
SECTION
  2
TABLES
  0
TABLE
  2
LTYPE
 70
     9
  0
LTYPE
  2
CONTINUOUS
 70
    64
  3
実線
 72
    65
 73
     0
 40
0.0
  0
LTYPE
  2
DASHED1
 70
    64
  3
--  --  --  --  --  --  --  --  
 72
    65
 73
     2
 40
2.5
 49
1.25
 49
-1.25
  0
LTYPE
  2
DASHED2
 70
    64
  3
----    ----    ----    ----    
 72
    65
 73
     2
 40
5.0
 49
2.5
 49
-2.5
  0
LTYPE
  2
DASHED3
 70
    64
  3
------  ------  ------  ------  
 72
    65
 73
     2
 40
5.0
 49
3.75
 49
-1.25
  0
LTYPE
  2
CENTER1
 70
    64
  3
----- - ----- - ----- - ----- - 
 72
    65
 73
     4
 40
10.0
 49
6.25
 49
-1.25
 49
1.25
 49
-1.25
  0
LTYPE
  2
CENTER2
 70
    64
  3
----------  --  ----------  --  
 72
    65
 73
     4
 40
20.0
 49
12.5
 49
-2.5
 49
2.5
 49
-2.5
  0
LTYPE
  2
PHANTOM1
 70
    64
  3
--- - - --- - - --- - - --- - - 
 72
    65
 73
     6
 40
10.0
 49
3.25
 49
-1.25
 49
1.25
 49
-1.25
 49
1.25
 49
-1.25
  0
LTYPE
  2
PHANTOM2
 70
    64
  3
--------  -  -  --------  -  -  
 72
    65
 73
     6
 40
20.0
 49
10.0
 49
-2.5
 49
1.25
 49
-2.5
 49
1.25
 49
-2.5
  0
LTYPE
  2
DOT
 70
    64
  3
-   -   -   -   -   -   -   -   
 72
    65
 73
     2
 40
2.5
 49
0.625
 49
-1.875
  0
LTYPE
  2
DUMMY
 70
    64
  3
ダミー
 72
    65
 73
     0
 40
0.0
  0
LTYPE
  2
RAND1
 70
    64
  3
ランダム線1
 72
    65
 73
     4
 40
10.0
 49
1.0
 49
-2.0
 49
3.0
 49
-4.0
  0
LTYPE
  2
RAND2
 70
    64
  3
ランダム線2
 72
    65
 73
     4
 40
14.0
 49
2.0
 49
-3.0
 49
4.0
 49
-5.0
  0
LTYPE
  2
RAND3
 70
    64
  3
ランダム線3
 72
    65
 73
     4
 40
18.0
 49
3.0
 49
-4.0
 49
5.0
 49
-6.0
  0
LTYPE
  2
RAND4
 70
    64
  3
ランダム線4
 72
    65
 73
     4
 40
22.0
 49
4.0
 49
-5.0
 49
6.0
 49
-7.0
  0
LTYPE
  2
RAND5
 70
    64
  3
ランダム線5
 72
    65
 73
     4
 40
26.0
 49
5.0
 49
-6.0
 49
7.0
 49
-8.0
  0
LTYPE
  2
LONG1
 70
    64
  3
----------  --  ----------  --  
 72
    65
 73
     4
 40
40.0
 49
32.5
 49
-2.5
 49
2.5
 49
-2.5
  0
LTYPE
  2
LONG2
 70
    64
  3
--------  -  -  --------  -  -  
 72
    65
 73
     6
 40
40.0
 49
30.0
 49
-2.5
 49
1.25
 49
-2.5
 49
1.25
 49
-2.5
  0
LTYPE
  2
LONG3
 70
    64
  3
+++++++++++++++..+++++++++++++++
 72
    65
 73
     2
 40
40.0
 49
37.5
 49
-2.5
  0
LTYPE
  2
LONG4
 70
    64
  3
+++++++++++++++..+++++++++++++++
 72
    65
 73
     2
 40
80.0
 49
75.0
 49
-5.0
  0
LTYPE
  2
LONG5
 70
    64
  3
----------  --  ----------  --  
 72
    65
 73
     4
 40
60.0
 49
37.5
 49
-7.5
 49
7.5
 49
-7.5
  0
LTYPE
  2
dashed
 70
   64
  3
-------   -------------   ------
 72
   65
 73
    2
 40
7.5
 49
6
 49
-1.5
  0
LTYPE
  2
dashed_spaced
 70
   64
  3
----        --------        ----
 72
   65
 73
    2
 40
12
 49
6
 49
-6
  0
LTYPE
  2
long_dashed_dotted
 70
   64
  3
------------- --- --------------
 72
   65
 73
    4
 40
15.25
 49
12
 49
-1.5
 49
0.25
 49
-1.5
  0
LTYPE
  2
long_dashed_double-dotted
 70
   64
  3
----------- --- --- ------------
 72
   65
 73
    6
 40
17
 49
12
 49
-1.5
 49
0.25
 49
-1.5
 49
0.25
 49
-1.5
  0
LTYPE
  2
long_dashed_triplicate-dotted
 70
   64
  3
--------- --- --- --- ----------
 72
   65
 73
    8
 40
18.75
 49
12
 49
-1.5
 49
0.25
 49
-1.5
 49
0.25
 49
-1.5
 49
0.25
 49
-1.5
  0
LTYPE
  2
dotted
 70
   64
  3
   -       -       -       -    
 72
   65
 73
    2
 40
1.75
 49
0.25
 49
-1.5
  0
LTYPE
  2
chain
 70
   64
  3
-------------- -- --------------
 72
   65
 73
    4
 40
18.5
 49
12
 49
-1.5
 49
3.5
 49
-1.5
  0
LTYPE
  2
chain_double_dash
 70
   64
  3
------------ -- -- -------------
 72
   65
 73
    6
 40
23.5
 49
12
 49
-1.5
 49
3.5
 49
-1.5
 49
3.5
 49
-1.5
  0
LTYPE
  2
dashed_dotted
 70
   64
  3
-----------     -     ----------
 72
   65
 73
    4
 40
9.25
 49
6
 49
-1.5
 49
0.25
 49
-1.5
  0
LTYPE
  2
double-dashed_dotted
 70
   64
  3
------   -----------   -   -----
 72
   65
 73
    6
 40
16.75
 49
6
 49
-1.5
 49
6
 49
-1.5
 49
0.25
 49
-1.5
  0
LTYPE
  2
dashed_double-dotted
 70
   64
  3
---------    -    -    ---------
 72
   65
 73
    6
 40
11
 49
6
 49
-1.5
 49
0.25
 49
-1.5
 49
0.25
 49
-1.5
  0
LTYPE
  2
double-dashed_double-dotted
 70
   64
  3
-----   ---------   -   -   ----
 72
   65
 73
    8
 40
18.5
 49
6
 49
-1.5
 49
6
 49
-1.5
 49
0.25
 49
-1.5
 49
0.25
 49
-1.5
  0
LTYPE
  2
dashed_triplicate-dotted
 70
   64
  3
-------    -    -    -    ------
 72
   65
 73
    8
 40
12.75
 49
6
 49
-1.5
 49
0.25
 49
-1.5
 49
0.25
 49
-1.5
 49
0.25
 49
-1.5
  0
LTYPE
  2
double-dashed_triplicate-dotted
 70
   64
  3
-----  ---------  -  -  -  -----
 72
   65
 73
   10
 40
20.25
 49
6
 49
-1.5
 49
6
 49
-1.5
 49
0.25
 49
-1.5
 49
0.25
 49
-1.5
 49
0.25
 49
-1.5
  0
LTYPE
  2
undefined
 70
   64
  3
--------------------------------
 72
   65
 73
    0
 40
0
  0
ENDTAB
  0
TABLE
  2
STYLE
  5
3
100
AcDbSymbolTable
 70
     1
  0
STYLE
  5
10
100
AcDbSymbolTableRecord
100
AcDbTextStyleTableRecord
  2
STANDARD
 70
     0
 40
0.0
 41
1.0
 50
0.0
 71
     0
 42
0.2
  3
txt
  4
bigfont.shx
  0
STYLE
  5
26
100
AcDbSymbolTableRecord
100
AcDbTextStyleTableRecord
  2
TATEGAKI
 70
    68
 40
0.0
 41
1.0
 50
0.0
 71
     0
 42
1.0
  3
txt
  4
bigfont.shx
  0
ENDTAB
  0
TABLE
  2
LAYER
 70
    2
  0
LAYER
  2
_0-0_0
 70
   64
 62
    7
  6
CONTINUOUS
  0
LAYER
  2
ADD_LINE
 70
   64
 62
    7
  6
CONTINUOUS
  0
ENDTAB
  0
ENDSEC
  0
SECTION
  2
BLOCKS
  0
ENDSEC
  0
SECTION
  2
ENTITIES
  0
LINE
  8
_0-0_0
  6
CONTINUOUS
 62
    7
 10
-16.196083499999986
 20
151.4251405
 11
-16.196083499999986
 21
151.4241485
  0
LINE
  8
_0-0_0
  6
CONTINUOUS
 62
    7
 10
136.61642449999999
 20
112.4942095
 11
135.31642150000002
 21
108.9942095
  0
ARC
  8
_0-0_0
  6
CONTINUOUS
 62
    7
 10
136.8039095
 20
112.42456850000001
 40
0.2
 50
20.376434999999997
 51
159.62357000000003
  0
ARC
  8
_0-0_0
  6
CONTINUOUS
 62
    7
 10
174.8039095
 20
115.3245695
 40
2.2000000000000002
 50
180.00000900000003
 51
303.74900400000001
  0
LINE
  8
_0-0_0
  6
CONTINUOUS
 62
    7
 10
172.60391250000001
 20
116.8245695
 11
172.60391250000001
 21
115.3245695
  0
LINE
  8
_0-0_0
  6
CONTINUOUS
 62
    7
 10
172.60391250000001
 20
116.8245695
 11
98.003921500000018
 21
116.8245695
  0
LINE
  8
_0-0_0
  6
CONTINUOUS
 62
    7
 10
98.003921500000018
 20
116.8245695
 11
98.003921500000018
 21
115.3245695
  0
ARC
  8
_0-0_0
  6
CONTINUOUS
 62
    7
 10
95.803909500000003
 20
115.3245695
 40
2.2000000000000002
 50
236.25102899999999
 51
0
  0
ARC
  8
_0-0_0
  6
CONTINUOUS
 62
    7
 10
94.303909500000003
 20
113.07957450000001
 40
0.5
 50
56.251010000000008
 51
180.00000900000001
  0
LINE
  8
_0-0_0
  6
CONTINUOUS
 62
    7
 10
93.803909500000003
 20
92.724571499999996
 11
93.803909500000003
 21
93.501693500000002
  0
LINE
  8
_0-0_0
  6
CONTINUOUS
 62
    7
 10
93.803909500000003
 20
92.724571499999996
 11
103.60391250000001
 21
92.724571499999996
  0
ARC
  8
_0-0_0
  6
CONTINUOUS
 62
    7
 10
103.60391250000001
 20
92.924568500000007
 40
0.2
 50
269.99999700000001
 51
0
  0
LINE
  8
_0-0_0
  6
CONTINUOUS
 62
    7
 10
103.8039095
 20
94.624572499999999
 11
103.8039095
 21
92.924568500000007
  0
ARC
  8
_0-0_0
  6
CONTINUOUS
 62
    7
 10
104.00392150000002
 20
94.624572499999999
 40
0.2
 50
90.000003000000007
 51
180.00000900000001
  0
LINE
  8
_0-0_0
  6
CONTINUOUS
 62
    7
 10
104.50392150000002
 20
94.824569499999996
 11
104.00392150000002
 21
94.824569499999996
  0
ARC
  8
_0-0_0
  6
CONTINUOUS
 62
    7
 10
104.50392150000002
 20
94.324569499999996
 40
0.5
 50
90.000003000000007
 51
180.00000900000001
  0
LINE
  8
_0-0_0
  6
CONTINUOUS
 62
    7
 10
104.00392150000002
 20
92.824569499999996
 11
104.00392150000002
 21
94.324569499999996
  0
LINE
  8
_0-0_0
  6
CONTINUOUS
 62
    7
 10
173.60391250000001
 20
92.824569499999996
 11
104.00392150000002
 21
92.824569499999996
  0
LINE
  8
_0-0_0
  6
CONTINUOUS
 62
    7
 10
173.60391250000001
 20
92.824569499999996
 11
173.60391250000001
 21
94.324569499999996
  0
ARC
  8
_0-0_0
  6
CONTINUOUS
 62
    7
 10
173.10391250000001
 20
94.324569499999996
 40
0.5
 50
0
 51
90.000003000000007
  0
LINE
  8
_0-0_0
  6
CONTINUOUS
 62
    7
 10
173.60391250000001
 20
94.824569499999996
 11
173.10391250000001
 21
94.824569499999996
  0
ARC
  8
_0-0_0
  6
CONTINUOUS
 62
    7
 10
173.60391250000001
 20
94.624572499999999
 40
0.2
 50
0
 51
90.000003000000007
  0
LINE
  8
_0-0_0
  6
CONTINUOUS
 62
    7
 10
173.8039095
 20
92.924568500000007
 11
173.8039095
 21
94.624572499999999
  0
ARC
  8
_0-0_0
  6
CONTINUOUS
 62
    7
 10
174.0039065
 20
92.924568500000007
 40
0.2
 50
180.00000900000003
 51
269.99999700000001
  0
LINE
  8
_0-0_0
  6
CONTINUOUS
 62
    7
 10
174.0039065
 20
92.724571499999996
 11
174.8039095
 21
92.724571499999996
  0
ARC
  8
_0-0_0
  6
CONTINUOUS
 62
    7
 10
174.8039095
 20
94.724571499999996
 40
2
 50
269.99999700000001
 51
0.0000099999999886
  0
LINE
  8
_0-0_0
  6
CONTINUOUS
 62
    7
 10
176.8039095
 20
113.07957450000001
 11
176.8039095
 21
94.724571499999996
  0
ARC
  8
_0-0_0
  6
CONTINUOUS
 62
    7
 10
176.3039095
 20
113.07957450000001
 40
0.5
 50
0
 51
123.74898500000002
  0
LINE
  8
_0-0_0
  6
CONTINUOUS
 62
    7
 10
105.3039095
 20
95.0245745
 11
105.3039095
 21
95.224571499999996
  0
LINE
  8
_0-0_0
  6
CONTINUOUS
 62
    7
 10
105.3039095
 20
95.224571499999996
 11
172.3039095
 21
95.224571499999996
  0
LINE
  8
_0-0_0
  6
CONTINUOUS
 62
    7
 10
172.3039095
 20
95.0245745
 11
172.3039095
 21
95.224571499999996
  0
ARC
  8
_0-0_0
  6
CONTINUOUS
 62
    7
 10
172.5039065
 20
95.0245745
 40
0.2
 50
180.00000900000003
 51
269.99999700000001
  0
LINE
  8
_0-0_0
  6
CONTINUOUS
 62
    7
 10
172.5039065
 20
94.824569499999996
 11
105.10391250000001
 21
94.824569499999996
  0
ARC
  8
_0-0_0
  6
CONTINUOUS
 62
    7
 10
105.10391250000001
 20
95.0245745
 40
0.2
 50
269.99999700000001
 51
0
  0
ARC
  8
_0-0_0
  6
CONTINUOUS
 62
    7
 10
135.5039065
 20
108.9245755
 40
0.2
 50
159.62357
 51
269.99999700000001
  0
LINE
  8
_0-0_0
  6
CONTINUOUS
 62
    7
 10
135.5039065
 20
108.7245715
 11
138.10391250000001
 21
108.7245715
  0
ARC
  8
_0-0_0
  6
CONTINUOUS
 62
    7
 10
138.10391250000001
 20
108.9245755
 40
0.2
 50
269.99999700000001
 51
20.376435000000019
  0
LINE
  8
_0-0_0
  6
CONTINUOUS
 62
    7
 10
138.29139750000002
 20
108.9942095
 11
136.99139450000001
 21
112.4942095
  0
LINE
  8
_0-0_0
  6
CONTINUOUS
 62
    7
 10
93.803909500000003
 20
112.42456850000001
 11
93.803909500000003
 21
114.40194650000001
  0
LINE
  8
_0-0_0
  6
CONTINUOUS
 62
    7
 10
93.803909500000003
 20
112.42456850000001
 11
93.803909500000003
 21
94.824569499999996
  0
LINE
  8
_0-0_0
  6
CONTINUOUS
 62
    7
 10
93.803909500000003
 20
93.501693500000002
 11
93.803909500000003
 21
94.824569499999996
  0
LINE
  8
_0-0_0
  6
CONTINUOUS
 62
    7
 10
176.8039095
 20
118.8245695
 11
176.8039095
 21
117.8245695
  0
LINE
  8
_0-0_0
  6
CONTINUOUS
 62
    7
 10
176.8039095
 20
117.8245695
 11
176.8039095
 21
117.3245695
  0
LINE
  8
_0-0_0
  6
CONTINUOUS
 62
    7
 10
176.8039095
 20
117.3245695
 11
176.8039095
 21
115.3245695
  0
LINE
  8
_0-0_0
  6
CONTINUOUS
 62
    7
 10
176.8039095
 20
115.3245695
 11
176.8039095
 21
113.07957450000001
  0
LINE
  8
_0-0_0
  6
CONTINUOUS
 62
    7
 10
154.8039095
 20
112.8245695
 11
154.8039095
 21
99.224571499999996
  0
ARC
  8
_0-0_0
  6
CONTINUOUS
 62
    7
 10
157.8039095
 20
112.8245695
 40
3
 50
90.000003000000007
 51
180.00000900000001
  0
LINE
  8
_0-0_0
  6
CONTINUOUS
 62
    7
 10
171.13784749999999
 20
115.8245695
 11
157.8039095
 21
115.8245695
  0
ARC
  8
_0-0_0
  6
CONTINUOUS
 62
    7
 10
171.13784749999999
 20
114.8245695
 40
1
 50
7.7664340000000012
 51
90.000002999999992
  0
ARC
  8
_0-0_0
  6
CONTINUOUS
 62
    7
 10
174.8039095
 20
115.3245695
 40
2.7000000000000002
 50
187.76643899999999
 51
254.31966600000001
  0
ARC
  8
_0-0_0
  6
CONTINUOUS
 62
    7
 10
173.8039095
 20
111.76226750000001
 40
1
 50
0
 51
74.319649999999996
  0
LINE
  8
_0-0_0
  6
CONTINUOUS
 62
    7
 10
174.8039095
 20
99.224571499999996
 11
174.8039095
 21
111.76226750000001
  0
ARC
  8
_0-0_0
  6
CONTINUOUS
 62
    7
 10
171.8039095
 20
99.224571499999996
 40
3
 50
269.99999700000001
 51
0.0000099999999886
  0
LINE
  8
_0-0_0
  6
CONTINUOUS
 62
    7
 10
157.8039095
 20
96.224571499999996
 11
171.8039095
 21
96.224571499999996
  0
ARC
  8
_0-0_0
  6
CONTINUOUS
 62
    7
 10
157.8039095
 20
99.224571499999996
 40
3
 50
180.00000900000003
 51
269.99999700000001
  0
LINE
  8
_0-0_0
  6
CONTINUOUS
 62
    7
 10
100.8039095
 20
96.224571499999996
 11
115.8039095
 21
96.224571499999996
  0
ARC
  8
_0-0_0
  6
CONTINUOUS
 62
    7
 10
100.8039095
 20
99.224571499999996
 40
3
 50
180.00000900000003
 51
269.99999700000001
  0
LINE
  8
_0-0_0
  6
CONTINUOUS
 62
    7
 10
97.803909500000003
 20
112.8245695
 11
97.803909500000003
 21
99.224571499999996
  0
ARC
  8
_0-0_0
  6
CONTINUOUS
 62
    7
 10
100.8039095
 20
112.8245695
 40
3
 50
90.000003000000007
 51
180.00000900000001
  0
LINE
  8
_0-0_0
  6
CONTINUOUS
 62
    7
 10
115.8039095
 20
115.8245695
 11
100.8039095
 21
115.8245695
  0
ARC
  8
_0-0_0
  6
CONTINUOUS
 62
    7
 10
115.8039095
 20
112.8245695
 40
3
 50
0
 51
90.000003000000007
  0
LINE
  8
_0-0_0
  6
CONTINUOUS
 62
    7
 10
118.8039095
 20
99.224571499999996
 11
118.8039095
 21
112.8245695
  0
ARC
  8
_0-0_0
  6
CONTINUOUS
 62
    7
 10
115.8039095
 20
99.224571499999996
 40
3
 50
269.99999700000001
 51
0.0000099999999886
  0
LINE
  8
_0-0_0
  6
CONTINUOUS
 62
    7
 10
172.8039095
 20
116.8245695
 11
172.60391250000001
 21
116.8245695
  0
ARC
  8
_0-0_0
  6
CONTINUOUS
 62
    7
 10
174.8039095
 20
115.3245695
 40
2
 50
180.00000900000003
 51
0.0000000000000254
  0
LINE
  8
_0-0_0
  6
CONTINUOUS
 62
    7
 10
172.8039095
 20
116.8245695
 11
172.8039095
 21
115.3245695
  0
LINE
  8
_0-0_0
  6
CONTINUOUS
 62
    7
 10
98.003921500000018
 20
116.8245695
 11
97.803909500000003
 21
116.8245695
  0
LINE
  8
_0-0_0
  6
CONTINUOUS
 62
    7
 10
97.803909500000003
 20
116.8245695
 11
97.803909500000003
 21
115.3245695
  0
ARC
  8
_0-0_0
  6
CONTINUOUS
 62
    7
 10
95.803909500000003
 20
115.3245695
 40
2
 50
180.00000900000003
 51
0.0000000000000254
  0
LINE
  8
_0-0_0
  6
CONTINUOUS
 62
    7
 10
80.303924499999994
 20
117.3245695
 11
80.303924499999994
 21
116.8245695
  0
LINE
  8
_0-0_0
  6
CONTINUOUS
 62
    7
 10
93.803909500000003
 20
114.4080585
 11
93.803909500000003
 21
115.1245725
  0
LINE
  8
_0-0_0
  6
CONTINUOUS
 62
    7
 10
93.803909500000003
 20
114.4080585
 11
93.803909500000003
 21
114.40194650000001
  0
LINE
  8
_0-0_0
  6
CONTINUOUS
 62
    7
 10
93.803909500000003
 20
113.1934275
 11
93.803909500000003
 21
113.07957450000001
  0
LINE
  8
_0-0_0
  6
CONTINUOUS
 62
    7
 10
81.803924499999994
 20
114.42456850000001
 11
81.803924499999994
 21
112.42456850000001
  0
LINE
  8
_0-0_0
  6
CONTINUOUS
 62
    7
 10
93.803909500000003
 20
114.42456850000001
 11
81.803924499999994
 21
114.42456850000001
  0
LINE
  8
_0-0_0
  6
CONTINUOUS
 62
    7
 10
81.803924499999994
 20
108.9245755
 11
81.803924499999994
 21
111.92456850000001
  0
LINE
  8
_0-0_0
  6
CONTINUOUS
 62
    7
 10
81.803924499999994
 20
111.92456850000001
 11
81.803924499999994
 21
112.42456850000001
  0
LINE
  8
_0-0_0
  6
CONTINUOUS
 62
    7
 10
81.803924499999994
 20
108.9245755
 11
81.803924499999994
 21
108.4245755
  0
ARC
  8
_0-0_0
  6
CONTINUOUS
 62
    7
 10
87.803924499999994
 20
109.12455750000001
 40
0.500016
 50
0.001164
 51
179.99560600000004
  0
LINE
  8
_0-0_0
  6
CONTINUOUS
 62
    7
 10
87.303909500000003
 20
109.1245725
 11
87.303909500000003
 21
97.124572499999999
  0
ARC
  8
_0-0_0
  6
CONTINUOUS
 62
    7
 10
87.803924499999994
 20
97.124580500000008
 40
0.500016
 50
180.00117
 51
359.995611
  0
LINE
  8
_0-0_0
  6
CONTINUOUS
 62
    7
 10
88.303909500000003
 20
109.1245725
 11
88.303909500000003
 21
97.124572499999999
  0
ARC
  8
_0-0_0
  6
CONTINUOUS
 62
    7
 10
86.303924499999994
 20
109.12455750000001
 40
0.500016
 50
0.001164
 51
179.99560600000004
  0
LINE
  8
_0-0_0
  6
CONTINUOUS
 62
    7
 10
85.803909500000003
 20
109.1245725
 11
85.803909500000003
 21
97.124572499999999
  0
ARC
  8
_0-0_0
  6
CONTINUOUS
 62
    7
 10
86.303924499999994
 20
97.124580500000008
 40
0.500016
 50
180.00117
 51
359.995611
  0
LINE
  8
_0-0_0
  6
CONTINUOUS
 62
    7
 10
86.803909500000003
 20
109.1245725
 11
86.803909500000003
 21
97.124572499999999
  0
ARC
  8
_0-0_0
  6
CONTINUOUS
 62
    7
 10
84.803924499999994
 20
109.12455750000001
 40
0.500016
 50
0.001164
 51
179.99560600000004
  0
LINE
  8
_0-0_0
  6
CONTINUOUS
 62
    7
 10
84.303909500000003
 20
109.1245725
 11
84.303909500000003
 21
97.124572499999999
  0
ARC
  8
_0-0_0
  6
CONTINUOUS
 62
    7
 10
84.803924499999994
 20
97.124580500000008
 40
0.500016
 50
180.00117
 51
359.995611
  0
LINE
  8
_0-0_0
  6
CONTINUOUS
 62
    7
 10
85.303909500000003
 20
109.1245725
 11
85.303909500000003
 21
97.124572499999999
  0
ARC
  8
_0-0_0
  6
CONTINUOUS
 62
    7
 10
83.303924499999994
 20
109.12455750000001
 40
0.500016
 50
0.001164
 51
179.99560600000004
  0
LINE
  8
_0-0_0
  6
CONTINUOUS
 62
    7
 10
82.803924499999994
 20
109.1245725
 11
82.803924499999994
 21
97.124572499999999
  0
ARC
  8
_0-0_0
  6
CONTINUOUS
 62
    7
 10
83.303924499999994
 20
97.124580500000008
 40
0.500016
 50
180.00117
 51
359.995611
  0
LINE
  8
_0-0_0
  6
CONTINUOUS
 62
    7
 10
83.803909500000003
 20
109.1245725
 11
83.803909500000003
 21
97.124572499999999
  0
LINE
  8
_0-0_0
  6
CONTINUOUS
 62
    7
 10
93.803909500000003
 20
92.824569499999996
 11
77.128479499999997
 21
92.824569499999996
  0
LINE
  8
_0-0_0
  6
CONTINUOUS
 62
    7
 10
104.35391250000001
 20
94.801544500000006
 11
104.35391250000001
 21
94.824569499999996
  0
LINE
  8
_0-0_0
  6
CONTINUOUS
 62
    7
 10
173.2539065
 20
94.801544500000006
 11
173.2539065
 21
94.824569499999996
  0
LINE
  8
_0-0_0
  6
CONTINUOUS
 62
    7
 10
80.303924499999994
 20
117.3245695
 11
80.303924499999994
 21
117.8245695
  0
LINE
  8
_0-0_0
  6
CONTINUOUS
 62
    7
 10
176.8039095
 20
117.8245695
 11
80.303924499999994
 21
117.8245695
  0
LINE
  8
_0-0_0
  6
CONTINUOUS
 62
    7
 10
80.303924499999994
 20
117.8245695
 11
80.303924499999994
 21
118.8245695
  0
LINE
  8
_0-0_0
  6
CONTINUOUS
 62
    7
 10
176.8040465
 20
118.8246305
 11
176.8040465
 21
118.3246455
  0
LINE
  8
_0-0_0
  6
CONTINUOUS
 62
    7
 10
176.8040465
 20
118.3246455
 11
176.8040465
 21
116.8246455
  0
ARC
  8
_0-0_0
  6
CONTINUOUS
 62
    7
 10
167.3039095
 20
108.4245755
 40
4.5
 50
269.99999700000001
 51
90.000002999999992
  0
LINE
  8
_0-0_0
  6
CONTINUOUS
 62
    7
 10
167.3039095
 20
103.9245755
 11
162.3039095
 21
103.9245755
  0
ARC
  8
_0-0_0
  6
CONTINUOUS
 62
    7
 10
162.3039095
 20
108.4245755
 40
4.5
 50
90.000003000000007
 51
269.99999700000006
  0
LINE
  8
_0-0_0
  6
CONTINUOUS
 62
    7
 10
162.3039095
 20
112.92456850000001
 11
167.3039095
 21
112.92456850000001
  0
ARC
  8
_0-0_0
  6
CONTINUOUS
 62
    7
 10
111.3039095
 20
108.4245755
 40
4.5
 50
269.99999700000001
 51
90.000002999999992
  0
LINE
  8
_0-0_0
  6
CONTINUOUS
 62
    7
 10
111.3039095
 20
103.9245755
 11
106.3039095
 21
103.9245755
  0
ARC
  8
_0-0_0
  6
CONTINUOUS
 62
    7
 10
106.3039095
 20
108.4245755
 40
4.5
 50
90.000003000000007
 51
269.99999700000006
  0
LINE
  8
_0-0_0
  6
CONTINUOUS
 62
    7
 10
106.3039095
 20
112.92456850000001
 11
111.3039095
 21
112.92456850000001
  0
LINE
  8
_0-0_0
  6
CONTINUOUS
 62
    7
 10
93.803909500000003
 20
115.1245725
 11
93.803909500000003
 21
116.8245695
  0
LINE
  8
_0-0_0
  6
CONTINUOUS
 62
    7
 10
93.803909500000003
 20
116.8245695
 11
80.303924499999994
 21
116.8245695
  0
LINE
  8
_0-0_0
  6
CONTINUOUS
 62
    7
 10
80.303924499999994
 20
115.1245725
 11
80.303924499999994
 21
116.8245695
  0
LINE
  8
_0-0_0
  6
CONTINUOUS
 62
    7
 10
81.803924499999994
 20
114.42456850000001
 11
77.128479499999997
 21
114.42456850000001
  0
LINE
  8
_0-0_0
  6
CONTINUOUS
 62
    7
 10
81.803924499999994
 20
108.9245755
 11
77.128479499999997
 21
108.9245755
  0
LINE
  8
_0-0_0
  6
CONTINUOUS
 62
    7
 10
76.496017499999994
 20
92.927200499999998
 11
76.615509500000002
 21
92.891586500000003
  0
LINE
  8
_0-0_0
  6
CONTINUOUS
 62
    7
 10
76.615509500000002
 20
92.891586500000003
 11
76.737060500000013
 21
92.863708500000001
  0
LINE
  8
_0-0_0
  6
CONTINUOUS
 62
    7
 10
76.737060500000013
 20
92.863708500000001
 11
76.860199499999993
 21
92.8436655
  0
LINE
  8
_0-0_0
  6
CONTINUOUS
 62
    7
 10
76.860199499999993
 20
92.8436655
 11
76.984436500000015
 21
92.831550500000006
  0
LINE
  8
_0-0_0
  6
CONTINUOUS
 62
    7
 10
76.984436500000015
 20
92.831550500000006
 11
77.109252499999997
 21
92.827415500000001
  0
LINE
  8
_0-0_0
  6
CONTINUOUS
 62
    7
 10
77.109252499999997
 20
92.827415500000001
 11
77.128479499999997
 21
92.827491500000008
  0
ARC
  8
_0-0_0
  6
CONTINUOUS
 62
    7
 10
77.128479499999997
 20
94.824569499999996
 40
2
 50
251.56498899999997
 51
269.99999700000001
  0
LINE
  8
_0-0_0
  6
CONTINUOUS
 62
    7
 10
80.303924499999994
 20
115.1245725
 11
93.803909500000003
 21
115.1245725
  0
CIRCLE
  8
_0-0_0
  6
CONTINUOUS
 62
    7
 10
174.8039095
 20
115.3245695
 40
1.4750000000000001
  0
CIRCLE
  8
_0-0_0
  6
CONTINUOUS
 62
    7
 10
95.803909500000003
 20
115.3245695
 40
1.4750000000000001
  0
ARC
  8
_0-0_0
  6
CONTINUOUS
 62
    7
 10
77.128479499999997
 20
112.42456850000001
 40
2
 50
90.000003000000007
 51
108.434997
  0
LINE
  8
_0-0_0
  6
CONTINUOUS
 62
    7
 10
72.329574500000007
 20
108.9245755
 11
71.63621550000002
 21
108.9245755
  0
LINE
  8
_0-0_0
  6
CONTINUOUS
 62
    7
 10
72.329574500000007
 20
108.9245755
 11
76.65412950000001
 21
108.9245755
  0
LINE
  8
_0-0_0
  6
CONTINUOUS
 62
    7
 10
77.128479499999997
 20
108.9245755
 11
76.65412950000001
 21
108.9245755
  0
LINE
  8
_0-0_0
  6
CONTINUOUS
 62
    7
 10
72.171463500000016
 20
94.368728500000003
 11
76.496017499999994
 21
92.927200499999998
  0
LINE
  8
_0-0_0
  6
CONTINUOUS
 62
    7
 10
171.35391250000001
 20
108.4245755
 11
169.0445095
 21
104.4245755
  0
LINE
  8
_0-0_0
  6
CONTINUOUS
 62
    7
 10
160.56330850000001
 20
104.4245755
 11
169.0445095
 21
104.4245755
  0
LINE
  8
_0-0_0
  6
CONTINUOUS
 62
    7
 10
160.56330850000001
 20
104.4245755
 11
158.2539065
 21
108.4245755
  0
LINE
  8
_0-0_0
  6
CONTINUOUS
 62
    7
 10
158.2539065
 20
108.4245755
 11
160.56330850000001
 21
112.42456850000001
  0
LINE
  8
_0-0_0
  6
CONTINUOUS
 62
    7
 10
169.0445095
 20
112.42456850000001
 11
160.56330850000001
 21
112.42456850000001
  0
LINE
  8
_0-0_0
  6
CONTINUOUS
 62
    7
 10
169.0445095
 20
112.42456850000001
 11
171.35391250000001
 21
108.4245755
  0
LINE
  8
_0-0_0
  6
CONTINUOUS
 62
    7
 10
104.56330850000001
 20
112.42456850000001
 11
102.25392150000002
 21
108.4245755
  0
LINE
  8
_0-0_0
  6
CONTINUOUS
 62
    7
 10
113.0445095
 20
112.42456850000001
 11
104.56330850000001
 21
112.42456850000001
  0
LINE
  8
_0-0_0
  6
CONTINUOUS
 62
    7
 10
115.35391250000001
 20
108.4245755
 11
113.0445095
 21
112.42456850000001
  0
LINE
  8
_0-0_0
  6
CONTINUOUS
 62
    7
 10
113.0445095
 20
104.4245755
 11
115.35391250000001
 21
108.4245755
  0
LINE
  8
_0-0_0
  6
CONTINUOUS
 62
    7
 10
104.56330850000001
 20
104.4245755
 11
113.0445095
 21
104.4245755
  0
LINE
  8
_0-0_0
  6
CONTINUOUS
 62
    7
 10
102.25392150000002
 20
108.4245755
 11
104.56330850000001
 21
104.4245755
  0
LINE
  8
_0-0_0
  6
CONTINUOUS
 62
    7
 10
76.053909500000003
 20
114.17456850000001
 11
76.496017499999994
 21
114.3219375
  0
LINE
  8
_0-0_0
  6
CONTINUOUS
 62
    7
 10
70.803924499999994
 20
109.6746065
 11
70.803924499999994
 21
108.5535885
  0
LINE
  8
_0-0_0
  6
CONTINUOUS
 62
    7
 10
70.803924499999994
 20
107.63226350000001
 11
70.803924499999994
 21
108.5535885
  0
LINE
  8
_0-0_0
  6
CONTINUOUS
 62
    7
 10
71.103912500000007
 20
105.83657050000001
 11
71.045120499999996
 21
106.08339650000001
  0
LINE
  8
_0-0_0
  6
CONTINUOUS
 62
    7
 10
71.045120499999996
 20
106.08339650000001
 11
70.995361500000001
 21
106.2757335
  0
LINE
  8
_0-0_0
  6
CONTINUOUS
 62
    7
 10
70.995361500000001
 20
106.2757335
 11
70.924224500000008
 21
106.5415345
  0
LINE
  8
_0-0_0
  6
CONTINUOUS
 62
    7
 10
70.924224500000008
 20
106.5415345
 11
70.891265500000003
 21
106.6682505
  0
LINE
  8
_0-0_0
  6
CONTINUOUS
 62
    7
 10
70.891265500000003
 20
106.6682505
 11
70.86599750000002
 21
106.77166750000001
  0
LINE
  8
_0-0_0
  6
CONTINUOUS
 62
    7
 10
70.86599750000002
 20
106.77166750000001
 11
70.84397850000002
 21
106.8716125
  0
LINE
  8
_0-0_0
  6
CONTINUOUS
 62
    7
 10
70.84397850000002
 20
106.8716125
 11
70.822601500000019
 21
106.9893185
  0
LINE
  8
_0-0_0
  6
CONTINUOUS
 62
    7
 10
70.822601500000019
 20
106.9893185
 11
70.814025500000014
 21
107.0514445
  0
LINE
  8
_0-0_0
  6
CONTINUOUS
 62
    7
 10
70.814025500000014
 20
107.0514445
 11
70.807952499999999
 21
107.1120525
  0
LINE
  8
_0-0_0
  6
CONTINUOUS
 62
    7
 10
70.807952499999999
 20
107.1120525
 11
70.804931500000009
 21
107.1612925
  0
LINE
  8
_0-0_0
  6
CONTINUOUS
 62
    7
 10
70.804931500000009
 20
107.1612925
 11
70.803924499999994
 21
107.20951050000001
  0
LINE
  8
_0-0_0
  6
CONTINUOUS
 62
    7
 10
71.103912500000007
 20
101.4125445
 11
71.187377499999997
 21
101.7912295
  0
LINE
  8
_0-0_0
  6
CONTINUOUS
 62
    7
 10
71.187377499999997
 20
101.7912295
 11
71.227478500000018
 21
101.98275750000001
  0
LINE
  8
_0-0_0
  6
CONTINUOUS
 62
    7
 10
71.227478500000018
 20
101.98275750000001
 11
71.283554500000008
 21
102.2727735
  0
LINE
  8
_0-0_0
  6
CONTINUOUS
 62
    7
 10
71.283554500000008
 20
102.2727735
 11
71.321151500000013
 21
102.49237050000001
  0
LINE
  8
_0-0_0
  6
CONTINUOUS
 62
    7
 10
71.321151500000013
 20
102.49237050000001
 11
71.353790500000002
 21
102.7136225
  0
LINE
  8
_0-0_0
  6
CONTINUOUS
 62
    7
 10
71.353790500000002
 20
102.7136225
 11
71.380950500000012
 21
102.9404145
  0
LINE
  8
_0-0_0
  6
CONTINUOUS
 62
    7
 10
71.380950500000012
 20
102.9404145
 11
71.401031500000016
 21
103.16780850000001
  0
LINE
  8
_0-0_0
  6
CONTINUOUS
 62
    7
 10
71.401031500000016
 20
103.16780850000001
 11
71.408172500000006
 21
103.28153950000001
  0
LINE
  8
_0-0_0
  6
CONTINUOUS
 62
    7
 10
71.408172500000006
 20
103.28153950000001
 11
71.413330500000001
 21
103.3952175
  0
LINE
  8
_0-0_0
  6
CONTINUOUS
 62
    7
 10
71.413330500000001
 20
103.3952175
 11
71.417053500000009
 21
103.54665350000001
  0
LINE
  8
_0-0_0
  6
CONTINUOUS
 62
    7
 10
71.417053500000009
 20
103.54665350000001
 11
71.417114499999997
 21
103.6979145
  0
LINE
  8
_0-0_0
  6
CONTINUOUS
 62
    7
 10
71.417114499999997
 20
103.6979145
 11
71.413528500000012
 21
103.8489685
  0
LINE
  8
_0-0_0
  6
CONTINUOUS
 62
    7
 10
71.413528500000012
 20
103.8489685
 11
71.404022499999996
 21
104.0375135
  0
LINE
  8
_0-0_0
  6
CONTINUOUS
 62
    7
 10
71.404022499999996
 20
104.0375135
 11
71.389160500000003
 21
104.2257615
  0
LINE
  8
_0-0_0
  6
CONTINUOUS
 62
    7
 10
71.389160500000003
 20
104.2257615
 11
71.36923250000001
 21
104.4137035
  0
LINE
  8
_0-0_0
  6
CONTINUOUS
 62
    7
 10
71.36923250000001
 20
104.4137035
 11
71.352844500000003
 21
104.5425795
  0
LINE
  8
_0-0_0
  6
CONTINUOUS
 62
    7
 10
71.352844500000003
 20
104.5425795
 11
71.334442499999994
 21
104.6712345
  0
LINE
  8
_0-0_0
  6
CONTINUOUS
 62
    7
 10
71.334442499999994
 20
104.6712345
 11
71.310272499999996
 21
104.8231655
  0
LINE
  8
_0-0_0
  6
CONTINUOUS
 62
    7
 10
71.310272499999996
 20
104.8231655
 11
71.283874499999996
 21
104.9745025
  0
LINE
  8
_0-0_0
  6
CONTINUOUS
 62
    7
 10
71.283874499999996
 20
104.9745025
 11
71.227722499999999
 21
105.26512150000001
  0
LINE
  8
_0-0_0
  6
CONTINUOUS
 62
    7
 10
71.227722499999999
 20
105.26512150000001
 11
71.187561500000015
 21
105.4570765
  0
LINE
  8
_0-0_0
  6
CONTINUOUS
 62
    7
 10
71.187561500000015
 20
105.4570765
 11
71.103912500000007
 21
105.83657050000001
  0
LINE
  8
_0-0_0
  6
CONTINUOUS
 62
    7
 10
71.103912500000007
 20
101.4125445
 11
71.045105500000005
 21
101.16570250000001
  0
LINE
  8
_0-0_0
  6
CONTINUOUS
 62
    7
 10
71.045105500000005
 20
101.16570250000001
 11
70.995361500000001
 21
100.97337350000001
  0
LINE
  8
_0-0_0
  6
CONTINUOUS
 62
    7
 10
70.995361500000001
 20
100.97337350000001
 11
70.924224500000008
 21
100.7076265
  0
LINE
  8
_0-0_0
  6
CONTINUOUS
 62
    7
 10
70.924224500000008
 20
100.7076265
 11
70.891265500000003
 21
100.5809325
  0
LINE
  8
_0-0_0
  6
CONTINUOUS
 62
    7
 10
70.891265500000003
 20
100.5809325
 11
70.866012500000011
 21
100.47749350000001
  0
LINE
  8
_0-0_0
  6
CONTINUOUS
 62
    7
 10
70.866012500000011
 20
100.47749350000001
 11
70.84397850000002
 21
100.3775175
  0
LINE
  8
_0-0_0
  6
CONTINUOUS
 62
    7
 10
70.84397850000002
 20
100.3775175
 11
70.822601500000019
 21
100.25981850000001
  0
LINE
  8
_0-0_0
  6
CONTINUOUS
 62
    7
 10
70.822601500000019
 20
100.25981850000001
 11
70.814025500000014
 21
100.1976925
  0
LINE
  8
_0-0_0
  6
CONTINUOUS
 62
    7
 10
70.814025500000014
 20
100.1976925
 11
70.807952499999999
 21
100.1370845
  0
LINE
  8
_0-0_0
  6
CONTINUOUS
 62
    7
 10
70.807952499999999
 20
100.1370845
 11
70.804931500000009
 21
100.0878445
  0
LINE
  8
_0-0_0
  6
CONTINUOUS
 62
    7
 10
70.804931500000009
 20
100.0878445
 11
70.803924499999994
 21
100.0396265
  0
LINE
  8
_0-0_0
  6
CONTINUOUS
 62
    7
 10
70.803924499999994
 20
96.266090500000004
 11
70.803924499999994
 21
99.616882500000003
  0
ARC
  8
_0-0_0
  6
CONTINUOUS
 62
    7
 10
72.803924499999994
 20
96.266090500000004
 40
2
 50
180.00000900000003
 51
251.56498900000003
  0
LINE
  8
_0-0_0
  6
CONTINUOUS
 62
    7
 10
175.2539065
 20
115.1245725
 11
175.90391550000001
 21
115.1245725
  0
ARC
  8
_0-0_0
  6
CONTINUOUS
 62
    7
 10
175.2539065
 20
114.8745725
 40
0.25
 50
90.000003000000007
 51
180.00000900000001
  0
LINE
  8
_0-0_0
  6
CONTINUOUS
 62
    7
 10
175.0039065
 20
114.8745725
 11
175.0039065
 21
114.2245715
  0
LINE
  8
_0-0_0
  6
CONTINUOUS
 62
    7
 10
174.60391250000001
 20
114.2245715
 11
175.0039065
 21
114.2245715
  0
LINE
  8
_0-0_0
  6
CONTINUOUS
 62
    7
 10
174.60391250000001
 20
114.2245715
 11
174.60391250000001
 21
114.8745725
  0
ARC
  8
_0-0_0
  6
CONTINUOUS
 62
    7
 10
174.35391250000001
 20
114.8745725
 40
0.25
 50
0
 51
90.000003000000007
  0
LINE
  8
_0-0_0
  6
CONTINUOUS
 62
    7
 10
173.70391850000001
 20
115.1245725
 11
174.35391250000001
 21
115.1245725
  0
LINE
  8
_0-0_0
  6
CONTINUOUS
 62
    7
 10
173.70391850000001
 20
115.1245725
 11
173.70391850000001
 21
115.52456650000001
  0
LINE
  8
_0-0_0
  6
CONTINUOUS
 62
    7
 10
174.35391250000001
 20
115.52456650000001
 11
173.70391850000001
 21
115.52456650000001
  0
ARC
  8
_0-0_0
  6
CONTINUOUS
 62
    7
 10
174.35391250000001
 20
115.77456650000001
 40
0.25
 50
269.99999700000001
 51
0
  0
LINE
  8
_0-0_0
  6
CONTINUOUS
 62
    7
 10
174.60391250000001
 20
115.77456650000001
 11
174.60391250000001
 21
116.42456850000001
  0
LINE
  8
_0-0_0
  6
CONTINUOUS
 62
    7
 10
175.0039065
 20
116.42456850000001
 11
174.60391250000001
 21
116.42456850000001
  0
LINE
  8
_0-0_0
  6
CONTINUOUS
 62
    7
 10
175.0039065
 20
116.42456850000001
 11
175.0039065
 21
115.77456650000001
  0
ARC
  8
_0-0_0
  6
CONTINUOUS
 62
    7
 10
175.2539065
 20
115.77456650000001
 40
0.25
 50
180.00000900000003
 51
269.99999700000001
  0
LINE
  8
_0-0_0
  6
CONTINUOUS
 62
    7
 10
175.90391550000001
 20
115.52456650000001
 11
175.2539065
 21
115.52456650000001
  0
LINE
  8
_0-0_0
  6
CONTINUOUS
 62
    7
 10
175.90391550000001
 20
115.52456650000001
 11
175.90391550000001
 21
115.1245725
  0
LINE
  8
_0-0_0
  6
CONTINUOUS
 62
    7
 10
96.253921500000018
 20
115.1245725
 11
96.903915500000011
 21
115.1245725
  0
ARC
  8
_0-0_0
  6
CONTINUOUS
 62
    7
 10
96.253921500000018
 20
114.8745725
 40
0.25
 50
90.000003000000007
 51
180.00000900000001
  0
LINE
  8
_0-0_0
  6
CONTINUOUS
 62
    7
 10
96.003921500000018
 20
114.8745725
 11
96.003921500000018
 21
114.2245715
  0
LINE
  8
_0-0_0
  6
CONTINUOUS
 62
    7
 10
95.603912500000007
 20
114.2245715
 11
96.003921500000018
 21
114.2245715
  0
LINE
  8
_0-0_0
  6
CONTINUOUS
 62
    7
 10
95.603912500000007
 20
114.2245715
 11
95.603912500000007
 21
114.8745725
  0
ARC
  8
_0-0_0
  6
CONTINUOUS
 62
    7
 10
95.353912500000007
 20
114.8745725
 40
0.25
 50
0
 51
90.000003000000007
  0
LINE
  8
_0-0_0
  6
CONTINUOUS
 62
    7
 10
94.703918500000015
 20
115.1245725
 11
95.353912500000007
 21
115.1245725
  0
LINE
  8
_0-0_0
  6
CONTINUOUS
 62
    7
 10
94.703918500000015
 20
115.1245725
 11
94.703918500000015
 21
115.52456650000001
  0
LINE
  8
_0-0_0
  6
CONTINUOUS
 62
    7
 10
95.353912500000007
 20
115.52456650000001
 11
94.703918500000015
 21
115.52456650000001
  0
ARC
  8
_0-0_0
  6
CONTINUOUS
 62
    7
 10
95.353912500000007
 20
115.77456650000001
 40
0.25
 50
269.99999700000001
 51
0
  0
LINE
  8
_0-0_0
  6
CONTINUOUS
 62
    7
 10
95.603912500000007
 20
115.77456650000001
 11
95.603912500000007
 21
116.42456850000001
  0
LINE
  8
_0-0_0
  6
CONTINUOUS
 62
    7
 10
96.003921500000018
 20
116.42456850000001
 11
95.603912500000007
 21
116.42456850000001
  0
LINE
  8
_0-0_0
  6
CONTINUOUS
 62
    7
 10
96.003921500000018
 20
116.42456850000001
 11
96.003921500000018
 21
115.77456650000001
  0
ARC
  8
_0-0_0
  6
CONTINUOUS
 62
    7
 10
96.253921500000018
 20
115.77456650000001
 40
0.25
 50
180.00000900000003
 51
269.99999700000001
  0
LINE
  8
_0-0_0
  6
CONTINUOUS
 62
    7
 10
96.903915500000011
 20
115.52456650000001
 11
96.253921500000018
 21
115.52456650000001
  0
LINE
  8
_0-0_0
  6
CONTINUOUS
 62
    7
 10
96.903915500000011
 20
115.52456650000001
 11
96.903915500000011
 21
115.1245725
  0
LINE
  8
_0-0_0
  6
CONTINUOUS
 62
    7
 10
55.8039165
 20
113.1500095
 11
55.8039165
 21
113.0032805
  0
LINE
  8
_0-0_0
  6
CONTINUOUS
 62
    7
 10
55.8039165
 20
113.3405455
 11
55.8039165
 21
113.1500095
  0
LINE
  8
_0-0_0
  6
CONTINUOUS
 62
    7
 10
55.8039165
 20
113.5155635
 11
55.8039165
 21
113.3405455
  0
LINE
  8
_0-0_0
  6
CONTINUOUS
 62
    7
 10
55.8039165
 20
113.6731485
 11
55.8039165
 21
113.5155635
  0
LINE
  8
_0-0_0
  6
CONTINUOUS
 62
    7
 10
55.8039165
 20
113.81158450000001
 11
55.8039165
 21
113.6731485
  0
LINE
  8
_0-0_0
  6
CONTINUOUS
 62
    7
 10
55.8039165
 20
113.92933650000001
 11
55.8039165
 21
113.81158450000001
  0
LINE
  8
_0-0_0
  6
CONTINUOUS
 62
    7
 10
55.8039165
 20
114.1745755
 11
55.8039165
 21
113.92933650000001
  0
LINE
  8
_0-0_0
  6
CONTINUOUS
 62
    7
 10
55.8039165
 20
114.09790050000001
 11
55.8039165
 21
114.0251315
  0
LINE
  8
_0-0_0
  6
CONTINUOUS
 62
    7
 10
55.8039165
 20
114.1468655
 11
55.8039165
 21
114.09790050000001
  0
LINE
  8
_0-0_0
  6
CONTINUOUS
 62
    7
 10
55.8039165
 20
114.1714855
 11
55.8039165
 21
114.1468655
  0
LINE
  8
_0-0_0
  6
CONTINUOUS
 62
    7
 10
55.8039165
 20
114.1745755
 11
55.8039165
 21
114.1714855
  0
LINE
  8
_0-0_0
  6
CONTINUOUS
 62
    7
 10
55.8039165
 20
109.67765750000001
 11
55.8039165
 21
109.6745755
  0
LINE
  8
_0-0_0
  6
CONTINUOUS
 62
    7
 10
55.8039165
 20
109.7022705
 11
55.8039165
 21
109.67765750000001
  0
LINE
  8
_0-0_0
  6
CONTINUOUS
 62
    7
 10
55.8039165
 20
109.75123550000001
 11
55.8039165
 21
109.6745755
  0
LINE
  8
_0-0_0
  6
CONTINUOUS
 62
    7
 10
55.8039165
 20
109.82401250000001
 11
55.8039165
 21
109.75123550000001
  0
LINE
  8
_0-0_0
  6
CONTINUOUS
 62
    7
 10
55.8039165
 20
109.9198075
 11
55.8039165
 21
109.82401250000001
  0
LINE
  8
_0-0_0
  6
CONTINUOUS
 62
    7
 10
55.8039165
 20
109.9500125
 11
55.8039165
 21
109.9198075
  0
LINE
  8
_0-0_0
  6
CONTINUOUS
 62
    7
 10
55.8039165
 20
110.0375595
 11
55.8039165
 21
109.9500125
  0
LINE
  8
_0-0_0
  6
CONTINUOUS
 62
    7
 10
55.8039165
 20
110.1759945
 11
55.8039165
 21
110.0375595
  0
LINE
  8
_0-0_0
  6
CONTINUOUS
 62
    7
 10
55.8039165
 20
110.3335795
 11
55.8039165
 21
110.1759945
  0
LINE
  8
_0-0_0
  6
CONTINUOUS
 62
    7
 10
55.8039165
 20
110.50859850000001
 11
55.8039165
 21
110.3335795
  0
LINE
  8
_0-0_0
  6
CONTINUOUS
 62
    7
 10
55.8039165
 20
110.6991345
 11
55.8039165
 21
110.50859850000001
  0
LINE
  8
_0-0_0
  6
CONTINUOUS
 62
    7
 10
55.8039165
 20
110.9030915
 11
55.8039165
 21
110.6991345
  0
LINE
  8
_0-0_0
  6
CONTINUOUS
 62
    7
 10
55.8039165
 20
111.1182405
 11
55.8039165
 21
110.9030915
  0
LINE
  8
_0-0_0
  6
CONTINUOUS
 62
    7
 10
55.8039165
 20
111.3422245
 11
55.8039165
 21
111.1182405
  0
LINE
  8
_0-0_0
  6
CONTINUOUS
 62
    7
 10
55.8039165
 20
111.5725935
 11
55.8039165
 21
111.3422245
  0
LINE
  8
_0-0_0
  6
CONTINUOUS
 62
    7
 10
55.8039165
 20
111.8068155
 11
55.8039165
 21
111.5725935
  0
LINE
  8
_0-0_0
  6
CONTINUOUS
 62
    7
 10
55.8039165
 20
112.0423275
 11
55.8039165
 21
111.8068155
  0
LINE
  8
_0-0_0
  6
CONTINUOUS
 62
    7
 10
55.8039165
 20
112.2765505
 11
55.8039165
 21
112.0423275
  0
LINE
  8
_0-0_0
  6
CONTINUOUS
 62
    7
 10
55.8039165
 20
112.5069125
 11
55.8039165
 21
112.2765505
  0
LINE
  8
_0-0_0
  6
CONTINUOUS
 62
    7
 10
55.8039165
 20
112.7308955
 11
55.8039165
 21
112.5069125
  0
LINE
  8
_0-0_0
  6
CONTINUOUS
 62
    7
 10
55.8039165
 20
112.94605250000001
 11
55.8039165
 21
112.7308955
  0
LINE
  8
_0-0_0
  6
CONTINUOUS
 62
    7
 10
55.8039165
 20
113.0032805
 11
55.8039165
 21
112.94605250000001
  0
LINE
  8
_0-0_0
  6
CONTINUOUS
 62
    7
 10
70.803924499999994
 20
105.1866225
 11
70.803924499999994
 21
106.2322695
  0
LINE
  8
_0-0_0
  6
CONTINUOUS
 62
    7
 10
70.803924499999994
 20
107.51687650000001
 11
70.803924499999994
 21
106.2322695
  0
LINE
  8
_0-0_0
  6
CONTINUOUS
 62
    7
 10
70.803924499999994
 20
107.63226350000001
 11
70.803924499999994
 21
107.51687650000001
  0
LINE
  8
_0-0_0
  6
CONTINUOUS
 62
    7
 10
70.803924499999994
 20
105.1866225
 11
70.803924499999994
 21
102.0625225
  0
LINE
  8
_0-0_0
  6
CONTINUOUS
 62
    7
 10
70.803924499999994
 20
99.616882500000003
 11
70.803924499999994
 21
99.732269500000001
  0
LINE
  8
_0-0_0
  6
CONTINUOUS
 62
    7
 10
70.803924499999994
 20
101.01687650000001
 11
70.803924499999994
 21
99.732269500000001
  0
LINE
  8
_0-0_0
  6
CONTINUOUS
 62
    7
 10
70.803924499999994
 20
101.01687650000001
 11
70.803924499999994
 21
102.0625225
  0
LINE
  8
_0-0_0
  6
CONTINUOUS
 62
    7
 10
55.8039165
 20
96.550010499999999
 11
55.8039165
 21
96.403282500000003
  0
LINE
  8
_0-0_0
  6
CONTINUOUS
 62
    7
 10
55.8039165
 20
96.740539499999997
 11
55.8039165
 21
96.550010499999999
  0
LINE
  8
_0-0_0
  6
CONTINUOUS
 62
    7
 10
55.8039165
 20
96.915557500000006
 11
55.8039165
 21
96.740539499999997
  0
LINE
  8
_0-0_0
  6
CONTINUOUS
 62
    7
 10
55.8039165
 20
97.073150499999997
 11
55.8039165
 21
96.915557500000006
  0
LINE
  8
_0-0_0
  6
CONTINUOUS
 62
    7
 10
55.8039165
 20
97.211578500000002
 11
55.8039165
 21
97.073150499999997
  0
LINE
  8
_0-0_0
  6
CONTINUOUS
 62
    7
 10
55.8039165
 20
97.574569499999996
 11
55.8039165
 21
97.211578500000002
  0
LINE
  8
_0-0_0
  6
CONTINUOUS
 62
    7
 10
55.8039165
 20
97.425125500000007
 11
55.8039165
 21
97.329337500000008
  0
LINE
  8
_0-0_0
  6
CONTINUOUS
 62
    7
 10
55.8039165
 20
97.497901499999998
 11
55.8039165
 21
97.425125500000007
  0
LINE
  8
_0-0_0
  6
CONTINUOUS
 62
    7
 10
55.8039165
 20
97.546867500000005
 11
55.8039165
 21
97.497901499999998
  0
LINE
  8
_0-0_0
  6
CONTINUOUS
 62
    7
 10
55.8039165
 20
97.571487500000003
 11
55.8039165
 21
97.546867500000005
  0
LINE
  8
_0-0_0
  6
CONTINUOUS
 62
    7
 10
55.8039165
 20
97.574569499999996
 11
55.8039165
 21
97.571487500000003
  0
LINE
  8
_0-0_0
  6
CONTINUOUS
 62
    7
 10
55.8039165
 20
93.077651500000002
 11
55.8039165
 21
93.074569499999996
  0
LINE
  8
_0-0_0
  6
CONTINUOUS
 62
    7
 10
55.8039165
 20
93.102271500000001
 11
55.8039165
 21
93.077651500000002
  0
LINE
  8
_0-0_0
  6
CONTINUOUS
 62
    7
 10
55.8039165
 20
93.151237500000008
 11
55.8039165
 21
93.102271500000001
  0
LINE
  8
_0-0_0
  6
CONTINUOUS
 62
    7
 10
55.8039165
 20
93.224014499999996
 11
55.8039165
 21
93.151237500000008
  0
LINE
  8
_0-0_0
  6
CONTINUOUS
 62
    7
 10
55.8039165
 20
93.319801499999997
 11
55.8039165
 21
93.074569499999996
  0
LINE
  8
_0-0_0
  6
CONTINUOUS
 62
    7
 10
55.8039165
 20
93.350005500000009
 11
55.8039165
 21
93.319801499999997
  0
LINE
  8
_0-0_0
  6
CONTINUOUS
 62
    7
 10
55.8039165
 20
93.437560500000004
 11
55.8039165
 21
93.350005500000009
  0
LINE
  8
_0-0_0
  6
CONTINUOUS
 62
    7
 10
55.8039165
 20
93.575996500000002
 11
55.8039165
 21
93.437560500000004
  0
LINE
  8
_0-0_0
  6
CONTINUOUS
 62
    7
 10
55.8039165
 20
93.7335815
 11
55.8039165
 21
93.575996500000002
  0
LINE
  8
_0-0_0
  6
CONTINUOUS
 62
    7
 10
55.8039165
 20
93.908599500000008
 11
55.8039165
 21
93.7335815
  0
LINE
  8
_0-0_0
  6
CONTINUOUS
 62
    7
 10
55.8039165
 20
94.0991365
 11
55.8039165
 21
93.908599500000008
  0
LINE
  8
_0-0_0
  6
CONTINUOUS
 62
    7
 10
55.8039165
 20
94.303092500000005
 11
55.8039165
 21
94.0991365
  0
LINE
  8
_0-0_0
  6
CONTINUOUS
 62
    7
 10
55.8039165
 20
94.518241500000002
 11
55.8039165
 21
94.303092500000005
  0
LINE
  8
_0-0_0
  6
CONTINUOUS
 62
    7
 10
55.8039165
 20
94.742233499999998
 11
55.8039165
 21
94.518241500000002
  0
LINE
  8
_0-0_0
  6
CONTINUOUS
 62
    7
 10
55.8039165
 20
94.972595499999997
 11
55.8039165
 21
94.742233499999998
  0
LINE
  8
_0-0_0
  6
CONTINUOUS
 62
    7
 10
55.8039165
 20
95.2068175
 11
55.8039165
 21
94.972595499999997
  0
LINE
  8
_0-0_0
  6
CONTINUOUS
 62
    7
 10
55.8039165
 20
95.4423295
 11
55.8039165
 21
95.2068175
  0
LINE
  8
_0-0_0
  6
CONTINUOUS
 62
    7
 10
55.8039165
 20
95.676544500000006
 11
55.8039165
 21
95.4423295
  0
LINE
  8
_0-0_0
  6
CONTINUOUS
 62
    7
 10
55.8039165
 20
95.906913500000002
 11
55.8039165
 21
95.676544500000006
  0
LINE
  8
_0-0_0
  6
CONTINUOUS
 62
    7
 10
55.8039165
 20
96.130897500000003
 11
55.8039165
 21
95.906913500000002
  0
LINE
  8
_0-0_0
  6
CONTINUOUS
 62
    7
 10
55.8039165
 20
96.346053499999996
 11
55.8039165
 21
96.130897500000003
  0
LINE
  8
_0-0_0
  6
CONTINUOUS
 62
    7
 10
55.8039165
 20
96.403282500000003
 11
55.8039165
 21
96.346053499999996
  0
LINE
  8
_0-0_0
  6
CONTINUOUS
 62
    7
 10
166.8039095
 20
106.1745755
 11
162.8039095
 21
106.1745755
  0
ARC
  8
_0-0_0
  6
CONTINUOUS
 62
    7
 10
162.8039095
 20
108.4245755
 40
2.25
 50
90.000003000000007
 51
269.99999700000006
  0
LINE
  8
_0-0_0
  6
CONTINUOUS
 62
    7
 10
162.8039095
 20
110.6745755
 11
166.8039095
 21
110.6745755
  0
ARC
  8
_0-0_0
  6
CONTINUOUS
 62
    7
 10
166.8039095
 20
108.4245755
 40
2.25
 50
269.99999700000001
 51
90.000002999999992
  0
ARC
  8
_0-0_0
  6
CONTINUOUS
 62
    7
 10
106.8039095
 20
108.4245755
 40
2.25
 50
90.000003000000007
 51
269.99999700000006
  0
LINE
  8
_0-0_0
  6
CONTINUOUS
 62
    7
 10
106.8039095
 20
110.6745755
 11
110.8039095
 21
110.6745755
  0
ARC
  8
_0-0_0
  6
CONTINUOUS
 62
    7
 10
110.8039095
 20
108.4245755
 40
2.25
 50
269.99999700000001
 51
90.000002999999992
  0
LINE
  8
_0-0_0
  6
CONTINUOUS
 62
    7
 10
110.8039095
 20
106.1745755
 11
106.8039095
 21
106.1745755
  0
LINE
  8
_0-0_0
  6
CONTINUOUS
 62
    7
 10
55.8039165
 20
113.1500095
 11
55.5539165
 21
113.1745755
  0
LINE
  8
_0-0_0
  6
CONTINUOUS
 62
    7
 10
55.8039165
 20
112.94605250000001
 11
55.5539165
 21
113.1745755
  0
LINE
  8
_0-0_0
  6
CONTINUOUS
 62
    7
 10
55.8039165
 20
113.3405455
 11
55.5539165
 21
113.3940355
  0
LINE
  8
_0-0_0
  6
CONTINUOUS
 62
    7
 10
55.8039165
 20
113.1500095
 11
55.5539165
 21
113.3940355
  0
LINE
  8
_0-0_0
  6
CONTINUOUS
 62
    7
 10
55.8039165
 20
113.5155635
 11
55.5539165
 21
113.5973965
  0
LINE
  8
_0-0_0
  6
CONTINUOUS
 62
    7
 10
55.8039165
 20
113.3405455
 11
55.5539165
 21
113.5973965
  0
LINE
  8
_0-0_0
  6
CONTINUOUS
 62
    7
 10
55.8039165
 20
113.6731485
 11
55.5539165
 21
113.7824325
  0
LINE
  8
_0-0_0
  6
CONTINUOUS
 62
    7
 10
55.8039165
 20
113.5155635
 11
55.5539165
 21
113.7824325
  0
LINE
  8
_0-0_0
  6
CONTINUOUS
 62
    7
 10
55.8039165
 20
113.81158450000001
 11
55.5539165
 21
113.9471125
  0
LINE
  8
_0-0_0
  6
CONTINUOUS
 62
    7
 10
55.8039165
 20
113.6731485
 11
55.5539165
 21
113.9471125
  0
LINE
  8
_0-0_0
  6
CONTINUOUS
 62
    7
 10
55.8039165
 20
113.92933650000001
 11
55.5539165
 21
114.08963750000001
  0
LINE
  8
_0-0_0
  6
CONTINUOUS
 62
    7
 10
55.8039165
 20
113.81158450000001
 11
55.5539165
 21
114.08963750000001
  0
LINE
  8
_0-0_0
  6
CONTINUOUS
 62
    7
 10
55.8039165
 20
114.0251315
 11
55.5539165
 21
114.2084345
  0
LINE
  8
_0-0_0
  6
CONTINUOUS
 62
    7
 10
55.8039165
 20
113.92933650000001
 11
55.5539165
 21
114.2084345
  0
LINE
  8
_0-0_0
  6
CONTINUOUS
 62
    7
 10
55.8039165
 20
114.09790050000001
 11
55.5539165
 21
114.3022155
  0
LINE
  8
_0-0_0
  6
CONTINUOUS
 62
    7
 10
55.8039165
 20
114.0251315
 11
55.5539165
 21
114.3022155
  0
LINE
  8
_0-0_0
  6
CONTINUOUS
 62
    7
 10
55.8039165
 20
114.1468655
 11
55.5539165
 21
114.3699415
  0
LINE
  8
_0-0_0
  6
CONTINUOUS
 62
    7
 10
55.8039165
 20
114.09790050000001
 11
55.5539165
 21
114.3699415
  0
LINE
  8
_0-0_0
  6
CONTINUOUS
 62
    7
 10
55.8039165
 20
114.1714855
 11
55.5539165
 21
114.41087350000001
  0
LINE
  8
_0-0_0
  6
CONTINUOUS
 62
    7
 10
55.8039165
 20
114.1468655
 11
55.5539165
 21
114.41087350000001
  0
LINE
  8
_0-0_0
  6
CONTINUOUS
 62
    7
 10
55.8039165
 20
114.1714855
 11
55.5539165
 21
114.4245755
  0
LINE
  8
_0-0_0
  6
CONTINUOUS
 62
    7
 10
55.8039165
 20
109.67765750000001
 11
55.5539165
 21
109.4245755
  0
LINE
  8
_0-0_0
  6
CONTINUOUS
 62
    7
 10
55.8039165
 20
109.7022705
 11
55.5539165
 21
109.43826250000001
  0
LINE
  8
_0-0_0
  6
CONTINUOUS
 62
    7
 10
55.8039165
 20
109.67765750000001
 11
55.5539165
 21
109.43826250000001
  0
LINE
  8
_0-0_0
  6
CONTINUOUS
 62
    7
 10
55.8039165
 20
109.75123550000001
 11
55.5539165
 21
109.4792025
  0
LINE
  8
_0-0_0
  6
CONTINUOUS
 62
    7
 10
55.8039165
 20
109.7022705
 11
55.5539165
 21
109.4792025
  0
LINE
  8
_0-0_0
  6
CONTINUOUS
 62
    7
 10
55.8039165
 20
109.82401250000001
 11
55.5539165
 21
109.54692850000001
  0
LINE
  8
_0-0_0
  6
CONTINUOUS
 62
    7
 10
55.8039165
 20
109.75123550000001
 11
55.5539165
 21
109.54692850000001
  0
LINE
  8
_0-0_0
  6
CONTINUOUS
 62
    7
 10
55.8039165
 20
109.9198075
 11
55.5539165
 21
109.6407085
  0
LINE
  8
_0-0_0
  6
CONTINUOUS
 62
    7
 10
55.8039165
 20
109.82401250000001
 11
55.5539165
 21
109.6407085
  0
LINE
  8
_0-0_0
  6
CONTINUOUS
 62
    7
 10
55.8039165
 20
109.9198075
 11
55.673950500000004
 21
109.8359525
  0
LINE
  8
_0-0_0
  6
CONTINUOUS
 62
    7
 10
55.8039165
 20
110.0375595
 11
55.5539165
 21
109.7595065
  0
LINE
  8
_0-0_0
  6
CONTINUOUS
 62
    7
 10
55.673950500000004
 20
109.8359525
 11
55.5539165
 21
109.7595065
  0
LINE
  8
_0-0_0
  6
CONTINUOUS
 62
    7
 10
55.8039165
 20
110.1759945
 11
55.5539165
 21
109.90203050000001
  0
LINE
  8
_0-0_0
  6
CONTINUOUS
 62
    7
 10
55.8039165
 20
110.0375595
 11
55.5539165
 21
109.90203050000001
  0
LINE
  8
_0-0_0
  6
CONTINUOUS
 62
    7
 10
55.8039165
 20
110.3335795
 11
55.5539165
 21
110.0667115
  0
LINE
  8
_0-0_0
  6
CONTINUOUS
 62
    7
 10
55.8039165
 20
110.1759945
 11
55.5539165
 21
110.0667115
  0
LINE
  8
_0-0_0
  6
CONTINUOUS
 62
    7
 10
55.8039165
 20
110.50859850000001
 11
55.5539165
 21
110.25174750000001
  0
LINE
  8
_0-0_0
  6
CONTINUOUS
 62
    7
 10
55.8039165
 20
110.3335795
 11
55.5539165
 21
110.25174750000001
  0
LINE
  8
_0-0_0
  6
CONTINUOUS
 62
    7
 10
55.8039165
 20
110.6991345
 11
55.5539165
 21
110.45510850000001
  0
LINE
  8
_0-0_0
  6
CONTINUOUS
 62
    7
 10
55.8039165
 20
110.50859850000001
 11
55.5539165
 21
110.45510850000001
  0
LINE
  8
_0-0_0
  6
CONTINUOUS
 62
    7
 10
55.8039165
 20
110.9030915
 11
55.5539165
 21
110.6745755
  0
LINE
  8
_0-0_0
  6
CONTINUOUS
 62
    7
 10
55.8039165
 20
110.6991345
 11
55.5539165
 21
110.6745755
  0
LINE
  8
_0-0_0
  6
CONTINUOUS
 62
    7
 10
55.8039165
 20
111.1182405
 11
55.5539165
 21
110.9077295
  0
LINE
  8
_0-0_0
  6
CONTINUOUS
 62
    7
 10
55.8039165
 20
110.9030915
 11
55.5539165
 21
110.9077295
  0
LINE
  8
_0-0_0
  6
CONTINUOUS
 62
    7
 10
55.8039165
 20
111.3422245
 11
55.5539165
 21
111.15203050000001
  0
LINE
  8
_0-0_0
  6
CONTINUOUS
 62
    7
 10
55.8039165
 20
111.1182405
 11
55.5539165
 21
111.15203050000001
  0
LINE
  8
_0-0_0
  6
CONTINUOUS
 62
    7
 10
55.8039165
 20
111.5725935
 11
55.5539165
 21
111.4047925
  0
LINE
  8
_0-0_0
  6
CONTINUOUS
 62
    7
 10
55.8039165
 20
111.3422245
 11
55.5539165
 21
111.4047925
  0
LINE
  8
_0-0_0
  6
CONTINUOUS
 62
    7
 10
55.8039165
 20
111.8068155
 11
55.5539165
 21
111.6632535
  0
LINE
  8
_0-0_0
  6
CONTINUOUS
 62
    7
 10
55.8039165
 20
111.5725935
 11
55.5539165
 21
111.6632535
  0
LINE
  8
_0-0_0
  6
CONTINUOUS
 62
    7
 10
55.8039165
 20
112.0423275
 11
55.5539165
 21
111.9245755
  0
LINE
  8
_0-0_0
  6
CONTINUOUS
 62
    7
 10
55.8039165
 20
111.8068155
 11
55.5539165
 21
111.9245755
  0
LINE
  8
_0-0_0
  6
CONTINUOUS
 62
    7
 10
55.8039165
 20
112.2765505
 11
55.5539165
 21
112.1858905
  0
LINE
  8
_0-0_0
  6
CONTINUOUS
 62
    7
 10
55.8039165
 20
112.0423275
 11
55.5539165
 21
112.1858905
  0
LINE
  8
_0-0_0
  6
CONTINUOUS
 62
    7
 10
55.8039165
 20
112.5069125
 11
55.5539165
 21
112.4443515
  0
LINE
  8
_0-0_0
  6
CONTINUOUS
 62
    7
 10
55.8039165
 20
112.2765505
 11
55.5539165
 21
112.4443515
  0
LINE
  8
_0-0_0
  6
CONTINUOUS
 62
    7
 10
55.8039165
 20
112.7308955
 11
55.5539165
 21
112.6971125
  0
LINE
  8
_0-0_0
  6
CONTINUOUS
 62
    7
 10
55.8039165
 20
112.5069125
 11
55.5539165
 21
112.6971125
  0
LINE
  8
_0-0_0
  6
CONTINUOUS
 62
    7
 10
55.8039165
 20
112.94605250000001
 11
55.5539165
 21
112.9414135
  0
LINE
  8
_0-0_0
  6
CONTINUOUS
 62
    7
 10
55.8039165
 20
112.7308955
 11
55.5539165
 21
112.9414135
  0
LINE
  8
_0-0_0
  6
CONTINUOUS
 62
    7
 10
70.803924499999994
 20
107.51687650000001
 11
61.096092500000012
 21
107.51687650000001
  0
LINE
  8
_0-0_0
  6
CONTINUOUS
 62
    7
 10
61.096092500000012
 20
107.51687650000001
 11
61.041610500000004
 21
107.5868145
  0
LINE
  8
_0-0_0
  6
CONTINUOUS
 62
    7
 10
61.041610500000004
 20
107.5868145
 11
60.990509500000002
 21
107.65563950000001
  0
LINE
  8
_0-0_0
  6
CONTINUOUS
 62
    7
 10
60.990509500000002
 20
107.65563950000001
 11
60.94287150000001
 21
107.7231445
  0
LINE
  8
_0-0_0
  6
CONTINUOUS
 62
    7
 10
60.94287150000001
 20
107.7231445
 11
60.898368500000004
 21
107.78969550000001
  0
LINE
  8
_0-0_0
  6
CONTINUOUS
 62
    7
 10
60.898368500000004
 20
107.78969550000001
 11
60.843643500000013
 21
107.8772275
  0
LINE
  8
_0-0_0
  6
CONTINUOUS
 62
    7
 10
60.843643500000013
 20
107.8772275
 11
60.794143500000004
 21
107.9633335
  0
LINE
  8
_0-0_0
  6
CONTINUOUS
 62
    7
 10
60.794143500000004
 20
107.9633335
 11
60.749671500000005
 21
108.0481645
  0
LINE
  8
_0-0_0
  6
CONTINUOUS
 62
    7
 10
60.749671500000005
 20
108.0481645
 11
60.702705500000008
 21
108.1484835
  0
LINE
  8
_0-0_0
  6
CONTINUOUS
 62
    7
 10
60.702705500000008
 20
108.1484835
 11
60.662498500000012
 21
108.2474055
  0
LINE
  8
_0-0_0
  6
CONTINUOUS
 62
    7
 10
60.662498500000012
 20
108.2474055
 11
60.628830500000007
 21
108.3451685
  0
LINE
  8
_0-0_0
  6
CONTINUOUS
 62
    7
 10
60.628830500000007
 20
108.3451685
 11
60.601547500000009
 21
108.4419705
  0
LINE
  8
_0-0_0
  6
CONTINUOUS
 62
    7
 10
60.601547500000009
 20
108.4419705
 11
60.580497500000007
 21
108.53802450000001
  0
LINE
  8
_0-0_0
  6
CONTINUOUS
 62
    7
 10
60.580497500000007
 20
108.53802450000001
 11
60.56456750000001
 21
108.64187650000001
  0
LINE
  8
_0-0_0
  6
CONTINUOUS
 62
    7
 10
60.56456750000001
 20
108.64187650000001
 11
60.555809500000009
 21
108.7453075
  0
LINE
  8
_0-0_0
  6
CONTINUOUS
 62
    7
 10
60.555809500000009
 20
108.7453075
 11
60.554176500000011
 21
108.8485415
  0
LINE
  8
_0-0_0
  6
CONTINUOUS
 62
    7
 10
60.554176500000011
 20
108.8485415
 11
60.559646499999999
 21
108.9518355
  0
LINE
  8
_0-0_0
  6
CONTINUOUS
 62
    7
 10
60.559646499999999
 20
108.9518355
 11
60.57225050000001
 21
109.05542750000001
  0
LINE
  8
_0-0_0
  6
CONTINUOUS
 62
    7
 10
60.57225050000001
 20
109.05542750000001
 11
60.592071500000003
 21
109.1595765
  0
LINE
  8
_0-0_0
  6
CONTINUOUS
 62
    7
 10
60.592071500000003
 20
109.1595765
 11
60.619216500000007
 21
109.2645335
  0
LINE
  8
_0-0_0
  6
CONTINUOUS
 62
    7
 10
60.619216500000007
 20
109.2645335
 11
60.653862500000002
 21
109.37056750000001
  0
LINE
  8
_0-0_0
  6
CONTINUOUS
 62
    7
 10
60.653862500000002
 20
109.37056750000001
 11
60.696205500000005
 21
109.47794350000001
  0
LINE
  8
_0-0_0
  6
CONTINUOUS
 62
    7
 10
60.696205500000005
 20
109.47794350000001
 11
60.7465215
 21
109.5869445
  0
LINE
  8
_0-0_0
  6
CONTINUOUS
 62
    7
 10
60.7465215
 20
109.5869445
 11
60.792221500000011
 21
109.6745985
  0
LINE
  8
_0-0_0
  6
CONTINUOUS
 62
    7
 10
70.803924499999994
 20
106.2322695
 11
61.096092500000012
 21
106.2322695
  0
LINE
  8
_0-0_0
  6
CONTINUOUS
 62
    7
 10
61.096092500000012
 20
106.2322695
 11
61.001754500000004
 21
105.9856415
  0
LINE
  8
_0-0_0
  6
CONTINUOUS
 62
    7
 10
61.001754500000004
 20
105.9856415
 11
60.917808500000007
 21
105.74567450000001
  0
LINE
  8
_0-0_0
  6
CONTINUOUS
 62
    7
 10
60.917808500000007
 20
105.74567450000001
 11
60.843643500000013
 21
105.51155850000001
  0
LINE
  8
_0-0_0
  6
CONTINUOUS
 62
    7
 10
60.843643500000013
 20
105.51155850000001
 11
60.778770500000007
 21
105.2825235
  0
LINE
  8
_0-0_0
  6
CONTINUOUS
 62
    7
 10
60.778770500000007
 20
105.2825235
 11
60.722732500000006
 21
105.05785350000001
  0
LINE
  8
_0-0_0
  6
CONTINUOUS
 62
    7
 10
60.722732500000006
 20
105.05785350000001
 11
60.675163500000011
 21
104.83686850000001
  0
LINE
  8
_0-0_0
  6
CONTINUOUS
 62
    7
 10
60.675163500000011
 20
104.83686850000001
 11
60.635757500000011
 21
104.6189495
  0
LINE
  8
_0-0_0
  6
CONTINUOUS
 62
    7
 10
60.635757500000011
 20
104.6189495
 11
60.604263500000002
 21
104.4035035
  0
LINE
  8
_0-0_0
  6
CONTINUOUS
 62
    7
 10
60.604263500000002
 20
104.4035035
 11
60.580497500000007
 21
104.1899715
  0
LINE
  8
_0-0_0
  6
CONTINUOUS
 62
    7
 10
60.580497500000007
 20
104.1899715
 11
60.56456750000001
 21
103.9822535
  0
LINE
  8
_0-0_0
  6
CONTINUOUS
 62
    7
 10
60.56456750000001
 20
103.9822535
 11
60.555809500000009
 21
103.77540550000001
  0
LINE
  8
_0-0_0
  6
CONTINUOUS
 62
    7
 10
60.555809500000009
 20
103.77540550000001
 11
60.554176500000011
 21
103.56893150000001
  0
LINE
  8
_0-0_0
  6
CONTINUOUS
 62
    7
 10
60.554176500000011
 20
103.56893150000001
 11
60.559646499999999
 21
103.36235050000001
  0
LINE
  8
_0-0_0
  6
CONTINUOUS
 62
    7
 10
60.559646499999999
 20
103.36235050000001
 11
60.57225050000001
 21
103.15516650000001
  0
LINE
  8
_0-0_0
  6
CONTINUOUS
 62
    7
 10
60.57225050000001
 20
103.15516650000001
 11
60.592071500000003
 21
102.94686850000001
  0
LINE
  8
_0-0_0
  6
CONTINUOUS
 62
    7
 10
60.592071500000003
 20
102.94686850000001
 11
60.619216500000007
 21
102.7369535
  0
LINE
  8
_0-0_0
  6
CONTINUOUS
 62
    7
 10
60.619216500000007
 20
102.7369535
 11
60.653862500000002
 21
102.52488650000001
  0
LINE
  8
_0-0_0
  6
CONTINUOUS
 62
    7
 10
60.653862500000002
 20
102.52488650000001
 11
60.696205500000005
 21
102.3101345
  0
LINE
  8
_0-0_0
  6
CONTINUOUS
 62
    7
 10
60.696205500000005
 20
102.3101345
 11
60.7465215
 21
102.0921245
  0
LINE
  8
_0-0_0
  6
CONTINUOUS
 62
    7
 10
60.7465215
 20
102.0921245
 11
60.800773500000005
 21
101.8858415
  0
LINE
  8
_0-0_0
  6
CONTINUOUS
 62
    7
 10
60.800773500000005
 20
101.8858415
 11
60.862480500000004
 21
101.6757355
  0
LINE
  8
_0-0_0
  6
CONTINUOUS
 62
    7
 10
60.862480500000004
 20
101.6757355
 11
60.931999500000003
 21
101.4612655
  0
LINE
  8
_0-0_0
  6
CONTINUOUS
 62
    7
 10
60.931999500000003
 20
101.4612655
 11
61.009712500000006
 21
101.2418515
  0
LINE
  8
_0-0_0
  6
CONTINUOUS
 62
    7
 10
61.009712500000006
 20
101.2418515
 11
61.096092500000012
 21
101.01687650000001
  0
LINE
  8
_0-0_0
  6
CONTINUOUS
 62
    7
 10
70.803924499999994
 20
101.01687650000001
 11
61.096092500000012
 21
101.01687650000001
  0
ARC
  8
_0-0_0
  6
CONTINUOUS
 62
    7
 10
65.967643500000008
 20
106.8745725
 40
4.9136889999999998
 50
172.48898299999999
 51
187.51101699999998
  0
LINE
  8
_0-0_0
  6
CONTINUOUS
 62
    7
 10
70.803924499999994
 20
99.732269500000001
 11
61.096092500000012
 21
99.732269500000001
  0
LINE
  8
_0-0_0
  6
CONTINUOUS
 62
    7
 10
61.096092500000012
 20
97.124572499999999
 11
61.041610500000004
 21
97.194511500000004
  0
LINE
  8
_0-0_0
  6
CONTINUOUS
 62
    7
 10
61.041610500000004
 20
97.194511500000004
 11
60.990509500000002
 21
97.263336500000008
  0
LINE
  8
_0-0_0
  6
CONTINUOUS
 62
    7
 10
60.990509500000002
 20
97.263336500000008
 11
60.94287150000001
 21
97.330840500000008
  0
LINE
  8
_0-0_0
  6
CONTINUOUS
 62
    7
 10
60.94287150000001
 20
97.330840500000008
 11
60.898368500000004
 21
97.397392500000009
  0
LINE
  8
_0-0_0
  6
CONTINUOUS
 62
    7
 10
60.898368500000004
 20
97.397392500000009
 11
60.843643500000013
 21
97.484924500000005
  0
LINE
  8
_0-0_0
  6
CONTINUOUS
 62
    7
 10
60.843643500000013
 20
97.484924500000005
 11
60.794143500000004
 21
97.571029500000009
  0
LINE
  8
_0-0_0
  6
CONTINUOUS
 62
    7
 10
60.794143500000004
 20
97.571029500000009
 11
60.749671500000005
 21
97.655860500000003
  0
LINE
  8
_0-0_0
  6
CONTINUOUS
 62
    7
 10
60.749671500000005
 20
97.655860500000003
 11
60.702705500000008
 21
97.756179500000002
  0
LINE
  8
_0-0_0
  6
CONTINUOUS
 62
    7
 10
60.702705500000008
 20
97.756179500000002
 11
60.662498500000012
 21
97.855102500000001
  0
LINE
  8
_0-0_0
  6
CONTINUOUS
 62
    7
 10
60.662498500000012
 20
97.855102500000001
 11
60.628830500000007
 21
97.952865500000001
  0
LINE
  8
_0-0_0
  6
CONTINUOUS
 62
    7
 10
60.628830500000007
 20
97.952865500000001
 11
60.601547500000009
 21
98.049667499999998
  0
LINE
  8
_0-0_0
  6
CONTINUOUS
 62
    7
 10
60.601547500000009
 20
98.049667499999998
 11
60.580497500000007
 21
98.145721500000008
  0
LINE
  8
_0-0_0
  6
CONTINUOUS
 62
    7
 10
60.580497500000007
 20
98.145721500000008
 11
60.56456750000001
 21
98.249572499999999
  0
LINE
  8
_0-0_0
  6
CONTINUOUS
 62
    7
 10
60.56456750000001
 20
98.249572499999999
 11
60.555809500000009
 21
98.352996500000003
  0
LINE
  8
_0-0_0
  6
CONTINUOUS
 62
    7
 10
60.555809500000009
 20
98.352996500000003
 11
60.554176500000011
 21
98.4562375
  0
LINE
  8
_0-0_0
  6
CONTINUOUS
 62
    7
 10
60.554176500000011
 20
98.4562375
 11
60.559646499999999
 21
98.559532500000003
  0
LINE
  8
_0-0_0
  6
CONTINUOUS
 62
    7
 10
60.559646499999999
 20
98.559532500000003
 11
60.57225050000001
 21
98.663123499999998
  0
LINE
  8
_0-0_0
  6
CONTINUOUS
 62
    7
 10
60.57225050000001
 20
98.663123499999998
 11
60.592071500000003
 21
98.767265500000008
  0
LINE
  8
_0-0_0
  6
CONTINUOUS
 62
    7
 10
60.592071500000003
 20
98.767265500000008
 11
60.619216500000007
 21
98.872222500000007
  0
LINE
  8
_0-0_0
  6
CONTINUOUS
 62
    7
 10
60.619216500000007
 20
98.872222500000007
 11
60.653862500000002
 21
98.978256500000001
  0
LINE
  8
_0-0_0
  6
CONTINUOUS
 62
    7
 10
60.653862500000002
 20
98.978256500000001
 11
60.696205500000005
 21
99.085639499999999
  0
LINE
  8
_0-0_0
  6
CONTINUOUS
 62
    7
 10
60.696205500000005
 20
99.085639499999999
 11
60.7465215
 21
99.194640500000006
  0
LINE
  8
_0-0_0
  6
CONTINUOUS
 62
    7
 10
60.7465215
 20
99.194640500000006
 11
60.800773500000005
 21
99.297782499999997
  0
LINE
  8
_0-0_0
  6
CONTINUOUS
 62
    7
 10
60.800773500000005
 20
99.297782499999997
 11
60.862480500000004
 21
99.402831500000005
  0
LINE
  8
_0-0_0
  6
CONTINUOUS
 62
    7
 10
60.862480500000004
 20
99.402831500000005
 11
60.931999500000003
 21
99.510070499999998
  0
LINE
  8
_0-0_0
  6
CONTINUOUS
 62
    7
 10
60.931999500000003
 20
99.510070499999998
 11
61.009712500000006
 21
99.619781500000002
  0
LINE
  8
_0-0_0
  6
CONTINUOUS
 62
    7
 10
61.009712500000006
 20
99.619781500000002
 11
61.096092500000012
 21
99.732269500000001
  0
LINE
  8
_0-0_0
  6
CONTINUOUS
 62
    7
 10
70.803924499999994
 20
97.124572499999999
 11
61.096092500000012
 21
97.124572499999999
  0
ARC
  8
_0-0_0
  6
CONTINUOUS
 62
    7
 10
65.9778065
 20
100.3736875
 40
4.9238749999999998
 50
172.49424200000001
 51
181.535968
  0
ARC
  8
_0-0_0
  6
CONTINUOUS
 62
    7
 10
66.015831500000004
 20
100.3786315
 40
4.9620009999999999
 50
181.58130700000004
 51
187.48478900000003
  0
LINE
  8
_0-0_0
  6
CONTINUOUS
 62
    7
 10
61.0539165
 20
97.124572499999999
 11
61.096092500000012
 21
97.124572499999999
  0
LINE
  8
_0-0_0
  6
CONTINUOUS
 62
    7
 10
55.8039165
 20
96.550010499999999
 11
55.5539165
 21
96.574569499999996
  0
LINE
  8
_0-0_0
  6
CONTINUOUS
 62
    7
 10
55.8039165
 20
96.346053499999996
 11
55.5539165
 21
96.574569499999996
  0
LINE
  8
_0-0_0
  6
CONTINUOUS
 62
    7
 10
55.8039165
 20
96.740539499999997
 11
55.5539165
 21
96.794036500000004
  0
LINE
  8
_0-0_0
  6
CONTINUOUS
 62
    7
 10
55.8039165
 20
96.550010499999999
 11
55.5539165
 21
96.794036500000004
  0
LINE
  8
_0-0_0
  6
CONTINUOUS
 62
    7
 10
55.8039165
 20
96.915557500000006
 11
55.5539165
 21
96.997398500000003
  0
LINE
  8
_0-0_0
  6
CONTINUOUS
 62
    7
 10
55.8039165
 20
96.740539499999997
 11
55.5539165
 21
96.997398500000003
  0
LINE
  8
_0-0_0
  6
CONTINUOUS
 62
    7
 10
55.8039165
 20
97.073150499999997
 11
55.5539165
 21
97.182433500000002
  0
LINE
  8
_0-0_0
  6
CONTINUOUS
 62
    7
 10
55.8039165
 20
96.915557500000006
 11
55.5539165
 21
97.182433500000002
  0
LINE
  8
_0-0_0
  6
CONTINUOUS
 62
    7
 10
55.8039165
 20
97.211578500000002
 11
55.5539165
 21
97.347114500000004
  0
LINE
  8
_0-0_0
  6
CONTINUOUS
 62
    7
 10
55.8039165
 20
97.073150499999997
 11
55.5539165
 21
97.347114500000004
  0
LINE
  8
_0-0_0
  6
CONTINUOUS
 62
    7
 10
55.8039165
 20
97.329337500000008
 11
55.5539165
 21
97.489639499999996
  0
LINE
  8
_0-0_0
  6
CONTINUOUS
 62
    7
 10
55.8039165
 20
97.211578500000002
 11
55.5539165
 21
97.489639499999996
  0
LINE
  8
_0-0_0
  6
CONTINUOUS
 62
    7
 10
55.8039165
 20
97.425125500000007
 11
55.5539165
 21
97.608436499999996
  0
LINE
  8
_0-0_0
  6
CONTINUOUS
 62
    7
 10
55.8039165
 20
97.329337500000008
 11
55.5539165
 21
97.608436499999996
  0
LINE
  8
_0-0_0
  6
CONTINUOUS
 62
    7
 10
55.8039165
 20
97.497901499999998
 11
55.5539165
 21
97.702216500000006
  0
LINE
  8
_0-0_0
  6
CONTINUOUS
 62
    7
 10
55.8039165
 20
97.425125500000007
 11
55.5539165
 21
97.702216500000006
  0
LINE
  8
_0-0_0
  6
CONTINUOUS
 62
    7
 10
55.8039165
 20
97.546867500000005
 11
55.5539165
 21
97.769943499999997
  0
LINE
  8
_0-0_0
  6
CONTINUOUS
 62
    7
 10
55.8039165
 20
97.497901499999998
 11
55.5539165
 21
97.769943499999997
  0
LINE
  8
_0-0_0
  6
CONTINUOUS
 62
    7
 10
55.8039165
 20
97.571487500000003
 11
55.5539165
 21
97.810874499999997
  0
LINE
  8
_0-0_0
  6
CONTINUOUS
 62
    7
 10
55.8039165
 20
97.546867500000005
 11
55.5539165
 21
97.810874499999997
  0
LINE
  8
_0-0_0
  6
CONTINUOUS
 62
    7
 10
55.8039165
 20
97.571487500000003
 11
55.5539165
 21
97.824569499999996
  0
LINE
  8
_0-0_0
  6
CONTINUOUS
 62
    7
 10
55.8039165
 20
93.077651500000002
 11
55.5539165
 21
92.824569499999996
  0
LINE
  8
_0-0_0
  6
CONTINUOUS
 62
    7
 10
55.8039165
 20
93.102271500000001
 11
55.5539165
 21
92.838264500000008
  0
LINE
  8
_0-0_0
  6
CONTINUOUS
 62
    7
 10
55.8039165
 20
93.077651500000002
 11
55.5539165
 21
92.838264500000008
  0
LINE
  8
_0-0_0
  6
CONTINUOUS
 62
    7
 10
55.8039165
 20
93.151237500000008
 11
55.5539165
 21
92.879203500000003
  0
LINE
  8
_0-0_0
  6
CONTINUOUS
 62
    7
 10
55.8039165
 20
93.102271500000001
 11
55.5539165
 21
92.879203500000003
  0
LINE
  8
_0-0_0
  6
CONTINUOUS
 62
    7
 10
55.8039165
 20
93.224014499999996
 11
55.5539165
 21
92.946929499999996
  0
LINE
  8
_0-0_0
  6
CONTINUOUS
 62
    7
 10
55.8039165
 20
93.151237500000008
 11
55.5539165
 21
92.946929499999996
  0
LINE
  8
_0-0_0
  6
CONTINUOUS
 62
    7
 10
55.8039165
 20
93.319801499999997
 11
55.5539165
 21
93.040710500000003
  0
LINE
  8
_0-0_0
  6
CONTINUOUS
 62
    7
 10
55.8039165
 20
93.224014499999996
 11
55.5539165
 21
93.040710500000003
  0
LINE
  8
_0-0_0
  6
CONTINUOUS
 62
    7
 10
55.8039165
 20
93.319801499999997
 11
55.4238055
 21
93.074569499999996
  0
LINE
  8
_0-0_0
  6
CONTINUOUS
 62
    7
 10
55.8039165
 20
93.437560500000004
 11
55.5539165
 21
93.159507500000004
  0
LINE
  8
_0-0_0
  6
CONTINUOUS
 62
    7
 10
55.673950500000004
 20
93.235954500000005
 11
55.5539165
 21
93.159507500000004
  0
LINE
  8
_0-0_0
  6
CONTINUOUS
 62
    7
 10
55.8039165
 20
93.575996500000002
 11
55.5539165
 21
93.302032499999996
  0
LINE
  8
_0-0_0
  6
CONTINUOUS
 62
    7
 10
55.8039165
 20
93.437560500000004
 11
55.5539165
 21
93.302032499999996
  0
LINE
  8
_0-0_0
  6
CONTINUOUS
 62
    7
 10
55.8039165
 20
93.7335815
 11
55.5539165
 21
93.466705500000003
  0
LINE
  8
_0-0_0
  6
CONTINUOUS
 62
    7
 10
55.8039165
 20
93.575996500000002
 11
55.5539165
 21
93.466705500000003
  0
LINE
  8
_0-0_0
  6
CONTINUOUS
 62
    7
 10
55.8039165
 20
93.908599500000008
 11
55.5539165
 21
93.651740500000002
  0
LINE
  8
_0-0_0
  6
CONTINUOUS
 62
    7
 10
55.8039165
 20
93.7335815
 11
55.5539165
 21
93.651740500000002
  0
LINE
  8
_0-0_0
  6
CONTINUOUS
 62
    7
 10
55.8039165
 20
94.0991365
 11
55.5539165
 21
93.855110500000009
  0
LINE
  8
_0-0_0
  6
CONTINUOUS
 62
    7
 10
55.8039165
 20
93.908599500000008
 11
55.5539165
 21
93.855110500000009
  0
LINE
  8
_0-0_0
  6
CONTINUOUS
 62
    7
 10
55.8039165
 20
94.303092500000005
 11
55.5539165
 21
94.074569499999996
  0
LINE
  8
_0-0_0
  6
CONTINUOUS
 62
    7
 10
55.8039165
 20
94.0991365
 11
55.5539165
 21
94.074569499999996
  0
LINE
  8
_0-0_0
  6
CONTINUOUS
 62
    7
 10
55.8039165
 20
94.518241500000002
 11
55.5539165
 21
94.307723500000009
  0
LINE
  8
_0-0_0
  6
CONTINUOUS
 62
    7
 10
55.8039165
 20
94.303092500000005
 11
55.5539165
 21
94.307723500000009
  0
LINE
  8
_0-0_0
  6
CONTINUOUS
 62
    7
 10
55.8039165
 20
94.742233499999998
 11
55.5539165
 21
94.552032499999996
  0
LINE
  8
_0-0_0
  6
CONTINUOUS
 62
    7
 10
55.8039165
 20
94.518241500000002
 11
55.5539165
 21
94.552032499999996
  0
LINE
  8
_0-0_0
  6
CONTINUOUS
 62
    7
 10
55.8039165
 20
94.972595499999997
 11
55.5539165
 21
94.8047945
  0
LINE
  8
_0-0_0
  6
CONTINUOUS
 62
    7
 10
55.8039165
 20
94.742233499999998
 11
55.5539165
 21
94.8047945
  0
LINE
  8
_0-0_0
  6
CONTINUOUS
 62
    7
 10
55.8039165
 20
95.2068175
 11
55.5539165
 21
95.063255499999997
  0
LINE
  8
_0-0_0
  6
CONTINUOUS
 62
    7
 10
55.8039165
 20
94.972595499999997
 11
55.5539165
 21
95.063255499999997
  0
LINE
  8
_0-0_0
  6
CONTINUOUS
 62
    7
 10
55.8039165
 20
95.4423295
 11
55.5539165
 21
95.324569499999996
  0
LINE
  8
_0-0_0
  6
CONTINUOUS
 62
    7
 10
55.8039165
 20
95.2068175
 11
55.5539165
 21
95.324569499999996
  0
LINE
  8
_0-0_0
  6
CONTINUOUS
 62
    7
 10
55.8039165
 20
95.676544500000006
 11
55.5539165
 21
95.585891500000002
  0
LINE
  8
_0-0_0
  6
CONTINUOUS
 62
    7
 10
55.8039165
 20
95.4423295
 11
55.5539165
 21
95.585891500000002
  0
LINE
  8
_0-0_0
  6
CONTINUOUS
 62
    7
 10
55.8039165
 20
95.906913500000002
 11
55.5539165
 21
95.844352499999999
  0
LINE
  8
_0-0_0
  6
CONTINUOUS
 62
    7
 10
55.8039165
 20
95.676544500000006
 11
55.5539165
 21
95.844352499999999
  0
LINE
  8
_0-0_0
  6
CONTINUOUS
 62
    7
 10
55.8039165
 20
96.130897500000003
 11
55.5539165
 21
96.097114500000004
  0
LINE
  8
_0-0_0
  6
CONTINUOUS
 62
    7
 10
55.8039165
 20
95.906913500000002
 11
55.5539165
 21
96.097114500000004
  0
LINE
  8
_0-0_0
  6
CONTINUOUS
 62
    7
 10
55.8039165
 20
96.346053499999996
 11
55.5539165
 21
96.341415499999997
  0
LINE
  8
_0-0_0
  6
CONTINUOUS
 62
    7
 10
55.8039165
 20
96.130897500000003
 11
55.5539165
 21
96.341415499999997
  0
LINE
  8
_0-0_0
  6
CONTINUOUS
 62
    7
 10
46.0539165
 20
113.1500095
 11
46.3039165
 21
113.1745755
  0
LINE
  8
_0-0_0
  6
CONTINUOUS
 62
    7
 10
46.3039165
 20
113.1745755
 11
55.5539165
 21
113.1745755
  0
LINE
  8
_0-0_0
  6
CONTINUOUS
 62
    7
 10
46.0539165
 20
112.94605250000001
 11
46.3039165
 21
113.1745755
  0
LINE
  8
_0-0_0
  6
CONTINUOUS
 62
    7
 10
46.0539165
 20
112.94605250000001
 11
55.8039165
 21
112.94605250000001
  0
LINE
  8
_0-0_0
  6
CONTINUOUS
 62
    7
 10
46.0539165
 20
113.3405455
 11
46.3039165
 21
113.3940355
  0
LINE
  8
_0-0_0
  6
CONTINUOUS
 62
    7
 10
46.3039165
 20
113.3940355
 11
55.5539165
 21
113.3940355
  0
LINE
  8
_0-0_0
  6
CONTINUOUS
 62
    7
 10
46.0539165
 20
113.1500095
 11
46.3039165
 21
113.3940355
  0
LINE
  8
_0-0_0
  6
CONTINUOUS
 62
    7
 10
46.0539165
 20
113.5155635
 11
46.3039165
 21
113.5973965
  0
LINE
  8
_0-0_0
  6
CONTINUOUS
 62
    7
 10
46.3039165
 20
113.5973965
 11
55.5539165
 21
113.5973965
  0
LINE
  8
_0-0_0
  6
CONTINUOUS
 62
    7
 10
46.0539165
 20
113.3405455
 11
46.3039165
 21
113.5973965
  0
LINE
  8
_0-0_0
  6
CONTINUOUS
 62
    7
 10
46.0539165
 20
113.6731485
 11
46.3039165
 21
113.7824325
  0
LINE
  8
_0-0_0
  6
CONTINUOUS
 62
    7
 10
46.3039165
 20
113.7824325
 11
55.5539165
 21
113.7824325
  0
LINE
  8
_0-0_0
  6
CONTINUOUS
 62
    7
 10
46.0539165
 20
113.5155635
 11
46.3039165
 21
113.7824325
  0
LINE
  8
_0-0_0
  6
CONTINUOUS
 62
    7
 10
46.0539165
 20
113.81158450000001
 11
46.3039165
 21
113.9471125
  0
LINE
  8
_0-0_0
  6
CONTINUOUS
 62
    7
 10
46.3039165
 20
113.9471125
 11
55.5539165
 21
113.9471125
  0
LINE
  8
_0-0_0
  6
CONTINUOUS
 62
    7
 10
46.0539165
 20
113.6731485
 11
46.3039165
 21
113.9471125
  0
LINE
  8
_0-0_0
  6
CONTINUOUS
 62
    7
 10
46.0539165
 20
113.92933650000001
 11
46.3039165
 21
114.08963750000001
  0
LINE
  8
_0-0_0
  6
CONTINUOUS
 62
    7
 10
46.3039165
 20
114.08963750000001
 11
55.5539165
 21
114.08963750000001
  0
LINE
  8
_0-0_0
  6
CONTINUOUS
 62
    7
 10
46.0539165
 20
113.81158450000001
 11
46.3039165
 21
114.08963750000001
  0
LINE
  8
_0-0_0
  6
CONTINUOUS
 62
    7
 10
46.0539165
 20
114.0251315
 11
46.3039165
 21
114.2084345
  0
LINE
  8
_0-0_0
  6
CONTINUOUS
 62
    7
 10
46.3039165
 20
114.2084345
 11
55.5539165
 21
114.2084345
  0
LINE
  8
_0-0_0
  6
CONTINUOUS
 62
    7
 10
46.0539165
 20
113.92933650000001
 11
46.3039165
 21
114.2084345
  0
LINE
  8
_0-0_0
  6
CONTINUOUS
 62
    7
 10
46.0539165
 20
114.09790050000001
 11
46.3039165
 21
114.3022155
  0
LINE
  8
_0-0_0
  6
CONTINUOUS
 62
    7
 10
46.3039165
 20
114.3022155
 11
55.5539165
 21
114.3022155
  0
LINE
  8
_0-0_0
  6
CONTINUOUS
 62
    7
 10
46.0539165
 20
114.0251315
 11
46.3039165
 21
114.3022155
  0
LINE
  8
_0-0_0
  6
CONTINUOUS
 62
    7
 10
46.0539165
 20
114.1468655
 11
46.3039165
 21
114.3699415
  0
LINE
  8
_0-0_0
  6
CONTINUOUS
 62
    7
 10
46.3039165
 20
114.3699415
 11
55.5539165
 21
114.3699415
  0
LINE
  8
_0-0_0
  6
CONTINUOUS
 62
    7
 10
46.0539165
 20
114.09790050000001
 11
46.3039165
 21
114.3699415
  0
LINE
  8
_0-0_0
  6
CONTINUOUS
 62
    7
 10
46.0539165
 20
114.1714855
 11
46.3039165
 21
114.41087350000001
  0
LINE
  8
_0-0_0
  6
CONTINUOUS
 62
    7
 10
46.3039165
 20
114.41087350000001
 11
55.5539165
 21
114.41087350000001
  0
LINE
  8
_0-0_0
  6
CONTINUOUS
 62
    7
 10
46.0539165
 20
114.1468655
 11
46.3039165
 21
114.41087350000001
  0
LINE
  8
_0-0_0
  6
CONTINUOUS
 62
    7
 10
46.3039165
 20
114.4245755
 11
55.5539165
 21
114.4245755
  0
LINE
  8
_0-0_0
  6
CONTINUOUS
 62
    7
 10
46.0539165
 20
114.1714855
 11
46.3039165
 21
114.4245755
  0
LINE
  8
_0-0_0
  6
CONTINUOUS
 62
    7
 10
46.0539165
 20
109.67765750000001
 11
46.3039165
 21
109.4245755
  0
LINE
  8
_0-0_0
  6
CONTINUOUS
 62
    7
 10
46.3039165
 20
109.4245755
 11
55.5539165
 21
109.4245755
  0
LINE
  8
_0-0_0
  6
CONTINUOUS
 62
    7
 10
46.0539165
 20
109.7022705
 11
46.3039165
 21
109.43826250000001
  0
LINE
  8
_0-0_0
  6
CONTINUOUS
 62
    7
 10
46.3039165
 20
109.43826250000001
 11
55.5539165
 21
109.43826250000001
  0
LINE
  8
_0-0_0
  6
CONTINUOUS
 62
    7
 10
46.0539165
 20
109.67765750000001
 11
46.3039165
 21
109.43826250000001
  0
LINE
  8
_0-0_0
  6
CONTINUOUS
 62
    7
 10
46.0539165
 20
109.75123550000001
 11
46.3039165
 21
109.4792025
  0
LINE
  8
_0-0_0
  6
CONTINUOUS
 62
    7
 10
46.3039165
 20
109.4792025
 11
55.5539165
 21
109.4792025
  0
LINE
  8
_0-0_0
  6
CONTINUOUS
 62
    7
 10
46.0539165
 20
109.7022705
 11
46.3039165
 21
109.4792025
  0
LINE
  8
_0-0_0
  6
CONTINUOUS
 62
    7
 10
46.0539165
 20
109.82401250000001
 11
46.3039165
 21
109.54692850000001
  0
LINE
  8
_0-0_0
  6
CONTINUOUS
 62
    7
 10
46.3039165
 20
109.54692850000001
 11
55.5539165
 21
109.54692850000001
  0
LINE
  8
_0-0_0
  6
CONTINUOUS
 62
    7
 10
46.0539165
 20
109.75123550000001
 11
46.3039165
 21
109.54692850000001
  0
LINE
  8
_0-0_0
  6
CONTINUOUS
 62
    7
 10
46.0539165
 20
109.9198075
 11
46.3039165
 21
109.6407085
  0
LINE
  8
_0-0_0
  6
CONTINUOUS
 62
    7
 10
46.3039165
 20
109.6407085
 11
55.5539165
 21
109.6407085
  0
LINE
  8
_0-0_0
  6
CONTINUOUS
 62
    7
 10
46.0539165
 20
109.82401250000001
 11
46.3039165
 21
109.6407085
  0
LINE
  8
_0-0_0
  6
CONTINUOUS
 62
    7
 10
46.3039165
 20
109.7595065
 11
55.5539165
 21
109.7595065
  0
LINE
  8
_0-0_0
  6
CONTINUOUS
 62
    7
 10
46.183883500000007
 20
109.8359525
 11
46.3039165
 21
109.7595065
  0
LINE
  8
_0-0_0
  6
CONTINUOUS
 62
    7
 10
46.0539165
 20
109.9198075
 11
46.183883500000007
 21
109.8359525
  0
LINE
  8
_0-0_0
  6
CONTINUOUS
 62
    7
 10
46.0539165
 20
110.0375595
 11
46.3039165
 21
109.7595065
  0
LINE
  8
_0-0_0
  6
CONTINUOUS
 62
    7
 10
46.0539165
 20
110.1759945
 11
46.3039165
 21
109.90203050000001
  0
LINE
  8
_0-0_0
  6
CONTINUOUS
 62
    7
 10
46.3039165
 20
109.90203050000001
 11
55.5539165
 21
109.90203050000001
  0
LINE
  8
_0-0_0
  6
CONTINUOUS
 62
    7
 10
46.0539165
 20
110.0375595
 11
46.3039165
 21
109.90203050000001
  0
LINE
  8
_0-0_0
  6
CONTINUOUS
 62
    7
 10
46.0539165
 20
110.3335795
 11
46.3039165
 21
110.0667115
  0
LINE
  8
_0-0_0
  6
CONTINUOUS
 62
    7
 10
46.3039165
 20
110.0667115
 11
55.5539165
 21
110.0667115
  0
LINE
  8
_0-0_0
  6
CONTINUOUS
 62
    7
 10
46.0539165
 20
110.1759945
 11
46.3039165
 21
110.0667115
  0
LINE
  8
_0-0_0
  6
CONTINUOUS
 62
    7
 10
46.0539165
 20
110.50859850000001
 11
46.3039165
 21
110.25174750000001
  0
LINE
  8
_0-0_0
  6
CONTINUOUS
 62
    7
 10
46.3039165
 20
110.25174750000001
 11
55.5539165
 21
110.25174750000001
  0
LINE
  8
_0-0_0
  6
CONTINUOUS
 62
    7
 10
46.0539165
 20
110.3335795
 11
46.3039165
 21
110.25174750000001
  0
LINE
  8
_0-0_0
  6
CONTINUOUS
 62
    7
 10
46.0539165
 20
110.6991345
 11
46.3039165
 21
110.45510850000001
  0
LINE
  8
_0-0_0
  6
CONTINUOUS
 62
    7
 10
46.3039165
 20
110.45510850000001
 11
55.5539165
 21
110.45510850000001
  0
LINE
  8
_0-0_0
  6
CONTINUOUS
 62
    7
 10
46.0539165
 20
110.50859850000001
 11
46.3039165
 21
110.45510850000001
  0
LINE
  8
_0-0_0
  6
CONTINUOUS
 62
    7
 10
46.0539165
 20
110.9030915
 11
46.3039165
 21
110.6745755
  0
LINE
  8
_0-0_0
  6
CONTINUOUS
 62
    7
 10
46.3039165
 20
110.6745755
 11
55.5539165
 21
110.6745755
  0
LINE
  8
_0-0_0
  6
CONTINUOUS
 62
    7
 10
46.0539165
 20
110.9030915
 11
55.8039165
 21
110.9030915
  0
LINE
  8
_0-0_0
  6
CONTINUOUS
 62
    7
 10
46.0539165
 20
110.6991345
 11
46.3039165
 21
110.6745755
  0
LINE
  8
_0-0_0
  6
CONTINUOUS
 62
    7
 10
46.0539165
 20
111.1182405
 11
46.3039165
 21
110.9077295
  0
LINE
  8
_0-0_0
  6
CONTINUOUS
 62
    7
 10
46.3039165
 20
110.9077295
 11
55.5539165
 21
110.9077295
  0
LINE
  8
_0-0_0
  6
CONTINUOUS
 62
    7
 10
46.0539165
 20
111.1182405
 11
55.8039165
 21
111.1182405
  0
LINE
  8
_0-0_0
  6
CONTINUOUS
 62
    7
 10
46.0539165
 20
110.9030915
 11
46.3039165
 21
110.9077295
  0
LINE
  8
_0-0_0
  6
CONTINUOUS
 62
    7
 10
46.0539165
 20
111.3422245
 11
46.3039165
 21
111.15203050000001
  0
LINE
  8
_0-0_0
  6
CONTINUOUS
 62
    7
 10
46.3039165
 20
111.15203050000001
 11
55.5539165
 21
111.15203050000001
  0
LINE
  8
_0-0_0
  6
CONTINUOUS
 62
    7
 10
46.0539165
 20
111.3422245
 11
55.8039165
 21
111.3422245
  0
LINE
  8
_0-0_0
  6
CONTINUOUS
 62
    7
 10
46.0539165
 20
111.1182405
 11
46.3039165
 21
111.15203050000001
  0
LINE
  8
_0-0_0
  6
CONTINUOUS
 62
    7
 10
46.0539165
 20
111.5725935
 11
46.3039165
 21
111.4047925
  0
LINE
  8
_0-0_0
  6
CONTINUOUS
 62
    7
 10
46.3039165
 20
111.4047925
 11
55.5539165
 21
111.4047925
  0
LINE
  8
_0-0_0
  6
CONTINUOUS
 62
    7
 10
46.0539165
 20
111.5725935
 11
55.8039165
 21
111.5725935
  0
LINE
  8
_0-0_0
  6
CONTINUOUS
 62
    7
 10
46.0539165
 20
111.3422245
 11
46.3039165
 21
111.4047925
  0
LINE
  8
_0-0_0
  6
CONTINUOUS
 62
    7
 10
46.0539165
 20
111.8068155
 11
46.3039165
 21
111.6632535
  0
LINE
  8
_0-0_0
  6
CONTINUOUS
 62
    7
 10
46.3039165
 20
111.6632535
 11
55.5539165
 21
111.6632535
  0
LINE
  8
_0-0_0
  6
CONTINUOUS
 62
    7
 10
46.0539165
 20
111.8068155
 11
55.8039165
 21
111.8068155
  0
LINE
  8
_0-0_0
  6
CONTINUOUS
 62
    7
 10
46.0539165
 20
111.5725935
 11
46.3039165
 21
111.6632535
  0
LINE
  8
_0-0_0
  6
CONTINUOUS
 62
    7
 10
46.0539165
 20
112.0423275
 11
46.3039165
 21
111.9245755
  0
LINE
  8
_0-0_0
  6
CONTINUOUS
 62
    7
 10
46.3039165
 20
111.9245755
 11
55.5539165
 21
111.9245755
  0
LINE
  8
_0-0_0
  6
CONTINUOUS
 62
    7
 10
46.0539165
 20
112.0423275
 11
55.8039165
 21
112.0423275
  0
LINE
  8
_0-0_0
  6
CONTINUOUS
 62
    7
 10
46.0539165
 20
111.8068155
 11
46.3039165
 21
111.9245755
  0
LINE
  8
_0-0_0
  6
CONTINUOUS
 62
    7
 10
46.0539165
 20
112.2765505
 11
46.3039165
 21
112.1858905
  0
LINE
  8
_0-0_0
  6
CONTINUOUS
 62
    7
 10
46.3039165
 20
112.1858905
 11
55.5539165
 21
112.1858905
  0
LINE
  8
_0-0_0
  6
CONTINUOUS
 62
    7
 10
46.0539165
 20
112.2765505
 11
55.8039165
 21
112.2765505
  0
LINE
  8
_0-0_0
  6
CONTINUOUS
 62
    7
 10
46.0539165
 20
112.0423275
 11
46.3039165
 21
112.1858905
  0
LINE
  8
_0-0_0
  6
CONTINUOUS
 62
    7
 10
46.0539165
 20
112.5069125
 11
46.3039165
 21
112.4443515
  0
LINE
  8
_0-0_0
  6
CONTINUOUS
 62
    7
 10
46.3039165
 20
112.4443515
 11
55.5539165
 21
112.4443515
  0
LINE
  8
_0-0_0
  6
CONTINUOUS
 62
    7
 10
46.0539165
 20
112.5069125
 11
55.8039165
 21
112.5069125
  0
LINE
  8
_0-0_0
  6
CONTINUOUS
 62
    7
 10
46.0539165
 20
112.2765505
 11
46.3039165
 21
112.4443515
  0
LINE
  8
_0-0_0
  6
CONTINUOUS
 62
    7
 10
46.0539165
 20
112.7308955
 11
46.3039165
 21
112.6971125
  0
LINE
  8
_0-0_0
  6
CONTINUOUS
 62
    7
 10
46.3039165
 20
112.6971125
 11
55.5539165
 21
112.6971125
  0
LINE
  8
_0-0_0
  6
CONTINUOUS
 62
    7
 10
46.0539165
 20
112.7308955
 11
55.8039165
 21
112.7308955
  0
LINE
  8
_0-0_0
  6
CONTINUOUS
 62
    7
 10
46.0539165
 20
112.5069125
 11
46.3039165
 21
112.6971125
  0
LINE
  8
_0-0_0
  6
CONTINUOUS
 62
    7
 10
46.0539165
 20
112.94605250000001
 11
46.3039165
 21
112.9414135
  0
LINE
  8
_0-0_0
  6
CONTINUOUS
 62
    7
 10
46.3039165
 20
112.9414135
 11
55.5539165
 21
112.9414135
  0
LINE
  8
_0-0_0
  6
CONTINUOUS
 62
    7
 10
46.0539165
 20
112.7308955
 11
46.3039165
 21
112.9414135
  0
LINE
  8
_0-0_0
  6
CONTINUOUS
 62
    7
 10
59.8039165
 20
108.8745725
 11
59.8039165
 21
100.89302050000001
  0
LINE
  8
_0-0_0
  6
CONTINUOUS
 62
    7
 10
59.8039165
 20
100.89302050000001
 11
59.8039165
 21
98.374572499999999
  0
LINE
  8
_0-0_0
  6
CONTINUOUS
 62
    7
 10
46.0539165
 20
96.550010499999999
 11
46.3039165
 21
96.574569499999996
  0
LINE
  8
_0-0_0
  6
CONTINUOUS
 62
    7
 10
46.3039165
 20
96.574569499999996
 11
55.5539165
 21
96.574569499999996
  0
LINE
  8
_0-0_0
  6
CONTINUOUS
 62
    7
 10
46.0539165
 20
96.346053499999996
 11
46.3039165
 21
96.574569499999996
  0
LINE
  8
_0-0_0
  6
CONTINUOUS
 62
    7
 10
46.0539165
 20
96.346053499999996
 11
55.8039165
 21
96.346053499999996
  0
LINE
  8
_0-0_0
  6
CONTINUOUS
 62
    7
 10
46.0539165
 20
96.740539499999997
 11
46.3039165
 21
96.794036500000004
  0
LINE
  8
_0-0_0
  6
CONTINUOUS
 62
    7
 10
46.3039165
 20
96.794036500000004
 11
55.5539165
 21
96.794036500000004
  0
LINE
  8
_0-0_0
  6
CONTINUOUS
 62
    7
 10
46.0539165
 20
96.550010499999999
 11
46.3039165
 21
96.794036500000004
  0
LINE
  8
_0-0_0
  6
CONTINUOUS
 62
    7
 10
46.0539165
 20
96.915557500000006
 11
46.3039165
 21
96.997398500000003
  0
LINE
  8
_0-0_0
  6
CONTINUOUS
 62
    7
 10
46.3039165
 20
96.997398500000003
 11
55.5539165
 21
96.997398500000003
  0
LINE
  8
_0-0_0
  6
CONTINUOUS
 62
    7
 10
46.0539165
 20
96.740539499999997
 11
46.3039165
 21
96.997398500000003
  0
LINE
  8
_0-0_0
  6
CONTINUOUS
 62
    7
 10
46.0539165
 20
97.073150499999997
 11
46.3039165
 21
97.182433500000002
  0
LINE
  8
_0-0_0
  6
CONTINUOUS
 62
    7
 10
46.3039165
 20
97.182433500000002
 11
55.5539165
 21
97.182433500000002
  0
LINE
  8
_0-0_0
  6
CONTINUOUS
 62
    7
 10
46.0539165
 20
96.915557500000006
 11
46.3039165
 21
97.182433500000002
  0
LINE
  8
_0-0_0
  6
CONTINUOUS
 62
    7
 10
46.0539165
 20
97.211578500000002
 11
46.3039165
 21
97.347114500000004
  0
LINE
  8
_0-0_0
  6
CONTINUOUS
 62
    7
 10
46.3039165
 20
97.347114500000004
 11
55.5539165
 21
97.347114500000004
  0
LINE
  8
_0-0_0
  6
CONTINUOUS
 62
    7
 10
46.0539165
 20
97.073150499999997
 11
46.3039165
 21
97.347114500000004
  0
LINE
  8
_0-0_0
  6
CONTINUOUS
 62
    7
 10
46.0539165
 20
97.329337500000008
 11
46.3039165
 21
97.489639499999996
  0
LINE
  8
_0-0_0
  6
CONTINUOUS
 62
    7
 10
46.3039165
 20
97.489639499999996
 11
55.5539165
 21
97.489639499999996
  0
LINE
  8
_0-0_0
  6
CONTINUOUS
 62
    7
 10
46.0539165
 20
97.211578500000002
 11
46.3039165
 21
97.489639499999996
  0
LINE
  8
_0-0_0
  6
CONTINUOUS
 62
    7
 10
46.0539165
 20
97.425125500000007
 11
46.3039165
 21
97.608436499999996
  0
LINE
  8
_0-0_0
  6
CONTINUOUS
 62
    7
 10
46.3039165
 20
97.608436499999996
 11
55.5539165
 21
97.608436499999996
  0
LINE
  8
_0-0_0
  6
CONTINUOUS
 62
    7
 10
46.0539165
 20
97.329337500000008
 11
46.3039165
 21
97.608436499999996
  0
LINE
  8
_0-0_0
  6
CONTINUOUS
 62
    7
 10
46.0539165
 20
97.497901499999998
 11
46.3039165
 21
97.702216500000006
  0
LINE
  8
_0-0_0
  6
CONTINUOUS
 62
    7
 10
46.3039165
 20
97.702216500000006
 11
55.5539165
 21
97.702216500000006
  0
LINE
  8
_0-0_0
  6
CONTINUOUS
 62
    7
 10
46.0539165
 20
97.425125500000007
 11
46.3039165
 21
97.702216500000006
  0
LINE
  8
_0-0_0
  6
CONTINUOUS
 62
    7
 10
46.0539165
 20
97.546867500000005
 11
46.3039165
 21
97.769943499999997
  0
LINE
  8
_0-0_0
  6
CONTINUOUS
 62
    7
 10
46.3039165
 20
97.769943499999997
 11
55.5539165
 21
97.769943499999997
  0
LINE
  8
_0-0_0
  6
CONTINUOUS
 62
    7
 10
46.0539165
 20
97.497901499999998
 11
46.3039165
 21
97.769943499999997
  0
LINE
  8
_0-0_0
  6
CONTINUOUS
 62
    7
 10
46.0539165
 20
97.571487500000003
 11
46.3039165
 21
97.810874499999997
  0
LINE
  8
_0-0_0
  6
CONTINUOUS
 62
    7
 10
46.3039165
 20
97.810874499999997
 11
55.5539165
 21
97.810874499999997
  0
LINE
  8
_0-0_0
  6
CONTINUOUS
 62
    7
 10
46.0539165
 20
97.546867500000005
 11
46.3039165
 21
97.810874499999997
  0
LINE
  8
_0-0_0
  6
CONTINUOUS
 62
    7
 10
46.3039165
 20
97.824569499999996
 11
55.5539165
 21
97.824569499999996
  0
LINE
  8
_0-0_0
  6
CONTINUOUS
 62
    7
 10
46.0539165
 20
97.571487500000003
 11
46.3039165
 21
97.824569499999996
  0
LINE
  8
_0-0_0
  6
CONTINUOUS
 62
    7
 10
46.0539165
 20
93.077651500000002
 11
46.3039165
 21
92.824569499999996
  0
LINE
  8
_0-0_0
  6
CONTINUOUS
 62
    7
 10
46.3039165
 20
92.824569499999996
 11
55.5539165
 21
92.824569499999996
  0
LINE
  8
_0-0_0
  6
CONTINUOUS
 62
    7
 10
46.0539165
 20
93.102271500000001
 11
46.3039165
 21
92.838264500000008
  0
LINE
  8
_0-0_0
  6
CONTINUOUS
 62
    7
 10
46.3039165
 20
92.838264500000008
 11
55.5539165
 21
92.838264500000008
  0
LINE
  8
_0-0_0
  6
CONTINUOUS
 62
    7
 10
46.0539165
 20
93.077651500000002
 11
46.3039165
 21
92.838264500000008
  0
LINE
  8
_0-0_0
  6
CONTINUOUS
 62
    7
 10
46.0539165
 20
93.151237500000008
 11
46.3039165
 21
92.879203500000003
  0
LINE
  8
_0-0_0
  6
CONTINUOUS
 62
    7
 10
46.3039165
 20
92.879203500000003
 11
55.5539165
 21
92.879203500000003
  0
LINE
  8
_0-0_0
  6
CONTINUOUS
 62
    7
 10
46.0539165
 20
93.102271500000001
 11
46.3039165
 21
92.879203500000003
  0
LINE
  8
_0-0_0
  6
CONTINUOUS
 62
    7
 10
46.0539165
 20
93.224014499999996
 11
46.3039165
 21
92.946929499999996
  0
LINE
  8
_0-0_0
  6
CONTINUOUS
 62
    7
 10
46.3039165
 20
92.946929499999996
 11
55.5539165
 21
92.946929499999996
  0
LINE
  8
_0-0_0
  6
CONTINUOUS
 62
    7
 10
46.0539165
 20
93.151237500000008
 11
46.3039165
 21
92.946929499999996
  0
LINE
  8
_0-0_0
  6
CONTINUOUS
 62
    7
 10
46.0539165
 20
93.319801499999997
 11
46.3039165
 21
93.040710500000003
  0
LINE
  8
_0-0_0
  6
CONTINUOUS
 62
    7
 10
46.3039165
 20
93.040710500000003
 11
55.5539165
 21
93.040710500000003
  0
LINE
  8
_0-0_0
  6
CONTINUOUS
 62
    7
 10
46.0539165
 20
93.224014499999996
 11
46.3039165
 21
93.040710500000003
  0
LINE
  8
_0-0_0
  6
CONTINUOUS
 62
    7
 10
46.3039165
 20
93.159507500000004
 11
55.5539165
 21
93.159507500000004
  0
LINE
  8
_0-0_0
  6
CONTINUOUS
 62
    7
 10
46.183883500000007
 20
93.235954500000005
 11
46.3039165
 21
93.159507500000004
  0
LINE
  8
_0-0_0
  6
CONTINUOUS
 62
    7
 10
46.0539165
 20
93.319801499999997
 11
46.183883500000007
 21
93.235954500000005
  0
LINE
  8
_0-0_0
  6
CONTINUOUS
 62
    7
 10
46.0539165
 20
93.437560500000004
 11
46.3039165
 21
93.159507500000004
  0
LINE
  8
_0-0_0
  6
CONTINUOUS
 62
    7
 10
46.0539165
 20
93.575996500000002
 11
46.3039165
 21
93.302032499999996
  0
LINE
  8
_0-0_0
  6
CONTINUOUS
 62
    7
 10
46.3039165
 20
93.302032499999996
 11
55.5539165
 21
93.302032499999996
  0
LINE
  8
_0-0_0
  6
CONTINUOUS
 62
    7
 10
46.0539165
 20
93.437560500000004
 11
46.3039165
 21
93.302032499999996
  0
LINE
  8
_0-0_0
  6
CONTINUOUS
 62
    7
 10
46.0539165
 20
93.7335815
 11
46.3039165
 21
93.466705500000003
  0
LINE
  8
_0-0_0
  6
CONTINUOUS
 62
    7
 10
46.3039165
 20
93.466705500000003
 11
55.5539165
 21
93.466705500000003
  0
LINE
  8
_0-0_0
  6
CONTINUOUS
 62
    7
 10
46.0539165
 20
93.575996500000002
 11
46.3039165
 21
93.466705500000003
  0
LINE
  8
_0-0_0
  6
CONTINUOUS
 62
    7
 10
46.0539165
 20
93.908599500000008
 11
46.3039165
 21
93.651740500000002
  0
LINE
  8
_0-0_0
  6
CONTINUOUS
 62
    7
 10
46.3039165
 20
93.651740500000002
 11
55.5539165
 21
93.651740500000002
  0
LINE
  8
_0-0_0
  6
CONTINUOUS
 62
    7
 10
46.0539165
 20
93.7335815
 11
46.3039165
 21
93.651740500000002
  0
LINE
  8
_0-0_0
  6
CONTINUOUS
 62
    7
 10
46.0539165
 20
94.0991365
 11
46.3039165
 21
93.855110500000009
  0
LINE
  8
_0-0_0
  6
CONTINUOUS
 62
    7
 10
46.3039165
 20
93.855110500000009
 11
55.5539165
 21
93.855110500000009
  0
LINE
  8
_0-0_0
  6
CONTINUOUS
 62
    7
 10
46.0539165
 20
93.908599500000008
 11
46.3039165
 21
93.855110500000009
  0
LINE
  8
_0-0_0
  6
CONTINUOUS
 62
    7
 10
46.0539165
 20
94.303092500000005
 11
46.3039165
 21
94.074569499999996
  0
LINE
  8
_0-0_0
  6
CONTINUOUS
 62
    7
 10
46.3039165
 20
94.074569499999996
 11
55.5539165
 21
94.074569499999996
  0
LINE
  8
_0-0_0
  6
CONTINUOUS
 62
    7
 10
46.0539165
 20
94.303092500000005
 11
55.8039165
 21
94.303092500000005
  0
LINE
  8
_0-0_0
  6
CONTINUOUS
 62
    7
 10
46.0539165
 20
94.0991365
 11
46.3039165
 21
94.074569499999996
  0
LINE
  8
_0-0_0
  6
CONTINUOUS
 62
    7
 10
46.0539165
 20
94.518241500000002
 11
46.3039165
 21
94.307723500000009
  0
LINE
  8
_0-0_0
  6
CONTINUOUS
 62
    7
 10
46.3039165
 20
94.307723500000009
 11
55.5539165
 21
94.307723500000009
  0
LINE
  8
_0-0_0
  6
CONTINUOUS
 62
    7
 10
46.0539165
 20
94.518241500000002
 11
55.8039165
 21
94.518241500000002
  0
LINE
  8
_0-0_0
  6
CONTINUOUS
 62
    7
 10
46.0539165
 20
94.303092500000005
 11
46.3039165
 21
94.307723500000009
  0
LINE
  8
_0-0_0
  6
CONTINUOUS
 62
    7
 10
46.0539165
 20
94.742233499999998
 11
46.3039165
 21
94.552032499999996
  0
LINE
  8
_0-0_0
  6
CONTINUOUS
 62
    7
 10
46.3039165
 20
94.552032499999996
 11
55.5539165
 21
94.552032499999996
  0
LINE
  8
_0-0_0
  6
CONTINUOUS
 62
    7
 10
46.0539165
 20
94.742233499999998
 11
55.8039165
 21
94.742233499999998
  0
LINE
  8
_0-0_0
  6
CONTINUOUS
 62
    7
 10
46.0539165
 20
94.518241500000002
 11
46.3039165
 21
94.552032499999996
  0
LINE
  8
_0-0_0
  6
CONTINUOUS
 62
    7
 10
46.0539165
 20
94.972595499999997
 11
46.3039165
 21
94.8047945
  0
LINE
  8
_0-0_0
  6
CONTINUOUS
 62
    7
 10
46.3039165
 20
94.8047945
 11
55.5539165
 21
94.8047945
  0
LINE
  8
_0-0_0
  6
CONTINUOUS
 62
    7
 10
46.0539165
 20
94.972595499999997
 11
55.8039165
 21
94.972595499999997
  0
LINE
  8
_0-0_0
  6
CONTINUOUS
 62
    7
 10
46.0539165
 20
94.742233499999998
 11
46.3039165
 21
94.8047945
  0
LINE
  8
_0-0_0
  6
CONTINUOUS
 62
    7
 10
46.0539165
 20
95.2068175
 11
46.3039165
 21
95.063255499999997
  0
LINE
  8
_0-0_0
  6
CONTINUOUS
 62
    7
 10
46.3039165
 20
95.063255499999997
 11
55.5539165
 21
95.063255499999997
  0
LINE
  8
_0-0_0
  6
CONTINUOUS
 62
    7
 10
46.0539165
 20
95.2068175
 11
55.8039165
 21
95.2068175
  0
LINE
  8
_0-0_0
  6
CONTINUOUS
 62
    7
 10
46.0539165
 20
94.972595499999997
 11
46.3039165
 21
95.063255499999997
  0
LINE
  8
_0-0_0
  6
CONTINUOUS
 62
    7
 10
46.0539165
 20
95.4423295
 11
46.3039165
 21
95.324569499999996
  0
LINE
  8
_0-0_0
  6
CONTINUOUS
 62
    7
 10
46.3039165
 20
95.324569499999996
 11
55.5539165
 21
95.324569499999996
  0
LINE
  8
_0-0_0
  6
CONTINUOUS
 62
    7
 10
46.0539165
 20
95.4423295
 11
55.8039165
 21
95.4423295
  0
LINE
  8
_0-0_0
  6
CONTINUOUS
 62
    7
 10
46.0539165
 20
95.2068175
 11
46.3039165
 21
95.324569499999996
  0
LINE
  8
_0-0_0
  6
CONTINUOUS
 62
    7
 10
46.0539165
 20
95.676544500000006
 11
46.3039165
 21
95.585891500000002
  0
LINE
  8
_0-0_0
  6
CONTINUOUS
 62
    7
 10
46.3039165
 20
95.585891500000002
 11
55.5539165
 21
95.585891500000002
  0
LINE
  8
_0-0_0
  6
CONTINUOUS
 62
    7
 10
46.0539165
 20
95.676544500000006
 11
55.8039165
 21
95.676544500000006
  0
LINE
  8
_0-0_0
  6
CONTINUOUS
 62
    7
 10
46.0539165
 20
95.4423295
 11
46.3039165
 21
95.585891500000002
  0
LINE
  8
_0-0_0
  6
CONTINUOUS
 62
    7
 10
46.0539165
 20
95.906913500000002
 11
46.3039165
 21
95.844352499999999
  0
LINE
  8
_0-0_0
  6
CONTINUOUS
 62
    7
 10
46.3039165
 20
95.844352499999999
 11
55.5539165
 21
95.844352499999999
  0
LINE
  8
_0-0_0
  6
CONTINUOUS
 62
    7
 10
46.0539165
 20
95.906913500000002
 11
55.8039165
 21
95.906913500000002
  0
LINE
  8
_0-0_0
  6
CONTINUOUS
 62
    7
 10
46.0539165
 20
95.676544500000006
 11
46.3039165
 21
95.844352499999999
  0
LINE
  8
_0-0_0
  6
CONTINUOUS
 62
    7
 10
46.0539165
 20
96.130897500000003
 11
46.3039165
 21
96.097114500000004
  0
LINE
  8
_0-0_0
  6
CONTINUOUS
 62
    7
 10
46.3039165
 20
96.097114500000004
 11
55.5539165
 21
96.097114500000004
  0
LINE
  8
_0-0_0
  6
CONTINUOUS
 62
    7
 10
46.0539165
 20
96.130897500000003
 11
55.8039165
 21
96.130897500000003
  0
LINE
  8
_0-0_0
  6
CONTINUOUS
 62
    7
 10
46.0539165
 20
95.906913500000002
 11
46.3039165
 21
96.097114500000004
  0
LINE
  8
_0-0_0
  6
CONTINUOUS
 62
    7
 10
46.0539165
 20
96.346053499999996
 11
46.3039165
 21
96.341415499999997
  0
LINE
  8
_0-0_0
  6
CONTINUOUS
 62
    7
 10
46.3039165
 20
96.341415499999997
 11
55.5539165
 21
96.341415499999997
  0
LINE
  8
_0-0_0
  6
CONTINUOUS
 62
    7
 10
46.0539165
 20
96.130897500000003
 11
46.3039165
 21
96.341415499999997
  0
LINE
  8
_0-0_0
  6
CONTINUOUS
 62
    7
 10
45.8039165
 20
113.9245755
 11
45.8039165
 21
110.1694025
  0
LINE
  8
_0-0_0
  6
CONTINUOUS
 62
    7
 10
45.8039165
 20
110.1694025
 11
45.8039165
 21
109.9245755
  0
LINE
  8
_0-0_0
  6
CONTINUOUS
 62
    7
 10
45.8039165
 20
97.324569499999996
 11
45.8039165
 21
93.569404500000005
  0
LINE
  8
_0-0_0
  6
CONTINUOUS
 62
    7
 10
45.8039165
 20
93.569404500000005
 11
45.8039165
 21
93.324569499999996
  0
LINE
  8
_0-0_0
  6
CONTINUOUS
 62
    7
 10
59.403915500000011
 20
108.6245725
 11
59.403915500000011
 21
106.1245725
  0
LINE
  8
_0-0_0
  6
CONTINUOUS
 62
    7
 10
59.403915500000011
 20
106.1245725
 11
59.403915500000011
 21
98.624572499999999
  0
LINE
  8
_0-0_0
  6
CONTINUOUS
 62
    7
 10
58.603920500000001
 20
108.1626895
 11
58.603920500000001
 21
105.8936305
  0
LINE
  8
_0-0_0
  6
CONTINUOUS
 62
    7
 10
58.603920500000001
 20
105.8936305
 11
58.603920500000001
 21
99.086448500000003
  0
LINE
  8
_0-0_0
  6
CONTINUOUS
 62
    7
 10
0.6039164999999968
 20
107.6245725
 11
0.6039164999999968
 21
107.6232225
  0
LINE
  8
_0-0_0
  6
CONTINUOUS
 62
    7
 10
0.6039164999999968
 20
107.6232225
 11
0.6039164999999968
 21
99.624572499999999
  0
LINE
  8
_0-0_0
  6
CONTINUOUS
 62
    7
 10
81.803924499999994
 20
114.17456850000001
 11
55.8039165
 21
114.1745755
  0
LINE
  8
_0-0_0
  6
CONTINUOUS
 62
    7
 10
81.803924499999994
 20
109.6745755
 11
55.8039165
 21
109.6745755
  0
LINE
  8
_0-0_0
  6
CONTINUOUS
 62
    7
 10
60.603904500000013
 20
97.574569499999996
 11
55.8039165
 21
97.574569499999996
  0
LINE
  8
_0-0_0
  6
CONTINUOUS
 62
    7
 10
76.053894500000013
 20
93.074569499999996
 11
55.8039165
 21
93.074569499999996
  0
LINE
  8
_0-0_0
  6
CONTINUOUS
 62
    7
 10
55.8039165
 20
114.1745755
 11
55.5539165
 21
114.4245755
  0
LINE
  8
_0-0_0
  6
CONTINUOUS
 62
    7
 10
55.8039165
 20
109.6745755
 11
55.5539165
 21
109.4245755
  0
LINE
  8
_0-0_0
  6
CONTINUOUS
 62
    7
 10
55.8039165
 20
97.574569499999996
 11
55.5539165
 21
97.824569499999996
  0
LINE
  8
_0-0_0
  6
CONTINUOUS
 62
    7
 10
55.8039165
 20
93.074569499999996
 11
55.5539165
 21
92.824569499999996
  0
LINE
  8
_0-0_0
  6
CONTINUOUS
 62
    7
 10
59.8039165
 20
108.8745725
 11
60.603912500000007
 21
109.67456850000001
  0
LINE
  8
_0-0_0
  6
CONTINUOUS
 62
    7
 10
59.8039165
 20
98.374572499999999
 11
61.0539165
 21
97.124572499999999
  0
LINE
  8
_0-0_0
  6
CONTINUOUS
 62
    7
 10
45.8039165
 20
113.9245755
 11
46.3037645
 21
114.42441550000001
  0
LINE
  8
_0-0_0
  6
CONTINUOUS
 62
    7
 10
45.8039165
 20
109.9245755
 11
46.3037645
 21
109.4247285
  0
LINE
  8
_0-0_0
  6
CONTINUOUS
 62
    7
 10
45.8039165
 20
97.324569499999996
 11
46.3037645
 21
97.824416499999998
  0
LINE
  8
_0-0_0
  6
CONTINUOUS
 62
    7
 10
45.8039165
 20
93.324569499999996
 11
46.3037645
 21
92.824722500000007
  0
LINE
  8
_0-0_0
  6
CONTINUOUS
 62
    7
 10
59.8039165
 20
108.6245725
 11
59.403915500000011
 21
108.6245725
  0
LINE
  8
_0-0_0
  6
CONTINUOUS
 62
    7
 10
59.8039165
 20
98.624572499999999
 11
59.403915500000011
 21
98.624572499999999
  0
LINE
  8
_0-0_0
  6
CONTINUOUS
 62
    7
 10
58.603920500000001
 20
108.1626895
 11
59.403915500000011
 21
108.6245725
  0
LINE
  8
_0-0_0
  6
CONTINUOUS
 62
    7
 10
58.603920500000001
 20
99.086448500000003
 11
59.403915500000011
 21
98.624572499999999
  0
LINE
  8
_0-0_0
  6
CONTINUOUS
 62
    7
 10
58.603920500000001
 20
107.6245725
 11
0.6039164999999968
 21
107.6245725
  0
LINE
  8
_0-0_0
  6
CONTINUOUS
 62
    7
 10
58.603920500000001
 20
99.624572499999999
 11
0.6039164999999968
 21
99.624572499999999
  0
LINE
  8
_0-0_0
  6
CONTINUOUS
 62
    7
 10
66.3039165
 20
132.5246425
 11
68.758697500000011
 21
132.5246425
  0
LINE
  8
_0-0_0
  6
CONTINUOUS
 62
    7
 10
66.3039165
 20
119.3246455
 11
66.3039165
 21
132.5246425
  0
LINE
  8
_0-0_0
  6
CONTINUOUS
 62
    7
 10
269.30392449999999
 20
119.3246455
 11
269.30392449999999
 21
132.5246425
  0
LINE
  8
_0-0_0
  6
CONTINUOUS
 62
    7
 10
266.8491515
 20
132.5246425
 11
269.30392449999999
 21
132.5246425
  0
ARC
  8
_0-0_0
  6
CONTINUOUS
 62
    7
 10
260.30392449999999
 20
137.12464850000001
 40
8
 50
215.099627
 51
324.90037799999999
  0
LINE
  8
_0-0_0
  6
CONTINUOUS
 62
    7
 10
81.849151500000005
 20
132.5246425
 11
253.75869749999998
 21
132.5246425
  0
ARC
  8
_0-0_0
  6
CONTINUOUS
 62
    7
 10
75.303924499999994
 20
137.12464850000001
 40
8
 50
215.099627
 51
324.90037799999999
  0
LINE
  8
_0-0_0
  6
CONTINUOUS
 62
    7
 10
68.758697500000011
 20
132.5246425
 11
68.669708500000013
 21
132.6539305
  0
LINE
  8
_0-0_0
  6
CONTINUOUS
 62
    7
 10
81.849151500000005
 20
132.5246425
 11
81.938125500000012
 21
132.6539305
  0
LINE
  8
_0-0_0
  6
CONTINUOUS
 62
    7
 10
82.031265500000018
 20
132.79534950000001
 11
81.938125500000012
 21
132.6539305
  0
LINE
  8
_0-0_0
  6
CONTINUOUS
 62
    7
 10
82.031265500000018
 20
132.79534950000001
 11
82.112731499999995
 21
132.92465150000001
  0
ARC
  8
_0-0_0
  6
CONTINUOUS
 62
    7
 10
75.303924499999994
 20
137.12464850000001
 40
8
 50
328.33175599999993
 51
334.05550899999992
  0
LINE
  8
_0-0_0
  6
CONTINUOUS
 62
    7
 10
82.497665500000011
 20
133.62464850000001
 11
82.559143500000005
 21
133.75393650000001
  0
LINE
  8
_0-0_0
  6
CONTINUOUS
 62
    7
 10
82.623184500000008
 20
133.89535549999999
 11
82.559143500000005
 21
133.75393650000001
  0
LINE
  8
_0-0_0
  6
CONTINUOUS
 62
    7
 10
82.623184500000008
 20
133.89535549999999
 11
82.678878499999996
 21
134.0246425
  0
ARC
  8
_0-0_0
  6
CONTINUOUS
 62
    7
 10
75.303924499999994
 20
137.12464850000001
 40
8
 50
337.20097500000003
 51
342.54240199999998
  0
LINE
  8
_0-0_0
  6
CONTINUOUS
 62
    7
 10
82.935424500000011
 20
134.72463949999999
 11
82.974884500000002
 21
134.85394250000002
  0
LINE
  8
_0-0_0
  6
CONTINUOUS
 62
    7
 10
83.015350500000011
 20
134.9953615
 11
82.974884500000002
 21
134.85394250000002
  0
LINE
  8
_0-0_0
  6
CONTINUOUS
 62
    7
 10
83.015350500000011
 20
134.9953615
 11
83.049881499999998
 21
135.12464850000001
  0
ARC
  8
_0-0_0
  6
CONTINUOUS
 62
    7
 10
75.303924499999994
 20
137.12464850000001
 40
8
 50
345.52249499999999
 51
350.64797900000002
  0
LINE
  8
_0-0_0
  6
CONTINUOUS
 62
    7
 10
83.1975865
 20
135.8246455
 11
83.217788500000012
 21
135.95393350000001
  0
LINE
  8
_0-0_0
  6
CONTINUOUS
 62
    7
 10
83.237426499999998
 20
136.09535249999999
 11
83.217788500000012
 21
135.95393350000001
  0
LINE
  8
_0-0_0
  6
CONTINUOUS
 62
    7
 10
83.237426499999998
 20
136.09535249999999
 11
83.253128500000003
 21
136.22463949999999
  0
ARC
  8
_0-0_0
  6
CONTINUOUS
 62
    7
 10
75.303924499999994
 20
137.12464850000001
 40
8
 50
353.54056400000002
 51
358.56744600000002
  0
LINE
  8
_0-0_0
  6
CONTINUOUS
 62
    7
 10
83.301422500000001
 20
136.92465150000001
 11
83.303604500000006
 21
137.05392449999999
  0
LINE
  8
_0-0_0
  6
CONTINUOUS
 62
    7
 10
83.303604500000006
 20
137.05392449999999
 11
83.303924499999994
 21
137.12464850000001
  0
LINE
  8
_0-0_0
  6
CONTINUOUS
 62
    7
 10
67.304229500000019
 20
137.05392449999999
 11
67.303924499999994
 21
137.12464850000001
  0
LINE
  8
_0-0_0
  6
CONTINUOUS
 62
    7
 10
67.306427500000012
 20
136.92465150000001
 11
67.304229500000019
 21
137.05392449999999
  0
ARC
  8
_0-0_0
  6
CONTINUOUS
 62
    7
 10
75.303924499999994
 20
137.12464850000001
 40
8
 50
181.432545
 51
186.45945499999999
  0
LINE
  8
_0-0_0
  6
CONTINUOUS
 62
    7
 10
67.370407499999999
 20
136.09535249999999
 11
67.354705499999994
 21
136.22463949999999
  0
LINE
  8
_0-0_0
  6
CONTINUOUS
 62
    7
 10
67.370407499999999
 20
136.09535249999999
 11
67.390045500000014
 21
135.95393350000001
  0
LINE
  8
_0-0_0
  6
CONTINUOUS
 62
    7
 10
67.410247499999997
 20
135.8246455
 11
67.390045500000014
 21
135.95393350000001
  0
ARC
  8
_0-0_0
  6
CONTINUOUS
 62
    7
 10
75.303924499999994
 20
137.12464850000001
 40
8
 50
189.35203999999999
 51
194.47751
  0
LINE
  8
_0-0_0
  6
CONTINUOUS
 62
    7
 10
67.592498500000005
 20
134.9953615
 11
67.557952499999999
 21
135.12464850000001
  0
LINE
  8
_0-0_0
  6
CONTINUOUS
 62
    7
 10
67.592498500000005
 20
134.9953615
 11
67.632934500000005
 21
134.85394250000002
  0
LINE
  8
_0-0_0
  6
CONTINUOUS
 62
    7
 10
67.672393499999998
 20
134.72463949999999
 11
67.632934500000005
 21
134.85394250000002
  0
ARC
  8
_0-0_0
  6
CONTINUOUS
 62
    7
 10
75.303924499999994
 20
137.12464850000001
 40
8
 50
197.45760300000001
 51
202.79902999999999
  0
LINE
  8
_0-0_0
  6
CONTINUOUS
 62
    7
 10
67.984649500000017
 20
133.89535549999999
 11
67.928955500000001
 21
134.0246425
  0
LINE
  8
_0-0_0
  6
CONTINUOUS
 62
    7
 10
67.984649500000017
 20
133.89535549999999
 11
68.048690499999992
 21
133.75393650000001
  0
LINE
  8
_0-0_0
  6
CONTINUOUS
 62
    7
 10
68.110168500000015
 20
133.62464850000001
 11
68.048690499999992
 21
133.75393650000001
  0
ARC
  8
_0-0_0
  6
CONTINUOUS
 62
    7
 10
75.303924499999994
 20
137.12464850000001
 40
8
 50
205.94448199999999
 51
211.66823500000001
  0
LINE
  8
_0-0_0
  6
CONTINUOUS
 62
    7
 10
68.576568500000008
 20
132.79534950000001
 11
68.495101500000004
 21
132.92465150000001
  0
LINE
  8
_0-0_0
  6
CONTINUOUS
 62
    7
 10
68.576568500000008
 20
132.79534950000001
 11
68.669708500000013
 21
132.6539305
  0
LINE
  8
_0-0_0
  6
CONTINUOUS
 62
    7
 10
253.75869749999998
 20
132.5246425
 11
253.66970850000001
 21
132.6539305
  0
LINE
  8
_0-0_0
  6
CONTINUOUS
 62
    7
 10
252.30422950000002
 20
137.05392449999999
 11
252.30392449999999
 21
137.12464850000001
  0
LINE
  8
_0-0_0
  6
CONTINUOUS
 62
    7
 10
252.30642749999998
 20
136.92465150000001
 11
252.30422950000002
 21
137.05392449999999
  0
ARC
  8
_0-0_0
  6
CONTINUOUS
 62
    7
 10
260.30392449999999
 20
137.12464850000001
 40
8
 50
181.432545
 51
186.45945499999999
  0
LINE
  8
_0-0_0
  6
CONTINUOUS
 62
    7
 10
252.37042250000002
 20
136.09535249999999
 11
252.35470550000002
 21
136.22463949999999
  0
LINE
  8
_0-0_0
  6
CONTINUOUS
 62
    7
 10
252.37042250000002
 20
136.09535249999999
 11
252.39004549999999
 21
135.95393350000001
  0
LINE
  8
_0-0_0
  6
CONTINUOUS
 62
    7
 10
252.41024750000003
 20
135.8246455
 11
252.39004549999999
 21
135.95393350000001
  0
ARC
  8
_0-0_0
  6
CONTINUOUS
 62
    7
 10
260.30392449999999
 20
137.12464850000001
 40
8
 50
189.35203999999999
 51
194.47751
  0
LINE
  8
_0-0_0
  6
CONTINUOUS
 62
    7
 10
252.59249850000003
 20
134.9953615
 11
252.5579525
 21
135.12464850000001
  0
LINE
  8
_0-0_0
  6
CONTINUOUS
 62
    7
 10
252.59249850000003
 20
134.9953615
 11
252.63293450000003
 21
134.85394250000002
  0
LINE
  8
_0-0_0
  6
CONTINUOUS
 62
    7
 10
252.6723935
 20
134.72463949999999
 11
252.63293450000003
 21
134.85394250000002
  0
ARC
  8
_0-0_0
  6
CONTINUOUS
 62
    7
 10
260.30392449999999
 20
137.12464850000001
 40
8
 50
197.45760300000001
 51
202.79902999999999
  0
LINE
  8
_0-0_0
  6
CONTINUOUS
 62
    7
 10
252.98464949999999
 20
133.89535549999999
 11
252.92895550000003
 21
134.0246425
  0
LINE
  8
_0-0_0
  6
CONTINUOUS
 62
    7
 10
252.98464949999999
 20
133.89535549999999
 11
253.0486755
 21
133.75393650000001
  0
LINE
  8
_0-0_0
  6
CONTINUOUS
 62
    7
 10
253.11016849999999
 20
133.62464850000001
 11
253.0486755
 21
133.75393650000001
  0
ARC
  8
_0-0_0
  6
CONTINUOUS
 62
    7
 10
260.30392449999999
 20
137.12464850000001
 40
8
 50
205.94448199999999
 51
211.66823500000001
  0
LINE
  8
_0-0_0
  6
CONTINUOUS
 62
    7
 10
253.57656850000001
 20
132.79534950000001
 11
253.49508650000001
 21
132.92465150000001
  0
LINE
  8
_0-0_0
  6
CONTINUOUS
 62
    7
 10
253.57656850000001
 20
132.79534950000001
 11
253.66970850000001
 21
132.6539305
  0
LINE
  8
_0-0_0
  6
CONTINUOUS
 62
    7
 10
266.8491515
 20
132.5246425
 11
266.93814050000003
 21
132.6539305
  0
LINE
  8
_0-0_0
  6
CONTINUOUS
 62
    7
 10
267.03128049999998
 20
132.79534950000001
 11
266.93814050000003
 21
132.6539305
  0
LINE
  8
_0-0_0
  6
CONTINUOUS
 62
    7
 10
267.03128049999998
 20
132.79534950000001
 11
267.1127315
 21
132.92465150000001
  0
ARC
  8
_0-0_0
  6
CONTINUOUS
 62
    7
 10
260.30392449999999
 20
137.12464850000001
 40
8
 50
328.33175599999993
 51
334.05550899999992
  0
LINE
  8
_0-0_0
  6
CONTINUOUS
 62
    7
 10
267.49765050000002
 20
133.62464850000001
 11
267.5591435
 21
133.75393650000001
  0
LINE
  8
_0-0_0
  6
CONTINUOUS
 62
    7
 10
267.6231995
 20
133.89535549999999
 11
267.5591435
 21
133.75393650000001
  0
LINE
  8
_0-0_0
  6
CONTINUOUS
 62
    7
 10
267.6231995
 20
133.89535549999999
 11
267.67886350000003
 21
134.0246425
  0
ARC
  8
_0-0_0
  6
CONTINUOUS
 62
    7
 10
260.30392449999999
 20
137.12464850000001
 40
8
 50
337.20097500000003
 51
342.54240199999998
  0
LINE
  8
_0-0_0
  6
CONTINUOUS
 62
    7
 10
267.93542450000001
 20
134.72463949999999
 11
267.97488450000003
 21
134.85394250000002
  0
LINE
  8
_0-0_0
  6
CONTINUOUS
 62
    7
 10
268.01535050000001
 20
134.9953615
 11
267.97488450000003
 21
134.85394250000002
  0
LINE
  8
_0-0_0
  6
CONTINUOUS
 62
    7
 10
268.01535050000001
 20
134.9953615
 11
268.04989649999999
 21
135.12464850000001
  0
ARC
  8
_0-0_0
  6
CONTINUOUS
 62
    7
 10
260.30392449999999
 20
137.12464850000001
 40
8
 50
345.52249499999999
 51
350.64797900000002
  0
LINE
  8
_0-0_0
  6
CONTINUOUS
 62
    7
 10
268.19757049999998
 20
135.8246455
 11
268.2178045
 21
135.95393350000001
  0
LINE
  8
_0-0_0
  6
CONTINUOUS
 62
    7
 10
268.23742650000003
 20
136.09535249999999
 11
268.2178045
 21
135.95393350000001
  0
LINE
  8
_0-0_0
  6
CONTINUOUS
 62
    7
 10
268.23742650000003
 20
136.09535249999999
 11
268.25314350000002
 21
136.22463949999999
  0
ARC
  8
_0-0_0
  6
CONTINUOUS
 62
    7
 10
260.30392449999999
 20
137.12464850000001
 40
8
 50
353.54056400000002
 51
358.56744600000002
  0
LINE
  8
_0-0_0
  6
CONTINUOUS
 62
    7
 10
268.3014225
 20
136.92465150000001
 11
268.30361950000002
 21
137.05392449999999
  0
LINE
  8
_0-0_0
  6
CONTINUOUS
 62
    7
 10
268.30361950000002
 20
137.05392449999999
 11
268.30392449999999
 21
137.12464850000001
  0
LINE
  8
_0-0_0
  6
CONTINUOUS
 62
    7
 10
269.30392449999999
 20
132.6539305
 11
269.30392449999999
 21
132.5246425
  0
LINE
  8
_0-0_0
  6
CONTINUOUS
 62
    7
 10
269.30392449999999
 20
141.45393350000001
 11
269.30392449999999
 21
141.59535249999999
  0
LINE
  8
_0-0_0
  6
CONTINUOUS
 62
    7
 10
269.30392449999999
 20
141.45393350000001
 11
269.30392449999999
 21
141.3246455
  0
LINE
  8
_0-0_0
  6
CONTINUOUS
 62
    7
 10
269.30392449999999
 20
140.62464850000001
 11
269.30392449999999
 21
141.3246455
  0
LINE
  8
_0-0_0
  6
CONTINUOUS
 62
    7
 10
269.30392449999999
 20
140.4953615
 11
269.30392449999999
 21
140.62464850000001
  0
LINE
  8
_0-0_0
  6
CONTINUOUS
 62
    7
 10
269.30392449999999
 20
140.3539275
 11
269.30392449999999
 21
140.4953615
  0
LINE
  8
_0-0_0
  6
CONTINUOUS
 62
    7
 10
269.30392449999999
 20
140.3539275
 11
269.30392449999999
 21
140.22463949999999
  0
LINE
  8
_0-0_0
  6
CONTINUOUS
 62
    7
 10
269.30392449999999
 20
139.5246425
 11
269.30392449999999
 21
140.22463949999999
  0
LINE
  8
_0-0_0
  6
CONTINUOUS
 62
    7
 10
269.30392449999999
 20
139.39535549999999
 11
269.30392449999999
 21
139.5246425
  0
LINE
  8
_0-0_0
  6
CONTINUOUS
 62
    7
 10
269.30392449999999
 20
139.25393650000001
 11
269.30392449999999
 21
139.39535549999999
  0
LINE
  8
_0-0_0
  6
CONTINUOUS
 62
    7
 10
269.30392449999999
 20
139.25393650000001
 11
269.30392449999999
 21
139.12464850000001
  0
LINE
  8
_0-0_0
  6
CONTINUOUS
 62
    7
 10
269.30392449999999
 20
138.42465150000001
 11
269.30392449999999
 21
139.12464850000001
  0
LINE
  8
_0-0_0
  6
CONTINUOUS
 62
    7
 10
269.30392449999999
 20
138.29534950000001
 11
269.30392449999999
 21
138.42465150000001
  0
LINE
  8
_0-0_0
  6
CONTINUOUS
 62
    7
 10
269.30392449999999
 20
138.1539305
 11
269.30392449999999
 21
138.29534950000001
  0
LINE
  8
_0-0_0
  6
CONTINUOUS
 62
    7
 10
269.30392449999999
 20
138.1539305
 11
269.30392449999999
 21
138.0246425
  0
LINE
  8
_0-0_0
  6
CONTINUOUS
 62
    7
 10
269.30392449999999
 20
137.3246455
 11
269.30392449999999
 21
138.0246425
  0
LINE
  8
_0-0_0
  6
CONTINUOUS
 62
    7
 10
269.30392449999999
 20
137.1953585
 11
269.30392449999999
 21
137.3246455
  0
LINE
  8
_0-0_0
  6
CONTINUOUS
 62
    7
 10
269.30392449999999
 20
137.05392449999999
 11
269.30392449999999
 21
137.1953585
  0
LINE
  8
_0-0_0
  6
CONTINUOUS
 62
    7
 10
269.30392449999999
 20
137.05392449999999
 11
269.30392449999999
 21
136.92465150000001
  0
LINE
  8
_0-0_0
  6
CONTINUOUS
 62
    7
 10
269.30392449999999
 20
136.22463949999999
 11
269.30392449999999
 21
136.92465150000001
  0
LINE
  8
_0-0_0
  6
CONTINUOUS
 62
    7
 10
269.30392449999999
 20
136.09535249999999
 11
269.30392449999999
 21
136.22463949999999
  0
LINE
  8
_0-0_0
  6
CONTINUOUS
 62
    7
 10
269.30392449999999
 20
135.95393350000001
 11
269.30392449999999
 21
136.09535249999999
  0
LINE
  8
_0-0_0
  6
CONTINUOUS
 62
    7
 10
269.30392449999999
 20
135.95393350000001
 11
269.30392449999999
 21
135.8246455
  0
LINE
  8
_0-0_0
  6
CONTINUOUS
 62
    7
 10
269.30392449999999
 20
135.12464850000001
 11
269.30392449999999
 21
135.8246455
  0
LINE
  8
_0-0_0
  6
CONTINUOUS
 62
    7
 10
269.30392449999999
 20
134.9953615
 11
269.30392449999999
 21
135.12464850000001
  0
LINE
  8
_0-0_0
  6
CONTINUOUS
 62
    7
 10
269.30392449999999
 20
134.85394250000002
 11
269.30392449999999
 21
134.9953615
  0
LINE
  8
_0-0_0
  6
CONTINUOUS
 62
    7
 10
269.30392449999999
 20
134.85394250000002
 11
269.30392449999999
 21
134.72463949999999
  0
LINE
  8
_0-0_0
  6
CONTINUOUS
 62
    7
 10
269.30392449999999
 20
134.0246425
 11
269.30392449999999
 21
134.72463949999999
  0
LINE
  8
_0-0_0
  6
CONTINUOUS
 62
    7
 10
269.30392449999999
 20
133.89535549999999
 11
269.30392449999999
 21
134.0246425
  0
LINE
  8
_0-0_0
  6
CONTINUOUS
 62
    7
 10
269.30392449999999
 20
133.75393650000001
 11
269.30392449999999
 21
133.89535549999999
  0
LINE
  8
_0-0_0
  6
CONTINUOUS
 62
    7
 10
269.30392449999999
 20
133.75393650000001
 11
269.30392449999999
 21
133.62464850000001
  0
LINE
  8
_0-0_0
  6
CONTINUOUS
 62
    7
 10
269.30392449999999
 20
132.92465150000001
 11
269.30392449999999
 21
133.62464850000001
  0
LINE
  8
_0-0_0
  6
CONTINUOUS
 62
    7
 10
269.30392449999999
 20
132.79534950000001
 11
269.30392449999999
 21
132.92465150000001
  0
LINE
  8
_0-0_0
  6
CONTINUOUS
 62
    7
 10
269.30392449999999
 20
132.6539305
 11
269.30392449999999
 21
132.79534950000001
  0
LINE
  8
_0-0_0
  6
CONTINUOUS
 62
    7
 10
269.30392449999999
 20
118.8246455
 11
269.30392449999999
 21
119.3246455
  0
LINE
  8
_0-0_0
  6
CONTINUOUS
 62
    7
 10
269.30392449999999
 20
147.3246455
 11
269.30392449999999
 21
146.7306825
  0
LINE
  8
_0-0_0
  6
CONTINUOUS
 62
    7
 10
269.30392449999999
 20
141.72463949999999
 11
269.30392449999999
 21
146.7306825
  0
LINE
  8
_0-0_0
  6
CONTINUOUS
 62
    7
 10
269.30392449999999
 20
141.59535249999999
 11
269.30392449999999
 21
141.72463949999999
  0
LINE
  8
_0-0_0
  6
CONTINUOUS
 62
    7
 10
66.3039165
 20
118.8246455
 11
66.3039165
 21
119.3246455
  0
LINE
  8
_0-0_0
  6
CONTINUOUS
 62
    7
 10
66.3039165
 20
118.8246455
 11
269.30392449999999
 21
118.8246455
  0
LINE
  8
_0-0_0
  6
CONTINUOUS
 62
    7
 10
66.3039165
 20
132.6539305
 11
66.3039165
 21
132.79534950000001
  0
LINE
  8
_0-0_0
  6
CONTINUOUS
 62
    7
 10
66.3039165
 20
132.6539305
 11
66.3039165
 21
132.5246425
  0
LINE
  8
_0-0_0
  6
CONTINUOUS
 62
    7
 10
66.3039165
 20
147.3246455
 11
66.3039165
 21
146.7306825
  0
LINE
  8
_0-0_0
  6
CONTINUOUS
 62
    7
 10
66.3039165
 20
141.72463949999999
 11
66.3039165
 21
146.7306825
  0
LINE
  8
_0-0_0
  6
CONTINUOUS
 62
    7
 10
66.3039165
 20
141.59535249999999
 11
66.3039165
 21
141.72463949999999
  0
LINE
  8
_0-0_0
  6
CONTINUOUS
 62
    7
 10
66.3039165
 20
141.45393350000001
 11
66.3039165
 21
141.59535249999999
  0
LINE
  8
_0-0_0
  6
CONTINUOUS
 62
    7
 10
66.3039165
 20
141.45393350000001
 11
66.3039165
 21
141.3246455
  0
LINE
  8
_0-0_0
  6
CONTINUOUS
 62
    7
 10
66.3039165
 20
140.62464850000001
 11
66.3039165
 21
141.3246455
  0
LINE
  8
_0-0_0
  6
CONTINUOUS
 62
    7
 10
66.3039165
 20
140.4953615
 11
66.3039165
 21
140.62464850000001
  0
LINE
  8
_0-0_0
  6
CONTINUOUS
 62
    7
 10
66.3039165
 20
140.3539275
 11
66.3039165
 21
140.4953615
  0
LINE
  8
_0-0_0
  6
CONTINUOUS
 62
    7
 10
66.3039165
 20
140.3539275
 11
66.3039165
 21
140.22463949999999
  0
LINE
  8
_0-0_0
  6
CONTINUOUS
 62
    7
 10
66.3039165
 20
139.5246425
 11
66.3039165
 21
140.22463949999999
  0
LINE
  8
_0-0_0
  6
CONTINUOUS
 62
    7
 10
66.3039165
 20
139.39535549999999
 11
66.3039165
 21
139.5246425
  0
LINE
  8
_0-0_0
  6
CONTINUOUS
 62
    7
 10
66.3039165
 20
139.25393650000001
 11
66.3039165
 21
139.39535549999999
  0
LINE
  8
_0-0_0
  6
CONTINUOUS
 62
    7
 10
66.3039165
 20
139.25393650000001
 11
66.3039165
 21
139.12464850000001
  0
LINE
  8
_0-0_0
  6
CONTINUOUS
 62
    7
 10
66.3039165
 20
138.42465150000001
 11
66.3039165
 21
139.12464850000001
  0
LINE
  8
_0-0_0
  6
CONTINUOUS
 62
    7
 10
66.3039165
 20
138.29534950000001
 11
66.3039165
 21
138.42465150000001
  0
LINE
  8
_0-0_0
  6
CONTINUOUS
 62
    7
 10
66.3039165
 20
138.1539305
 11
66.3039165
 21
138.29534950000001
  0
LINE
  8
_0-0_0
  6
CONTINUOUS
 62
    7
 10
66.3039165
 20
138.1539305
 11
66.3039165
 21
138.0246425
  0
LINE
  8
_0-0_0
  6
CONTINUOUS
 62
    7
 10
66.3039165
 20
137.3246455
 11
66.3039165
 21
138.0246425
  0
LINE
  8
_0-0_0
  6
CONTINUOUS
 62
    7
 10
66.3039165
 20
137.1953585
 11
66.3039165
 21
137.3246455
  0
LINE
  8
_0-0_0
  6
CONTINUOUS
 62
    7
 10
66.3039165
 20
137.05392449999999
 11
66.3039165
 21
137.1953585
  0
LINE
  8
_0-0_0
  6
CONTINUOUS
 62
    7
 10
66.3039165
 20
137.05392449999999
 11
66.3039165
 21
136.92465150000001
  0
LINE
  8
_0-0_0
  6
CONTINUOUS
 62
    7
 10
66.3039165
 20
136.22463949999999
 11
66.3039165
 21
136.92465150000001
  0
LINE
  8
_0-0_0
  6
CONTINUOUS
 62
    7
 10
66.3039165
 20
136.09535249999999
 11
66.3039165
 21
136.22463949999999
  0
LINE
  8
_0-0_0
  6
CONTINUOUS
 62
    7
 10
66.3039165
 20
135.95393350000001
 11
66.3039165
 21
136.09535249999999
  0
LINE
  8
_0-0_0
  6
CONTINUOUS
 62
    7
 10
66.3039165
 20
135.95393350000001
 11
66.3039165
 21
135.8246455
  0
LINE
  8
_0-0_0
  6
CONTINUOUS
 62
    7
 10
66.3039165
 20
135.12464850000001
 11
66.3039165
 21
135.8246455
  0
LINE
  8
_0-0_0
  6
CONTINUOUS
 62
    7
 10
66.3039165
 20
134.9953615
 11
66.3039165
 21
135.12464850000001
  0
LINE
  8
_0-0_0
  6
CONTINUOUS
 62
    7
 10
66.3039165
 20
134.85394250000002
 11
66.3039165
 21
134.9953615
  0
LINE
  8
_0-0_0
  6
CONTINUOUS
 62
    7
 10
66.3039165
 20
134.85394250000002
 11
66.3039165
 21
134.72463949999999
  0
LINE
  8
_0-0_0
  6
CONTINUOUS
 62
    7
 10
66.3039165
 20
134.0246425
 11
66.3039165
 21
134.72463949999999
  0
LINE
  8
_0-0_0
  6
CONTINUOUS
 62
    7
 10
66.3039165
 20
133.89535549999999
 11
66.3039165
 21
134.0246425
  0
LINE
  8
_0-0_0
  6
CONTINUOUS
 62
    7
 10
66.3039165
 20
133.75393650000001
 11
66.3039165
 21
133.89535549999999
  0
LINE
  8
_0-0_0
  6
CONTINUOUS
 62
    7
 10
66.3039165
 20
133.75393650000001
 11
66.3039165
 21
133.62464850000001
  0
LINE
  8
_0-0_0
  6
CONTINUOUS
 62
    7
 10
66.3039165
 20
132.92465150000001
 11
66.3039165
 21
133.62464850000001
  0
LINE
  8
_0-0_0
  6
CONTINUOUS
 62
    7
 10
66.3039165
 20
132.79534950000001
 11
66.3039165
 21
132.92465150000001
  0
LINE
  8
_0-0_0
  6
CONTINUOUS
 62
    7
 10
203.30392449999999
 20
124.8246455
 11
210.30392449999999
 21
124.8246455
  0
ARC
  8
_0-0_0
  6
CONTINUOUS
 62
    7
 10
203.30392449999999
 20
124.3246455
 40
0.5
 50
90.000003000000007
 51
180.00000900000001
  0
LINE
  8
_0-0_0
  6
CONTINUOUS
 62
    7
 10
202.80392449999999
 20
124.3246455
 11
202.80392449999999
 21
120.3246455
  0
ARC
  8
_0-0_0
  6
CONTINUOUS
 62
    7
 10
203.30392449999999
 20
120.3246455
 40
0.5
 50
180.00000900000003
 51
269.99999700000001
  0
LINE
  8
_0-0_0
  6
CONTINUOUS
 62
    7
 10
210.30392449999999
 20
119.8246455
 11
203.30392449999999
 21
119.8246455
  0
ARC
  8
_0-0_0
  6
CONTINUOUS
 62
    7
 10
210.30392449999999
 20
120.3246455
 40
0.5
 50
269.99999700000001
 51
0
  0
LINE
  8
_0-0_0
  6
CONTINUOUS
 62
    7
 10
210.80392449999999
 20
120.3246455
 11
210.80392449999999
 21
124.3246455
  0
ARC
  8
_0-0_0
  6
CONTINUOUS
 62
    7
 10
210.30392449999999
 20
124.3246455
 40
0.5
 50
0
 51
90.000003000000007
  0
ARC
  8
_0-0_0
  6
CONTINUOUS
 62
    7
 10
133.3039095
 20
124.3246455
 40
0.5
 50
90.000003000000007
 51
180.00000900000001
  0
LINE
  8
_0-0_0
  6
CONTINUOUS
 62
    7
 10
132.8039095
 20
124.3246455
 11
132.8039095
 21
120.3246455
  0
ARC
  8
_0-0_0
  6
CONTINUOUS
 62
    7
 10
133.3039095
 20
120.3246455
 40
0.5
 50
180.00000900000003
 51
269.99999700000001
  0
LINE
  8
_0-0_0
  6
CONTINUOUS
 62
    7
 10
140.3039095
 20
119.8246455
 11
133.3039095
 21
119.8246455
  0
ARC
  8
_0-0_0
  6
CONTINUOUS
 62
    7
 10
140.3039095
 20
120.3246455
 40
0.5
 50
269.99999700000001
 51
0
  0
LINE
  8
_0-0_0
  6
CONTINUOUS
 62
    7
 10
140.8039095
 20
120.3246455
 11
140.8039095
 21
124.3246455
  0
ARC
  8
_0-0_0
  6
CONTINUOUS
 62
    7
 10
140.3039095
 20
124.3246455
 40
0.5
 50
0
 51
90.000003000000007
  0
LINE
  8
_0-0_0
  6
CONTINUOUS
 62
    7
 10
133.3039095
 20
124.8246455
 11
140.3039095
 21
124.8246455
  0
LINE
  8
_0-0_0
  6
CONTINUOUS
 62
    7
 10
66.3039165
 20
132.92465150000001
 11
68.495101500000004
 21
132.92465150000001
  0
LINE
  8
_0-0_0
  6
CONTINUOUS
 62
    7
 10
66.3039165
 20
133.62464850000001
 11
68.110168500000015
 21
133.62464850000001
  0
LINE
  8
_0-0_0
  6
CONTINUOUS
 62
    7
 10
66.3039165
 20
134.0246425
 11
67.928955500000001
 21
134.0246425
  0
LINE
  8
_0-0_0
  6
CONTINUOUS
 62
    7
 10
66.3039165
 20
134.72463949999999
 11
67.672393499999998
 21
134.72463949999999
  0
LINE
  8
_0-0_0
  6
CONTINUOUS
 62
    7
 10
66.3039165
 20
135.12464850000001
 11
67.557952499999999
 21
135.12464850000001
  0
LINE
  8
_0-0_0
  6
CONTINUOUS
 62
    7
 10
66.3039165
 20
135.8246455
 11
67.410247499999997
 21
135.8246455
  0
LINE
  8
_0-0_0
  6
CONTINUOUS
 62
    7
 10
66.3039165
 20
136.22463949999999
 11
67.354705499999994
 21
136.22463949999999
  0
LINE
  8
_0-0_0
  6
CONTINUOUS
 62
    7
 10
66.3039165
 20
136.92465150000001
 11
67.306427500000012
 21
136.92465150000001
  0
LINE
  8
_0-0_0
  6
CONTINUOUS
 62
    7
 10
67.303924499999994
 20
137.12464850000001
 11
67.304229500000019
 21
137.1953585
  0
LINE
  8
_0-0_0
  6
CONTINUOUS
 62
    7
 10
83.303924499999994
 20
137.12464850000001
 11
83.303604500000006
 21
137.1953585
  0
LINE
  8
_0-0_0
  6
CONTINUOUS
 62
    7
 10
83.301422500000001
 20
137.3246455
 11
83.303604500000006
 21
137.1953585
  0
ARC
  8
_0-0_0
  6
CONTINUOUS
 62
    7
 10
75.303924499999994
 20
137.12464850000001
 40
8
 50
1.432544
 51
6.4594489999999993
  0
LINE
  8
_0-0_0
  6
CONTINUOUS
 62
    7
 10
83.237426499999998
 20
138.1539305
 11
83.253128500000003
 21
138.0246425
  0
LINE
  8
_0-0_0
  6
CONTINUOUS
 62
    7
 10
83.237426499999998
 20
138.1539305
 11
83.217788500000012
 21
138.29534950000001
  0
LINE
  8
_0-0_0
  6
CONTINUOUS
 62
    7
 10
83.1975865
 20
138.42465150000001
 11
83.217788500000012
 21
138.29534950000001
  0
ARC
  8
_0-0_0
  6
CONTINUOUS
 62
    7
 10
75.303924499999994
 20
137.12464850000001
 40
8
 50
9.3520350000000008
 51
14.477510999999998
  0
LINE
  8
_0-0_0
  6
CONTINUOUS
 62
    7
 10
83.015350500000011
 20
139.25393650000001
 11
83.049881499999998
 21
139.12464850000001
  0
LINE
  8
_0-0_0
  6
CONTINUOUS
 62
    7
 10
83.015350500000011
 20
139.25393650000001
 11
82.974884500000002
 21
139.39535549999999
  0
LINE
  8
_0-0_0
  6
CONTINUOUS
 62
    7
 10
82.935424500000011
 20
139.5246425
 11
82.974884500000002
 21
139.39535549999999
  0
ARC
  8
_0-0_0
  6
CONTINUOUS
 62
    7
 10
75.303924499999994
 20
137.12464850000001
 40
8
 50
17.457602999999999
 51
22.799030999999999
  0
LINE
  8
_0-0_0
  6
CONTINUOUS
 62
    7
 10
82.623184500000008
 20
140.3539275
 11
82.678878499999996
 21
140.22463949999999
  0
LINE
  8
_0-0_0
  6
CONTINUOUS
 62
    7
 10
82.623184500000008
 20
140.3539275
 11
82.559143500000005
 21
140.4953615
  0
LINE
  8
_0-0_0
  6
CONTINUOUS
 62
    7
 10
82.497665500000011
 20
140.62464850000001
 11
82.559143500000005
 21
140.4953615
  0
ARC
  8
_0-0_0
  6
CONTINUOUS
 62
    7
 10
75.303924499999994
 20
137.12464850000001
 40
8
 50
25.944476999999999
 51
31.668240000000001
  0
LINE
  8
_0-0_0
  6
CONTINUOUS
 62
    7
 10
82.031265500000018
 20
141.45393350000001
 11
82.112731499999995
 21
141.3246455
  0
LINE
  8
_0-0_0
  6
CONTINUOUS
 62
    7
 10
82.031265500000018
 20
141.45393350000001
 11
81.938125500000012
 21
141.59535249999999
  0
LINE
  8
_0-0_0
  6
CONTINUOUS
 62
    7
 10
81.849151500000005
 20
141.72463949999999
 11
81.938125500000012
 21
141.59535249999999
  0
ARC
  8
_0-0_0
  6
CONTINUOUS
 62
    7
 10
75.303924499999994
 20
137.12464850000001
 40
8
 50
35.099632
 51
144.900373
  0
LINE
  8
_0-0_0
  6
CONTINUOUS
 62
    7
 10
68.758697500000011
 20
141.72463949999999
 11
68.669708500000013
 21
141.59535249999999
  0
LINE
  8
_0-0_0
  6
CONTINUOUS
 62
    7
 10
68.576568500000008
 20
141.45393350000001
 11
68.669708500000013
 21
141.59535249999999
  0
LINE
  8
_0-0_0
  6
CONTINUOUS
 62
    7
 10
68.576568500000008
 20
141.45393350000001
 11
68.495101500000004
 21
141.3246455
  0
ARC
  8
_0-0_0
  6
CONTINUOUS
 62
    7
 10
75.303924499999994
 20
137.12464850000001
 40
8
 50
148.33176499999999
 51
154.05551800000001
  0
LINE
  8
_0-0_0
  6
CONTINUOUS
 62
    7
 10
68.110168500000015
 20
140.62464850000001
 11
68.048690499999992
 21
140.4953615
  0
LINE
  8
_0-0_0
  6
CONTINUOUS
 62
    7
 10
67.984649500000017
 20
140.3539275
 11
68.048690499999992
 21
140.4953615
  0
LINE
  8
_0-0_0
  6
CONTINUOUS
 62
    7
 10
67.984649500000017
 20
140.3539275
 11
67.928955500000001
 21
140.22463949999999
  0
ARC
  8
_0-0_0
  6
CONTINUOUS
 62
    7
 10
75.303924499999994
 20
137.12464850000001
 40
8
 50
157.20097000000001
 51
162.54239699999999
  0
LINE
  8
_0-0_0
  6
CONTINUOUS
 62
    7
 10
67.672393499999998
 20
139.5246425
 11
67.632934500000005
 21
139.39535549999999
  0
LINE
  8
_0-0_0
  6
CONTINUOUS
 62
    7
 10
67.592498500000005
 20
139.25393650000001
 11
67.632934500000005
 21
139.39535549999999
  0
LINE
  8
_0-0_0
  6
CONTINUOUS
 62
    7
 10
67.592498500000005
 20
139.25393650000001
 11
67.557952499999999
 21
139.12464850000001
  0
ARC
  8
_0-0_0
  6
CONTINUOUS
 62
    7
 10
75.303924499999994
 20
137.12464850000001
 40
8
 50
165.52249
 51
170.64796000000001
  0
LINE
  8
_0-0_0
  6
CONTINUOUS
 62
    7
 10
67.410247499999997
 20
138.42465150000001
 11
67.390045500000014
 21
138.29534950000001
  0
LINE
  8
_0-0_0
  6
CONTINUOUS
 62
    7
 10
67.370407499999999
 20
138.1539305
 11
67.390045500000014
 21
138.29534950000001
  0
LINE
  8
_0-0_0
  6
CONTINUOUS
 62
    7
 10
67.370407499999999
 20
138.1539305
 11
67.354705499999994
 21
138.0246425
  0
ARC
  8
_0-0_0
  6
CONTINUOUS
 62
    7
 10
75.303924499999994
 20
137.12464850000001
 40
8
 50
173.54054500000001
 51
178.567455
  0
LINE
  8
_0-0_0
  6
CONTINUOUS
 62
    7
 10
67.306427500000012
 20
137.3246455
 11
67.304229500000019
 21
137.1953585
  0
CIRCLE
  8
_0-0_0
  6
CONTINUOUS
 62
    7
 10
75.303924499999994
 20
137.12464850000001
 40
7.5
  0
LINE
  8
_0-0_0
  6
CONTINUOUS
 62
    7
 10
252.30392449999999
 20
137.12464850000001
 11
252.30422950000002
 21
137.1953585
  0
LINE
  8
_0-0_0
  6
CONTINUOUS
 62
    7
 10
83.301422500000001
 20
136.92465150000001
 11
252.30642749999998
 21
136.92465150000001
  0
LINE
  8
_0-0_0
  6
CONTINUOUS
 62
    7
 10
83.253128500000003
 20
136.22463949999999
 11
252.35470550000002
 21
136.22463949999999
  0
LINE
  8
_0-0_0
  6
CONTINUOUS
 62
    7
 10
83.1975865
 20
135.8246455
 11
252.41024750000003
 21
135.8246455
  0
LINE
  8
_0-0_0
  6
CONTINUOUS
 62
    7
 10
83.049881499999998
 20
135.12464850000001
 11
252.5579525
 21
135.12464850000001
  0
LINE
  8
_0-0_0
  6
CONTINUOUS
 62
    7
 10
82.935424500000011
 20
134.72463949999999
 11
252.6723935
 21
134.72463949999999
  0
LINE
  8
_0-0_0
  6
CONTINUOUS
 62
    7
 10
82.678878499999996
 20
134.0246425
 11
252.92895550000003
 21
134.0246425
  0
LINE
  8
_0-0_0
  6
CONTINUOUS
 62
    7
 10
82.497665500000011
 20
133.62464850000001
 11
253.11016849999999
 21
133.62464850000001
  0
LINE
  8
_0-0_0
  6
CONTINUOUS
 62
    7
 10
82.112731499999995
 20
132.92465150000001
 11
253.49508650000001
 21
132.92465150000001
  0
LINE
  8
_0-0_0
  6
CONTINUOUS
 62
    7
 10
268.30392449999999
 20
137.12464850000001
 11
268.30361950000002
 21
137.1953585
  0
LINE
  8
_0-0_0
  6
CONTINUOUS
 62
    7
 10
268.3014225
 20
136.92465150000001
 11
269.30392449999999
 21
136.92465150000001
  0
LINE
  8
_0-0_0
  6
CONTINUOUS
 62
    7
 10
268.25314350000002
 20
136.22463949999999
 11
269.30392449999999
 21
136.22463949999999
  0
LINE
  8
_0-0_0
  6
CONTINUOUS
 62
    7
 10
268.19757049999998
 20
135.8246455
 11
269.30392449999999
 21
135.8246455
  0
LINE
  8
_0-0_0
  6
CONTINUOUS
 62
    7
 10
268.04989649999999
 20
135.12464850000001
 11
269.30392449999999
 21
135.12464850000001
  0
LINE
  8
_0-0_0
  6
CONTINUOUS
 62
    7
 10
267.93542450000001
 20
134.72463949999999
 11
269.30392449999999
 21
134.72463949999999
  0
LINE
  8
_0-0_0
  6
CONTINUOUS
 62
    7
 10
267.67886350000003
 20
134.0246425
 11
269.30392449999999
 21
134.0246425
  0
LINE
  8
_0-0_0
  6
CONTINUOUS
 62
    7
 10
267.49765050000002
 20
133.62464850000001
 11
269.30392449999999
 21
133.62464850000001
  0
LINE
  8
_0-0_0
  6
CONTINUOUS
 62
    7
 10
267.1127315
 20
132.92465150000001
 11
269.30392449999999
 21
132.92465150000001
  0
LINE
  8
_0-0_0
  6
CONTINUOUS
 62
    7
 10
266.8491515
 20
141.72463949999999
 11
266.93814050000003
 21
141.59535249999999
  0
ARC
  8
_0-0_0
  6
CONTINUOUS
 62
    7
 10
260.30392449999999
 20
137.12464850000001
 40
8
 50
35.099632
 51
144.900373
  0
LINE
  8
_0-0_0
  6
CONTINUOUS
 62
    7
 10
253.75869749999998
 20
141.72463949999999
 11
253.66970850000001
 21
141.59535249999999
  0
LINE
  8
_0-0_0
  6
CONTINUOUS
 62
    7
 10
253.57656850000001
 20
141.45393350000001
 11
253.66970850000001
 21
141.59535249999999
  0
LINE
  8
_0-0_0
  6
CONTINUOUS
 62
    7
 10
253.57656850000001
 20
141.45393350000001
 11
253.49508650000001
 21
141.3246455
  0
ARC
  8
_0-0_0
  6
CONTINUOUS
 62
    7
 10
260.30392449999999
 20
137.12464850000001
 40
8
 50
148.33176499999999
 51
154.05551800000001
  0
LINE
  8
_0-0_0
  6
CONTINUOUS
 62
    7
 10
253.11016849999999
 20
140.62464850000001
 11
253.0486755
 21
140.4953615
  0
LINE
  8
_0-0_0
  6
CONTINUOUS
 62
    7
 10
252.98464949999999
 20
140.3539275
 11
253.0486755
 21
140.4953615
  0
LINE
  8
_0-0_0
  6
CONTINUOUS
 62
    7
 10
252.98464949999999
 20
140.3539275
 11
252.92895550000003
 21
140.22463949999999
  0
ARC
  8
_0-0_0
  6
CONTINUOUS
 62
    7
 10
260.30392449999999
 20
137.12464850000001
 40
8
 50
157.20097000000001
 51
162.54239699999999
  0
LINE
  8
_0-0_0
  6
CONTINUOUS
 62
    7
 10
252.6723935
 20
139.5246425
 11
252.63293450000003
 21
139.39535549999999
  0
LINE
  8
_0-0_0
  6
CONTINUOUS
 62
    7
 10
252.59249850000003
 20
139.25393650000001
 11
252.63293450000003
 21
139.39535549999999
  0
LINE
  8
_0-0_0
  6
CONTINUOUS
 62
    7
 10
252.59249850000003
 20
139.25393650000001
 11
252.5579525
 21
139.12464850000001
  0
ARC
  8
_0-0_0
  6
CONTINUOUS
 62
    7
 10
260.30392449999999
 20
137.12464850000001
 40
8
 50
165.52249
 51
170.64796000000001
  0
LINE
  8
_0-0_0
  6
CONTINUOUS
 62
    7
 10
252.41024750000003
 20
138.42465150000001
 11
252.39004549999999
 21
138.29534950000001
  0
LINE
  8
_0-0_0
  6
CONTINUOUS
 62
    7
 10
252.37042250000002
 20
138.1539305
 11
252.39004549999999
 21
138.29534950000001
  0
LINE
  8
_0-0_0
  6
CONTINUOUS
 62
    7
 10
252.37042250000002
 20
138.1539305
 11
252.35470550000002
 21
138.0246425
  0
ARC
  8
_0-0_0
  6
CONTINUOUS
 62
    7
 10
260.30392449999999
 20
137.12464850000001
 40
8
 50
173.54054500000001
 51
178.567455
  0
LINE
  8
_0-0_0
  6
CONTINUOUS
 62
    7
 10
252.30642749999998
 20
137.3246455
 11
252.30422950000002
 21
137.1953585
  0
LINE
  8
_0-0_0
  6
CONTINUOUS
 62
    7
 10
268.3014225
 20
137.3246455
 11
268.30361950000002
 21
137.1953585
  0
ARC
  8
_0-0_0
  6
CONTINUOUS
 62
    7
 10
260.30392449999999
 20
137.12464850000001
 40
8
 50
1.432544
 51
6.4594489999999993
  0
LINE
  8
_0-0_0
  6
CONTINUOUS
 62
    7
 10
268.23742650000003
 20
138.1539305
 11
268.25314350000002
 21
138.0246425
  0
LINE
  8
_0-0_0
  6
CONTINUOUS
 62
    7
 10
268.23742650000003
 20
138.1539305
 11
268.2178045
 21
138.29534950000001
  0
LINE
  8
_0-0_0
  6
CONTINUOUS
 62
    7
 10
268.19757049999998
 20
138.42465150000001
 11
268.2178045
 21
138.29534950000001
  0
ARC
  8
_0-0_0
  6
CONTINUOUS
 62
    7
 10
260.30392449999999
 20
137.12464850000001
 40
8
 50
9.3520350000000008
 51
14.477510999999998
  0
LINE
  8
_0-0_0
  6
CONTINUOUS
 62
    7
 10
268.01535050000001
 20
139.25393650000001
 11
268.04989649999999
 21
139.12464850000001
  0
LINE
  8
_0-0_0
  6
CONTINUOUS
 62
    7
 10
268.01535050000001
 20
139.25393650000001
 11
267.97488450000003
 21
139.39535549999999
  0
LINE
  8
_0-0_0
  6
CONTINUOUS
 62
    7
 10
267.93542450000001
 20
139.5246425
 11
267.97488450000003
 21
139.39535549999999
  0
ARC
  8
_0-0_0
  6
CONTINUOUS
 62
    7
 10
260.30392449999999
 20
137.12464850000001
 40
8
 50
17.457602999999999
 51
22.799030999999999
  0
LINE
  8
_0-0_0
  6
CONTINUOUS
 62
    7
 10
267.6231995
 20
140.3539275
 11
267.67886350000003
 21
140.22463949999999
  0
LINE
  8
_0-0_0
  6
CONTINUOUS
 62
    7
 10
267.6231995
 20
140.3539275
 11
267.5591435
 21
140.4953615
  0
LINE
  8
_0-0_0
  6
CONTINUOUS
 62
    7
 10
267.49765050000002
 20
140.62464850000001
 11
267.5591435
 21
140.4953615
  0
ARC
  8
_0-0_0
  6
CONTINUOUS
 62
    7
 10
260.30392449999999
 20
137.12464850000001
 40
8
 50
25.944476999999999
 51
31.668240000000001
  0
LINE
  8
_0-0_0
  6
CONTINUOUS
 62
    7
 10
267.03128049999998
 20
141.45393350000001
 11
267.1127315
 21
141.3246455
  0
LINE
  8
_0-0_0
  6
CONTINUOUS
 62
    7
 10
267.03128049999998
 20
141.45393350000001
 11
266.93814050000003
 21
141.59535249999999
  0
CIRCLE
  8
_0-0_0
  6
CONTINUOUS
 62
    7
 10
260.30392449999999
 20
137.12464850000001
 40
7.5
  0
LINE
  8
_0-0_0
  6
CONTINUOUS
 62
    7
 10
267.1127315
 20
141.3246455
 11
269.30392449999999
 21
141.3246455
  0
LINE
  8
_0-0_0
  6
CONTINUOUS
 62
    7
 10
267.49765050000002
 20
140.62464850000001
 11
269.30392449999999
 21
140.62464850000001
  0
LINE
  8
_0-0_0
  6
CONTINUOUS
 62
    7
 10
267.67886350000003
 20
140.22463949999999
 11
269.30392449999999
 21
140.22463949999999
  0
LINE
  8
_0-0_0
  6
CONTINUOUS
 62
    7
 10
267.93542450000001
 20
139.5246425
 11
269.30392449999999
 21
139.5246425
  0
LINE
  8
_0-0_0
  6
CONTINUOUS
 62
    7
 10
268.04989649999999
 20
139.12464850000001
 11
269.30392449999999
 21
139.12464850000001
  0
LINE
  8
_0-0_0
  6
CONTINUOUS
 62
    7
 10
268.19757049999998
 20
138.42465150000001
 11
269.30392449999999
 21
138.42465150000001
  0
LINE
  8
_0-0_0
  6
CONTINUOUS
 62
    7
 10
268.25314350000002
 20
138.0246425
 11
269.30392449999999
 21
138.0246425
  0
LINE
  8
_0-0_0
  6
CONTINUOUS
 62
    7
 10
268.3014225
 20
137.3246455
 11
269.30392449999999
 21
137.3246455
  0
LINE
  8
_0-0_0
  6
CONTINUOUS
 62
    7
 10
269.80392449999999
 20
120.6246415
 11
269.30392449999999
 21
120.6246415
  0
LINE
  8
_0-0_0
  6
CONTINUOUS
 62
    7
 10
269.80392449999999
 20
122.8246455
 11
269.30392449999999
 21
122.8246455
  0
LINE
  8
_0-0_0
  6
CONTINUOUS
 62
    7
 10
269.80392449999999
 20
125.12464850000001
 11
269.30392449999999
 21
125.12464850000001
  0
LINE
  8
_0-0_0
  6
CONTINUOUS
 62
    7
 10
269.30392449999999
 20
127.42465150000001
 11
269.80392449999999
 21
127.42465150000001
  0
LINE
  8
_0-0_0
  6
CONTINUOUS
 62
    7
 10
269.80392449999999
 20
147.62464850000001
 11
269.80392449999999
 21
147.5246425
  0
LINE
  8
_0-0_0
  6
CONTINUOUS
 62
    7
 10
65.8039165
 20
147.62464850000001
 11
65.8039165
 21
147.5246425
  0
LINE
  8
_0-0_0
  6
CONTINUOUS
 62
    7
 10
65.8039165
 20
127.42465150000001
 11
66.3039165
 21
127.42465150000001
  0
LINE
  8
_0-0_0
  6
CONTINUOUS
 62
    7
 10
66.3039165
 20
147.3246455
 11
269.30392449999999
 21
147.3246455
  0
LINE
  8
_0-0_0
  6
CONTINUOUS
 62
    7
 10
66.3039165
 20
146.7306825
 11
269.30392449999999
 21
146.7306825
  0
LINE
  8
_0-0_0
  6
CONTINUOUS
 62
    7
 10
81.849151500000005
 20
141.72463949999999
 11
253.75869749999998
 21
141.72463949999999
  0
LINE
  8
_0-0_0
  6
CONTINUOUS
 62
    7
 10
266.8491515
 20
141.72463949999999
 11
269.30392449999999
 21
141.72463949999999
  0
LINE
  8
_0-0_0
  6
CONTINUOUS
 62
    7
 10
66.3039165
 20
141.72463949999999
 11
68.758697500000011
 21
141.72463949999999
  0
LINE
  8
_0-0_0
  6
CONTINUOUS
 62
    7
 10
65.8039165
 20
120.6246415
 11
66.3039165
 21
120.6246415
  0
LINE
  8
_0-0_0
  6
CONTINUOUS
 62
    7
 10
65.8039165
 20
122.8246455
 11
66.3039165
 21
122.8246455
  0
LINE
  8
_0-0_0
  6
CONTINUOUS
 62
    7
 10
65.8039165
 20
125.12464850000001
 11
66.3039165
 21
125.12464850000001
  0
LINE
  8
_0-0_0
  6
CONTINUOUS
 62
    7
 10
66.3039165
 20
141.3246455
 11
68.495101500000004
 21
141.3246455
  0
LINE
  8
_0-0_0
  6
CONTINUOUS
 62
    7
 10
66.3039165
 20
140.62464850000001
 11
68.110168500000015
 21
140.62464850000001
  0
LINE
  8
_0-0_0
  6
CONTINUOUS
 62
    7
 10
66.3039165
 20
140.22463949999999
 11
67.928955500000001
 21
140.22463949999999
  0
LINE
  8
_0-0_0
  6
CONTINUOUS
 62
    7
 10
66.3039165
 20
139.5246425
 11
67.672393499999998
 21
139.5246425
  0
LINE
  8
_0-0_0
  6
CONTINUOUS
 62
    7
 10
66.3039165
 20
139.12464850000001
 11
67.557952499999999
 21
139.12464850000001
  0
LINE
  8
_0-0_0
  6
CONTINUOUS
 62
    7
 10
66.3039165
 20
138.42465150000001
 11
67.410247499999997
 21
138.42465150000001
  0
LINE
  8
_0-0_0
  6
CONTINUOUS
 62
    7
 10
66.3039165
 20
138.0246425
 11
67.354705499999994
 21
138.0246425
  0
LINE
  8
_0-0_0
  6
CONTINUOUS
 62
    7
 10
66.3039165
 20
137.3246455
 11
67.306427500000012
 21
137.3246455
  0
LINE
  8
_0-0_0
  6
CONTINUOUS
 62
    7
 10
82.112731499999995
 20
141.3246455
 11
253.49508650000001
 21
141.3246455
  0
LINE
  8
_0-0_0
  6
CONTINUOUS
 62
    7
 10
82.497665500000011
 20
140.62464850000001
 11
253.11016849999999
 21
140.62464850000001
  0
LINE
  8
_0-0_0
  6
CONTINUOUS
 62
    7
 10
82.678878499999996
 20
140.22463949999999
 11
252.92895550000003
 21
140.22463949999999
  0
LINE
  8
_0-0_0
  6
CONTINUOUS
 62
    7
 10
82.935424500000011
 20
139.5246425
 11
252.6723935
 21
139.5246425
  0
LINE
  8
_0-0_0
  6
CONTINUOUS
 62
    7
 10
83.049881499999998
 20
139.12464850000001
 11
252.5579525
 21
139.12464850000001
  0
LINE
  8
_0-0_0
  6
CONTINUOUS
 62
    7
 10
83.1975865
 20
138.42465150000001
 11
252.41024750000003
 21
138.42465150000001
  0
LINE
  8
_0-0_0
  6
CONTINUOUS
 62
    7
 10
83.253128500000003
 20
138.0246425
 11
252.35470550000002
 21
138.0246425
  0
LINE
  8
_0-0_0
  6
CONTINUOUS
 62
    7
 10
83.301422500000001
 20
137.3246455
 11
252.30642749999998
 21
137.3246455
  0
LINE
  8
_0-0_0
  6
CONTINUOUS
 62
    7
 10
269.80392449999999
 20
119.1246415
 11
269.30392449999999
 21
119.1246415
  0
LINE
  8
_0-0_0
  6
CONTINUOUS
 62
    7
 10
269.80392449999999
 20
146.72463949999999
 11
269.80392449999999
 21
147.5246425
  0
LINE
  8
_0-0_0
  6
CONTINUOUS
 62
    7
 10
269.80392449999999
 20
118.9246445
 11
269.80392449999999
 21
146.72463949999999
  0
LINE
  8
_0-0_0
  6
CONTINUOUS
 62
    7
 10
65.8039165
 20
146.72463949999999
 11
65.8039165
 21
147.5246425
  0
LINE
  8
_0-0_0
  6
CONTINUOUS
 62
    7
 10
65.8039165
 20
118.9246445
 11
65.8039165
 21
146.72463949999999
  0
ARC
  8
_0-0_0
  6
CONTINUOUS
 62
    7
 10
75.303924499999994
 20
137.8246455
 40
12.800000000000001
 50
73.932597000000001
 51
106.06740099999999
  0
ARC
  8
_0-0_0
  6
CONTINUOUS
 62
    7
 10
260.30392449999999
 20
137.8246455
 40
12.800000000000001
 50
73.932597000000001
 51
106.06740099999999
  0
LINE
  8
_0-0_0
  6
CONTINUOUS
 62
    7
 10
269.80392449999999
 20
147.62464850000001
 11
269.80392449999999
 21
150.12464850000001
  0
LINE
  8
_0-0_0
  6
CONTINUOUS
 62
    7
 10
65.8039165
 20
150.12464850000001
 11
269.80392449999999
 21
150.12464850000001
  0
LINE
  8
_0-0_0
  6
CONTINUOUS
 62
    7
 10
65.8039165
 20
147.62464850000001
 11
65.8039165
 21
150.12464850000001
  0
LINE
  8
_0-0_0
  6
CONTINUOUS
 62
    7
 10
65.8039165
 20
119.1246415
 11
66.3039165
 21
119.1246415
  0
ARC
  8
_0-0_0
  6
CONTINUOUS
 62
    7
 10
208.10391249999998
 20
124.0246425
 40
0.2
 50
339.62356199999999
 51
90.000002999999978
  0
LINE
  8
_0-0_0
  6
CONTINUOUS
 62
    7
 10
208.29141249999998
 20
123.95500150000001
 11
206.99139450000001
 21
120.4550095
  0
ARC
  8
_0-0_0
  6
CONTINUOUS
 62
    7
 10
206.80392449999999
 20
120.5246425
 40
0.2
 50
200.37643
 51
339.62356199999999
  0
LINE
  8
_0-0_0
  6
CONTINUOUS
 62
    7
 10
205.31643650000001
 20
123.95500150000001
 11
206.61642449999999
 21
120.4550095
  0
ARC
  8
_0-0_0
  6
CONTINUOUS
 62
    7
 10
205.50390650000003
 20
124.0246425
 40
0.2
 50
90.000003000000007
 51
200.37643
  0
LINE
  8
_0-0_0
  6
CONTINUOUS
 62
    7
 10
205.50390650000003
 20
124.22463950000001
 11
208.10391249999998
 21
124.22463950000001
  0
ARC
  8
_0-0_0
  6
CONTINUOUS
 62
    7
 10
138.10391250000001
 20
124.0246425
 40
0.2
 50
339.62356199999999
 51
90.000002999999978
  0
LINE
  8
_0-0_0
  6
CONTINUOUS
 62
    7
 10
138.29139750000002
 20
123.95500150000001
 11
136.99139450000001
 21
120.4550095
  0
ARC
  8
_0-0_0
  6
CONTINUOUS
 62
    7
 10
136.8039095
 20
120.5246425
 40
0.2
 50
200.37643
 51
339.62356199999999
  0
LINE
  8
_0-0_0
  6
CONTINUOUS
 62
    7
 10
135.31642150000002
 20
123.95500150000001
 11
136.61642449999999
 21
120.4550095
  0
ARC
  8
_0-0_0
  6
CONTINUOUS
 62
    7
 10
135.5039065
 20
124.0246425
 40
0.2
 50
90.000003000000007
 51
200.37643
  0
LINE
  8
_0-0_0
  6
CONTINUOUS
 62
    7
 10
135.5039065
 20
124.22463950000001
 11
138.10391250000001
 21
124.22463950000001
  0
CIRCLE
  8
_0-0_0
  6
CONTINUOUS
 62
    7
 10
75.303924499999994
 20
137.12464850000001
 40
5
  0
CIRCLE
  8
_0-0_0
  6
CONTINUOUS
 62
    7
 10
260.30392449999999
 20
137.12464850000001
 40
5
  0
LINE
  8
_0-0_0
  6
CONTINUOUS
 62
    7
 10
270.80392449999999
 20
146.72463949999999
 11
269.80392449999999
 21
146.72463949999999
  0
LINE
  8
_0-0_0
  6
CONTINUOUS
 62
    7
 10
270.80392449999999
 20
147.7616275
 11
269.80392449999999
 21
147.7616275
  0
LINE
  8
_0-0_0
  6
CONTINUOUS
 62
    7
 10
270.80392449999999
 20
118.9246445
 11
269.80392449999999
 21
118.9246445
  0
LINE
  8
_0-0_0
  6
CONTINUOUS
 62
    7
 10
64.8039165
 20
146.72463949999999
 11
65.8039165
 21
146.72463949999999
  0
LINE
  8
_0-0_0
  6
CONTINUOUS
 62
    7
 10
64.8039165
 20
147.72463949999999
 11
65.8039165
 21
147.72463949999999
  0
LINE
  8
_0-0_0
  6
CONTINUOUS
 62
    7
 10
64.8039165
 20
118.9246445
 11
65.8039165
 21
118.9246445
  0
LINE
  8
_0-0_0
  6
CONTINUOUS
 62
    7
 10
270.80392449999999
 20
149.92465150000001
 11
269.80392449999999
 21
149.92465150000001
  0
LINE
  8
_0-0_0
  6
CONTINUOUS
 62
    7
 10
64.8039165
 20
149.92465150000001
 11
65.8039165
 21
149.92465150000001
  0
LINE
  8
_0-0_0
  6
CONTINUOUS
 62
    7
 10
271.80392449999999
 20
146.31042450000001
 11
271.80291749999998
 21
146.32893350000001
  0
LINE
  8
_0-0_0
  6
CONTINUOUS
 62
    7
 10
271.80291749999998
 20
146.32893350000001
 11
271.79992650000003
 21
146.34738150000001
  0
LINE
  8
_0-0_0
  6
CONTINUOUS
 62
    7
 10
271.79992650000003
 20
146.34738150000001
 11
271.79467750000003
 21
146.36651549999999
  0
LINE
  8
_0-0_0
  6
CONTINUOUS
 62
    7
 10
271.79467750000003
 20
146.36651549999999
 11
271.78729249999998
 21
146.38552849999999
  0
LINE
  8
_0-0_0
  6
CONTINUOUS
 62
    7
 10
271.78729249999998
 20
146.38552849999999
 11
271.76675449999999
 21
146.42224150000001
  0
LINE
  8
_0-0_0
  6
CONTINUOUS
 62
    7
 10
271.76675449999999
 20
146.42224150000001
 11
271.73834249999999
 21
146.4579315
  0
LINE
  8
_0-0_0
  6
CONTINUOUS
 62
    7
 10
271.73834249999999
 20
146.4579315
 11
271.70248450000003
 21
146.49221750000001
  0
LINE
  8
_0-0_0
  6
CONTINUOUS
 62
    7
 10
271.70248450000003
 20
146.49221750000001
 11
271.6538395
 21
146.5286715
  0
LINE
  8
_0-0_0
  6
CONTINUOUS
 62
    7
 10
271.6538395
 20
146.5286715
 11
271.59707650000001
 21
146.56268249999999
  0
LINE
  8
_0-0_0
  6
CONTINUOUS
 62
    7
 10
271.59707650000001
 20
146.56268249999999
 11
271.53292850000003
 21
146.59393249999999
  0
LINE
  8
_0-0_0
  6
CONTINUOUS
 62
    7
 10
271.53292850000003
 20
146.59393249999999
 11
271.46228050000002
 21
146.62219250000001
  0
LINE
  8
_0-0_0
  6
CONTINUOUS
 62
    7
 10
271.46228050000002
 20
146.62219250000001
 11
271.41421550000001
 21
146.63853449999999
  0
LINE
  8
_0-0_0
  6
CONTINUOUS
 62
    7
 10
271.41421550000001
 20
146.63853449999999
 11
271.36407450000002
 21
146.65353350000001
  0
LINE
  8
_0-0_0
  6
CONTINUOUS
 62
    7
 10
271.36407450000002
 20
146.65353350000001
 11
271.30737349999998
 21
146.6683045
  0
LINE
  8
_0-0_0
  6
CONTINUOUS
 62
    7
 10
271.30737349999998
 20
146.6683045
 11
271.24874850000003
 21
146.68139650000001
  0
LINE
  8
_0-0_0
  6
CONTINUOUS
 62
    7
 10
271.24874850000003
 20
146.68139650000001
 11
271.13198850000003
 21
146.70172149999999
  0
LINE
  8
_0-0_0
  6
CONTINUOUS
 62
    7
 10
271.13198850000003
 20
146.70172149999999
 11
271.02456649999999
 21
146.71443149999999
  0
LINE
  8
_0-0_0
  6
CONTINUOUS
 62
    7
 10
271.02456649999999
 20
146.71443149999999
 11
270.91479450000003
 21
146.7220915
  0
LINE
  8
_0-0_0
  6
CONTINUOUS
 62
    7
 10
270.91479450000003
 20
146.7220915
 11
270.80392449999999
 21
146.72463949999999
  0
LINE
  8
_0-0_0
  6
CONTINUOUS
 62
    7
 10
271.80392449999999
 20
146.31042450000001
 11
271.80392449999999
 21
147.3104855
  0
LINE
  8
_0-0_0
  6
CONTINUOUS
 62
    7
 10
271.80392449999999
 20
147.3104855
 11
271.80102549999998
 21
147.3420715
  0
LINE
  8
_0-0_0
  6
CONTINUOUS
 62
    7
 10
271.80102549999998
 20
147.3420715
 11
271.79226649999998
 21
147.3741455
  0
LINE
  8
_0-0_0
  6
CONTINUOUS
 62
    7
 10
271.79226649999998
 20
147.3741455
 11
271.77774049999999
 21
147.4064175
  0
LINE
  8
_0-0_0
  6
CONTINUOUS
 62
    7
 10
271.77774049999999
 20
147.4064175
 11
271.75750750000003
 21
147.4385675
  0
LINE
  8
_0-0_0
  6
CONTINUOUS
 62
    7
 10
271.75750750000003
 20
147.4385675
 11
271.74093650000003
 21
147.45980850000001
  0
LINE
  8
_0-0_0
  6
CONTINUOUS
 62
    7
 10
271.74093650000003
 20
147.45980850000001
 11
271.72198450000002
 21
147.48075850000001
  0
LINE
  8
_0-0_0
  6
CONTINUOUS
 62
    7
 10
271.72198450000002
 20
147.48075850000001
 11
271.67721549999999
 21
147.52153050000001
  0
LINE
  8
_0-0_0
  6
CONTINUOUS
 62
    7
 10
271.67721549999999
 20
147.52153050000001
 11
271.62399249999999
 21
147.56028750000002
  0
LINE
  8
_0-0_0
  6
CONTINUOUS
 62
    7
 10
271.62399249999999
 20
147.56028750000002
 11
271.57406650000001
 21
147.5904845
  0
LINE
  8
_0-0_0
  6
CONTINUOUS
 62
    7
 10
271.57406650000001
 20
147.5904845
 11
271.51937850000002
 21
147.61871350000001
  0
LINE
  8
_0-0_0
  6
CONTINUOUS
 62
    7
 10
271.51937850000002
 20
147.61871350000001
 11
271.46038850000002
 21
147.6447445
  0
LINE
  8
_0-0_0
  6
CONTINUOUS
 62
    7
 10
271.46038850000002
 20
147.6447445
 11
271.4136355
 21
147.6627345
  0
LINE
  8
_0-0_0
  6
CONTINUOUS
 62
    7
 10
271.4136355
 20
147.6627345
 11
271.3649595
 21
147.6793515
  0
LINE
  8
_0-0_0
  6
CONTINUOUS
 62
    7
 10
271.3649595
 20
147.6793515
 11
271.26257350000003
 21
147.70822150000001
  0
LINE
  8
_0-0_0
  6
CONTINUOUS
 62
    7
 10
271.26257350000003
 20
147.70822150000001
 11
271.15481549999998
 21
147.73104850000001
  0
LINE
  8
_0-0_0
  6
CONTINUOUS
 62
    7
 10
271.15481549999998
 20
147.73104850000001
 11
271.04321249999998
 21
147.7476345
  0
LINE
  8
_0-0_0
  6
CONTINUOUS
 62
    7
 10
271.04321249999998
 20
147.7476345
 11
270.92913850000002
 21
147.75784250000001
  0
LINE
  8
_0-0_0
  6
CONTINUOUS
 62
    7
 10
270.92913850000002
 20
147.75784250000001
 11
270.80392449999999
 21
147.7616275
  0
ARC
  8
_0-0_0
  6
CONTINUOUS
 62
    7
 10
270.80392449999999
 20
119.9246445
 40
1
 50
269.99999700000001
 51
0
  0
LINE
  8
_0-0_0
  6
CONTINUOUS
 62
    7
 10
271.80392449999999
 20
119.9246445
 11
271.80392449999999
 21
146.31042450000001
  0
LINE
  8
_0-0_0
  6
CONTINUOUS
 62
    7
 10
63.8039165
 20
146.31042450000001
 11
63.804916500000004
 21
146.32893350000001
  0
LINE
  8
_0-0_0
  6
CONTINUOUS
 62
    7
 10
63.804916500000004
 20
146.32893350000001
 11
63.80791450000001
 21
146.34738150000001
  0
LINE
  8
_0-0_0
  6
CONTINUOUS
 62
    7
 10
63.80791450000001
 20
146.34738150000001
 11
63.813148500000011
 21
146.36651549999999
  0
LINE
  8
_0-0_0
  6
CONTINUOUS
 62
    7
 10
63.813148500000011
 20
146.36651549999999
 11
63.8205265
 21
146.38552849999999
  0
LINE
  8
_0-0_0
  6
CONTINUOUS
 62
    7
 10
63.8205265
 20
146.38552849999999
 11
63.841079500000006
 21
146.42224150000001
  0
LINE
  8
_0-0_0
  6
CONTINUOUS
 62
    7
 10
63.841079500000006
 20
146.42224150000001
 11
63.869476500000005
 21
146.4579315
  0
LINE
  8
_0-0_0
  6
CONTINUOUS
 62
    7
 10
63.869476500000005
 20
146.4579315
 11
63.905357500000008
 21
146.49221750000001
  0
LINE
  8
_0-0_0
  6
CONTINUOUS
 62
    7
 10
63.905357500000008
 20
146.49221750000001
 11
63.953979500000003
 21
146.5286715
  0
LINE
  8
_0-0_0
  6
CONTINUOUS
 62
    7
 10
63.953979500000003
 20
146.5286715
 11
64.010765500000005
 21
146.56268249999999
  0
LINE
  8
_0-0_0
  6
CONTINUOUS
 62
    7
 10
64.010765500000005
 20
146.56268249999999
 11
64.0749055
 21
146.59393249999999
  0
LINE
  8
_0-0_0
  6
CONTINUOUS
 62
    7
 10
64.0749055
 20
146.59393249999999
 11
64.145553500000005
 21
146.62219250000001
  0
LINE
  8
_0-0_0
  6
CONTINUOUS
 62
    7
 10
64.145553500000005
 20
146.62219250000001
 11
64.193634500000002
 21
146.63853449999999
  0
LINE
  8
_0-0_0
  6
CONTINUOUS
 62
    7
 10
64.193634500000002
 20
146.63853449999999
 11
64.243774500000001
 21
146.65353350000001
  0
LINE
  8
_0-0_0
  6
CONTINUOUS
 62
    7
 10
64.243774500000001
 20
146.65353350000001
 11
64.300476500000002
 21
146.6683045
  0
LINE
  8
_0-0_0
  6
CONTINUOUS
 62
    7
 10
64.300476500000002
 20
146.6683045
 11
64.359077500000012
 21
146.68139650000001
  0
LINE
  8
_0-0_0
  6
CONTINUOUS
 62
    7
 10
64.359077500000012
 20
146.68139650000001
 11
64.47586050000001
 21
146.70172149999999
  0
LINE
  8
_0-0_0
  6
CONTINUOUS
 62
    7
 10
64.47586050000001
 20
146.70172149999999
 11
64.583267500000005
 21
146.71443149999999
  0
LINE
  8
_0-0_0
  6
CONTINUOUS
 62
    7
 10
64.583267500000005
 20
146.71443149999999
 11
64.693031500000004
 21
146.7220915
  0
LINE
  8
_0-0_0
  6
CONTINUOUS
 62
    7
 10
64.693031500000004
 20
146.7220915
 11
64.8039165
 21
146.72463949999999
  0
LINE
  8
_0-0_0
  6
CONTINUOUS
 62
    7
 10
63.8039165
 20
147.2800905
 11
63.806808500000002
 21
147.3110045
  0
LINE
  8
_0-0_0
  6
CONTINUOUS
 62
    7
 10
63.806808500000002
 20
147.3110045
 11
63.815506500000012
 21
147.34243749999999
  0
LINE
  8
_0-0_0
  6
CONTINUOUS
 62
    7
 10
63.815506500000012
 20
147.34243749999999
 11
63.829986500000004
 21
147.37411449999999
  0
LINE
  8
_0-0_0
  6
CONTINUOUS
 62
    7
 10
63.829986500000004
 20
147.37411449999999
 11
63.850158500000006
 21
147.40570049999999
  0
LINE
  8
_0-0_0
  6
CONTINUOUS
 62
    7
 10
63.850158500000006
 20
147.40570049999999
 11
63.866676500000011
 21
147.42657450000002
  0
LINE
  8
_0-0_0
  6
CONTINUOUS
 62
    7
 10
63.866676500000011
 20
147.42657450000002
 11
63.885582500000012
 21
147.44718950000001
  0
LINE
  8
_0-0_0
  6
CONTINUOUS
 62
    7
 10
63.885582500000012
 20
147.44718950000001
 11
63.930221500000002
 21
147.4873355
  0
LINE
  8
_0-0_0
  6
CONTINUOUS
 62
    7
 10
63.930221500000002
 20
147.4873355
 11
63.983352500000009
 21
147.5255435
  0
LINE
  8
_0-0_0
  6
CONTINUOUS
 62
    7
 10
63.983352500000009
 20
147.5255435
 11
64.033248500000013
 21
147.55535850000001
  0
LINE
  8
_0-0_0
  6
CONTINUOUS
 62
    7
 10
64.033248500000013
 20
147.55535850000001
 11
64.087921500000007
 21
147.5832365
  0
LINE
  8
_0-0_0
  6
CONTINUOUS
 62
    7
 10
64.087921500000007
 20
147.5832365
 11
64.146888500000003
 21
147.60896249999999
  0
LINE
  8
_0-0_0
  6
CONTINUOUS
 62
    7
 10
64.146888500000003
 20
147.60896249999999
 11
64.193649500000006
 21
147.6267545
  0
LINE
  8
_0-0_0
  6
CONTINUOUS
 62
    7
 10
64.193649500000006
 20
147.6267545
 11
64.242355500000002
 21
147.64318850000001
  0
LINE
  8
_0-0_0
  6
CONTINUOUS
 62
    7
 10
64.242355500000002
 20
147.64318850000001
 11
64.34478750000001
 21
147.6717525
  0
LINE
  8
_0-0_0
  6
CONTINUOUS
 62
    7
 10
64.34478750000001
 20
147.6717525
 11
64.452606500000002
 21
147.6943665
  0
LINE
  8
_0-0_0
  6
CONTINUOUS
 62
    7
 10
64.452606500000002
 20
147.6943665
 11
64.564292500000008
 21
147.7107695
  0
LINE
  8
_0-0_0
  6
CONTINUOUS
 62
    7
 10
64.564292500000008
 20
147.7107695
 11
64.678451500000008
 21
147.72088650000001
  0
LINE
  8
_0-0_0
  6
CONTINUOUS
 62
    7
 10
64.678451500000008
 20
147.72088650000001
 11
64.8039165
 21
147.72463949999999
  0
LINE
  8
_0-0_0
  6
CONTINUOUS
 62
    7
 10
63.8039165
 20
146.31042450000001
 11
63.8039165
 21
147.2800905
  0
ARC
  8
_0-0_0
  6
CONTINUOUS
 62
    7
 10
64.8039165
 20
119.9246445
 40
1
 50
180.00000900000003
 51
269.99999700000001
  0
LINE
  8
_0-0_0
  6
CONTINUOUS
 62
    7
 10
63.8039165
 20
119.9246445
 11
63.8039165
 21
146.31042450000001
  0
LINE
  8
_0-0_0
  6
CONTINUOUS
 62
    7
 10
271.80392449999999
 20
147.3104855
 11
271.80392449999999
 21
148.92465150000001
  0
ARC
  8
_0-0_0
  6
CONTINUOUS
 62
    7
 10
270.80392449999999
 20
148.92465150000001
 40
1
 50
0
 51
90.000003000000007
  0
ARC
  8
_0-0_0
  6
CONTINUOUS
 62
    7
 10
64.8039165
 20
148.92465150000001
 40
1
 50
90.000003000000007
 51
180.00000900000001
  0
LINE
  8
_0-0_0
  6
CONTINUOUS
 62
    7
 10
63.8039165
 20
147.2800905
 11
63.8039165
 21
148.92465150000001
  0
LINE
  8
_0-0_0
  6
CONTINUOUS
 62
    7
 10
-24.01175649999999
 20
116.8245695
 11
-24.01175649999999
 21
116.7995755
  0
LINE
  8
_0-0_0
  6
CONTINUOUS
 62
    7
 10
-24.01175649999999
 20
113.7474515
 11
-24.01175649999999
 21
113.8495715
  0
LINE
  8
_0-0_0
  6
CONTINUOUS
 62
    7
 10
-24.01175649999999
 20
92.724571499999996
 11
-24.01175649999999
 21
93.501693500000002
  0
LINE
  8
_0-0_0
  6
CONTINUOUS
 62
    7
 10
-40.811754500000006
 20
92.724571499999996
 11
-24.01175649999999
 21
92.724571499999996
  0
LINE
  8
_0-0_0
  6
CONTINUOUS
 62
    7
 10
-40.811754500000006
 20
100.6245725
 11
-40.811754500000006
 21
92.724571499999996
  0
LINE
  8
_0-0_0
  6
CONTINUOUS
 62
    7
 10
-40.811754500000006
 20
113.0798875
 11
-40.811754500000006
 21
106.6245725
  0
LINE
  8
_0-0_0
  6
CONTINUOUS
 62
    7
 10
-23.511772500000006
 20
96.224571499999996
 11
-23.311752500000011
 21
96.224571499999996
  0
LINE
  8
_0-0_0
  6
CONTINUOUS
 62
    7
 10
-23.311752500000011
 20
96.224571499999996
 11
-23.311752500000011
 21
99.224571499999996
  0
LINE
  8
_0-0_0
  6
CONTINUOUS
 62
    7
 10
-23.311752500000011
 20
112.8245695
 11
-23.311752500000011
 21
99.224571499999996
  0
LINE
  8
_0-0_0
  6
CONTINUOUS
 62
    7
 10
-23.51175649999999
 20
115.8245695
 11
-23.311752500000011
 21
115.8245695
  0
LINE
  8
_0-0_0
  6
CONTINUOUS
 62
    7
 10
-23.311752500000011
 20
112.8245695
 11
-23.311752500000011
 21
115.8245695
  0
LINE
  8
_0-0_0
  6
CONTINUOUS
 62
    7
 10
-24.211753499999986
 20
115.1236265
 11
-24.211753499999986
 21
113.9444355
  0
LINE
  8
_0-0_0
  6
CONTINUOUS
 62
    7
 10
-24.211753499999986
 20
117.3245695
 11
-24.211753499999986
 21
116.8245695
  0
LINE
  8
_0-0_0
  6
CONTINUOUS
 62
    7
 10
-25.211753499999986
 20
114.4080585
 11
-25.211753499999986
 21
115.1245725
  0
ARC
  8
_0-0_0
  6
CONTINUOUS
 62
    7
 10
-25.51175649999999
 20
112.42456850000001
 40
2
 50
0
 51
90.000003000000007
  0
LINE
  8
_0-0_0
  6
CONTINUOUS
 62
    7
 10
-23.51175649999999
 20
108.9245755
 11
-23.51175649999999
 21
111.92456850000001
  0
LINE
  8
_0-0_0
  6
CONTINUOUS
 62
    7
 10
-23.51175649999999
 20
111.92456850000001
 11
-23.51175649999999
 21
112.42456850000001
  0
LINE
  8
_0-0_0
  6
CONTINUOUS
 62
    7
 10
-23.51175649999999
 20
94.824569499999996
 11
-23.51175649999999
 21
108.4245755
  0
LINE
  8
_0-0_0
  6
CONTINUOUS
 62
    7
 10
-23.51175649999999
 20
108.9245755
 11
-23.51175649999999
 21
108.4245755
  0
ARC
  8
_0-0_0
  6
CONTINUOUS
 62
    7
 10
-25.51175649999999
 20
94.824569499999996
 40
2
 50
273.84026500000004
 51
0.000010000000014
  0
LINE
  8
_0-0_0
  6
CONTINUOUS
 62
    7
 10
-38.811754500000006
 20
114.4080585
 11
-38.811754500000006
 21
115.1245725
  0
LINE
  8
_0-0_0
  6
CONTINUOUS
 62
    7
 10
-38.811754500000006
 20
114.4080585
 11
-38.811754500000006
 21
114.40194650000001
  0
LINE
  8
_0-0_0
  6
CONTINUOUS
 62
    7
 10
-40.811754500000006
 20
113.0798875
 11
-40.811754500000006
 21
113.5798875
  0
LINE
  8
_0-0_0
  6
CONTINUOUS
 62
    7
 10
-40.511753499999998
 20
112.4245755
 11
-40.511753499999998
 21
98.824569499999996
  0
LINE
  8
_0-0_0
  6
CONTINUOUS
 62
    7
 10
-40.511753499999998
 20
98.324569499999996
 11
-40.511753499999998
 21
98.824569499999996
  0
LINE
  8
_0-0_0
  6
CONTINUOUS
 62
    7
 10
-40.511753499999998
 20
95.324569499999996
 11
-40.511753499999998
 21
98.324569499999996
  0
LINE
  8
_0-0_0
  6
CONTINUOUS
 62
    7
 10
-40.511753499999998
 20
94.824569499999996
 11
-40.511753499999998
 21
95.324569499999996
  0
ARC
  8
_0-0_0
  6
CONTINUOUS
 62
    7
 10
-38.511753499999998
 20
112.4245755
 40
2
 50
93.840255999999997
 51
180.00000900000001
  0
LINE
  8
_0-0_0
  6
CONTINUOUS
 62
    7
 10
-40.811754500000006
 20
100.6245725
 11
-40.811754500000006
 21
106.6245725
  0
LINE
  8
_0-0_0
  6
CONTINUOUS
 62
    7
 10
-40.811754500000006
 20
115.1245725
 11
-40.811754500000006
 21
113.5798795
  0
LINE
  8
_0-0_0
  6
CONTINUOUS
 62
    7
 10
-40.811754500000006
 20
106.6245725
 11
-40.511762500000003
 21
106.6245725
  0
LINE
  8
_0-0_0
  6
CONTINUOUS
 62
    7
 10
-40.811754500000006
 20
100.6245725
 11
-40.511762500000003
 21
100.6245725
  0
LINE
  8
_0-0_0
  6
CONTINUOUS
 62
    7
 10
-25.51175649999999
 20
92.824569499999996
 11
-34.511753499999998
 21
92.824569499999996
  0
LINE
  8
_0-0_0
  6
CONTINUOUS
 62
    7
 10
-38.011753499999998
 20
92.824569499999996
 11
-38.511753499999998
 21
92.824569499999996
  0
LINE
  8
_0-0_0
  6
CONTINUOUS
 62
    7
 10
-35.011753499999998
 20
92.824569499999996
 11
-38.011753499999998
 21
92.824569499999996
  0
LINE
  8
_0-0_0
  6
CONTINUOUS
 62
    7
 10
-34.511753499999998
 20
92.824569499999996
 11
-35.011753499999998
 21
92.824569499999996
  0
ARC
  8
_0-0_0
  6
CONTINUOUS
 62
    7
 10
-38.511753499999998
 20
94.824569499999996
 40
2
 50
180.00000900000003
 51
269.99999700000001
  0
ARC
  8
_0-0_0
  6
CONTINUOUS
 62
    7
 10
-24.711753499999986
 20
117.3245695
 40
0.5
 50
0
 51
90.000003000000007
  0
LINE
  8
_0-0_0
  6
CONTINUOUS
 62
    7
 10
-26.211753499999986
 20
117.8245695
 11
-24.711753499999986
 21
117.8245695
  0
ARC
  8
_0-0_0
  6
CONTINUOUS
 62
    7
 10
-26.211753499999986
 20
118.8245695
 40
1
 50
180.00000900000003
 51
269.99999700000001
  0
LINE
  8
_0-0_0
  6
CONTINUOUS
 62
    7
 10
-27.211753499999986
 20
118.8245695
 11
-27.211753499999986
 21
118.9246515
  0
LINE
  8
_0-0_0
  6
CONTINUOUS
 62
    7
 10
-27.711753499999986
 20
117.8245695
 11
-27.711753499999986
 21
118.9246515
  0
ARC
  8
_0-0_0
  6
CONTINUOUS
 62
    7
 10
-26.711753499999986
 20
117.8245695
 40
1
 50
180.00000900000003
 51
269.99999700000001
  0
LINE
  8
_0-0_0
  6
CONTINUOUS
 62
    7
 10
-26.711753499999986
 20
116.8245695
 11
-26.911754500000001
 21
116.8245695
  0
ARC
  8
_0-0_0
  6
CONTINUOUS
 62
    7
 10
-26.911754500000001
 20
117.8245695
 40
1
 50
180.00000900000003
 51
269.99999700000001
  0
ARC
  8
_0-0_0
  6
CONTINUOUS
 62
    7
 10
-37.111753499999992
 20
117.8245695
 40
1
 50
269.99999700000001
 51
0
  0
LINE
  8
_0-0_0
  6
CONTINUOUS
 62
    7
 10
-37.111753499999992
 20
116.8245695
 11
-37.811754500000006
 21
116.8245695
  0
LINE
  8
_0-0_0
  6
CONTINUOUS
 62
    7
 10
-24.01175649999999
 20
116.8245695
 11
-24.211753499999986
 21
116.8245695
  0
LINE
  8
_0-0_0
  6
CONTINUOUS
 62
    7
 10
-40.811754500000006
 20
115.1245725
 11
-24.01175649999999
 21
115.1245725
  0
LINE
  8
_0-0_0
  6
CONTINUOUS
 62
    7
 10
-24.01175649999999
 20
115.1245725
 11
-24.01175649999999
 21
116.8245695
  0
LINE
  8
_0-0_0
  6
CONTINUOUS
 62
    7
 10
-27.911754500000001
 20
118.9246515
 11
-27.911754500000001
 21
117.8245695
  0
LINE
  8
_0-0_0
  6
CONTINUOUS
 62
    7
 10
-36.111755499999987
 20
117.8245695
 11
-36.111755499999987
 21
118.9246515
  0
LINE
  8
_0-0_0
  6
CONTINUOUS
 62
    7
 10
-39.811754500000006
 20
116.8245695
 11
-40.811754500000006
 21
116.8245695
  0
LINE
  8
_0-0_0
  6
CONTINUOUS
 62
    7
 10
-40.811754500000006
 20
115.1245725
 11
-40.811754500000006
 21
116.8245695
  0
LINE
  8
_0-0_0
  6
CONTINUOUS
 62
    7
 10
-25.51175649999999
 20
114.42456850000001
 11
-26.01175649999999
 21
114.42456850000001
  0
CIRCLE
  8
_0-0_0
  6
CONTINUOUS
 62
    7
 10
-26.01175649999999
 20
111.92456850000001
 40
2.5
  0
LINE
  8
_0-0_0
  6
CONTINUOUS
 62
    7
 10
-38.511753499999998
 20
114.4245755
 11
-29.511753499999998
 21
114.42456850000001
  0
LINE
  8
_0-0_0
  6
CONTINUOUS
 62
    7
 10
-26.01175649999999
 20
114.42456850000001
 11
-29.011753499999998
 21
114.42456850000001
  0
LINE
  8
_0-0_0
  6
CONTINUOUS
 62
    7
 10
-29.511753499999998
 20
114.42456850000001
 11
-29.011753499999998
 21
114.42456850000001
  0
ARC
  8
_0-0_0
  6
CONTINUOUS
 62
    7
 10
-24.01175649999999
 20
108.4245755
 40
0.5
 50
0
 51
90.000003000000007
  0
LINE
  8
_0-0_0
  6
CONTINUOUS
 62
    7
 10
-25.51175649999999
 20
92.927200499999998
 11
-25.49587249999999
 21
92.899948500000008
  0
LINE
  8
_0-0_0
  6
CONTINUOUS
 62
    7
 10
-25.49587249999999
 20
92.899948500000008
 11
-25.480029500000001
 21
92.876968500000004
  0
LINE
  8
_0-0_0
  6
CONTINUOUS
 62
    7
 10
-25.480029500000001
 20
92.876968500000004
 11
-25.466049499999997
 21
92.860214499999998
  0
LINE
  8
_0-0_0
  6
CONTINUOUS
 62
    7
 10
-25.466049499999997
 20
92.860214499999998
 11
-25.452148499999993
 21
92.846885499999999
  0
LINE
  8
_0-0_0
  6
CONTINUOUS
 62
    7
 10
-25.452148499999993
 20
92.846885499999999
 11
-25.439933499999995
 21
92.837959499999997
  0
LINE
  8
_0-0_0
  6
CONTINUOUS
 62
    7
 10
-25.439933499999995
 20
92.837959499999997
 11
-25.427814500000011
 21
92.831748500000003
  0
LINE
  8
_0-0_0
  6
CONTINUOUS
 62
    7
 10
-25.427814500000011
 20
92.831748500000003
 11
-25.416946499999995
 21
92.8284685
  0
LINE
  8
_0-0_0
  6
CONTINUOUS
 62
    7
 10
-25.416946499999995
 20
92.8284685
 11
-25.406188499999985
 21
92.827415500000001
  0
LINE
  8
_0-0_0
  6
CONTINUOUS
 62
    7
 10
-25.406188499999985
 20
92.827415500000001
 11
-25.4037285
 21
92.827484499999997
  0
LINE
  8
_0-0_0
  6
CONTINUOUS
 62
    7
 10
-39.811754500000006
 20
113.94444250000001
 11
-39.811754500000006
 21
115.1236265
  0
ARC
  8
_0-0_0
  6
CONTINUOUS
 62
    7
 10
-40.011753499999998
 20
98.824569499999996
 40
0.5
 50
180.00000900000003
 51
269.99999700000001
  0
CIRCLE
  8
_0-0_0
  6
CONTINUOUS
 62
    7
 10
-38.011753499999998
 20
95.324569499999996
 40
2.5
  0
LINE
  8
_0-0_0
  6
CONTINUOUS
 62
    7
 10
-38.511753499999998
 20
114.3219375
 11
-38.527633499999979
 21
114.34918950000001
  0
LINE
  8
_0-0_0
  6
CONTINUOUS
 62
    7
 10
-38.527633499999979
 20
114.34918950000001
 11
-38.543479499999989
 21
114.37217750000001
  0
LINE
  8
_0-0_0
  6
CONTINUOUS
 62
    7
 10
-38.543479499999989
 20
114.37217750000001
 11
-38.557458499999996
 21
114.3889235
  0
LINE
  8
_0-0_0
  6
CONTINUOUS
 62
    7
 10
-38.557458499999996
 20
114.3889235
 11
-38.5713595
 21
114.4022525
  0
LINE
  8
_0-0_0
  6
CONTINUOUS
 62
    7
 10
-38.5713595
 20
114.4022525
 11
-38.583576499999992
 21
114.41117850000001
  0
LINE
  8
_0-0_0
  6
CONTINUOUS
 62
    7
 10
-38.583576499999992
 20
114.41117850000001
 11
-38.595695500000005
 21
114.4173965
  0
LINE
  8
_0-0_0
  6
CONTINUOUS
 62
    7
 10
-38.595695500000005
 20
114.4173965
 11
-38.606559500000003
 21
114.4206775
  0
LINE
  8
_0-0_0
  6
CONTINUOUS
 62
    7
 10
-38.606559500000003
 20
114.4206775
 11
-38.617320500000005
 21
114.4217295
  0
LINE
  8
_0-0_0
  6
CONTINUOUS
 62
    7
 10
-38.617320500000005
 20
114.4217295
 11
-38.619781499999988
 21
114.42165350000001
  0
LINE
  8
_0-0_0
  6
CONTINUOUS
 62
    7
 10
-40.811754500000006
 20
96.224571499999996
 11
-40.911754500000001
 21
96.224571499999996
  0
LINE
  8
_0-0_0
  6
CONTINUOUS
 62
    7
 10
-40.911754500000001
 20
96.224571499999996
 11
-40.911754500000001
 21
99.224571499999996
  0
LINE
  8
_0-0_0
  6
CONTINUOUS
 62
    7
 10
-40.911754500000001
 20
99.224571499999996
 11
-40.911754500000001
 21
112.8245695
  0
LINE
  8
_0-0_0
  6
CONTINUOUS
 62
    7
 10
-40.811754500000006
 20
115.8245695
 11
-40.911754500000001
 21
115.8245695
  0
LINE
  8
_0-0_0
  6
CONTINUOUS
 62
    7
 10
-40.911754500000001
 20
112.8245695
 11
-40.911754500000001
 21
115.8245695
  0
ARC
  8
_0-0_0
  6
CONTINUOUS
 62
    7
 10
-34.511753499999998
 20
93.324569499999996
 40
0.5
 50
180.00000900000003
 51
269.99999700000001
  0
ARC
  8
_0-0_0
  6
CONTINUOUS
 62
    7
 10
-37.811754500000006
 20
118.3246455
 40
1.5
 50
269.99999700000001
 51
0
  0
ARC
  8
_0-0_0
  6
CONTINUOUS
 62
    7
 10
-39.311754500000006
 20
117.3246455
 40
0.5
 50
90.000003000000007
 51
180.00000900000001
  0
LINE
  8
_0-0_0
  6
CONTINUOUS
 62
    7
 10
-39.311754500000006
 20
117.8246455
 11
-37.811754500000006
 21
117.8246455
  0
ARC
  8
_0-0_0
  6
CONTINUOUS
 62
    7
 10
-37.811754500000006
 20
118.8246455
 40
1
 50
269.99999700000001
 51
0
  0
LINE
  8
_0-0_0
  6
CONTINUOUS
 62
    7
 10
-36.811754500000006
 20
118.9246515
 11
-36.811754500000006
 21
118.8246455
  0
LINE
  8
_0-0_0
  6
CONTINUOUS
 62
    7
 10
-36.311754500000006
 20
118.9246515
 11
-36.311754500000006
 21
118.3246455
  0
LINE
  8
_0-0_0
  6
CONTINUOUS
 62
    7
 10
-39.811754500000006
 20
116.8246455
 11
-39.811754500000006
 21
117.3246455
  0
ARC
  8
_0-0_0
  6
CONTINUOUS
 62
    7
 10
-29.511753499999998
 20
113.92456850000001
 40
0.5
 50
0
 51
90.000003000000007
  0
LINE
  8
_0-0_0
  6
CONTINUOUS
 62
    7
 10
-29.011753499999998
 20
113.8475955
 11
-29.011753499999998
 21
113.92456850000001
  0
LINE
  8
_0-0_0
  6
CONTINUOUS
 62
    7
 10
-29.011753499999998
 20
112.4060745
 11
-29.011753499999998
 21
113.8475955
  0
LINE
  8
_0-0_0
  6
CONTINUOUS
 62
    7
 10
-29.011753499999998
 20
111.92456850000001
 11
-29.011753499999998
 21
112.4060745
  0
ARC
  8
_0-0_0
  6
CONTINUOUS
 62
    7
 10
-26.01175649999999
 20
111.92456850000001
 40
3
 50
180.00000900000003
 51
269.99999700000001
  0
LINE
  8
_0-0_0
  6
CONTINUOUS
 62
    7
 10
-25.530250499999994
 20
108.9245755
 11
-26.01175649999999
 21
108.9245755
  0
LINE
  8
_0-0_0
  6
CONTINUOUS
 62
    7
 10
-25.530250499999994
 20
108.9245755
 11
-24.088729499999999
 21
108.9245755
  0
LINE
  8
_0-0_0
  6
CONTINUOUS
 62
    7
 10
-24.01175649999999
 20
108.9245755
 11
-24.088729499999999
 21
108.9245755
  0
LINE
  8
_0-0_0
  6
CONTINUOUS
 62
    7
 10
-39.934780499999988
 20
98.324569499999996
 11
-40.011753499999998
 21
98.324569499999996
  0
LINE
  8
_0-0_0
  6
CONTINUOUS
 62
    7
 10
-38.011753499999998
 20
98.324569499999996
 11
-38.493255500000004
 21
98.324569499999996
  0
LINE
  8
_0-0_0
  6
CONTINUOUS
 62
    7
 10
-38.493255500000004
 20
98.324569499999996
 11
-39.934780499999988
 21
98.324569499999996
  0
LINE
  8
_0-0_0
  6
CONTINUOUS
 62
    7
 10
-35.011753499999998
 20
93.324569499999996
 11
-35.011753499999998
 21
93.401550499999999
  0
LINE
  8
_0-0_0
  6
CONTINUOUS
 62
    7
 10
-35.011753499999998
 20
94.843070499999996
 11
-35.011753499999998
 21
93.401550499999999
  0
LINE
  8
_0-0_0
  6
CONTINUOUS
 62
    7
 10
-35.011753499999998
 20
94.843070499999996
 11
-35.011753499999998
 21
95.324569499999996
  0
ARC
  8
_0-0_0
  6
CONTINUOUS
 62
    7
 10
-38.011753499999998
 20
95.324569499999996
 40
3
 50
0
 51
89.999995999999996
  0
LINE
  8
_0-0_0
  6
CONTINUOUS
 62
    7
 10
-23.51175649999999
 20
115.93583650000001
 11
-23.51175649999999
 21
114.04956850000001
  0
LINE
  8
_0-0_0
  6
CONTINUOUS
 62
    7
 10
-23.51175649999999
 20
116.5995715
 11
-23.51175649999999
 21
115.93583650000001
  0
ARC
  8
_0-0_0
  6
CONTINUOUS
 62
    7
 10
-28.781639499999983
 20
104.7978135
 40
3.063396
 50
19.82113
 51
25.289563000000001
  0
ARC
  8
_0-0_0
  6
CONTINUOUS
 62
    7
 10
-28.781318499999998
 20
102.4511945
 40
3.0630519999999999
 50
334.71006
 51
340.17869200000001
  0
ARC
  8
_0-0_0
  6
CONTINUOUS
 62
    7
 10
-35.24186850000001
 20
102.45133150000001
 40
3.063399
 50
199.82113599999997
 51
205.28948099999999
  0
ARC
  8
_0-0_0
  6
CONTINUOUS
 62
    7
 10
-35.2421875
 20
104.7979425
 40
3.0630549999999999
 50
154.710137
 51
160.17869999999999
  0
ARC
  8
_0-0_0
  6
CONTINUOUS
 62
    7
 10
-32.011753499999998
 20
103.6245725
 40
6.5
 50
340.10416099999998
 51
19.895609999999952
  0
ARC
  8
_0-0_0
  6
CONTINUOUS
 62
    7
 10
-32.011753499999998
 20
103.6245725
 40
6.5
 50
160.10415599999999
 51
199.895612
  0
LINE
  8
_0-0_0
  6
CONTINUOUS
 62
    7
 10
-40.511753499999998
 20
114.7133785
 11
-40.511753499999998
 21
115.1236875
  0
LINE
  8
_0-0_0
  6
CONTINUOUS
 62
    7
 10
-40.511753499999998
 20
114.05448150000001
 11
-40.511753499999998
 21
114.7133785
  0
LINE
  8
_0-0_0
  6
CONTINUOUS
 62
    7
 10
-32.753423499999997
 20
110.1245725
 11
-37.270084499999996
 21
107.51687650000001
  0
LINE
  8
_0-0_0
  6
CONTINUOUS
 62
    7
 10
-31.270084499999996
 20
110.1245725
 11
-32.753423499999997
 21
110.1245725
  0
LINE
  8
_0-0_0
  6
CONTINUOUS
 62
    7
 10
-26.753425499999992
 20
107.51687650000001
 11
-31.270084499999996
 21
110.1245725
  0
LINE
  8
_0-0_0
  6
CONTINUOUS
 62
    7
 10
-26.01175649999999
 20
106.2322695
 11
-26.01175649999999
 21
101.01687650000001
  0
LINE
  8
_0-0_0
  6
CONTINUOUS
 62
    7
 10
-26.753425499999992
 20
107.51687650000001
 11
-26.01175649999999
 21
106.2322695
  0
LINE
  8
_0-0_0
  6
CONTINUOUS
 62
    7
 10
-31.270084499999996
 20
97.124572499999999
 11
-26.753425499999992
 21
99.732269500000001
  0
LINE
  8
_0-0_0
  6
CONTINUOUS
 62
    7
 10
-26.459297499999991
 20
100.24170650000001
 11
-26.01175649999999
 21
101.01687650000001
  0
LINE
  8
_0-0_0
  6
CONTINUOUS
 62
    7
 10
-26.459297499999991
 20
100.24170650000001
 11
-26.753425499999992
 21
99.732269500000001
  0
LINE
  8
_0-0_0
  6
CONTINUOUS
 62
    7
 10
-32.753423499999997
 20
97.124572499999999
 11
-31.270084499999996
 21
97.124572499999999
  0
LINE
  8
_0-0_0
  6
CONTINUOUS
 62
    7
 10
-37.270084499999996
 20
99.732269500000001
 11
-32.753423499999997
 21
97.124572499999999
  0
LINE
  8
_0-0_0
  6
CONTINUOUS
 62
    7
 10
-38.011753499999998
 20
106.2322695
 11
-38.011753499999998
 21
101.01687650000001
  0
LINE
  8
_0-0_0
  6
CONTINUOUS
 62
    7
 10
-37.270084499999996
 20
99.732269500000001
 11
-38.011753499999998
 21
101.01687650000001
  0
LINE
  8
_0-0_0
  6
CONTINUOUS
 62
    7
 10
-37.564208500000007
 20
107.00743850000001
 11
-38.011753499999998
 21
106.2322695
  0
LINE
  8
_0-0_0
  6
CONTINUOUS
 62
    7
 10
-37.564208500000007
 20
107.00743850000001
 11
-37.270084499999996
 21
107.51687650000001
  0
LINE
  8
_0-0_0
  6
CONTINUOUS
 62
    7
 10
-24.12474850000001
 20
113.1500095
 11
-23.846691499999991
 21
113.17456850000001
  0
LINE
  8
_0-0_0
  6
CONTINUOUS
 62
    7
 10
-24.006988499999977
 20
112.9460445
 11
-23.846691499999991
 21
113.17456850000001
  0
LINE
  8
_0-0_0
  6
CONTINUOUS
 62
    7
 10
-24.263175499999988
 20
113.3405455
 11
-23.98921150000001
 21
113.3940355
  0
LINE
  8
_0-0_0
  6
CONTINUOUS
 62
    7
 10
-24.12474850000001
 20
113.1500095
 11
-23.98921150000001
 21
113.3940355
  0
LINE
  8
_0-0_0
  6
CONTINUOUS
 62
    7
 10
-24.42076449999999
 20
113.5155635
 11
-24.153892499999984
 21
113.5973965
  0
LINE
  8
_0-0_0
  6
CONTINUOUS
 62
    7
 10
-24.263175499999988
 20
113.3405455
 11
-24.153892499999984
 21
113.5973965
  0
LINE
  8
_0-0_0
  6
CONTINUOUS
 62
    7
 10
-24.595783499999982
 20
113.6731485
 11
-24.338928500000009
 21
113.7824325
  0
LINE
  8
_0-0_0
  6
CONTINUOUS
 62
    7
 10
-24.42076449999999
 20
113.5155635
 11
-24.338928500000009
 21
113.7824325
  0
LINE
  8
_0-0_0
  6
CONTINUOUS
 62
    7
 10
-24.786315500000001
 20
113.8115765
 11
-24.542289499999981
 21
113.9471125
  0
LINE
  8
_0-0_0
  6
CONTINUOUS
 62
    7
 10
-24.595783499999982
 20
113.6731485
 11
-24.542289499999981
 21
113.9471125
  0
LINE
  8
_0-0_0
  6
CONTINUOUS
 62
    7
 10
-24.990276499999993
 20
113.92933650000001
 11
-24.76175649999999
 21
114.0896305
  0
LINE
  8
_0-0_0
  6
CONTINUOUS
 62
    7
 10
-24.786315500000001
 20
113.8115765
 11
-24.76175649999999
 21
114.0896305
  0
LINE
  8
_0-0_0
  6
CONTINUOUS
 62
    7
 10
-25.20542949999998
 20
114.0251315
 11
-24.994911500000001
 21
114.2084345
  0
LINE
  8
_0-0_0
  6
CONTINUOUS
 62
    7
 10
-24.990276499999993
 20
113.92933650000001
 11
-24.994911500000001
 21
114.2084345
  0
LINE
  8
_0-0_0
  6
CONTINUOUS
 62
    7
 10
-25.429412499999984
 20
114.09790050000001
 11
-25.23921150000001
 21
114.3022155
  0
LINE
  8
_0-0_0
  6
CONTINUOUS
 62
    7
 10
-25.20542949999998
 20
114.0251315
 11
-25.23921150000001
 21
114.3022155
  0
LINE
  8
_0-0_0
  6
CONTINUOUS
 62
    7
 10
-25.659774499999997
 20
114.1468655
 11
-25.4919735
 21
114.3699415
  0
LINE
  8
_0-0_0
  6
CONTINUOUS
 62
    7
 10
-25.429412499999984
 20
114.09790050000001
 11
-25.4919735
 21
114.3699415
  0
LINE
  8
_0-0_0
  6
CONTINUOUS
 62
    7
 10
-25.893997499999983
 20
114.1714855
 11
-25.750434499999983
 21
114.41087350000001
  0
LINE
  8
_0-0_0
  6
CONTINUOUS
 62
    7
 10
-25.659774499999997
 20
114.1468655
 11
-25.750434499999983
 21
114.41087350000001
  0
LINE
  8
_0-0_0
  6
CONTINUOUS
 62
    7
 10
-26.129508499999986
 20
114.1714855
 11
-26.01175649999999
 21
114.42456850000001
  0
LINE
  8
_0-0_0
  6
CONTINUOUS
 62
    7
 10
-25.893997499999983
 20
114.1714855
 11
-26.01175649999999
 21
114.42456850000001
  0
LINE
  8
_0-0_0
  6
CONTINUOUS
 62
    7
 10
-26.3637315
 20
114.1468655
 11
-26.273075500000004
 21
114.41087350000001
  0
LINE
  8
_0-0_0
  6
CONTINUOUS
 62
    7
 10
-26.129508499999986
 20
114.1714855
 11
-26.273075500000004
 21
114.41087350000001
  0
LINE
  8
_0-0_0
  6
CONTINUOUS
 62
    7
 10
-26.594097500000004
 20
114.09790050000001
 11
-26.531532499999997
 21
114.3699415
  0
LINE
  8
_0-0_0
  6
CONTINUOUS
 62
    7
 10
-26.3637315
 20
114.1468655
 11
-26.531532499999997
 21
114.3699415
  0
LINE
  8
_0-0_0
  6
CONTINUOUS
 62
    7
 10
-26.818084499999998
 20
114.0251315
 11
-26.784294499999987
 21
114.3022155
  0
LINE
  8
_0-0_0
  6
CONTINUOUS
 62
    7
 10
-26.594097500000004
 20
114.09790050000001
 11
-26.784294499999987
 21
114.3022155
  0
LINE
  8
_0-0_0
  6
CONTINUOUS
 62
    7
 10
-27.033233499999994
 20
113.92933650000001
 11
-27.028594499999997
 21
114.2084345
  0
LINE
  8
_0-0_0
  6
CONTINUOUS
 62
    7
 10
-26.818084499999998
 20
114.0251315
 11
-27.028594499999997
 21
114.2084345
  0
LINE
  8
_0-0_0
  6
CONTINUOUS
 62
    7
 10
-27.152770500000003
 20
114.0131835
 11
-27.26175649999999
 21
114.0896305
  0
LINE
  8
_0-0_0
  6
CONTINUOUS
 62
    7
 10
-27.033233499999994
 20
113.92933650000001
 11
-27.152770500000003
 21
114.0131835
  0
LINE
  8
_0-0_0
  6
CONTINUOUS
 62
    7
 10
-27.237190499999997
 20
113.8115765
 11
-27.26175649999999
 21
114.0896305
  0
LINE
  8
_0-0_0
  6
CONTINUOUS
 62
    7
 10
-27.427726500000006
 20
113.6731485
 11
-27.481216499999988
 21
113.9471125
  0
LINE
  8
_0-0_0
  6
CONTINUOUS
 62
    7
 10
-27.237190499999997
 20
113.8115765
 11
-27.481216499999988
 21
113.9471125
  0
LINE
  8
_0-0_0
  6
CONTINUOUS
 62
    7
 10
-27.6027445
 20
113.5155635
 11
-27.684581499999979
 21
113.7824325
  0
LINE
  8
_0-0_0
  6
CONTINUOUS
 62
    7
 10
-27.427726500000006
 20
113.6731485
 11
-27.684581499999979
 21
113.7824325
  0
LINE
  8
_0-0_0
  6
CONTINUOUS
 62
    7
 10
-27.760330500000009
 20
113.3405455
 11
-27.869613499999986
 21
113.5973965
  0
LINE
  8
_0-0_0
  6
CONTINUOUS
 62
    7
 10
-27.6027445
 20
113.5155635
 11
-27.869613499999986
 21
113.5973965
  0
LINE
  8
_0-0_0
  6
CONTINUOUS
 62
    7
 10
-27.898765499999996
 20
113.1500095
 11
-28.034294499999987
 21
113.3940355
  0
LINE
  8
_0-0_0
  6
CONTINUOUS
 62
    7
 10
-27.760330500000009
 20
113.3405455
 11
-28.034294499999987
 21
113.3940355
  0
LINE
  8
_0-0_0
  6
CONTINUOUS
 62
    7
 10
-28.016517499999992
 20
112.9460445
 11
-28.176818499999996
 21
113.17456850000001
  0
LINE
  8
_0-0_0
  6
CONTINUOUS
 62
    7
 10
-27.898765499999996
 20
113.1500095
 11
-28.176818499999996
 21
113.17456850000001
  0
LINE
  8
_0-0_0
  6
CONTINUOUS
 62
    7
 10
-28.112312500000002
 20
112.7308955
 11
-28.295616499999994
 21
112.9414135
  0
LINE
  8
_0-0_0
  6
CONTINUOUS
 62
    7
 10
-28.016517499999992
 20
112.9460445
 11
-28.295616499999994
 21
112.9414135
  0
LINE
  8
_0-0_0
  6
CONTINUOUS
 62
    7
 10
-28.185089500000004
 20
112.5069125
 11
-28.389396500000004
 21
112.6971125
  0
LINE
  8
_0-0_0
  6
CONTINUOUS
 62
    7
 10
-28.112312500000002
 20
112.7308955
 11
-28.389396500000004
 21
112.6971125
  0
LINE
  8
_0-0_0
  6
CONTINUOUS
 62
    7
 10
-28.234054499999985
 20
112.2765505
 11
-28.457122499999997
 21
112.4443515
  0
LINE
  8
_0-0_0
  6
CONTINUOUS
 62
    7
 10
-28.185089500000004
 20
112.5069125
 11
-28.457122499999997
 21
112.4443515
  0
LINE
  8
_0-0_0
  6
CONTINUOUS
 62
    7
 10
-28.234054499999985
 20
112.2765505
 11
-28.498058499999985
 21
112.1858905
  0
LINE
  8
_0-0_0
  6
CONTINUOUS
 62
    7
 10
-28.258670499999994
 20
112.0423275
 11
-28.498058499999985
 21
112.1858905
  0
LINE
  8
_0-0_0
  6
CONTINUOUS
 62
    7
 10
-28.258670499999994
 20
111.8068155
 11
-28.51175649999999
 21
111.92456850000001
  0
LINE
  8
_0-0_0
  6
CONTINUOUS
 62
    7
 10
-28.258670499999994
 20
112.0423275
 11
-28.51175649999999
 21
111.92456850000001
  0
LINE
  8
_0-0_0
  6
CONTINUOUS
 62
    7
 10
-28.234054499999985
 20
111.5725935
 11
-28.498058499999985
 21
111.6632535
  0
LINE
  8
_0-0_0
  6
CONTINUOUS
 62
    7
 10
-28.258670499999994
 20
111.8068155
 11
-28.498058499999985
 21
111.6632535
  0
LINE
  8
_0-0_0
  6
CONTINUOUS
 62
    7
 10
-28.185089500000004
 20
111.3422245
 11
-28.457122499999997
 21
111.4047925
  0
LINE
  8
_0-0_0
  6
CONTINUOUS
 62
    7
 10
-28.234054499999985
 20
111.5725935
 11
-28.457122499999997
 21
111.4047925
  0
LINE
  8
_0-0_0
  6
CONTINUOUS
 62
    7
 10
-28.112312500000002
 20
111.1182405
 11
-28.389396500000004
 21
111.15203050000001
  0
LINE
  8
_0-0_0
  6
CONTINUOUS
 62
    7
 10
-28.185089500000004
 20
111.3422245
 11
-28.389396500000004
 21
111.15203050000001
  0
LINE
  8
_0-0_0
  6
CONTINUOUS
 62
    7
 10
-28.016517499999992
 20
110.9030915
 11
-28.295616499999994
 21
110.9077295
  0
LINE
  8
_0-0_0
  6
CONTINUOUS
 62
    7
 10
-28.112312500000002
 20
111.1182405
 11
-28.295616499999994
 21
110.9077295
  0
LINE
  8
_0-0_0
  6
CONTINUOUS
 62
    7
 10
-27.898765499999996
 20
110.6991345
 11
-28.176818499999996
 21
110.6745755
  0
LINE
  8
_0-0_0
  6
CONTINUOUS
 62
    7
 10
-28.016517499999992
 20
110.9030915
 11
-28.176818499999996
 21
110.6745755
  0
LINE
  8
_0-0_0
  6
CONTINUOUS
 62
    7
 10
-27.760330500000009
 20
110.50859850000001
 11
-28.034294499999987
 21
110.45510850000001
  0
LINE
  8
_0-0_0
  6
CONTINUOUS
 62
    7
 10
-27.898765499999996
 20
110.6991345
 11
-28.034294499999987
 21
110.45510850000001
  0
LINE
  8
_0-0_0
  6
CONTINUOUS
 62
    7
 10
-27.6027445
 20
110.3335795
 11
-27.869613499999986
 21
110.25174750000001
  0
LINE
  8
_0-0_0
  6
CONTINUOUS
 62
    7
 10
-27.760330500000009
 20
110.50859850000001
 11
-27.869613499999986
 21
110.25174750000001
  0
LINE
  8
_0-0_0
  6
CONTINUOUS
 62
    7
 10
-27.427726500000006
 20
110.1759945
 11
-27.684581499999979
 21
110.0667115
  0
LINE
  8
_0-0_0
  6
CONTINUOUS
 62
    7
 10
-27.6027445
 20
110.3335795
 11
-27.684581499999979
 21
110.0667115
  0
LINE
  8
_0-0_0
  6
CONTINUOUS
 62
    7
 10
-27.237190499999997
 20
110.0375595
 11
-27.481216499999988
 21
109.90203050000001
  0
LINE
  8
_0-0_0
  6
CONTINUOUS
 62
    7
 10
-27.427726500000006
 20
110.1759945
 11
-27.481216499999988
 21
109.90203050000001
  0
LINE
  8
_0-0_0
  6
CONTINUOUS
 62
    7
 10
-27.033233499999994
 20
109.9198075
 11
-27.26175649999999
 21
109.7595065
  0
LINE
  8
_0-0_0
  6
CONTINUOUS
 62
    7
 10
-27.237190499999997
 20
110.0375595
 11
-27.26175649999999
 21
109.7595065
  0
LINE
  8
_0-0_0
  6
CONTINUOUS
 62
    7
 10
-26.818084499999998
 20
109.82401250000001
 11
-27.028594499999997
 21
109.6407085
  0
LINE
  8
_0-0_0
  6
CONTINUOUS
 62
    7
 10
-27.033233499999994
 20
109.9198075
 11
-27.028594499999997
 21
109.6407085
  0
LINE
  8
_0-0_0
  6
CONTINUOUS
 62
    7
 10
-26.594097500000004
 20
109.75123550000001
 11
-26.784294499999987
 21
109.54692850000001
  0
LINE
  8
_0-0_0
  6
CONTINUOUS
 62
    7
 10
-26.818084499999998
 20
109.82401250000001
 11
-26.784294499999987
 21
109.54692850000001
  0
LINE
  8
_0-0_0
  6
CONTINUOUS
 62
    7
 10
-26.3637315
 20
109.7022705
 11
-26.531532499999997
 21
109.4792025
  0
LINE
  8
_0-0_0
  6
CONTINUOUS
 62
    7
 10
-26.594097500000004
 20
109.75123550000001
 11
-26.531532499999997
 21
109.4792025
  0
LINE
  8
_0-0_0
  6
CONTINUOUS
 62
    7
 10
-26.129508499999986
 20
109.67765750000001
 11
-26.273075500000004
 21
109.43826250000001
  0
LINE
  8
_0-0_0
  6
CONTINUOUS
 62
    7
 10
-26.3637315
 20
109.7022705
 11
-26.273075500000004
 21
109.43826250000001
  0
LINE
  8
_0-0_0
  6
CONTINUOUS
 62
    7
 10
-25.893997499999983
 20
109.67765750000001
 11
-26.01175649999999
 21
109.4245755
  0
LINE
  8
_0-0_0
  6
CONTINUOUS
 62
    7
 10
-26.129508499999986
 20
109.67765750000001
 11
-26.01175649999999
 21
109.4245755
  0
LINE
  8
_0-0_0
  6
CONTINUOUS
 62
    7
 10
-25.659774499999997
 20
109.7022705
 11
-25.750434499999983
 21
109.43826250000001
  0
LINE
  8
_0-0_0
  6
CONTINUOUS
 62
    7
 10
-25.893997499999983
 20
109.67765750000001
 11
-25.750434499999983
 21
109.43826250000001
  0
LINE
  8
_0-0_0
  6
CONTINUOUS
 62
    7
 10
-25.429412499999984
 20
109.75123550000001
 11
-25.4919735
 21
109.4792025
  0
LINE
  8
_0-0_0
  6
CONTINUOUS
 62
    7
 10
-25.659774499999997
 20
109.7022705
 11
-25.4919735
 21
109.4792025
  0
LINE
  8
_0-0_0
  6
CONTINUOUS
 62
    7
 10
-25.20542949999998
 20
109.82401250000001
 11
-25.23921150000001
 21
109.54692850000001
  0
LINE
  8
_0-0_0
  6
CONTINUOUS
 62
    7
 10
-25.429412499999984
 20
109.75123550000001
 11
-25.23921150000001
 21
109.54692850000001
  0
LINE
  8
_0-0_0
  6
CONTINUOUS
 62
    7
 10
-24.990276499999993
 20
109.9198075
 11
-24.994911500000001
 21
109.6407085
  0
LINE
  8
_0-0_0
  6
CONTINUOUS
 62
    7
 10
-25.20542949999998
 20
109.82401250000001
 11
-24.994911500000001
 21
109.6407085
  0
LINE
  8
_0-0_0
  6
CONTINUOUS
 62
    7
 10
-24.870738499999987
 20
109.8359525
 11
-24.76175649999999
 21
109.7595065
  0
LINE
  8
_0-0_0
  6
CONTINUOUS
 62
    7
 10
-24.990276499999993
 20
109.9198075
 11
-24.870738499999987
 21
109.8359525
  0
LINE
  8
_0-0_0
  6
CONTINUOUS
 62
    7
 10
-24.786315500000001
 20
110.0375595
 11
-24.76175649999999
 21
109.7595065
  0
LINE
  8
_0-0_0
  6
CONTINUOUS
 62
    7
 10
-24.595783499999982
 20
110.1759945
 11
-24.542289499999981
 21
109.90203050000001
  0
LINE
  8
_0-0_0
  6
CONTINUOUS
 62
    7
 10
-24.786315500000001
 20
110.0375595
 11
-24.542289499999981
 21
109.90203050000001
  0
LINE
  8
_0-0_0
  6
CONTINUOUS
 62
    7
 10
-24.42076449999999
 20
110.3335795
 11
-24.338928500000009
 21
110.0667115
  0
LINE
  8
_0-0_0
  6
CONTINUOUS
 62
    7
 10
-24.595783499999982
 20
110.1759945
 11
-24.338928500000009
 21
110.0667115
  0
LINE
  8
_0-0_0
  6
CONTINUOUS
 62
    7
 10
-24.263175499999988
 20
110.50859850000001
 11
-24.153892499999984
 21
110.25174750000001
  0
LINE
  8
_0-0_0
  6
CONTINUOUS
 62
    7
 10
-24.42076449999999
 20
110.3335795
 11
-24.153892499999984
 21
110.25174750000001
  0
LINE
  8
_0-0_0
  6
CONTINUOUS
 62
    7
 10
-24.12474850000001
 20
110.6991345
 11
-23.98921150000001
 21
110.45510850000001
  0
LINE
  8
_0-0_0
  6
CONTINUOUS
 62
    7
 10
-24.263175499999988
 20
110.50859850000001
 11
-23.98921150000001
 21
110.45510850000001
  0
LINE
  8
_0-0_0
  6
CONTINUOUS
 62
    7
 10
-24.006988499999977
 20
110.9030915
 11
-23.846691499999991
 21
110.6745755
  0
LINE
  8
_0-0_0
  6
CONTINUOUS
 62
    7
 10
-24.12474850000001
 20
110.6991345
 11
-23.846691499999991
 21
110.6745755
  0
LINE
  8
_0-0_0
  6
CONTINUOUS
 62
    7
 10
-23.911197499999986
 20
111.1182405
 11
-23.727889500000003
 21
110.9077295
  0
LINE
  8
_0-0_0
  6
CONTINUOUS
 62
    7
 10
-24.006988499999977
 20
110.9030915
 11
-23.727889500000003
 21
110.9077295
  0
LINE
  8
_0-0_0
  6
CONTINUOUS
 62
    7
 10
-23.838420499999984
 20
111.3422245
 11
-23.634113499999984
 21
111.15203050000001
  0
LINE
  8
_0-0_0
  6
CONTINUOUS
 62
    7
 10
-23.911197499999986
 20
111.1182405
 11
-23.634113499999984
 21
111.15203050000001
  0
LINE
  8
_0-0_0
  6
CONTINUOUS
 62
    7
 10
-23.789455500000003
 20
111.5725935
 11
-23.566383500000001
 21
111.4047925
  0
LINE
  8
_0-0_0
  6
CONTINUOUS
 62
    7
 10
-23.838420499999984
 20
111.3422245
 11
-23.566383500000001
 21
111.4047925
  0
LINE
  8
_0-0_0
  6
CONTINUOUS
 62
    7
 10
-23.764839499999994
 20
111.8068155
 11
-23.525451500000003
 21
111.6632535
  0
LINE
  8
_0-0_0
  6
CONTINUOUS
 62
    7
 10
-23.789455500000003
 20
111.5725935
 11
-23.525451500000003
 21
111.6632535
  0
LINE
  8
_0-0_0
  6
CONTINUOUS
 62
    7
 10
-23.764839499999994
 20
112.0423275
 11
-23.51175649999999
 21
111.92456850000001
  0
LINE
  8
_0-0_0
  6
CONTINUOUS
 62
    7
 10
-23.764839499999994
 20
111.8068155
 11
-23.51175649999999
 21
111.92456850000001
  0
LINE
  8
_0-0_0
  6
CONTINUOUS
 62
    7
 10
-23.789455500000003
 20
112.2765505
 11
-23.525451500000003
 21
112.1858905
  0
LINE
  8
_0-0_0
  6
CONTINUOUS
 62
    7
 10
-23.764839499999994
 20
112.0423275
 11
-23.525451500000003
 21
112.1858905
  0
LINE
  8
_0-0_0
  6
CONTINUOUS
 62
    7
 10
-23.838420499999984
 20
112.5069125
 11
-23.566383500000001
 21
112.4443515
  0
LINE
  8
_0-0_0
  6
CONTINUOUS
 62
    7
 10
-23.789455500000003
 20
112.2765505
 11
-23.566383500000001
 21
112.4443515
  0
LINE
  8
_0-0_0
  6
CONTINUOUS
 62
    7
 10
-23.911197499999986
 20
112.7308955
 11
-23.634113499999984
 21
112.6971125
  0
LINE
  8
_0-0_0
  6
CONTINUOUS
 62
    7
 10
-23.838420499999984
 20
112.5069125
 11
-23.634113499999984
 21
112.6971125
  0
LINE
  8
_0-0_0
  6
CONTINUOUS
 62
    7
 10
-24.006988499999977
 20
112.9460445
 11
-23.727889500000003
 21
112.9414135
  0
LINE
  8
_0-0_0
  6
CONTINUOUS
 62
    7
 10
-23.911197499999986
 20
112.7308955
 11
-23.727889500000003
 21
112.9414135
  0
CIRCLE
  8
_0-0_0
  6
CONTINUOUS
 62
    7
 10
-32.011753499999998
 20
103.6245725
 40
5.25
  0
LINE
  8
_0-0_0
  6
CONTINUOUS
 62
    7
 10
-36.124744499999991
 20
96.550010499999999
 11
-35.846691499999991
 21
96.574569499999996
  0
LINE
  8
_0-0_0
  6
CONTINUOUS
 62
    7
 10
-36.006988500000006
 20
96.346053499999996
 11
-35.846691499999991
 21
96.574569499999996
  0
LINE
  8
_0-0_0
  6
CONTINUOUS
 62
    7
 10
-36.263175499999988
 20
96.740539499999997
 11
-35.989211499999982
 21
96.794036500000004
  0
LINE
  8
_0-0_0
  6
CONTINUOUS
 62
    7
 10
-36.124744499999991
 20
96.550010499999999
 11
-35.989211499999982
 21
96.794036500000004
  0
LINE
  8
_0-0_0
  6
CONTINUOUS
 62
    7
 10
-36.42076449999999
 20
96.915557500000006
 11
-36.153892499999984
 21
96.997398500000003
  0
LINE
  8
_0-0_0
  6
CONTINUOUS
 62
    7
 10
-36.263175499999988
 20
96.740539499999997
 11
-36.153892499999984
 21
96.997398500000003
  0
LINE
  8
_0-0_0
  6
CONTINUOUS
 62
    7
 10
-36.595783499999982
 20
97.073150499999997
 11
-36.338928500000009
 21
97.182433500000002
  0
LINE
  8
_0-0_0
  6
CONTINUOUS
 62
    7
 10
-36.42076449999999
 20
96.915557500000006
 11
-36.338928500000009
 21
97.182433500000002
  0
LINE
  8
_0-0_0
  6
CONTINUOUS
 62
    7
 10
-36.786315500000001
 20
97.211578500000002
 11
-36.5422935
 21
97.347114500000004
  0
LINE
  8
_0-0_0
  6
CONTINUOUS
 62
    7
 10
-36.595783499999982
 20
97.073150499999997
 11
-36.5422935
 21
97.347114500000004
  0
LINE
  8
_0-0_0
  6
CONTINUOUS
 62
    7
 10
-36.990274499999998
 20
97.329337500000008
 11
-36.761753499999998
 21
97.489639499999996
  0
LINE
  8
_0-0_0
  6
CONTINUOUS
 62
    7
 10
-36.786315500000001
 20
97.211578500000002
 11
-36.761753499999998
 21
97.489639499999996
  0
LINE
  8
_0-0_0
  6
CONTINUOUS
 62
    7
 10
-37.20542549999999
 20
97.425125500000007
 11
-36.994911500000001
 21
97.608436499999996
  0
LINE
  8
_0-0_0
  6
CONTINUOUS
 62
    7
 10
-36.990274499999998
 20
97.329337500000008
 11
-36.994911500000001
 21
97.608436499999996
  0
LINE
  8
_0-0_0
  6
CONTINUOUS
 62
    7
 10
-37.429410499999989
 20
97.497901499999998
 11
-37.239211499999982
 21
97.702216500000006
  0
LINE
  8
_0-0_0
  6
CONTINUOUS
 62
    7
 10
-37.20542549999999
 20
97.425125500000007
 11
-37.239211499999982
 21
97.702216500000006
  0
LINE
  8
_0-0_0
  6
CONTINUOUS
 62
    7
 10
-37.659776499999992
 20
97.546867500000005
 11
-37.491975499999995
 21
97.769943499999997
  0
LINE
  8
_0-0_0
  6
CONTINUOUS
 62
    7
 10
-37.429410499999989
 20
97.497901499999998
 11
-37.491975499999995
 21
97.769943499999997
  0
LINE
  8
_0-0_0
  6
CONTINUOUS
 62
    7
 10
-37.893997499999983
 20
97.571487500000003
 11
-37.750432499999988
 21
97.810874499999997
  0
LINE
  8
_0-0_0
  6
CONTINUOUS
 62
    7
 10
-37.659776499999992
 20
97.546867500000005
 11
-37.750432499999988
 21
97.810874499999997
  0
LINE
  8
_0-0_0
  6
CONTINUOUS
 62
    7
 10
-38.129508499999986
 20
97.571487500000003
 11
-38.011753499999998
 21
97.824569499999996
  0
LINE
  8
_0-0_0
  6
CONTINUOUS
 62
    7
 10
-37.893997499999983
 20
97.571487500000003
 11
-38.011753499999998
 21
97.824569499999996
  0
LINE
  8
_0-0_0
  6
CONTINUOUS
 62
    7
 10
-38.3637315
 20
97.546867500000005
 11
-38.273075500000004
 21
97.810874499999997
  0
LINE
  8
_0-0_0
  6
CONTINUOUS
 62
    7
 10
-38.129508499999986
 20
97.571487500000003
 11
-38.273075500000004
 21
97.810874499999997
  0
LINE
  8
_0-0_0
  6
CONTINUOUS
 62
    7
 10
-38.594097500000004
 20
97.497901499999998
 11
-38.531532499999997
 21
97.769943499999997
  0
LINE
  8
_0-0_0
  6
CONTINUOUS
 62
    7
 10
-38.3637315
 20
97.546867500000005
 11
-38.531532499999997
 21
97.769943499999997
  0
LINE
  8
_0-0_0
  6
CONTINUOUS
 62
    7
 10
-38.818082500000003
 20
97.425125500000007
 11
-38.784295499999985
 21
97.702216500000006
  0
LINE
  8
_0-0_0
  6
CONTINUOUS
 62
    7
 10
-38.594097500000004
 20
97.497901499999998
 11
-38.784295499999985
 21
97.702216500000006
  0
LINE
  8
_0-0_0
  6
CONTINUOUS
 62
    7
 10
-39.033233499999994
 20
97.329337500000008
 11
-39.028594499999997
 21
97.608436499999996
  0
LINE
  8
_0-0_0
  6
CONTINUOUS
 62
    7
 10
-38.818082500000003
 20
97.425125500000007
 11
-39.028594499999997
 21
97.608436499999996
  0
LINE
  8
_0-0_0
  6
CONTINUOUS
 62
    7
 10
-39.152770500000003
 20
97.413185499999997
 11
-39.261753499999998
 21
97.489639499999996
  0
LINE
  8
_0-0_0
  6
CONTINUOUS
 62
    7
 10
-39.033233499999994
 20
97.329337500000008
 11
-39.152770500000003
 21
97.413185499999997
  0
LINE
  8
_0-0_0
  6
CONTINUOUS
 62
    7
 10
-39.237192499999992
 20
97.211578500000002
 11
-39.261753499999998
 21
97.489639499999996
  0
LINE
  8
_0-0_0
  6
CONTINUOUS
 62
    7
 10
-39.427724499999982
 20
97.073150499999997
 11
-39.481216499999988
 21
97.347114500000004
  0
LINE
  8
_0-0_0
  6
CONTINUOUS
 62
    7
 10
-39.237192499999992
 20
97.211578500000002
 11
-39.481216499999988
 21
97.347114500000004
  0
LINE
  8
_0-0_0
  6
CONTINUOUS
 62
    7
 10
-39.6027445
 20
96.915557500000006
 11
-39.684581499999979
 21
97.182433500000002
  0
LINE
  8
_0-0_0
  6
CONTINUOUS
 62
    7
 10
-39.427724499999982
 20
97.073150499999997
 11
-39.684581499999979
 21
97.182433500000002
  0
LINE
  8
_0-0_0
  6
CONTINUOUS
 62
    7
 10
-39.760332500000004
 20
96.740539499999997
 11
-39.869615500000009
 21
96.997398500000003
  0
LINE
  8
_0-0_0
  6
CONTINUOUS
 62
    7
 10
-39.6027445
 20
96.915557500000006
 11
-39.869615500000009
 21
96.997398500000003
  0
LINE
  8
_0-0_0
  6
CONTINUOUS
 62
    7
 10
-39.898763500000001
 20
96.550010499999999
 11
-40.03429749999998
 21
96.794036500000004
  0
LINE
  8
_0-0_0
  6
CONTINUOUS
 62
    7
 10
-39.760332500000004
 20
96.740539499999997
 11
-40.03429749999998
 21
96.794036500000004
  0
LINE
  8
_0-0_0
  6
CONTINUOUS
 62
    7
 10
-40.016517499999992
 20
96.346053499999996
 11
-40.176818499999996
 21
96.574569499999996
  0
LINE
  8
_0-0_0
  6
CONTINUOUS
 62
    7
 10
-39.898763500000001
 20
96.550010499999999
 11
-40.176818499999996
 21
96.574569499999996
  0
LINE
  8
_0-0_0
  6
CONTINUOUS
 62
    7
 10
-40.112310499999978
 20
96.130897500000003
 11
-40.295617499999992
 21
96.341415499999997
  0
LINE
  8
_0-0_0
  6
CONTINUOUS
 62
    7
 10
-40.016517499999992
 20
96.346053499999996
 11
-40.295617499999992
 21
96.341415499999997
  0
LINE
  8
_0-0_0
  6
CONTINUOUS
 62
    7
 10
-40.185087500000009
 20
95.906913500000002
 11
-40.389396500000004
 21
96.097114500000004
  0
LINE
  8
_0-0_0
  6
CONTINUOUS
 62
    7
 10
-40.112310499999978
 20
96.130897500000003
 11
-40.389396500000004
 21
96.097114500000004
  0
LINE
  8
_0-0_0
  6
CONTINUOUS
 62
    7
 10
-40.23405249999999
 20
95.676544500000006
 11
-40.457122499999997
 21
95.844352499999999
  0
LINE
  8
_0-0_0
  6
CONTINUOUS
 62
    7
 10
-40.185087500000009
 20
95.906913500000002
 11
-40.457122499999997
 21
95.844352499999999
  0
LINE
  8
_0-0_0
  6
CONTINUOUS
 62
    7
 10
-40.23405249999999
 20
95.676544500000006
 11
-40.498058499999985
 21
95.585891500000002
  0
LINE
  8
_0-0_0
  6
CONTINUOUS
 62
    7
 10
-40.258670499999994
 20
95.4423295
 11
-40.498058499999985
 21
95.585891500000002
  0
LINE
  8
_0-0_0
  6
CONTINUOUS
 62
    7
 10
-40.258670499999994
 20
95.2068175
 11
-40.511753499999998
 21
95.324569499999996
  0
LINE
  8
_0-0_0
  6
CONTINUOUS
 62
    7
 10
-40.258670499999994
 20
95.4423295
 11
-40.511753499999998
 21
95.324569499999996
  0
LINE
  8
_0-0_0
  6
CONTINUOUS
 62
    7
 10
-40.23405249999999
 20
94.972595499999997
 11
-40.498058499999985
 21
95.063255499999997
  0
LINE
  8
_0-0_0
  6
CONTINUOUS
 62
    7
 10
-40.258670499999994
 20
95.2068175
 11
-40.498058499999985
 21
95.063255499999997
  0
LINE
  8
_0-0_0
  6
CONTINUOUS
 62
    7
 10
-40.185087500000009
 20
94.742233499999998
 11
-40.457122499999997
 21
94.8047945
  0
LINE
  8
_0-0_0
  6
CONTINUOUS
 62
    7
 10
-40.23405249999999
 20
94.972595499999997
 11
-40.457122499999997
 21
94.8047945
  0
LINE
  8
_0-0_0
  6
CONTINUOUS
 62
    7
 10
-40.112310499999978
 20
94.518241500000002
 11
-40.389396500000004
 21
94.552032499999996
  0
LINE
  8
_0-0_0
  6
CONTINUOUS
 62
    7
 10
-40.185087500000009
 20
94.742233499999998
 11
-40.389396500000004
 21
94.552032499999996
  0
LINE
  8
_0-0_0
  6
CONTINUOUS
 62
    7
 10
-40.016517499999992
 20
94.303092500000005
 11
-40.295617499999992
 21
94.307723500000009
  0
LINE
  8
_0-0_0
  6
CONTINUOUS
 62
    7
 10
-40.112310499999978
 20
94.518241500000002
 11
-40.295617499999992
 21
94.307723500000009
  0
LINE
  8
_0-0_0
  6
CONTINUOUS
 62
    7
 10
-39.898763500000001
 20
94.0991365
 11
-40.176818499999996
 21
94.074569499999996
  0
LINE
  8
_0-0_0
  6
CONTINUOUS
 62
    7
 10
-40.016517499999992
 20
94.303092500000005
 11
-40.176818499999996
 21
94.074569499999996
  0
LINE
  8
_0-0_0
  6
CONTINUOUS
 62
    7
 10
-39.760332500000004
 20
93.908599500000008
 11
-40.03429749999998
 21
93.855110500000009
  0
LINE
  8
_0-0_0
  6
CONTINUOUS
 62
    7
 10
-39.898763500000001
 20
94.0991365
 11
-40.03429749999998
 21
93.855110500000009
  0
LINE
  8
_0-0_0
  6
CONTINUOUS
 62
    7
 10
-39.6027445
 20
93.7335815
 11
-39.869615500000009
 21
93.651740500000002
  0
LINE
  8
_0-0_0
  6
CONTINUOUS
 62
    7
 10
-39.760332500000004
 20
93.908599500000008
 11
-39.869615500000009
 21
93.651740500000002
  0
LINE
  8
_0-0_0
  6
CONTINUOUS
 62
    7
 10
-39.427724499999982
 20
93.575996500000002
 11
-39.684581499999979
 21
93.466705500000003
  0
LINE
  8
_0-0_0
  6
CONTINUOUS
 62
    7
 10
-39.6027445
 20
93.7335815
 11
-39.684581499999979
 21
93.466705500000003
  0
LINE
  8
_0-0_0
  6
CONTINUOUS
 62
    7
 10
-39.237192499999992
 20
93.437560500000004
 11
-39.481216499999988
 21
93.302032499999996
  0
LINE
  8
_0-0_0
  6
CONTINUOUS
 62
    7
 10
-39.427724499999982
 20
93.575996500000002
 11
-39.481216499999988
 21
93.302032499999996
  0
LINE
  8
_0-0_0
  6
CONTINUOUS
 62
    7
 10
-39.033233499999994
 20
93.319801499999997
 11
-39.261753499999998
 21
93.159507500000004
  0
LINE
  8
_0-0_0
  6
CONTINUOUS
 62
    7
 10
-39.237192499999992
 20
93.437560500000004
 11
-39.261753499999998
 21
93.159507500000004
  0
LINE
  8
_0-0_0
  6
CONTINUOUS
 62
    7
 10
-38.818082500000003
 20
93.224014499999996
 11
-39.028594499999997
 21
93.040710500000003
  0
LINE
  8
_0-0_0
  6
CONTINUOUS
 62
    7
 10
-39.033233499999994
 20
93.319801499999997
 11
-39.028594499999997
 21
93.040710500000003
  0
LINE
  8
_0-0_0
  6
CONTINUOUS
 62
    7
 10
-38.594097500000004
 20
93.151237500000008
 11
-38.784295499999985
 21
92.946929499999996
  0
LINE
  8
_0-0_0
  6
CONTINUOUS
 62
    7
 10
-38.818082500000003
 20
93.224014499999996
 11
-38.784295499999985
 21
92.946929499999996
  0
LINE
  8
_0-0_0
  6
CONTINUOUS
 62
    7
 10
-38.3637315
 20
93.102271500000001
 11
-38.531532499999997
 21
92.879203500000003
  0
LINE
  8
_0-0_0
  6
CONTINUOUS
 62
    7
 10
-38.594097500000004
 20
93.151237500000008
 11
-38.531532499999997
 21
92.879203500000003
  0
LINE
  8
_0-0_0
  6
CONTINUOUS
 62
    7
 10
-38.129508499999986
 20
93.077651500000002
 11
-38.273075500000004
 21
92.838264500000008
  0
LINE
  8
_0-0_0
  6
CONTINUOUS
 62
    7
 10
-38.3637315
 20
93.102271500000001
 11
-38.273075500000004
 21
92.838264500000008
  0
LINE
  8
_0-0_0
  6
CONTINUOUS
 62
    7
 10
-37.893997499999983
 20
93.077651500000002
 11
-38.011753499999998
 21
92.824569499999996
  0
LINE
  8
_0-0_0
  6
CONTINUOUS
 62
    7
 10
-38.129508499999986
 20
93.077651500000002
 11
-38.011753499999998
 21
92.824569499999996
  0
LINE
  8
_0-0_0
  6
CONTINUOUS
 62
    7
 10
-37.659776499999992
 20
93.102271500000001
 11
-37.750432499999988
 21
92.838264500000008
  0
LINE
  8
_0-0_0
  6
CONTINUOUS
 62
    7
 10
-37.893997499999983
 20
93.077651500000002
 11
-37.750432499999988
 21
92.838264500000008
  0
LINE
  8
_0-0_0
  6
CONTINUOUS
 62
    7
 10
-37.429410499999989
 20
93.151237500000008
 11
-37.491975499999995
 21
92.879203500000003
  0
LINE
  8
_0-0_0
  6
CONTINUOUS
 62
    7
 10
-37.659776499999992
 20
93.102271500000001
 11
-37.491975499999995
 21
92.879203500000003
  0
LINE
  8
_0-0_0
  6
CONTINUOUS
 62
    7
 10
-37.20542549999999
 20
93.224014499999996
 11
-37.239211499999982
 21
92.946929499999996
  0
LINE
  8
_0-0_0
  6
CONTINUOUS
 62
    7
 10
-37.429410499999989
 20
93.151237500000008
 11
-37.239211499999982
 21
92.946929499999996
  0
LINE
  8
_0-0_0
  6
CONTINUOUS
 62
    7
 10
-36.990274499999998
 20
93.319801499999997
 11
-36.994911500000001
 21
93.040710500000003
  0
LINE
  8
_0-0_0
  6
CONTINUOUS
 62
    7
 10
-37.20542549999999
 20
93.224014499999996
 11
-36.994911500000001
 21
93.040710500000003
  0
LINE
  8
_0-0_0
  6
CONTINUOUS
 62
    7
 10
-36.870738499999987
 20
93.235954500000005
 11
-36.761753499999998
 21
93.159507500000004
  0
LINE
  8
_0-0_0
  6
CONTINUOUS
 62
    7
 10
-36.990274499999998
 20
93.319801499999997
 11
-36.870738499999987
 21
93.235954500000005
  0
LINE
  8
_0-0_0
  6
CONTINUOUS
 62
    7
 10
-36.786315500000001
 20
93.437560500000004
 11
-36.761753499999998
 21
93.159507500000004
  0
LINE
  8
_0-0_0
  6
CONTINUOUS
 62
    7
 10
-36.595783499999982
 20
93.575996500000002
 11
-36.5422935
 21
93.302032499999996
  0
LINE
  8
_0-0_0
  6
CONTINUOUS
 62
    7
 10
-36.786315500000001
 20
93.437560500000004
 11
-36.5422935
 21
93.302032499999996
  0
LINE
  8
_0-0_0
  6
CONTINUOUS
 62
    7
 10
-36.42076449999999
 20
93.7335815
 11
-36.338928500000009
 21
93.466705500000003
  0
LINE
  8
_0-0_0
  6
CONTINUOUS
 62
    7
 10
-36.595783499999982
 20
93.575996500000002
 11
-36.338928500000009
 21
93.466705500000003
  0
LINE
  8
_0-0_0
  6
CONTINUOUS
 62
    7
 10
-36.263175499999988
 20
93.908599500000008
 11
-36.153892499999984
 21
93.651740500000002
  0
LINE
  8
_0-0_0
  6
CONTINUOUS
 62
    7
 10
-36.42076449999999
 20
93.7335815
 11
-36.153892499999984
 21
93.651740500000002
  0
LINE
  8
_0-0_0
  6
CONTINUOUS
 62
    7
 10
-36.124744499999991
 20
94.0991365
 11
-35.989211499999982
 21
93.855110500000009
  0
LINE
  8
_0-0_0
  6
CONTINUOUS
 62
    7
 10
-36.263175499999988
 20
93.908599500000008
 11
-35.989211499999982
 21
93.855110500000009
  0
LINE
  8
_0-0_0
  6
CONTINUOUS
 62
    7
 10
-36.006988500000006
 20
94.303092500000005
 11
-35.846691499999991
 21
94.074569499999996
  0
LINE
  8
_0-0_0
  6
CONTINUOUS
 62
    7
 10
-36.124744499999991
 20
94.0991365
 11
-35.846691499999991
 21
94.074569499999996
  0
LINE
  8
_0-0_0
  6
CONTINUOUS
 62
    7
 10
-35.911197499999986
 20
94.518241500000002
 11
-35.727889500000003
 21
94.307723500000009
  0
LINE
  8
_0-0_0
  6
CONTINUOUS
 62
    7
 10
-36.006988500000006
 20
94.303092500000005
 11
-35.727889500000003
 21
94.307723500000009
  0
LINE
  8
_0-0_0
  6
CONTINUOUS
 62
    7
 10
-35.838420499999984
 20
94.742233499999998
 11
-35.634113499999984
 21
94.552032499999996
  0
LINE
  8
_0-0_0
  6
CONTINUOUS
 62
    7
 10
-35.911197499999986
 20
94.518241500000002
 11
-35.634113499999984
 21
94.552032499999996
  0
LINE
  8
_0-0_0
  6
CONTINUOUS
 62
    7
 10
-35.789455500000003
 20
94.972595499999997
 11
-35.566385499999996
 21
94.8047945
  0
LINE
  8
_0-0_0
  6
CONTINUOUS
 62
    7
 10
-35.838420499999984
 20
94.742233499999998
 11
-35.566385499999996
 21
94.8047945
  0
LINE
  8
_0-0_0
  6
CONTINUOUS
 62
    7
 10
-35.764839499999994
 20
95.2068175
 11
-35.525449499999979
 21
95.063255499999997
  0
LINE
  8
_0-0_0
  6
CONTINUOUS
 62
    7
 10
-35.789455500000003
 20
94.972595499999997
 11
-35.525449499999979
 21
95.063255499999997
  0
LINE
  8
_0-0_0
  6
CONTINUOUS
 62
    7
 10
-35.764839499999994
 20
95.4423295
 11
-35.511753499999998
 21
95.324569499999996
  0
LINE
  8
_0-0_0
  6
CONTINUOUS
 62
    7
 10
-35.764839499999994
 20
95.2068175
 11
-35.511753499999998
 21
95.324569499999996
  0
LINE
  8
_0-0_0
  6
CONTINUOUS
 62
    7
 10
-35.789455500000003
 20
95.676544500000006
 11
-35.525449499999979
 21
95.585891500000002
  0
LINE
  8
_0-0_0
  6
CONTINUOUS
 62
    7
 10
-35.764839499999994
 20
95.4423295
 11
-35.525449499999979
 21
95.585891500000002
  0
LINE
  8
_0-0_0
  6
CONTINUOUS
 62
    7
 10
-35.838420499999984
 20
95.906913500000002
 11
-35.566385499999996
 21
95.844352499999999
  0
LINE
  8
_0-0_0
  6
CONTINUOUS
 62
    7
 10
-35.789455500000003
 20
95.676544500000006
 11
-35.566385499999996
 21
95.844352499999999
  0
LINE
  8
_0-0_0
  6
CONTINUOUS
 62
    7
 10
-35.911197499999986
 20
96.130897500000003
 11
-35.634113499999984
 21
96.097114500000004
  0
LINE
  8
_0-0_0
  6
CONTINUOUS
 62
    7
 10
-35.838420499999984
 20
95.906913500000002
 11
-35.634113499999984
 21
96.097114500000004
  0
LINE
  8
_0-0_0
  6
CONTINUOUS
 62
    7
 10
-36.006988500000006
 20
96.346053499999996
 11
-35.727889500000003
 21
96.341415499999997
  0
LINE
  8
_0-0_0
  6
CONTINUOUS
 62
    7
 10
-35.911197499999986
 20
96.130897500000003
 11
-35.727889500000003
 21
96.341415499999997
  0
CIRCLE
  8
_0-0_0
  6
CONTINUOUS
 62
    7
 10
-26.01175649999999
 20
111.92456850000001
 40
2
  0
CIRCLE
  8
_0-0_0
  6
CONTINUOUS
 62
    7
 10
-38.011753499999998
 20
95.324569499999996
 40
2
  0
LINE
  8
_0-0_0
  6
CONTINUOUS
 62
    7
 10
-25.429645499999992
 20
110.9245755
 11
-26.593864499999995
 21
110.9245755
  0
LINE
  8
_0-0_0
  6
CONTINUOUS
 62
    7
 10
-26.593864499999995
 20
110.9245755
 11
-27.161754500000001
 21
111.92456850000001
  0
LINE
  8
_0-0_0
  6
CONTINUOUS
 62
    7
 10
-27.161754500000001
 20
111.92456850000001
 11
-26.593864499999995
 21
112.92456850000001
  0
LINE
  8
_0-0_0
  6
CONTINUOUS
 62
    7
 10
-26.593864499999995
 20
112.92456850000001
 11
-25.429645499999992
 21
112.92456850000001
  0
LINE
  8
_0-0_0
  6
CONTINUOUS
 62
    7
 10
-25.429645499999992
 20
112.92456850000001
 11
-24.861755499999987
 21
111.92456850000001
  0
LINE
  8
_0-0_0
  6
CONTINUOUS
 62
    7
 10
-24.861755499999987
 20
111.92456850000001
 11
-25.429645499999992
 21
110.9245755
  0
CIRCLE
  8
_0-0_0
  6
CONTINUOUS
 62
    7
 10
-32.011753499999998
 20
103.6245725
 40
5
  0
LINE
  8
_0-0_0
  6
CONTINUOUS
 62
    7
 10
-37.429645499999992
 20
94.324569499999996
 11
-38.5938625
 21
94.324569499999996
  0
LINE
  8
_0-0_0
  6
CONTINUOUS
 62
    7
 10
-38.5938625
 20
94.324569499999996
 11
-39.161754500000001
 21
95.324569499999996
  0
LINE
  8
_0-0_0
  6
CONTINUOUS
 62
    7
 10
-39.161754500000001
 20
95.324569499999996
 11
-38.5938625
 21
96.324569499999996
  0
LINE
  8
_0-0_0
  6
CONTINUOUS
 62
    7
 10
-38.5938625
 20
96.324569499999996
 11
-37.429645499999992
 21
96.324569499999996
  0
LINE
  8
_0-0_0
  6
CONTINUOUS
 62
    7
 10
-37.429645499999992
 20
96.324569499999996
 11
-36.861755499999987
 21
95.324569499999996
  0
LINE
  8
_0-0_0
  6
CONTINUOUS
 62
    7
 10
-36.861755499999987
 20
95.324569499999996
 11
-37.429645499999992
 21
94.324569499999996
  0
CIRCLE
  8
_0-0_0
  6
CONTINUOUS
 62
    7
 10
-32.011753499999998
 20
103.6245725
 40
4.5381200000000002
  0
CIRCLE
  8
_0-0_0
  6
CONTINUOUS
 62
    7
 10
-32.011753499999998
 20
103.6245725
 40
4
  0
LINE
  8
_0-0_0
  6
CONTINUOUS
 62
    7
 10
-40.14433249999999
 20
113.5798875
 11
-40.811754500000006
 21
113.5798875
  0
ARC
  8
_0-0_0
  6
CONTINUOUS
 62
    7
 10
-24.01175649999999
 20
114.04956850000001
 40
0.2
 50
179.94055499999999
 51
269.99997000000002
  0
ARC
  8
_0-0_0
  6
CONTINUOUS
 62
    7
 10
-25.51175649999999
 20
94.824569499999996
 40
2
 50
269.99999700000001
 51
273.84026499999999
  0
ARC
  8
_0-0_0
  6
CONTINUOUS
 62
    7
 10
-38.511753499999998
 20
112.4245755
 40
2
 50
90.000003000000007
 51
93.840255999999997
  0
LINE
  8
_0-0_0
  6
CONTINUOUS
 62
    7
 10
-23.711753499999986
 20
113.8495715
 11
-24.01175649999999
 21
113.8495715
  0
LINE
  8
_0-0_0
  6
CONTINUOUS
 62
    7
 10
-23.711753499999986
 20
116.79956850000001
 11
-24.01175649999999
 21
116.79956850000001
  0
ARC
  8
_0-0_0
  6
CONTINUOUS
 62
    7
 10
-40.011753499999998
 20
114.0496445
 40
0.2
 50
270.00002499999994
 51
0.0594439999999606
  0
ARC
  8
_0-0_0
  6
CONTINUOUS
 62
    7
 10
-23.711788499999983
 20
114.0496215
 40
0.200055
 50
270.00964199999999
 51
1.3705509999999435
  0
ARC
  8
_0-0_0
  6
CONTINUOUS
 62
    7
 10
-23.711753499999986
 20
116.5995715
 40
0.2
 50
359.91222800000003
 51
89.999948000000003
  0
LINE
  8
_0-0_0
  6
CONTINUOUS
 62
    7
 10
-40.311754500000006
 20
113.8496475
 11
-40.011753499999998
 21
113.8496475
  0
ARC
  8
_0-0_0
  6
CONTINUOUS
 62
    7
 10
-40.311721500000004
 20
114.04969750000001
 40
0.200055
 50
178.629446
 51
269.99035300000003
  0
LINE
  8
_0-0_0
  6
CONTINUOUS
 62
    7
 10
-23.311752500000011
 20
119.3246455
 11
-23.311752500000011
 21
132.5246425
  0
ARC
  8
_0-0_0
  6
CONTINUOUS
 62
    7
 10
-23.811752500000011
 20
119.3246455
 40
0.5
 50
269.99999700000001
 51
0
  0
ARC
  8
_0-0_0
  6
CONTINUOUS
 62
    7
 10
-23.370330499999994
 20
132.72463949999999
 40
0.1
 50
135
 51
225
  0
LINE
  8
_0-0_0
  6
CONTINUOUS
 62
    7
 10
-23.441043499999978
 20
132.6539305
 11
-23.311752500000011
 21
132.5246425
  0
LINE
  8
_0-0_0
  6
CONTINUOUS
 62
    7
 10
-23.811752500000011
 20
118.8246455
 11
-25.711753499999986
 21
118.8246455
  0
ARC
  8
_0-0_0
  6
CONTINUOUS
 62
    7
 10
-25.711753499999986
 20
119.3246455
 40
0.5
 50
233.12990600000001
 51
269.99999700000001
  0
ARC
  8
_0-0_0
  6
CONTINUOUS
 62
    7
 10
-38.411754500000001
 20
119.3246455
 40
0.5
 50
269.99999700000001
 51
306.87009999999998
  0
LINE
  8
_0-0_0
  6
CONTINUOUS
 62
    7
 10
-38.411754500000001
 20
118.8246455
 11
-40.311754500000006
 21
118.8246455
  0
ARC
  8
_0-0_0
  6
CONTINUOUS
 62
    7
 10
-40.311754500000006
 20
119.3246455
 40
0.5
 50
180.00000900000003
 51
269.99999700000001
  0
LINE
  8
_0-0_0
  6
CONTINUOUS
 62
    7
 10
-40.811754500000006
 20
128.75964350000001
 11
-40.811754500000006
 21
119.3246455
  0
LINE
  8
_0-0_0
  6
CONTINUOUS
 62
    7
 10
-40.811754500000006
 20
128.75964350000001
 11
-40.111755499999987
 21
128.75964350000001
  0
LINE
  8
_0-0_0
  6
CONTINUOUS
 62
    7
 10
-24.111755499999987
 20
147.3246455
 11
-23.905723499999993
 21
147.3246455
  0
LINE
  8
_0-0_0
  6
CONTINUOUS
 62
    7
 10
-23.905723499999993
 20
147.3246455
 11
-23.311752500000011
 21
146.7306825
  0
LINE
  8
_0-0_0
  6
CONTINUOUS
 62
    7
 10
-23.311752500000011
 20
141.72463949999999
 11
-23.311752500000011
 21
146.7306825
  0
LINE
  8
_0-0_0
  6
CONTINUOUS
 62
    7
 10
-23.441043499999978
 20
141.59535249999999
 11
-23.311752500000011
 21
141.72463949999999
  0
ARC
  8
_0-0_0
  6
CONTINUOUS
 62
    7
 10
-23.370330499999994
 20
141.5246425
 40
0.1
 50
135
 51
225
  0
LINE
  8
_0-0_0
  6
CONTINUOUS
 62
    7
 10
-23.441043499999978
 20
141.45393350000001
 11
-23.311752500000011
 21
141.3246455
  0
LINE
  8
_0-0_0
  6
CONTINUOUS
 62
    7
 10
-23.311752500000011
 20
140.62464850000001
 11
-23.311752500000011
 21
141.3246455
  0
LINE
  8
_0-0_0
  6
CONTINUOUS
 62
    7
 10
-23.441043499999978
 20
140.4953615
 11
-23.311752500000011
 21
140.62464850000001
  0
ARC
  8
_0-0_0
  6
CONTINUOUS
 62
    7
 10
-23.370330499999994
 20
140.42465150000001
 40
0.1
 50
135
 51
225
  0
LINE
  8
_0-0_0
  6
CONTINUOUS
 62
    7
 10
-23.441043499999978
 20
140.3539275
 11
-23.311752500000011
 21
140.22463949999999
  0
LINE
  8
_0-0_0
  6
CONTINUOUS
 62
    7
 10
-23.311752500000011
 20
139.5246425
 11
-23.311752500000011
 21
140.22463949999999
  0
LINE
  8
_0-0_0
  6
CONTINUOUS
 62
    7
 10
-23.441043499999978
 20
139.39535549999999
 11
-23.311752500000011
 21
139.5246425
  0
ARC
  8
_0-0_0
  6
CONTINUOUS
 62
    7
 10
-23.370330499999994
 20
139.3246455
 40
0.1
 50
135
 51
225
  0
LINE
  8
_0-0_0
  6
CONTINUOUS
 62
    7
 10
-23.441043499999978
 20
139.25393650000001
 11
-23.311752500000011
 21
139.12464850000001
  0
LINE
  8
_0-0_0
  6
CONTINUOUS
 62
    7
 10
-23.311752500000011
 20
138.42465150000001
 11
-23.311752500000011
 21
139.12464850000001
  0
LINE
  8
_0-0_0
  6
CONTINUOUS
 62
    7
 10
-23.441043499999978
 20
138.29534950000001
 11
-23.311752500000011
 21
138.42465150000001
  0
ARC
  8
_0-0_0
  6
CONTINUOUS
 62
    7
 10
-23.370330499999994
 20
138.22463949999999
 40
0.1
 50
135
 51
225
  0
LINE
  8
_0-0_0
  6
CONTINUOUS
 62
    7
 10
-23.441043499999978
 20
138.1539305
 11
-23.311752500000011
 21
138.0246425
  0
LINE
  8
_0-0_0
  6
CONTINUOUS
 62
    7
 10
-23.311752500000011
 20
137.3246455
 11
-23.311752500000011
 21
138.0246425
  0
LINE
  8
_0-0_0
  6
CONTINUOUS
 62
    7
 10
-23.441043499999978
 20
137.1953585
 11
-23.311752500000011
 21
137.3246455
  0
ARC
  8
_0-0_0
  6
CONTINUOUS
 62
    7
 10
-23.370330499999994
 20
137.12464850000001
 40
0.1
 50
135
 51
225
  0
LINE
  8
_0-0_0
  6
CONTINUOUS
 62
    7
 10
-23.441043499999978
 20
137.05392449999999
 11
-23.311752500000011
 21
136.92465150000001
  0
LINE
  8
_0-0_0
  6
CONTINUOUS
 62
    7
 10
-23.311752500000011
 20
136.22463949999999
 11
-23.311752500000011
 21
136.92465150000001
  0
LINE
  8
_0-0_0
  6
CONTINUOUS
 62
    7
 10
-23.441043499999978
 20
136.09535249999999
 11
-23.311752500000011
 21
136.22463949999999
  0
ARC
  8
_0-0_0
  6
CONTINUOUS
 62
    7
 10
-23.370330499999994
 20
136.0246425
 40
0.1
 50
135
 51
225
  0
LINE
  8
_0-0_0
  6
CONTINUOUS
 62
    7
 10
-23.441043499999978
 20
135.95393350000001
 11
-23.311752500000011
 21
135.8246455
  0
LINE
  8
_0-0_0
  6
CONTINUOUS
 62
    7
 10
-23.311752500000011
 20
135.12464850000001
 11
-23.311752500000011
 21
135.8246455
  0
LINE
  8
_0-0_0
  6
CONTINUOUS
 62
    7
 10
-23.441043499999978
 20
134.9953615
 11
-23.311752500000011
 21
135.12464850000001
  0
ARC
  8
_0-0_0
  6
CONTINUOUS
 62
    7
 10
-23.370330499999994
 20
134.92465150000001
 40
0.1
 50
135
 51
225
  0
LINE
  8
_0-0_0
  6
CONTINUOUS
 62
    7
 10
-23.441043499999978
 20
134.85394250000002
 11
-23.311752500000011
 21
134.72463949999999
  0
LINE
  8
_0-0_0
  6
CONTINUOUS
 62
    7
 10
-23.311752500000011
 20
134.0246425
 11
-23.311752500000011
 21
134.72463949999999
  0
LINE
  8
_0-0_0
  6
CONTINUOUS
 62
    7
 10
-23.441043499999978
 20
133.89535549999999
 11
-23.311752500000011
 21
134.0246425
  0
ARC
  8
_0-0_0
  6
CONTINUOUS
 62
    7
 10
-23.370330499999994
 20
133.8246455
 40
0.1
 50
135
 51
225
  0
LINE
  8
_0-0_0
  6
CONTINUOUS
 62
    7
 10
-23.441043499999978
 20
133.75393650000001
 11
-23.311752500000011
 21
133.62464850000001
  0
LINE
  8
_0-0_0
  6
CONTINUOUS
 62
    7
 10
-23.311752500000011
 20
132.92465150000001
 11
-23.311752500000011
 21
133.62464850000001
  0
LINE
  8
_0-0_0
  6
CONTINUOUS
 62
    7
 10
-23.441043499999978
 20
132.79534950000001
 11
-23.311752500000011
 21
132.92465150000001
  0
LINE
  8
_0-0_0
  6
CONTINUOUS
 62
    7
 10
-23.311752500000011
 20
124.8246455
 11
-23.211753499999986
 21
124.8246455
  0
LINE
  8
_0-0_0
  6
CONTINUOUS
 62
    7
 10
-23.211753499999986
 20
124.3246455
 11
-23.211753499999986
 21
124.8246455
  0
LINE
  8
_0-0_0
  6
CONTINUOUS
 62
    7
 10
-23.211753499999986
 20
124.3246455
 11
-23.211753499999986
 21
120.3246455
  0
LINE
  8
_0-0_0
  6
CONTINUOUS
 62
    7
 10
-23.311752500000011
 20
119.8246455
 11
-23.211753499999986
 21
119.8246455
  0
LINE
  8
_0-0_0
  6
CONTINUOUS
 62
    7
 10
-23.211753499999986
 20
119.8246455
 11
-23.211753499999986
 21
120.3246455
  0
LINE
  8
_0-0_0
  6
CONTINUOUS
 62
    7
 10
-40.811754500000006
 20
128.82466149999999
 11
-40.811754500000006
 21
128.75964350000001
  0
LINE
  8
_0-0_0
  6
CONTINUOUS
 62
    7
 10
-24.311752500000011
 20
147.62464850000001
 11
-24.311752500000011
 21
147.5246425
  0
LINE
  8
_0-0_0
  6
CONTINUOUS
 62
    7
 10
-40.911754500000001
 20
128.8246455
 11
-40.111753499999992
 21
128.8246455
  0
LINE
  8
_0-0_0
  6
CONTINUOUS
 62
    7
 10
-40.411754500000001
 20
150.62464850000001
 11
-40.411754500000001
 21
146.40310650000001
  0
LINE
  8
_0-0_0
  6
CONTINUOUS
 62
    7
 10
-39.311754500000006
 20
150.62464850000001
 11
-39.311754500000006
 21
147.62464850000001
  0
LINE
  8
_0-0_0
  6
CONTINUOUS
 62
    7
 10
-40.411754500000001
 20
146.40310650000001
 11
-40.111753499999992
 21
146.40310650000001
  0
ARC
  8
_0-0_0
  6
CONTINUOUS
 62
    7
 10
-36.811754500000006
 20
147.62464850000001
 40
2.5
 50
90.000003000000007
 51
180.00000900000001
  0
ARC
  8
_0-0_0
  6
CONTINUOUS
 62
    7
 10
-26.811752500000011
 20
147.62464850000001
 40
2.5
 50
0
 51
90.000003000000007
  0
LINE
  8
_0-0_0
  6
CONTINUOUS
 62
    7
 10
-39.311754500000006
 20
147.5246425
 11
-39.311754500000006
 21
147.62464850000001
  0
LINE
  8
_0-0_0
  6
CONTINUOUS
 62
    7
 10
-26.811752500000011
 20
150.12464850000001
 11
-36.811754500000006
 21
150.12464850000001
  0
LINE
  8
_0-0_0
  6
CONTINUOUS
 62
    7
 10
-23.111755499999987
 20
120.3246455
 11
-23.111755499999987
 21
120.4550095
  0
LINE
  8
_0-0_0
  6
CONTINUOUS
 62
    7
 10
-23.111755499999987
 20
123.95500150000001
 11
-23.111755499999987
 21
120.4550095
  0
LINE
  8
_0-0_0
  6
CONTINUOUS
 62
    7
 10
-23.211753499999986
 20
124.22463950000001
 11
-23.111755499999987
 21
124.22463950000001
  0
LINE
  8
_0-0_0
  6
CONTINUOUS
 62
    7
 10
-23.111755499999987
 20
123.95500150000001
 11
-23.111755499999987
 21
124.22463950000001
  0
LINE
  8
_0-0_0
  6
CONTINUOUS
 62
    7
 10
-23.511753499999998
 20
146.72463949999999
 11
-24.511753499999998
 21
147.72463949999999
  0
LINE
  8
_0-0_0
  6
CONTINUOUS
 62
    7
 10
-23.51175649999999
 20
118.9246445
 11
-23.511753499999998
 21
146.72463949999999
  0
LINE
  8
_0-0_0
  6
CONTINUOUS
 62
    7
 10
-40.111753499999992
 20
118.9246445
 11
-23.51175649999999
 21
118.9246445
  0
LINE
  8
_0-0_0
  6
CONTINUOUS
 62
    7
 10
-40.111753499999992
 20
146.72463949999999
 11
-40.111753499999992
 21
118.9246445
  0
LINE
  8
_0-0_0
  6
CONTINUOUS
 62
    7
 10
-40.911754500000001
 20
128.8246455
 11
-40.911754500000001
 21
145.6374515
  0
LINE
  8
_0-0_0
  6
CONTINUOUS
 62
    7
 10
-40.911754500000001
 20
150.12464850000001
 11
-40.911754500000001
 21
145.6374515
  0
ARC
  8
_0-0_0
  6
CONTINUOUS
 62
    7
 10
-9.4600144999999998
 20
125.6424715
 40
37.269466000000001
 50
146.14857699999999
 51
147.55443399999999
  0
ARC
  8
_0-0_0
  6
CONTINUOUS
 62
    7
 10
-27.080802500000004
 20
147.3246455
 40
2.6000000000000001
 50
8.8498839999999994
 51
90.000002999999992
  0
LINE
  8
_0-0_0
  6
CONTINUOUS
 62
    7
 10
-27.080802500000004
 20
149.92465150000001
 11
-36.542707500000006
 21
149.92465150000001
  0
ARC
  8
_0-0_0
  6
CONTINUOUS
 62
    7
 10
-36.542707500000006
 20
147.3246455
 40
2.6000000000000001
 50
90.000003000000007
 51
171.150115
  0
LINE
  8
_0-0_0
  6
CONTINUOUS
 62
    7
 10
-40.111753499999992
 20
146.72463949999999
 11
-39.111753499999992
 21
147.72463949999999
  0
LINE
  8
_0-0_0
  6
CONTINUOUS
 62
    7
 10
-24.511753499999998
 20
146.31042450000001
 11
-23.511753499999998
 21
146.72463949999999
  0
ARC
  8
_0-0_0
  6
CONTINUOUS
 62
    7
 10
-30.054294499999997
 20
158.5107725
 40
12.126564999999999
 50
292.155034
 51
297.19674500000002
  0
LINE
  8
_0-0_0
  6
CONTINUOUS
 62
    7
 10
-24.51175649999999
 20
119.9246445
 11
-23.51175649999999
 21
118.9246445
  0
LINE
  8
_0-0_0
  6
CONTINUOUS
 62
    7
 10
-39.111753499999992
 20
119.9246445
 11
-40.111753499999992
 21
118.9246445
  0
LINE
  8
_0-0_0
  6
CONTINUOUS
 62
    7
 10
-39.111753499999992
 20
146.31042450000001
 11
-40.111753499999992
 21
146.72463949999999
  0
ARC
  8
_0-0_0
  6
CONTINUOUS
 62
    7
 10
-33.569213499999989
 20
158.5107725
 40
12.126567
 50
242.80325699999997
 51
247.84494000000001
  0
CIRCLE
  8
_0-0_0
  6
CONTINUOUS
 62
    7
 10
-31.811754500000006
 20
127.12464850000001
 40
2.0670000000000002
  0
LINE
  8
_0-0_0
  6
CONTINUOUS
 62
    7
 10
-39.311754500000006
 20
150.62464850000001
 11
-40.411754500000001
 21
150.62464850000001
  0
LINE
  8
_0-0_0
  6
CONTINUOUS
 62
    7
 10
-23.211753499999986
 20
120.3246455
 11
-23.111755499999987
 21
120.3246455
  0
LINE
  8
_0-0_0
  6
CONTINUOUS
 62
    7
 10
-23.211753499999986
 20
120.3246455
 11
-23.111755499999987
 21
120.3246455
  0
LINE
  8
_0-0_0
  6
CONTINUOUS
 62
    7
 10
-40.911754500000001
 20
150.12464850000001
 11
-40.411754500000001
 21
150.62464850000001
  0
ENDSEC
  0
EOF
