  0
SECTION
  2
HEADER
  9
$ACADVER
  1
AC1015
  9
$ACADMAINTVER
 70
     6
  9
$DWGCODEPAGE
  3
ANSI_1252
  9
$INSBASE
 10
0.0
 20
0.0
 30
0.0
  9
$EXTMIN
 10
0.0
 20
0.0
 30
0.0
  9
$EXTMAX
 10
1199.223633
 20
214.525635
 30
2.0
  9
$LIMMIN
 10
0.0
 20
0.0
  9
$LIMMAX
 10
420.0
 20
297.0
  9
$ORTHOMODE
 70
     0
  9
$REGENMODE
 70
     1
  9
$FILLMODE
 70
     1
  9
$QTEXTMODE
 70
     0
  9
$MIRRTEXT
 70
     1
  9
$LTSCALE
 40
1.0
  9
$ATTMODE
 70
     1
  9
$TEXTSIZE
 40
2.5
  9
$TRACEWID
 40
1.0
  9
$TEXTSTYLE
  7
Standard
  9
$CLAYER
  8
0
  9
$CELTYPE
  6
ByLayer
  9
$CECOLOR
 62
   256
  9
$CELTSCALE
 40
1.0
  9
$DISPSILH
 70
     0
  9
$DIMSCALE
 40
1.0
  9
$DIMASZ
 40
2.5
  9
$DIMEXO
 40
0.625
  9
$DIMDLI
 40
3.75
  9
$DIMRND
 40
0.0
  9
$DIMDLE
 40
0.0
  9
$DIMEXE
 40
1.25
  9
$DIMTP
 40
0.0
  9
$DIMTM
 40
0.0
  9
$DIMTXT
 40
2.5
  9
$DIMCEN
 40
2.5
  9
$DIMTSZ
 40
0.0
  9
$DIMTOL
 70
     0
  9
$DIMLIM
 70
     0
  9
$DIMTIH
 70
     0
  9
$DIMTOH
 70
     0
  9
$DIMSE1
 70
     0
  9
$DIMSE2
 70
     0
  9
$DIMTAD
 70
     1
  9
$DIMZIN
 70
     8
  9
$DIMBLK
  1

  9
$DIMASO
 70
     1
  9
$DIMSHO
 70
     1
  9
$DIMPOST
  1

  9
$DIMAPOST
  1

  9
$DIMALT
 70
     0
  9
$DIMALTD
 70
     3
  9
$DIMALTF
 40
0.03937
  9
$DIMLFAC
 40
1.0
  9
$DIMTOFL
 70
     1
  9
$DIMTVP
 40
0.0
  9
$DIMTIX
 70
     0
  9
$DIMSOXD
 70
     0
  9
$DIMSAH
 70
     0
  9
$DIMBLK1
  1

  9
$DIMBLK2
  1

  9
$DIMSTYLE
  2

  9
$DIMCLRD
 70
     0
  9
$DIMCLRE
 70
     0
  9
$DIMCLRT
 70
     0
  9
$DIMTFAC
 40
1.0
  9
$DIMGAP
 40
0.625
  9
$DIMJUST
 70
     0
  9
$DIMSD1
 70
     0
  9
$DIMSD2
 70
     0
  9
$DIMTOLJ
 70
     0
  9
$DIMTZIN
 70
     8
  9
$DIMALTZ
 70
     0
  9
$DIMALTTZ
 70
     0
  9
$DIMUPT
 70
     0
  9
$DIMDEC
 70
     2
  9
$DIMTDEC
 70
     2
  9
$DIMALTU
 70
     2
  9
$DIMALTTD
 70
     3
  9
$DIMTXSTY
  7
Standard
  9
$DIMAUNIT
 70
     0
  9
$DIMADEC
 70
     0
  9
$DIMALTRND
 40
0.0
  9
$DIMAZIN
 70
     0
  9
$DIMDSEP
 70
    44
  9
$DIMATFIT
 70
     0
  9
$DIMFRAC
 70
     0
  9
$DIMLDRBLK
  1

  9
$DIMLUNIT
 70
     2
  9
$DIMLWD
 70
    -2
  9
$DIMLWE
 70
    -2
  9
$DIMTMOVE
 70
     0
  9
$LUNITS
 70
     2
  9
$LUPREC
 70
     4
  9
$SKETCHINC
 40
1.0
  9
$FILLETRAD
 40
2.5
  9
$AUNITS
 70
     0
  9
$AUPREC
 70
     0
  9
$MENU
  1
.
  9
$ELEVATION
 40
0.0
  9
$PELEVATION
 40
0.0
  9
$THICKNESS
 40
0.0
  9
$LIMCHECK
 70
     0
  9
$CHAMFERA
 40
2.5
  9
$CHAMFERB
 40
2.5
  9
$CHAMFERC
 40
0.0
  9
$CHAMFERD
 40
0.0
  9
$SKPOLY
 70
     0
  9
$TDCREATE
 40
0.000000000
  9
$TDUCREATE
 40
0.000000000
  9
$TDUPDATE
 40
0.000000000
  9
$TDUUPDATE
 40
0.000000000
  9
$TDINDWG
 40
0.0000000000
  9
$TDUSRTIMER
 40
0.0000000000
  9
$USRTIMER
 70
     1
  9
$ANGBASE
 50
0.0
  9
$ANGDIR
 70
     0
  9
$PDMODE
 70
     0
  9
$PDSIZE
 40
0.0
  9
$PLINEWID
 40
0.0
  9
$SPLFRAME
 70
     0
  9
$SPLINETYPE
 70
     6
  9
$SPLINESEGS
 70
     8
  9
$HANDSEED
  5
603
  9
$SURFTAB1
 70
     6
  9
$SURFTAB2
 70
     6
  9
$SURFTYPE
 70
     6
  9
$SURFU
 70
     6
  9
$SURFV
 70
     6
  9
$UCSBASE
  2

  9
$UCSNAME
  2

  9
$UCSORG
 10
0.0
 20
0.0
 30
0.0
  9
$UCSXDIR
 10
1.0
 20
0.0
 30
0.0
  9
$UCSYDIR
 10
0.0
 20
1.0
 30
0.0
  9
$UCSORTHOREF
  2

  9
$UCSORTHOVIEW
 70
     1
  9
$UCSORGTOP
 10
0.0
 20
0.0
 30
0.0
  9
$UCSORGBOTTOM
 10
0.0
 20
0.0
 30
0.0
  9
$UCSORGLEFT
 10
0.0
 20
0.0
 30
0.0
  9
$UCSORGRIGHT
 10
0.0
 20
0.0
 30
0.0
  9
$UCSORGFRONT
 10
0.0
 20
0.0
 30
0.0
  9
$UCSORGBACK
 10
0.0
 20
0.0
 30
0.0
  9
$PUCSBASE
  2

  9
$PUCSNAME
  2

  9
$PUCSORG
 10
0.0
 20
0.0
 30
0.0
  9
$PUCSXDIR
 10
1.0
 20
0.0
 30
0.0
  9
$PUCSYDIR
 10
0.0
 20
1.0
 30
0.0
  9
$PUCSORTHOREF
  2

  9
$PUCSORTHOVIEW
 70
     0
  9
$PUCSORGTOP
 10
0.0
 20
0.0
 30
0.0
  9
$PUCSORGBOTTOM
 10
0.0
 20
0.0
 30
0.0
  9
$PUCSORGLEFT
 10
0.0
 20
0.0
 30
0.0
  9
$PUCSORGRIGHT
 10
0.0
 20
0.0
 30
0.0
  9
$PUCSORGFRONT
 10
0.0
 20
0.0
 30
0.0
  9
$PUCSORGBACK
 10
0.0
 20
0.0
 30
0.0
  9
$USERI1
 70
     0
  9
$USERI2
 70
     0
  9
$USERI3
 70
     0
  9
$USERI4
 70
     0
  9
$USERI5
 70
     0
  9
$USERR1
 40
0.0
  9
$USERR2
 40
0.0
  9
$USERR3
 40
0.0
  9
$USERR4
 40
0.0
  9
$USERR5
 40
0.0
  9
$WORLDVIEW
 70
     1
  9
$SHADEDGE
 70
     3
  9
$SHADEDIF
 70
    70
  9
$TILEMODE
 70
     1
  9
$MAXACTVP
 70
    48
  9
$PINSBASE
 10
0.0
 20
0.0
 30
0.0
  9
$PLIMCHECK
 70
     0
  9
$PEXTMIN
 10
0.0
 20
0.0
 30
0.0
  9
$PEXTMAX
 10
1199.223633
 20
214.525635
 30
2.0
  9
$PLIMMIN
 10
0.0
 20
0.0
  9
$PLIMMAX
 10
420.0
 20
297.0
  9
$UNITMODE
 70
     0
  9
$VISRETAIN
 70
     0
  9
$PLINEGEN
 70
     0
  9
$PSLTSCALE
 70
     1
  9
$TREEDEPTH
 70
  3020
  9
$CMLSTYLE
  2
Standard
  9
$CMLJUST
 70
     0
  9
$CMLSCALE
 40
20.0
  9
$PROXYGRAPHICS
 70
     1
  9
$MEASUREMENT
 70
     1
  9
$CELWEIGHT
370
    -1
  9
$ENDCAPS
280
     0
  9
$JOINSTYLE
280
     0
  9
$LWDISPLAY
290
     0
  9
$INSUNITS
 70
     0
  9
$HYPERLINKBASE
  1

  9
$STYLESHEET
  1

  9
$XEDIT
290
     1
  9
$CEPSNTYPE
380
     0
  9
$PSTYLEMODE
290
     0
  9
$FINGERPRINTGUID
  2

  9
$VERSIONGUID
  2

  9
$EXTNAMES
290
     0
  9
$PSVPSCALE
 40
0.0
  0
ENDSEC
  0
SECTION
  2
CLASSES
  0
CLASS
  1
LWPOLYLINE
  2
AcDbPolyline
  3
AutoCAD 2000
 90
        0
280
     0
281
     1
  0
CLASS
  1
IMAGE
  2
AcDbRasterImage
  3
ISM
 90
      127
280
     0
281
     1
  0
CLASS
  1
OLE2FRAME
  2
AcDbOle2Frame
  3
AutoCAD 2000
 90
        0
280
     0
281
     1
  0
CLASS
  1
HATCH
  2
AcDbHatch
  3
AutoCAD 2000
 90
        0
280
     0
281
     1
  0
CLASS
  1
DICTIONARYVAR
  2
AcDbDictionaryVar
  3
AutoCAD 2000
 90
        0
280
     0
281
     0
  0
CLASS
  1
RASTERVARIABLES
  2
AcDbRasterVariables
  3
ISM
 90
        0
280
     0
281
     0
  0
CLASS
  1
IMAGEDEF
  2
AcDbRasterImageDef
  3
ISM
 90
        0
280
     0
281
     0
  0
CLASS
  1
IMAGEDEF_REACTOR
  2
AcDbRasterImageDefReactor
  3
ISM
 90
        1
280
     0
281
     0
  0
CLASS
  1
IDBUFFER
  2
AcDbIdBuffer
  3
AutoCAD 2000
 90
        0
280
     0
281
     0
  0
CLASS
  1
SPATIAL_FILTER
  2
AcDbSpatialFilter
  3
AutoCAD 2000
 90
        0
280
     0
281
     0
  0
CLASS
  1
XRECORD
  2
AcDbXrecord
  3
AutoCAD 2000
 90
        0
280
     0
281
     0
  0
CLASS
  1
SORTENTSTABLE
  2
AcDbSortentsTable
  3
AutoCAD 2000
 90
        0
280
     0
281
     0
  0
CLASS
  1
LAYER_INDEX
  2
AcDbLayerIndex
  3
AutoCAD 2000
 90
        0
280
     0
281
     0
  0
CLASS
  1
SPATIAL_INDEX
  2
AcDbSpatialIndex
  3
AutoCAD 2000
 90
        0
280
     0
281
     0
  0
CLASS
  1
OBJECT_PTR
  2
CAseDLPNTableRecord
  3
"ASE-LPNTableRecord"
 90
        1
280
     0
281
     0
  0
CLASS
  1
LAYOUT
  2
AcDbLayout
  3
AutoCAD 2000
 90
        0
280
     0
281
     0
  0
CLASS
  1
PLOTSETTINGS
  2
AcDbPlotSettings
  3
AutoCAD 2000
 90
        0
280
     0
281
     0
  0
CLASS
  1
ACDBDICTIONARYWDFLT
  2
AcDbDictionaryWithDefault
  3
AutoCAD 2000
 90
        0
280
     0
281
     0
  0
CLASS
  1
ACDBPLACEHOLDER
  2
AcDbPlaceHolder
  3
AutoCAD 2000
 90
        0
280
     0
281
     0
  0
CLASS
  1
VBA_PROJECT
  2
AcDbVbaProject
  3
acadvba
 90
        0
280
     0
281
     0
  0
CLASS
  1
WIPEOUT
  2
AcDbWipeout
  3
WipeOut|AutoCAD Express Tool|expresstools@autodesk.com
 90
      127
280
     0
281
     1
  0
CLASS
  1
WIPEOUTVARIABLES
  2
AcDbWipeoutVariables
  3
WipeOut|AutoCAD Express Tool|expresstools@autodesk.com
 90
        0
280
     0
281
     0
  0
CLASS
  1
RTEXT
  2
RText
  3
RText|AutoCAD Express Tool|expresstools@autodesk.com
 90
        0
280
     0
281
     1
  0
CLASS
  1
ARCALIGNEDTEXT
  2
AcDbArcAlignedText
  3
ATEXT|AutoCAD Express Tool|expresstools@autodesk.com
 90
        0
280
     0
281
     1
  0
ENDSEC
  0
SECTION
  2
TABLES
  0
TABLE
  2
VPORT
  5
7
100
AcDbSymbolTable
 70
     1
  0
VPORT
  5
15
100
AcDbSymbolTableRecord
100
AcDbViewportTableRecord
  2
*ACTIVE
 70
     0
 10
0.0
 20
0.0
 11
1.0
 21
1.0
 12
6.591288
 22
4.579184
 13
0.0
 23
0.0
 14
1.0
 24
1.0
 15
0.0
 25
0.0
 16
0.0
 26
0.0
 36
1.0
 17
0.0
 27
0.0
 37
0.0
 40
9.158369
 41
0.688564
 42
50.0
 43
0.0
 44
0.0
 50
0.0
 51
0.0
 71
     0
 72
   100
 73
     1
 74
     1
 75
     0
 76
     0
 77
     0
 78
     0
281
     0
 65
     0
110
0.0
120
0.0
130
0.0
111
1.0
121
0.0
131
0.0
112
0.0
122
1.0
132
0.0
345
0
346
0
 79
     0
146
0.0
  0
ENDTAB
  0
TABLE
  2
LTYPE
  5
4
100
AcDbSymbolTable
 70
     3
  0
LTYPE
  5
11
100
AcDbSymbolTableRecord
100
AcDbLinetypeTableRecord
  2
ByBlock
 70
    64
  3

 72
    65
 73
     0
 40
0.0
  0
LTYPE
  5
12
100
AcDbSymbolTableRecord
100
AcDbLinetypeTableRecord
  2
ByLayer
 70
    64
  3

 72
    65
 73
     0
 40
0.0
  0
LTYPE
  5
13
100
AcDbSymbolTableRecord
100
AcDbLinetypeTableRecord
  2
Continuous
 70
    64
  3
Solid line
 72
    65
 73
     0
 40
0.0
  0
ENDTAB
  0
TABLE
  2
LAYER
  5
2
100
AcDbSymbolTable
 70
     1
  0
LAYER
  5
14
100
AcDbSymbolTableRecord
100
AcDbLayerTableRecord
  2
0
 70
     0
 62
     7
  6
Continuous
290
     1
370
    -3
390
1D
  0
ENDTAB
  0
TABLE
  2
STYLE
  5
3
100
AcDbSymbolTable
 70
     1
  0
STYLE
  5
17
100
AcDbSymbolTableRecord
100
AcDbTextStyleTableRecord
  2
Standard
 70
     0
 40
0.0
 41
1.0
 50
0.0
 71
     0
 42
0.0
  3
txt
  4

  0
ENDTAB
  0
TABLE
  2
VIEW
  5
5
100
AcDbSymbolTable
 70
     0
  0
ENDTAB
  0
TABLE
  2
UCS
  5
6
100
AcDbSymbolTable
 70
     0
  0
ENDTAB
  0
TABLE
  2
APPID
  5
8
100
AcDbSymbolTable
 70
     1
  0
APPID
  5
16
100
AcDbSymbolTableRecord
100
AcDbRegAppTableRecord
  2
ACAD
 70
     0
  0
ENDTAB
  0
TABLE
  2
DIMSTYLE
  5
9
100
AcDbSymbolTable
 70
     1
100
AcDbDimStyleTable
 71
     0
  0
DIMSTYLE
105
18
100
AcDbSymbolTableRecord
100
AcDbDimStyleTableRecord
  2
Standard
 70
     0
  3

  4

 40
1.0
 41
0.18
 42
0.0625
 43
0.38
 44
0.18
 45
0.0
 46
0.0
 47
0.0
 48
0.0
 71
     0
 72
     0
 73
     1
 74
     1
 75
     0
 76
     0
 77
     0
 78
     0
 79
     0
140
0.18
141
0.09
142
0.0
143
25.4
144
1.0
145
0.0
146
1.0
147
0.09
148
0.0
170
     0
171
     2
172
     0
173
     0
174
     0
175
     0
176
     0
177
     0
178
     0
179
     0
271
     4
272
     4
273
     2
274
     2
275
     0
276
     0
277
     2
278
    46
279
     0
280
     0
281
     0
282
     0
283
     1
284
     0
285
     0
286
     0
288
     0
289
     3
340
17
341
0
342
0
343
0
344
0
371
    -2
372
    -2
  0
ENDTAB
  0
TABLE
  2
BLOCK_RECORD
  5
1
100
AcDbSymbolTable
 70
     0
  0
BLOCK_RECORD
  5
A
100
AcDbSymbolTableRecord
100
AcDbBlockTableRecord
  2
*MODEL_SPACE
340
20
  0
BLOCK_RECORD
  5
B
100
AcDbSymbolTableRecord
100
AcDbBlockTableRecord
  2
*PAPER_SPACE
340
21
  0
ENDTAB
  0
ENDSEC
  0
SECTION
  2
BLOCKS
  0
BLOCK
  5
D
100
AcDbEntity
  8
0
390
0
100
AcDbBlockBegin
  2
*MODEL_SPACE
 70
     0
 10
0.0
 20
0.0
 30
0.0
  3
*MODEL_SPACE
  1

  0
ENDBLK
  5
E
100
AcDbEntity
  8
0
390
0
100
AcDbBlockEnd
  0
BLOCK
  5
F
100
AcDbEntity
 67
     1
  8
0
390
0
100
AcDbBlockBegin
  2
*PAPER_SPACE
 70
     0
 10
0.0
 20
0.0
 30
0.0
  3
*PAPER_SPACE
  1

  0
ENDBLK
  5
10
100
AcDbEntity
 67
     1
  8
0
390
0
100
AcDbBlockEnd
  0
ENDSEC
  0
SECTION
  2
ENTITIES
  0
VIEWPORT
  5
602
100
AcDbEntity
 67
     1
  8
0
370
     0
390
0
 62
     0
 48
0.0
100
AcDbViewport
 10
0.0
 20
0.0
 30
0.0
 40
1000.0
 41
1000.0
 68
     1
 69
     1
 12
0.0
 22
0.0
 13
0.0
 23
0.0
 14
1.0
 24
1.0
 15
1.0
 25
1.0
 16
0.0
 26
0.0
 36
1.0
 17
0.0
 27
0.0
 37
0.0
 42
50.0
 43
0.0
 44
0.0
 45
1000.0
 50
0.0
 51
0.0
 72
   100
 90
        0
340
0
  1

281
     0
 71
     0
 74
     1
110
0.0
120
0.0
130
0.0
111
1.0
121
0.0
131
0.0
112
0.0
122
1.0
132
0.0
345
0
346
0
 79
     0
146
0.0
  0
POLYLINE
  5
24
100
AcDbEntity
  8
0
370
    13
390
0
 62
     7
100
AcDb2dPolyline
 66
     1
 10
0.0
 20
0.0
 30
0.0
 71
     8
  0
VERTEX
  5
25
100
AcDbEntity
  8
0
370
     0
390
0
100
AcDbVertex
100
AcDb2dVertex
 10
142.600632
 20
77.732361
 30
0.0
  0
VERTEX
  5
26
100
AcDbEntity
  8
0
370
     0
390
0
100
AcDbVertex
100
AcDb2dVertex
 10
142.139984
 20
78.296875
 30
0.0
  0
VERTEX
  5
27
100
AcDbEntity
  8
0
370
     0
390
0
100
AcDbVertex
100
AcDb2dVertex
 10
141.44902
 20
78.538811
 30
0.0
  0
VERTEX
  5
28
100
AcDbEntity
  8
0
370
     0
390
0
100
AcDbVertex
100
AcDb2dVertex
 10
140.758057
 20
78.538811
 30
0.0
  0
VERTEX
  5
29
100
AcDbEntity
  8
0
370
     0
390
0
100
AcDbVertex
100
AcDb2dVertex
 10
140.067078
 20
78.296875
 30
0.0
  0
VERTEX
  5
2A
100
AcDbEntity
  8
0
370
     0
390
0
100
AcDbVertex
100
AcDb2dVertex
 10
139.60643
 20
77.651711
 30
0.0
  0
VERTEX
  5
2B
100
AcDbEntity
  8
0
370
     0
390
0
100
AcDbVertex
100
AcDb2dVertex
 10
139.60643
 20
77.087196
 30
0.0
  0
VERTEX
  5
2C
100
AcDbEntity
  8
0
370
     0
390
0
100
AcDbVertex
100
AcDb2dVertex
 10
140.009506
 20
76.522682
 30
0.0
  0
SEQEND
  5
2D
100
AcDbEntity
  8
0
370
     0
390
0
  0
POLYLINE
  5
2E
100
AcDbEntity
  8
0
370
    13
390
0
 62
     7
100
AcDb2dPolyline
 66
     1
 10
0.0
 20
0.0
 30
0.0
 71
     2
  0
VERTEX
  5
2F
100
AcDbEntity
  8
0
370
     0
390
0
100
AcDbVertex
100
AcDb2dVertex
 10
141.103531
 20
76.119453
 30
0.0
  0
VERTEX
  5
30
100
AcDbEntity
  8
0
370
     0
390
0
100
AcDbVertex
100
AcDb2dVertex
 10
141.621765
 20
75.958168
 30
0.0
  0
SEQEND
  5
31
100
AcDbEntity
  8
0
370
     0
390
0
  0
POLYLINE
  5
32
100
AcDbEntity
  8
0
370
    13
390
0
 62
     7
100
AcDb2dPolyline
 66
     1
 10
0.0
 20
0.0
 30
0.0
 71
     5
  0
VERTEX
  5
33
100
AcDbEntity
  8
0
370
     0
390
0
100
AcDbVertex
100
AcDb2dVertex
 10
142.139984
 20
73.700104
 30
0.0
  0
VERTEX
  5
34
100
AcDbEntity
  8
0
370
     0
390
0
100
AcDbVertex
100
AcDb2dVertex
 10
141.44902
 20
73.538811
 30
0.0
  0
VERTEX
  5
35
100
AcDbEntity
  8
0
370
     0
390
0
100
AcDbVertex
100
AcDb2dVertex
 10
140.758057
 20
73.538811
 30
0.0
  0
VERTEX
  5
36
100
AcDbEntity
  8
0
370
     0
390
0
100
AcDbVertex
100
AcDb2dVertex
 10
140.067078
 20
73.861389
 30
0.0
  0
VERTEX
  5
37
100
AcDbEntity
  8
0
370
     0
390
0
100
AcDbVertex
100
AcDb2dVertex
 10
139.60643
 20
74.425911
 30
0.0
  0
SEQEND
  5
38
100
AcDbEntity
  8
0
370
     0
390
0
  0
POLYLINE
  5
39
100
AcDbEntity
  8
0
370
    13
390
0
 62
     7
100
AcDb2dPolyline
 66
     1
 10
0.0
 20
0.0
 30
0.0
 71
     2
  0
VERTEX
  5
3A
100
AcDbEntity
  8
0
370
     0
390
0
100
AcDbVertex
100
AcDb2dVertex
 10
140.642883
 20
76.200104
 30
0.0
  0
VERTEX
  5
3B
100
AcDbEntity
  8
0
370
     0
390
0
100
AcDbVertex
100
AcDb2dVertex
 10
141.103531
 20
76.119453
 30
0.0
  0
SEQEND
  5
3C
100
AcDbEntity
  8
0
370
     0
390
0
  0
POLYLINE
  5
3D
100
AcDbEntity
  8
0
370
    13
390
0
 62
     7
100
AcDb2dPolyline
 66
     1
 10
0.0
 20
0.0
 30
0.0
 71
     2
  0
VERTEX
  5
3E
100
AcDbEntity
  8
0
370
     0
390
0
100
AcDbVertex
100
AcDb2dVertex
 10
140.009506
 20
76.522682
 30
0.0
  0
VERTEX
  5
3F
100
AcDbEntity
  8
0
370
     0
390
0
100
AcDbVertex
100
AcDb2dVertex
 10
140.642883
 20
76.200104
 30
0.0
  0
SEQEND
  5
40
100
AcDbEntity
  8
0
370
     0
390
0
  0
POLYLINE
  5
41
100
AcDbEntity
  8
0
370
    13
390
0
 62
     7
100
AcDb2dPolyline
 66
     1
 10
0.0
 20
0.0
 30
0.0
 71
     2
  0
VERTEX
  5
42
100
AcDbEntity
  8
0
370
     0
390
0
100
AcDbVertex
100
AcDb2dVertex
 10
142.600632
 20
74.345261
 30
0.0
  0
VERTEX
  5
43
100
AcDbEntity
  8
0
370
     0
390
0
100
AcDbVertex
100
AcDb2dVertex
 10
142.139984
 20
73.700104
 30
0.0
  0
SEQEND
  5
44
100
AcDbEntity
  8
0
370
     0
390
0
  0
POLYLINE
  5
45
100
AcDbEntity
  8
0
370
    13
390
0
 62
     7
100
AcDb2dPolyline
 66
     1
 10
0.0
 20
0.0
 30
0.0
 71
     2
  0
VERTEX
  5
46
100
AcDbEntity
  8
0
370
     0
390
0
100
AcDbVertex
100
AcDb2dVertex
 10
142.600632
 20
75.071068
 30
0.0
  0
VERTEX
  5
47
100
AcDbEntity
  8
0
370
     0
390
0
100
AcDbVertex
100
AcDb2dVertex
 10
142.600632
 20
74.345261
 30
0.0
  0
SEQEND
  5
48
100
AcDbEntity
  8
0
370
     0
390
0
  0
POLYLINE
  5
49
100
AcDbEntity
  8
0
370
    13
390
0
 62
     7
100
AcDb2dPolyline
 66
     1
 10
0.0
 20
0.0
 30
0.0
 71
     3
  0
VERTEX
  5
4A
100
AcDbEntity
  8
0
370
     0
390
0
100
AcDbVertex
100
AcDb2dVertex
 10
141.621765
 20
75.958168
 30
0.0
  0
VERTEX
  5
4B
100
AcDbEntity
  8
0
370
     0
390
0
100
AcDbVertex
100
AcDb2dVertex
 10
142.139984
 20
75.635582
 30
0.0
  0
VERTEX
  5
4C
100
AcDbEntity
  8
0
370
     0
390
0
100
AcDbVertex
100
AcDb2dVertex
 10
142.600632
 20
75.071068
 30
0.0
  0
SEQEND
  5
4D
100
AcDbEntity
  8
0
370
     0
390
0
  0
POLYLINE
  5
4E
100
AcDbEntity
  8
0
370
    13
390
0
 62
     7
100
AcDb2dPolyline
 66
     1
 10
0.0
 20
0.0
 30
0.0
 71
     2
  0
VERTEX
  5
4F
100
AcDbEntity
  8
0
370
     0
390
0
100
AcDbVertex
100
AcDb2dVertex
 10
145.519012
 20
78.538811
 30
0.0
  0
VERTEX
  5
50
100
AcDbEntity
  8
0
370
     0
390
0
100
AcDbVertex
100
AcDb2dVertex
 10
143.561279
 20
78.538811
 30
0.0
  0
SEQEND
  5
51
100
AcDbEntity
  8
0
370
     0
390
0
  0
POLYLINE
  5
52
100
AcDbEntity
  8
0
370
    13
390
0
 62
     7
100
AcDb2dPolyline
 66
     1
 10
0.0
 20
0.0
 30
0.0
 71
     2
  0
VERTEX
  5
53
100
AcDbEntity
  8
0
370
     0
390
0
100
AcDbVertex
100
AcDb2dVertex
 10
143.561279
 20
76.119453
 30
0.0
  0
VERTEX
  5
54
100
AcDbEntity
  8
0
370
     0
390
0
100
AcDbVertex
100
AcDb2dVertex
 10
145.634186
 20
76.119453
 30
0.0
  0
SEQEND
  5
55
100
AcDbEntity
  8
0
370
     0
390
0
  0
POLYLINE
  5
56
100
AcDbEntity
  8
0
370
    13
390
0
 62
     7
100
AcDb2dPolyline
 66
     1
 10
0.0
 20
0.0
 30
0.0
 71
     2
  0
VERTEX
  5
57
100
AcDbEntity
  8
0
370
     0
390
0
100
AcDbVertex
100
AcDb2dVertex
 10
143.561279
 20
78.538811
 30
0.0
  0
VERTEX
  5
58
100
AcDbEntity
  8
0
370
     0
390
0
100
AcDbVertex
100
AcDb2dVertex
 10
143.561279
 20
73.538811
 30
0.0
  0
SEQEND
  5
59
100
AcDbEntity
  8
0
370
     0
390
0
  0
POLYLINE
  5
5A
100
AcDbEntity
  8
0
370
    13
390
0
 62
     7
100
AcDb2dPolyline
 66
     1
 10
0.0
 20
0.0
 30
0.0
 71
     6
  0
VERTEX
  5
5B
100
AcDbEntity
  8
0
370
     0
390
0
100
AcDbVertex
100
AcDb2dVertex
 10
145.519012
 20
78.538811
 30
0.0
  0
VERTEX
  5
5C
100
AcDbEntity
  8
0
370
     0
390
0
100
AcDbVertex
100
AcDb2dVertex
 10
145.922089
 20
78.296875
 30
0.0
  0
VERTEX
  5
5D
100
AcDbEntity
  8
0
370
     0
390
0
100
AcDbVertex
100
AcDb2dVertex
 10
146.32515
 20
77.732361
 30
0.0
  0
VERTEX
  5
5E
100
AcDbEntity
  8
0
370
     0
390
0
100
AcDbVertex
100
AcDb2dVertex
 10
146.32515
 20
76.925911
 30
0.0
  0
VERTEX
  5
5F
100
AcDbEntity
  8
0
370
     0
390
0
100
AcDbVertex
100
AcDb2dVertex
 10
146.037247
 20
76.442039
 30
0.0
  0
VERTEX
  5
60
100
AcDbEntity
  8
0
370
     0
390
0
100
AcDbVertex
100
AcDb2dVertex
 10
145.634186
 20
76.119453
 30
0.0
  0
SEQEND
  5
61
100
AcDbEntity
  8
0
370
     0
390
0
  0
POLYLINE
  5
62
100
AcDbEntity
  8
0
370
    13
390
0
 62
     7
100
AcDb2dPolyline
 66
     1
 10
0.0
 20
0.0
 30
0.0
 71
     2
  0
VERTEX
  5
63
100
AcDbEntity
  8
0
370
     0
390
0
100
AcDbVertex
100
AcDb2dVertex
 10
145.173538
 20
76.119453
 30
0.0
  0
VERTEX
  5
64
100
AcDbEntity
  8
0
370
     0
390
0
100
AcDbVertex
100
AcDb2dVertex
 10
146.32515
 20
73.538811
 30
0.0
  0
SEQEND
  5
65
100
AcDbEntity
  8
0
370
     0
390
0
  0
POLYLINE
  5
66
100
AcDbEntity
  8
0
370
    13
390
0
 62
     7
100
AcDb2dPolyline
 66
     1
 10
0.0
 20
0.0
 30
0.0
 71
    23
  0
VERTEX
  5
67
100
AcDbEntity
  8
0
370
     0
390
0
100
AcDbVertex
100
AcDb2dVertex
 10
150.164825
 20
77.893646
 30
0.0
  0
VERTEX
  5
68
100
AcDbEntity
  8
0
370
     0
390
0
100
AcDbVertex
100
AcDb2dVertex
 10
149.992081
 20
78.296875
 30
0.0
  0
VERTEX
  5
69
100
AcDbEntity
  8
0
370
     0
390
0
100
AcDbVertex
100
AcDb2dVertex
 10
149.358688
 20
78.538811
 30
0.0
  0
VERTEX
  5
6A
100
AcDbEntity
  8
0
370
     0
390
0
100
AcDbVertex
100
AcDb2dVertex
 10
149.013214
 20
78.538811
 30
0.0
  0
VERTEX
  5
6B
100
AcDbEntity
  8
0
370
     0
390
0
100
AcDbVertex
100
AcDb2dVertex
 10
148.379822
 20
78.296875
 30
0.0
  0
VERTEX
  5
6C
100
AcDbEntity
  8
0
370
     0
390
0
100
AcDbVertex
100
AcDb2dVertex
 10
147.976761
 20
77.651711
 30
0.0
  0
VERTEX
  5
6D
100
AcDbEntity
  8
0
370
     0
390
0
100
AcDbVertex
100
AcDb2dVertex
 10
147.804016
 20
76.522682
 30
0.0
  0
VERTEX
  5
6E
100
AcDbEntity
  8
0
370
     0
390
0
100
AcDbVertex
100
AcDb2dVertex
 10
147.804016
 20
75.393646
 30
0.0
  0
VERTEX
  5
6F
100
AcDbEntity
  8
0
370
     0
390
0
100
AcDbVertex
100
AcDb2dVertex
 10
147.976761
 20
74.506554
 30
0.0
  0
VERTEX
  5
70
100
AcDbEntity
  8
0
370
     0
390
0
100
AcDbVertex
100
AcDb2dVertex
 10
148.322235
 20
73.942039
 30
0.0
  0
VERTEX
  5
71
100
AcDbEntity
  8
0
370
     0
390
0
100
AcDbVertex
100
AcDb2dVertex
 10
148.955627
 20
73.538811
 30
0.0
  0
VERTEX
  5
72
100
AcDbEntity
  8
0
370
     0
390
0
100
AcDbVertex
100
AcDb2dVertex
 10
149.185959
 20
73.538811
 30
0.0
  0
VERTEX
  5
73
100
AcDbEntity
  8
0
370
     0
390
0
100
AcDbVertex
100
AcDb2dVertex
 10
149.819336
 20
73.780746
 30
0.0
  0
VERTEX
  5
74
100
AcDbEntity
  8
0
370
     0
390
0
100
AcDbVertex
100
AcDb2dVertex
 10
150.164825
 20
74.264618
 30
0.0
  0
VERTEX
  5
75
100
AcDbEntity
  8
0
370
     0
390
0
100
AcDbVertex
100
AcDb2dVertex
 10
150.33757
 20
74.909775
 30
0.0
  0
VERTEX
  5
76
100
AcDbEntity
  8
0
370
     0
390
0
100
AcDbVertex
100
AcDb2dVertex
 10
150.33757
 20
75.151711
 30
0.0
  0
VERTEX
  5
77
100
AcDbEntity
  8
0
370
     0
390
0
100
AcDbVertex
100
AcDb2dVertex
 10
150.164825
 20
75.796875
 30
0.0
  0
VERTEX
  5
78
100
AcDbEntity
  8
0
370
     0
390
0
100
AcDbVertex
100
AcDb2dVertex
 10
149.819336
 20
76.280746
 30
0.0
  0
VERTEX
  5
79
100
AcDbEntity
  8
0
370
     0
390
0
100
AcDbVertex
100
AcDb2dVertex
 10
149.185959
 20
76.522682
 30
0.0
  0
VERTEX
  5
7A
100
AcDbEntity
  8
0
370
     0
390
0
100
AcDbVertex
100
AcDb2dVertex
 10
148.955627
 20
76.522682
 30
0.0
  0
VERTEX
  5
7B
100
AcDbEntity
  8
0
370
     0
390
0
100
AcDbVertex
100
AcDb2dVertex
 10
148.322235
 20
76.280746
 30
0.0
  0
VERTEX
  5
7C
100
AcDbEntity
  8
0
370
     0
390
0
100
AcDbVertex
100
AcDb2dVertex
 10
147.976761
 20
75.877518
 30
0.0
  0
VERTEX
  5
7D
100
AcDbEntity
  8
0
370
     0
390
0
100
AcDbVertex
100
AcDb2dVertex
 10
147.804016
 20
75.313004
 30
0.0
  0
SEQEND
  5
7E
100
AcDbEntity
  8
0
370
     0
390
0
  0
POLYLINE
  5
7F
100
AcDbEntity
  8
0
370
    13
390
0
 62
     7
100
AcDb2dPolyline
 66
     1
 10
0.0
 20
0.0
 30
0.0
 71
     3
  0
VERTEX
  5
80
100
AcDbEntity
  8
0
370
     0
390
0
100
AcDbVertex
100
AcDb2dVertex
 10
151.586121
 20
78.538811
 30
0.0
  0
VERTEX
  5
81
100
AcDbEntity
  8
0
370
     0
390
0
100
AcDbVertex
100
AcDb2dVertex
 10
154.349991
 20
78.538811
 30
0.0
  0
VERTEX
  5
82
100
AcDbEntity
  8
0
370
     0
390
0
100
AcDbVertex
100
AcDb2dVertex
 10
152.277084
 20
73.538811
 30
0.0
  0
SEQEND
  5
83
100
AcDbEntity
  8
0
370
     0
390
0
  0
POLYLINE
  5
84
100
AcDbEntity
  8
0
370
    13
390
0
 62
     7
100
AcDb2dPolyline
 66
     1
 10
0.0
 20
0.0
 30
0.0
 71
     3
  0
VERTEX
  5
85
100
AcDbEntity
  8
0
370
     0
390
0
100
AcDbVertex
100
AcDb2dVertex
 10
155.36821
 20
73.538811
 30
0.0
  0
VERTEX
  5
86
100
AcDbEntity
  8
0
370
     0
390
0
100
AcDbVertex
100
AcDb2dVertex
 10
156.922882
 20
78.538811
 30
0.0
  0
VERTEX
  5
87
100
AcDbEntity
  8
0
370
     0
390
0
100
AcDbVertex
100
AcDb2dVertex
 10
158.47757
 20
73.538811
 30
0.0
  0
SEQEND
  5
88
100
AcDbEntity
  8
0
370
     0
390
0
  0
POLYLINE
  5
89
100
AcDbEntity
  8
0
370
    13
390
0
 62
     7
100
AcDb2dPolyline
 66
     1
 10
0.0
 20
0.0
 30
0.0
 71
     2
  0
VERTEX
  5
8A
100
AcDbEntity
  8
0
370
     0
390
0
100
AcDbVertex
100
AcDb2dVertex
 10
155.886444
 20
75.232361
 30
0.0
  0
VERTEX
  5
8B
100
AcDbEntity
  8
0
370
     0
390
0
100
AcDbVertex
100
AcDb2dVertex
 10
157.959335
 20
75.232361
 30
0.0
  0
SEQEND
  5
8C
100
AcDbEntity
  8
0
370
     0
390
0
  0
POLYLINE
  5
8D
100
AcDbEntity
  8
0
370
    13
390
0
 62
     7
100
AcDb2dPolyline
 66
     1
 10
0.0
 20
0.0
 30
0.0
 71
     2
  0
VERTEX
  5
8E
100
AcDbEntity
  8
0
370
     0
390
0
100
AcDbVertex
100
AcDb2dVertex
 10
159.668533
 20
75.554939
 30
0.0
  0
VERTEX
  5
8F
100
AcDbEntity
  8
0
370
     0
390
0
100
AcDbVertex
100
AcDb2dVertex
 10
162.317245
 20
75.554939
 30
0.0
  0
SEQEND
  5
90
100
AcDbEntity
  8
0
370
     0
390
0
  0
POLYLINE
  5
91
100
AcDbEntity
  8
0
370
    13
390
0
 62
     7
100
AcDb2dPolyline
 66
     1
 10
0.0
 20
0.0
 30
0.0
 70
     1
 71
    16
  0
VERTEX
  5
92
100
AcDbEntity
  8
0
370
     0
390
0
100
AcDbVertex
100
AcDb2dVertex
 10
164.602234
 20
78.538811
 30
0.0
  0
VERTEX
  5
93
100
AcDbEntity
  8
0
370
     0
390
0
100
AcDbVertex
100
AcDb2dVertex
 10
163.968857
 20
78.296875
 30
0.0
  0
VERTEX
  5
94
100
AcDbEntity
  8
0
370
     0
390
0
100
AcDbVertex
100
AcDb2dVertex
 10
163.565796
 20
77.490425
 30
0.0
  0
VERTEX
  5
95
100
AcDbEntity
  8
0
370
     0
390
0
100
AcDbVertex
100
AcDb2dVertex
 10
163.393051
 20
76.683975
 30
0.0
  0
VERTEX
  5
96
100
AcDbEntity
  8
0
370
     0
390
0
100
AcDbVertex
100
AcDb2dVertex
 10
163.393051
 20
75.635582
 30
0.0
  0
VERTEX
  5
97
100
AcDbEntity
  8
0
370
     0
390
0
100
AcDbVertex
100
AcDb2dVertex
 10
163.565796
 20
74.587196
 30
0.0
  0
VERTEX
  5
98
100
AcDbEntity
  8
0
370
     0
390
0
100
AcDbVertex
100
AcDb2dVertex
 10
163.968857
 20
73.780746
 30
0.0
  0
VERTEX
  5
99
100
AcDbEntity
  8
0
370
     0
390
0
100
AcDbVertex
100
AcDb2dVertex
 10
164.602234
 20
73.538811
 30
0.0
  0
VERTEX
  5
9A
100
AcDbEntity
  8
0
370
     0
390
0
100
AcDbVertex
100
AcDb2dVertex
 10
165.062881
 20
73.538811
 30
0.0
  0
VERTEX
  5
9B
100
AcDbEntity
  8
0
370
     0
390
0
100
AcDbVertex
100
AcDb2dVertex
 10
165.696274
 20
73.780746
 30
0.0
  0
VERTEX
  5
9C
100
AcDbEntity
  8
0
370
     0
390
0
100
AcDbVertex
100
AcDb2dVertex
 10
166.099335
 20
74.587196
 30
0.0
  0
VERTEX
  5
9D
100
AcDbEntity
  8
0
370
     0
390
0
100
AcDbVertex
100
AcDb2dVertex
 10
166.272079
 20
75.554939
 30
0.0
  0
VERTEX
  5
9E
100
AcDbEntity
  8
0
370
     0
390
0
100
AcDbVertex
100
AcDb2dVertex
 10
166.272079
 20
76.683975
 30
0.0
  0
VERTEX
  5
9F
100
AcDbEntity
  8
0
370
     0
390
0
100
AcDbVertex
100
AcDb2dVertex
 10
166.099335
 20
77.490425
 30
0.0
  0
VERTEX
  5
A0
100
AcDbEntity
  8
0
370
     0
390
0
100
AcDbVertex
100
AcDb2dVertex
 10
165.696274
 20
78.296875
 30
0.0
  0
VERTEX
  5
A1
100
AcDbEntity
  8
0
370
     0
390
0
100
AcDbVertex
100
AcDb2dVertex
 10
165.062881
 20
78.538811
 30
0.0
  0
SEQEND
  5
A2
100
AcDbEntity
  8
0
370
     0
390
0
  0
POLYLINE
  5
A3
100
AcDbEntity
  8
0
370
    13
390
0
 62
     7
100
AcDb2dPolyline
 66
     1
 10
0.0
 20
0.0
 30
0.0
 71
    23
  0
VERTEX
  5
A4
100
AcDbEntity
  8
0
370
     0
390
0
100
AcDbVertex
100
AcDb2dVertex
 10
169.996597
 20
76.925911
 30
0.0
  0
VERTEX
  5
A5
100
AcDbEntity
  8
0
370
     0
390
0
100
AcDbVertex
100
AcDb2dVertex
 10
169.823853
 20
77.813004
 30
0.0
  0
VERTEX
  5
A6
100
AcDbEntity
  8
0
370
     0
390
0
100
AcDbVertex
100
AcDb2dVertex
 10
169.420792
 20
78.296875
 30
0.0
  0
VERTEX
  5
A7
100
AcDbEntity
  8
0
370
     0
390
0
100
AcDbVertex
100
AcDb2dVertex
 10
168.787399
 20
78.538811
 30
0.0
  0
VERTEX
  5
A8
100
AcDbEntity
  8
0
370
     0
390
0
100
AcDbVertex
100
AcDb2dVertex
 10
168.614655
 20
78.538811
 30
0.0
  0
VERTEX
  5
A9
100
AcDbEntity
  8
0
370
     0
390
0
100
AcDbVertex
100
AcDb2dVertex
 10
167.981277
 20
78.296875
 30
0.0
  0
VERTEX
  5
AA
100
AcDbEntity
  8
0
370
     0
390
0
100
AcDbVertex
100
AcDb2dVertex
 10
167.578201
 20
77.813004
 30
0.0
  0
VERTEX
  5
AB
100
AcDbEntity
  8
0
370
     0
390
0
100
AcDbVertex
100
AcDb2dVertex
 10
167.405472
 20
77.167847
 30
0.0
  0
VERTEX
  5
AC
100
AcDbEntity
  8
0
370
     0
390
0
100
AcDbVertex
100
AcDb2dVertex
 10
167.405472
 20
76.925911
 30
0.0
  0
VERTEX
  5
AD
100
AcDbEntity
  8
0
370
     0
390
0
100
AcDbVertex
100
AcDb2dVertex
 10
167.578201
 20
76.280746
 30
0.0
  0
VERTEX
  5
AE
100
AcDbEntity
  8
0
370
     0
390
0
100
AcDbVertex
100
AcDb2dVertex
 10
167.981277
 20
75.796875
 30
0.0
  0
VERTEX
  5
AF
100
AcDbEntity
  8
0
370
     0
390
0
100
AcDbVertex
100
AcDb2dVertex
 10
168.614655
 20
75.474297
 30
0.0
  0
VERTEX
  5
B0
100
AcDbEntity
  8
0
370
     0
390
0
100
AcDbVertex
100
AcDb2dVertex
 10
168.787399
 20
75.474297
 30
0.0
  0
VERTEX
  5
B1
100
AcDbEntity
  8
0
370
     0
390
0
100
AcDbVertex
100
AcDb2dVertex
 10
169.420792
 20
75.716232
 30
0.0
  0
VERTEX
  5
B2
100
AcDbEntity
  8
0
370
     0
390
0
100
AcDbVertex
100
AcDb2dVertex
 10
169.823853
 20
76.200104
 30
0.0
  0
VERTEX
  5
B3
100
AcDbEntity
  8
0
370
     0
390
0
100
AcDbVertex
100
AcDb2dVertex
 10
169.996597
 20
76.925911
 30
0.0
  0
VERTEX
  5
B4
100
AcDbEntity
  8
0
370
     0
390
0
100
AcDbVertex
100
AcDb2dVertex
 10
169.996597
 20
75.796875
 30
0.0
  0
VERTEX
  5
B5
100
AcDbEntity
  8
0
370
     0
390
0
100
AcDbVertex
100
AcDb2dVertex
 10
169.823853
 20
74.667847
 30
0.0
  0
VERTEX
  5
B6
100
AcDbEntity
  8
0
370
     0
390
0
100
AcDbVertex
100
AcDb2dVertex
 10
169.420792
 20
73.780746
 30
0.0
  0
VERTEX
  5
B7
100
AcDbEntity
  8
0
370
     0
390
0
100
AcDbVertex
100
AcDb2dVertex
 10
168.787399
 20
73.538811
 30
0.0
  0
VERTEX
  5
B8
100
AcDbEntity
  8
0
370
     0
390
0
100
AcDbVertex
100
AcDb2dVertex
 10
168.384338
 20
73.538811
 30
0.0
  0
VERTEX
  5
B9
100
AcDbEntity
  8
0
370
     0
390
0
100
AcDbVertex
100
AcDb2dVertex
 10
167.808533
 20
73.780746
 30
0.0
  0
VERTEX
  5
BA
100
AcDbEntity
  8
0
370
     0
390
0
100
AcDbVertex
100
AcDb2dVertex
 10
167.578201
 20
74.264618
 30
0.0
  0
SEQEND
  5
BB
100
AcDbEntity
  8
0
370
     0
390
0
  0
POLYLINE
  5
BC
100
AcDbEntity
  8
0
370
    13
390
0
 62
     7
100
AcDb2dPolyline
 66
     1
 10
0.0
 20
0.0
 30
0.0
 71
     5
  0
VERTEX
  5
BD
100
AcDbEntity
  8
0
370
     0
390
0
100
AcDbVertex
100
AcDb2dVertex
 10
174.009018
 20
75.313004
 30
0.0
  0
VERTEX
  5
BE
100
AcDbEntity
  8
0
370
     0
390
0
100
AcDbVertex
100
AcDb2dVertex
 10
171.360306
 20
75.313004
 30
0.0
  0
VERTEX
  5
BF
100
AcDbEntity
  8
0
370
     0
390
0
100
AcDbVertex
100
AcDb2dVertex
 10
173.318054
 20
78.538811
 30
0.0
  0
VERTEX
  5
C0
100
AcDbEntity
  8
0
370
     0
390
0
100
AcDbVertex
100
AcDb2dVertex
 10
173.318054
 20
76.119453
 30
0.0
  0
VERTEX
  5
C1
100
AcDbEntity
  8
0
370
     0
390
0
100
AcDbVertex
100
AcDb2dVertex
 10
173.318054
 20
73.538811
 30
0.0
  0
SEQEND
  5
C2
100
AcDbEntity
  8
0
370
     0
390
0
  0
LINE
  5
C3
100
AcDbEntity
  8
0
370
    35
390
0
 62
     7
 48
0.000175
100
AcDbLine
 10
249.223572
 20
165.018631
 30
0.0
 11
249.223572
 21
165.025635
 31
0.0
210
0.0
220
0.0
230
1.0
  0
LINE
  5
C4
100
AcDbEntity
  8
0
370
    35
390
0
 62
     7
 48
0.006308
100
AcDbLine
 10
249.223572
 20
164.766312
 30
0.0
 11
249.223572
 21
165.018631
 31
0.0
210
0.0
220
0.0
230
1.0
  0
LINE
  5
C5
100
AcDbEntity
  8
0
370
    35
390
0
 62
     7
 48
0.006017
100
AcDbLine
 10
249.223572
 20
164.766312
 30
0.0
 11
249.223572
 21
164.525635
 31
0.0
210
0.0
220
0.0
230
1.0
  0
ARC
  5
C6
100
AcDbEntity
  8
0
370
    35
390
0
 62
     7
100
AcDbCircle
 10
159.660965
 20
272.025635
 30
0.0
 40
108.0
210
0.0
220
0.0
230
1.0
100
AcDbArc
 50
262.19764
 51
267.372232
  0
ARC
  5
C7
100
AcDbEntity
  8
0
370
    35
390
0
 62
     7
100
AcDbCircle
 10
249.723572
 20
164.525635
 30
0.0
 40
0.5
210
0.0
220
0.0
230
1.0
100
AcDbArc
 50
180.000005
 51
269.999997
  0
LINE
  5
C8
100
AcDbEntity
  8
0
370
    35
390
0
 62
     7
 48
0.023107
100
AcDbLine
 10
122.647835
 20
164.025635
 30
0.0
 11
121.723572
 21
164.025635
 31
0.0
210
0.0
220
0.0
230
1.0
  0
LINE
  5
C9
100
AcDbEntity
  8
0
370
    35
390
0
 62
     7
100
AcDbLine
 10
252.799316
 20
164.025635
 30
0.0
 11
122.647835
 21
164.025635
 31
0.0
210
0.0
220
0.0
230
1.0
  0
LINE
  5
CA
100
AcDbEntity
  8
0
370
    35
390
0
 62
     7
 48
0.023106
100
AcDbLine
 10
253.723572
 20
164.025635
 30
0.0
 11
252.799316
 21
164.025635
 31
0.0
210
0.0
220
0.0
230
1.0
  0
ARC
  5
CB
100
AcDbEntity
  8
0
370
    35
390
0
 62
     7
100
AcDbCircle
 10
129.723572
 20
164.525635
 30
0.0
 40
0.5
210
0.0
220
0.0
230
1.0
100
AcDbArc
 50
269.999997
 51
360.0
  0
LINE
  5
CC
100
AcDbEntity
  8
0
370
    35
390
0
 62
     7
 48
0.00625
100
AcDbLine
 10
130.223572
 20
164.775635
 30
0.0
 11
130.223572
 21
164.525635
 31
0.0
210
0.0
220
0.0
230
1.0
  0
LINE
  5
CD
100
AcDbEntity
  8
0
370
    35
390
0
 62
     7
 48
0.00625
100
AcDbLine
 10
130.223572
 20
165.025635
 30
0.0
 11
130.223572
 21
164.775635
 31
0.0
210
0.0
220
0.0
230
1.0
  0
LINE
  5
CE
100
AcDbEntity
  8
0
370
    35
390
0
 62
     7
 48
0.004183
100
AcDbLine
 10
141.656799
 20
164.858963
 30
0.0
 11
141.671402
 21
165.025635
 31
0.0
210
0.0
220
0.0
230
1.0
  0
ARC
  5
CF
100
AcDbEntity
  8
0
370
    35
390
0
 62
     7
100
AcDbCircle
 10
159.621918
 20
358.232056
 30
0.0
 40
194.206161
210
0.0
220
0.0
230
1.0
100
AcDbArc
 50
264.692237
 51
270.01152
  0
ARC
  5
D0
100
AcDbEntity
  8
0
370
    35
390
0
 62
     7
100
AcDbCircle
 10
230.82431
 20
358.25
 30
0.0
 40
194.224128
210
0.0
220
0.0
230
1.0
100
AcDbArc
 50
269.988755
 51
275.287766
  0
ARC
  5
D1
100
AcDbEntity
  8
0
370
    35
390
0
 62
     7
100
AcDbCircle
 10
230.786179
 20
272.025635
 30
0.0
 40
108.0
210
0.0
220
0.0
230
1.0
100
AcDbArc
 50
272.777528
 51
277.802334
  0
ARC
  5
D2
100
AcDbEntity
  8
0
370
    35
390
0
 62
     7
100
AcDbCircle
 10
121.723572
 20
163.525635
 30
0.0
 40
0.5
210
0.0
220
0.0
230
1.0
100
AcDbArc
 50
90.000003
 51
180.000005
  0
ELLIPSE
  5
D3
100
AcDbEntity
  8
0
370
    35
390
0
 62
     7
100
AcDbEllipse
 10
121.529953
 20
163.799454
 30
0.0
 11
-0.2582626342773438
 21
-0.1826171875
 31
0.0
210
0.0
220
0.0
230
1.0
 40
0.5
 41
1.8499316671609525
 42
3.9265988267269312
  0
LINE
  5
D4
100
AcDbEntity
  8
0
370
    35
390
0
 62
     7
 48
0.020867
100
AcDbLine
 10
122.523575
 20
163.725632
 30
0.0
 11
121.688889
 21
163.725632
 31
0.0
210
0.0
220
0.0
230
1.0
  0
LINE
  5
D5
100
AcDbEntity
  8
0
370
    35
390
0
 62
     7
 48
0.008118
100
AcDbLine
 10
122.523575
 20
163.725632
 30
0.0
 11
122.647835
 21
164.025635
 31
0.0
210
0.0
220
0.0
230
1.0
  0
LINE
  5
D6
100
AcDbEntity
  8
0
370
    35
390
0
 62
     7
100
AcDbLine
 10
252.923569
 20
163.725632
 30
0.0
 11
122.523575
 21
163.725632
 31
0.0
210
0.0
220
0.0
230
1.0
  0
LINE
  5
D7
100
AcDbEntity
  8
0
370
    35
390
0
 62
     7
 48
0.008118
100
AcDbLine
 10
252.923569
 20
163.725632
 30
0.0
 11
252.799316
 21
164.025635
 31
0.0
210
0.0
220
0.0
230
1.0
  0
LINE
  5
D8
100
AcDbEntity
  8
0
370
    35
390
0
 62
     7
 48
0.020867
100
AcDbLine
 10
253.758255
 20
163.725632
 30
0.0
 11
252.923569
 21
163.725632
 31
0.0
210
0.0
220
0.0
230
1.0
  0
ELLIPSE
  5
D9
100
AcDbEntity
  8
0
370
    35
390
0
 62
     7
100
AcDbEllipse
 10
253.917191
 20
163.799454
 30
0.0
 11
-0.2582626342773438
 21
0.1826171875
 31
0.0
210
0.0
220
0.0
230
1.0
 40
0.5
 41
5.4981796568831367
 42
7.5748458571027895
  0
ARC
  5
DA
100
AcDbEntity
  8
0
370
    35
390
0
 62
     7
100
AcDbCircle
 10
253.723572
 20
163.525635
 30
0.0
 40
0.5
210
0.0
220
0.0
230
1.0
100
AcDbArc
 50
0.0
 51
89.999914
  0
LINE
  5
DB
100
AcDbEntity
  8
0
370
    35
390
0
 62
     7
100
AcDbLine
 10
254.223572
 20
143.514023
 30
0.0
 11
254.223572
 21
163.525635
 31
0.0
210
0.0
220
0.0
230
1.0
  0
LINE
  5
DC
100
AcDbEntity
  8
0
370
    35
390
0
 62
     7
 48
0.002951
100
AcDbLine
 10
254.223572
 20
143.395981
 30
0.0
 11
254.223572
 21
143.514023
 31
0.0
210
0.0
220
0.0
230
1.0
  0
LINE
  5
DD
100
AcDbEntity
  8
0
370
    35
390
0
 62
     7
 48
0.159259
100
AcDbLine
 10
254.223572
 20
137.025635
 30
0.0
 11
254.223572
 21
143.395981
 31
0.0
210
0.0
220
0.0
230
1.0
  0
LINE
  5
DE
100
AcDbEntity
  8
0
370
    35
390
0
 62
     7
 48
0.005178
100
AcDbLine
 10
254.223572
 20
137.025635
 30
0.0
 11
254.077118
 21
136.879181
 31
0.0
210
0.0
220
0.0
230
1.0
  0
LINE
  5
DF
100
AcDbEntity
  8
0
370
    35
390
0
 62
     7
 48
0.0125
100
AcDbLine
 10
253.723572
 20
136.525635
 30
0.0
 11
254.077118
 21
136.879181
 31
0.0
210
0.0
220
0.0
230
1.0
  0
LINE
  5
E0
100
AcDbEntity
  8
0
370
    35
390
0
 62
     7
 48
0.07
100
AcDbLine
 10
129.223572
 20
137.025635
 30
0.0
 11
129.223572
 21
139.825638
 31
0.0
210
0.0
220
0.0
230
1.0
  0
LINE
  5
E1
100
AcDbEntity
  8
0
370
    35
390
0
 62
     7
 48
0.01
100
AcDbLine
 10
129.223572
 20
137.025635
 30
0.0
 11
129.223572
 21
136.625641
 31
0.0
210
0.0
220
0.0
230
1.0
  0
LINE
  5
E2
100
AcDbEntity
  8
0
370
    35
390
0
 62
     7
100
AcDbLine
 10
213.823578
 20
139.825638
 30
0.0
 11
246.223572
 21
139.825638
 31
0.0
210
0.0
220
0.0
230
1.0
  0
LINE
  5
E3
100
AcDbEntity
  8
0
370
    35
390
0
 62
     7
 48
0.0125
100
AcDbLine
 10
213.323578
 20
139.825638
 30
0.0
 11
213.823578
 21
139.825638
 31
0.0
210
0.0
220
0.0
230
1.0
  0
LINE
  5
E4
100
AcDbEntity
  8
0
370
    35
390
0
 62
     7
 48
0.0125
100
AcDbLine
 10
202.923569
 20
139.825638
 30
0.0
 11
202.423569
 21
139.825638
 31
0.0
210
0.0
220
0.0
230
1.0
  0
LINE
  5
E5
100
AcDbEntity
  8
0
370
    35
390
0
 62
     7
100
AcDbLine
 10
148.023575
 20
139.825638
 30
0.0
 11
202.423569
 21
139.825638
 31
0.0
210
0.0
220
0.0
230
1.0
  0
LINE
  5
E6
100
AcDbEntity
  8
0
370
    35
390
0
 62
     7
 48
0.0125
100
AcDbLine
 10
147.523575
 20
139.825638
 30
0.0
 11
148.023575
 21
139.825638
 31
0.0
210
0.0
220
0.0
230
1.0
  0
LINE
  5
E7
100
AcDbEntity
  8
0
370
    35
390
0
 62
     7
 48
0.0125
100
AcDbLine
 10
137.123566
 20
139.825638
 30
0.0
 11
136.623566
 21
139.825638
 31
0.0
210
0.0
220
0.0
230
1.0
  0
LINE
  5
E8
100
AcDbEntity
  8
0
370
    35
390
0
 62
     7
 48
0.185
100
AcDbLine
 10
129.223572
 20
139.825638
 30
0.0
 11
136.623566
 21
139.825638
 31
0.0
210
0.0
220
0.0
230
1.0
  0
LINE
  5
E9
100
AcDbEntity
  8
0
370
    35
390
0
 62
     7
 48
0.01
100
AcDbLine
 10
246.223572
 20
136.625641
 30
0.0
 11
246.223572
 21
137.025635
 31
0.0
210
0.0
220
0.0
230
1.0
  0
LINE
  5
EA
100
AcDbEntity
  8
0
370
    35
390
0
 62
     7
 48
0.07
100
AcDbLine
 10
246.223572
 20
137.025635
 30
0.0
 11
246.223572
 21
139.825638
 31
0.0
210
0.0
220
0.0
230
1.0
  0
LINE
  5
EB
100
AcDbEntity
  8
0
370
    35
390
0
 62
     7
 48
0.159259
100
AcDbLine
 10
121.223572
 20
137.025635
 30
0.0
 11
121.223572
 21
143.395981
 31
0.0
210
0.0
220
0.0
230
1.0
  0
LINE
  5
EC
100
AcDbEntity
  8
0
370
    35
390
0
 62
     7
 48
0.002951
100
AcDbLine
 10
121.223572
 20
143.514023
 30
0.0
 11
121.223572
 21
143.395981
 31
0.0
210
0.0
220
0.0
230
1.0
  0
LINE
  5
ED
100
AcDbEntity
  8
0
370
    35
390
0
 62
     7
100
AcDbLine
 10
121.223572
 20
163.525635
 30
0.0
 11
121.223572
 21
143.514023
 31
0.0
210
0.0
220
0.0
230
1.0
  0
LINE
  5
EE
100
AcDbEntity
  8
0
370
    35
390
0
 62
     7
 48
0.0125
100
AcDbLine
 10
121.723572
 20
136.525635
 30
0.0
 11
121.370018
 21
136.879181
 31
0.0
210
0.0
220
0.0
230
1.0
  0
LINE
  5
EF
100
AcDbEntity
  8
0
370
    35
390
0
 62
     7
 48
0.005178
100
AcDbLine
 10
121.370018
 20
136.879181
 30
0.0
 11
121.223572
 21
137.025635
 31
0.0
210
0.0
220
0.0
230
1.0
  0
ARC
  5
F0
100
AcDbEntity
  8
0
370
    35
390
0
 62
     7
100
AcDbCircle
 10
121.284462
 20
163.537094
 30
0.0
 40
0.446249
210
0.0
220
0.0
230
1.0
100
AcDbArc
 50
10.282251
 51
24.99533
  0
LINE
  5
F1
100
AcDbEntity
  8
0
370
    35
390
0
 62
     7
 48
0.000813
100
AcDbLine
 10
121.728455
 20
163.584595
 30
0.0
 11
121.723572
 21
163.616745
 31
0.0
210
0.0
220
0.0
230
1.0
  0
ARC
  5
F2
100
AcDbEntity
  8
0
370
    35
390
0
 62
     7
100
AcDbCircle
 10
37.005432
 20
153.524597
 30
0.0
 40
85.318196
210
0.0
220
0.0
230
1.0
100
AcDbArc
 50
5.38104
 51
6.771587
  0
LINE
  5
F3
100
AcDbEntity
  8
0
370
    35
390
0
 62
     7
 48
0.055
100
AcDbLine
 10
122.523575
 20
161.525635
 30
0.0
 11
122.523575
 21
163.725632
 31
0.0
210
0.0
220
0.0
230
1.0
  0
ARC
  5
F4
100
AcDbEntity
  8
0
370
    35
390
0
 62
     7
100
AcDbCircle
 10
123.523575
 20
161.525635
 30
0.0
 40
1.0
210
0.0
220
0.0
230
1.0
100
AcDbArc
 50
179.999995
 51
269.999997
  0
LINE
  5
F5
100
AcDbEntity
  8
0
370
    35
390
0
 62
     7
 48
0.2975
100
AcDbLine
 10
135.423569
 20
160.525635
 30
0.0
 11
123.523575
 21
160.525635
 31
0.0
210
0.0
220
0.0
230
1.0
  0
ARC
  5
F6
100
AcDbEntity
  8
0
370
    35
390
0
 62
     7
100
AcDbCircle
 10
135.423569
 20
158.525635
 30
0.0
 40
2.0
210
0.0
220
0.0
230
1.0
100
AcDbArc
 50
360.0
 51
90.000003
  0
LINE
  5
F7
100
AcDbEntity
  8
0
370
    35
390
0
 62
     7
100
AcDbLine
 10
137.423569
 20
158.525635
 30
0.0
 11
137.423569
 21
137.525635
 31
0.0
210
0.0
220
0.0
230
1.0
  0
LINE
  5
F8
100
AcDbEntity
  8
0
370
    35
390
0
 62
     7
 48
0.035355
100
AcDbLine
 10
138.423569
 20
136.525635
 30
0.0
 11
137.423569
 21
137.525635
 31
0.0
210
0.0
220
0.0
230
1.0
  0
LINE
  5
F9
100
AcDbEntity
  8
0
370
    35
390
0
 62
     7
 48
0.195
100
AcDbLine
 10
146.223572
 20
136.525635
 30
0.0
 11
138.423569
 21
136.525635
 31
0.0
210
0.0
220
0.0
230
1.0
  0
LINE
  5
FA
100
AcDbEntity
  8
0
370
    35
390
0
 62
     7
 48
0.035355
100
AcDbLine
 10
146.223572
 20
136.525635
 30
0.0
 11
147.223572
 21
137.525635
 31
0.0
210
0.0
220
0.0
230
1.0
  0
LINE
  5
FB
100
AcDbEntity
  8
0
370
    35
390
0
 62
     7
 48
0.25
100
AcDbLine
 10
147.223572
 20
137.525635
 30
0.0
 11
147.223572
 21
147.525635
 31
0.0
210
0.0
220
0.0
230
1.0
  0
ARC
  5
FC
100
AcDbEntity
  8
0
370
    35
390
0
 62
     7
100
AcDbCircle
 10
148.223572
 20
147.525635
 30
0.0
 40
1.0
210
0.0
220
0.0
230
1.0
100
AcDbArc
 50
90.000003
 51
180.000005
  0
LINE
  5
FD
100
AcDbEntity
  8
0
370
    35
390
0
 62
     7
 48
0.17
100
AcDbLine
 10
148.223572
 20
148.525635
 30
0.0
 11
155.023575
 21
148.525635
 31
0.0
210
0.0
220
0.0
230
1.0
  0
ARC
  5
FE
100
AcDbEntity
  8
0
370
    35
390
0
 62
     7
100
AcDbCircle
 10
155.023575
 20
150.525635
 30
0.0
 40
2.0
210
0.0
220
0.0
230
1.0
100
AcDbArc
 50
269.999997
 51
0.0
  0
LINE
  5
FF
100
AcDbEntity
  8
0
370
    35
390
0
 62
     7
 48
0.2
100
AcDbLine
 10
157.023575
 20
158.525635
 30
0.0
 11
157.023575
 21
150.525635
 31
0.0
210
0.0
220
0.0
230
1.0
  0
ARC
  5
100
100
AcDbEntity
  8
0
370
    35
390
0
 62
     7
100
AcDbCircle
 10
159.023575
 20
158.525635
 30
0.0
 40
2.0
210
0.0
220
0.0
230
1.0
100
AcDbArc
 50
90.000003
 51
179.999995
  0
LINE
  5
101
100
AcDbEntity
  8
0
370
    35
390
0
 62
     7
100
AcDbLine
 10
191.423569
 20
160.525635
 30
0.0
 11
159.023575
 21
160.525635
 31
0.0
210
0.0
220
0.0
230
1.0
  0
ARC
  5
102
100
AcDbEntity
  8
0
370
    35
390
0
 62
     7
100
AcDbCircle
 10
191.423569
 20
158.525635
 30
0.0
 40
2.0
210
0.0
220
0.0
230
1.0
100
AcDbArc
 50
360.0
 51
90.000003
  0
LINE
  5
103
100
AcDbEntity
  8
0
370
    35
390
0
 62
     7
 48
0.2
100
AcDbLine
 10
193.423569
 20
150.525635
 30
0.0
 11
193.423569
 21
158.525635
 31
0.0
210
0.0
220
0.0
230
1.0
  0
ARC
  5
104
100
AcDbEntity
  8
0
370
    35
390
0
 62
     7
100
AcDbCircle
 10
195.423569
 20
150.525635
 30
0.0
 40
2.0
210
0.0
220
0.0
230
1.0
100
AcDbArc
 50
180.000005
 51
269.999997
  0
LINE
  5
105
100
AcDbEntity
  8
0
370
    35
390
0
 62
     7
 48
0.17
100
AcDbLine
 10
195.423569
 20
148.525635
 30
0.0
 11
202.223572
 21
148.525635
 31
0.0
210
0.0
220
0.0
230
1.0
  0
ARC
  5
106
100
AcDbEntity
  8
0
370
    35
390
0
 62
     7
100
AcDbCircle
 10
202.223572
 20
147.525635
 30
0.0
 40
1.0
210
0.0
220
0.0
230
1.0
100
AcDbArc
 50
0.0
 51
90.000003
  0
LINE
  5
107
100
AcDbEntity
  8
0
370
    35
390
0
 62
     7
 48
0.25
100
AcDbLine
 10
203.223572
 20
147.525635
 30
0.0
 11
203.223572
 21
137.525635
 31
0.0
210
0.0
220
0.0
230
1.0
  0
LINE
  5
108
100
AcDbEntity
  8
0
370
    35
390
0
 62
     7
 48
0.035355
100
AcDbLine
 10
204.223572
 20
136.525635
 30
0.0
 11
203.223572
 21
137.525635
 31
0.0
210
0.0
220
0.0
230
1.0
  0
LINE
  5
109
100
AcDbEntity
  8
0
370
    35
390
0
 62
     7
 48
0.195
100
AcDbLine
 10
212.023575
 20
136.525635
 30
0.0
 11
204.223572
 21
136.525635
 31
0.0
210
0.0
220
0.0
230
1.0
  0
LINE
  5
10A
100
AcDbEntity
  8
0
370
    35
390
0
 62
     7
 48
0.035355
100
AcDbLine
 10
212.023575
 20
136.525635
 30
0.0
 11
213.023575
 21
137.525635
 31
0.0
210
0.0
220
0.0
230
1.0
  0
LINE
  5
10B
100
AcDbEntity
  8
0
370
    35
390
0
 62
     7
100
AcDbLine
 10
213.023575
 20
137.525635
 30
0.0
 11
213.023575
 21
158.525635
 31
0.0
210
0.0
220
0.0
230
1.0
  0
ARC
  5
10C
100
AcDbEntity
  8
0
370
    35
390
0
 62
     7
100
AcDbCircle
 10
215.023575
 20
158.525635
 30
0.0
 40
2.0
210
0.0
220
0.0
230
1.0
100
AcDbArc
 50
90.000003
 51
179.999995
  0
LINE
  5
10D
100
AcDbEntity
  8
0
370
    35
390
0
 62
     7
100
AcDbLine
 10
215.023575
 20
160.525635
 30
0.0
 11
251.923569
 21
160.525635
 31
0.0
210
0.0
220
0.0
230
1.0
  0
ARC
  5
10E
100
AcDbEntity
  8
0
370
    35
390
0
 62
     7
100
AcDbCircle
 10
251.923569
 20
161.525635
 30
0.0
 40
1.0
210
0.0
220
0.0
230
1.0
100
AcDbArc
 50
269.999997
 51
0.0
  0
LINE
  5
10F
100
AcDbEntity
  8
0
370
    35
390
0
 62
     7
 48
0.055
100
AcDbLine
 10
252.923569
 20
163.725632
 30
0.0
 11
252.923569
 21
161.525635
 31
0.0
210
0.0
220
0.0
230
1.0
  0
CIRCLE
  5
110
100
AcDbEntity
  8
0
370
    35
390
0
 62
     7
100
AcDbCircle
 10
203.223572
 20
156.025635
 30
0.0
 40
4.55
210
0.0
220
0.0
230
1.0
  0
CIRCLE
  5
111
100
AcDbEntity
  8
0
370
    35
390
0
 62
     7
100
AcDbCircle
 10
147.223572
 20
156.025635
 30
0.0
 40
4.55
210
0.0
220
0.0
230
1.0
  0
ARC
  5
112
100
AcDbEntity
  8
0
370
    35
390
0
 62
     7
100
AcDbCircle
 10
254.159409
 20
163.5383
 30
0.0
 40
0.442783
210
0.0
220
0.0
230
1.0
100
AcDbArc
 50
154.966556
 51
169.795293
  0
ARC
  5
113
100
AcDbEntity
  8
0
370
    35
390
0
 62
     7
100
AcDbCircle
 10
338.441711
 20
153.524597
 30
0.0
 40
85.318189
210
0.0
220
0.0
230
1.0
100
AcDbArc
 50
173.228419
 51
174.618963
  0
LINE
  5
114
100
AcDbEntity
  8
0
370
    35
390
0
 62
     7
 48
0.000813
100
AcDbLine
 10
253.718689
 20
163.584595
 30
0.0
 11
253.723572
 21
163.616745
 31
0.0
210
0.0
220
0.0
230
1.0
  0
ARC
  5
115
100
AcDbEntity
  8
0
370
    35
390
0
 62
     7
100
AcDbCircle
 10
253.723755
 20
136.525375
 30
0.0
 40
0.500152
210
0.0
220
0.0
230
1.0
100
AcDbArc
 50
45.036468
 51
90.021292
  0
LINE
  5
116
100
AcDbEntity
  8
0
370
    35
390
0
 62
     7
 48
0.1875
100
AcDbLine
 10
246.223572
 20
137.025635
 30
0.0
 11
253.723572
 21
137.025635
 31
0.0
210
0.0
220
0.0
230
1.0
  0
ARC
  5
117
100
AcDbEntity
  8
0
370
    35
390
0
 62
     7
100
AcDbCircle
 10
246.323578
 20
136.625641
 30
0.0
 40
0.1
210
0.0
220
0.0
230
1.0
100
AcDbArc
 50
179.999995
 51
269.999997
  0
LINE
  5
118
100
AcDbEntity
  8
0
370
    35
390
0
 62
     7
 48
0.185
100
AcDbLine
 10
246.323578
 20
136.525635
 30
0.0
 11
253.723572
 21
136.525635
 31
0.0
210
0.0
220
0.0
230
1.0
  0
LINE
  5
119
100
AcDbEntity
  8
0
370
    35
390
0
 62
     7
 48
0.185
100
AcDbLine
 10
121.723572
 20
136.525635
 30
0.0
 11
129.123566
 21
136.525635
 31
0.0
210
0.0
220
0.0
230
1.0
  0
ARC
  5
11A
100
AcDbEntity
  8
0
370
    35
390
0
 62
     7
100
AcDbCircle
 10
129.123566
 20
136.625641
 30
0.0
 40
0.1
210
0.0
220
0.0
230
1.0
100
AcDbArc
 50
269.999997
 51
360.0
  0
LINE
  5
11B
100
AcDbEntity
  8
0
370
    35
390
0
 62
     7
 48
0.1875
100
AcDbLine
 10
121.723572
 20
137.025635
 30
0.0
 11
129.223572
 21
137.025635
 31
0.0
210
0.0
220
0.0
230
1.0
  0
LINE
  5
11C
100
AcDbEntity
  8
0
370
    35
390
0
 62
     7
 48
0.089259
100
AcDbLine
 10
136.623566
 20
143.395981
 30
0.0
 11
136.623566
 21
139.825638
 31
0.0
210
0.0
220
0.0
230
1.0
  0
ARC
  5
11D
100
AcDbEntity
  8
0
370
    35
390
0
 62
     7
100
AcDbCircle
 10
121.723328
 20
136.52536
 30
0.0
 40
0.500148
210
0.0
220
0.0
230
1.0
100
AcDbArc
 50
89.971958
 51
134.957749
  0
LINE
  5
11E
100
AcDbEntity
  8
0
370
    35
390
0
 62
     7
 48
0.089259
100
AcDbLine
 10
213.823578
 20
143.395981
 30
0.0
 11
213.823578
 21
139.825638
 31
0.0
210
0.0
220
0.0
230
1.0
  0
LINE
  5
11F
100
AcDbEntity
  8
0
370
    35
390
0
 62
     7
 48
0.001478
100
AcDbLine
 10
213.823578
 20
143.395981
 30
0.0
 11
213.820068
 21
143.455002
 31
0.0
210
0.0
220
0.0
230
1.0
  0
ARC
  5
120
100
AcDbEntity
  8
0
370
    35
390
0
 62
     7
100
AcDbCircle
 10
298.532288
 20
153.52562
 30
0.0
 40
85.30871
210
0.0
220
0.0
230
1.0
100
AcDbArc
 50
176.639921
 51
186.779531
  0
LINE
  5
121
100
AcDbEntity
  8
0
370
    35
390
0
 62
     7
 48
0.010607
100
AcDbLine
 10
213.323578
 20
137.825638
 30
0.0
 11
213.023575
 21
137.525635
 31
0.0
210
0.0
220
0.0
230
1.0
  0
LINE
  5
122
100
AcDbEntity
  8
0
370
    35
390
0
 62
     7
 48
0.05
100
AcDbLine
 10
213.323578
 20
137.825638
 30
0.0
 11
213.323578
 21
139.825638
 31
0.0
210
0.0
220
0.0
230
1.0
  0
LINE
  5
123
100
AcDbEntity
  8
0
370
    35
390
0
 62
     7
 48
0.05
100
AcDbLine
 10
202.923569
 20
139.825638
 30
0.0
 11
202.923569
 21
137.825638
 31
0.0
210
0.0
220
0.0
230
1.0
  0
LINE
  5
124
100
AcDbEntity
  8
0
370
    35
390
0
 62
     7
 48
0.001478
100
AcDbLine
 10
202.423569
 20
143.395981
 30
0.0
 11
202.427063
 21
143.455002
 31
0.0
210
0.0
220
0.0
230
1.0
  0
LINE
  5
125
100
AcDbEntity
  8
0
370
    35
390
0
 62
     7
 48
0.089259
100
AcDbLine
 10
202.423569
 20
143.395981
 30
0.0
 11
202.423569
 21
139.825638
 31
0.0
210
0.0
220
0.0
230
1.0
  0
LINE
  5
126
100
AcDbEntity
  8
0
370
    35
390
0
 62
     7
 48
0.010607
100
AcDbLine
 10
202.923569
 20
137.825638
 30
0.0
 11
203.223572
 21
137.525635
 31
0.0
210
0.0
220
0.0
230
1.0
  0
ARC
  5
127
100
AcDbEntity
  8
0
370
    35
390
0
 62
     7
100
AcDbCircle
 10
117.677048
 20
153.529251
 30
0.0
 40
85.346683
210
0.0
220
0.0
230
1.0
100
AcDbArc
 50
353.221051
 51
355.966263
  0
LINE
  5
128
100
AcDbEntity
  8
0
370
    35
390
0
 62
     7
 48
0.089259
100
AcDbLine
 10
148.023575
 20
143.395981
 30
0.0
 11
148.023575
 21
139.825638
 31
0.0
210
0.0
220
0.0
230
1.0
  0
LINE
  5
129
100
AcDbEntity
  8
0
370
    35
390
0
 62
     7
 48
0.001478
100
AcDbLine
 10
148.023575
 20
143.395981
 30
0.0
 11
148.020081
 21
143.455002
 31
0.0
210
0.0
220
0.0
230
1.0
  0
ARC
  5
12A
100
AcDbEntity
  8
0
370
    35
390
0
 62
     7
100
AcDbCircle
 10
232.770096
 20
153.529251
 30
0.0
 40
85.346683
210
0.0
220
0.0
230
1.0
100
AcDbArc
 50
184.033741
 51
186.778944
  0
LINE
  5
12B
100
AcDbEntity
  8
0
370
    35
390
0
 62
     7
 48
0.010607
100
AcDbLine
 10
147.523575
 20
137.825638
 30
0.0
 11
147.223572
 21
137.525635
 31
0.0
210
0.0
220
0.0
230
1.0
  0
LINE
  5
12C
100
AcDbEntity
  8
0
370
    35
390
0
 62
     7
 48
0.05
100
AcDbLine
 10
147.523575
 20
137.825638
 30
0.0
 11
147.523575
 21
139.825638
 31
0.0
210
0.0
220
0.0
230
1.0
  0
LINE
  5
12D
100
AcDbEntity
  8
0
370
    35
390
0
 62
     7
 48
0.05
100
AcDbLine
 10
137.123566
 20
139.825638
 30
0.0
 11
137.123566
 21
137.825638
 31
0.0
210
0.0
220
0.0
230
1.0
  0
LINE
  5
12E
100
AcDbEntity
  8
0
370
    35
390
0
 62
     7
 48
0.001478
100
AcDbLine
 10
136.623566
 20
143.395981
 30
0.0
 11
136.627075
 21
143.455002
 31
0.0
210
0.0
220
0.0
230
1.0
  0
LINE
  5
12F
100
AcDbEntity
  8
0
370
    35
390
0
 62
     7
 48
0.010607
100
AcDbLine
 10
137.123566
 20
137.825638
 30
0.0
 11
137.423569
 21
137.525635
 31
0.0
210
0.0
220
0.0
230
1.0
  0
ARC
  5
130
100
AcDbEntity
  8
0
370
    35
390
0
 62
     7
100
AcDbCircle
 10
51.914856
 20
153.52562
 30
0.0
 40
85.30871
210
0.0
220
0.0
230
1.0
100
AcDbArc
 50
353.220474
 51
3.360079
  0
LINE
  5
131
100
AcDbEntity
  8
0
370
    35
390
0
 62
     7
 48
0.005
100
AcDbLine
 10
230.500366
 20
139.675629
 30
0.0
 11
230.700363
 21
139.675629
 31
0.0
210
0.0
220
0.0
230
1.0
  0
LINE
  5
132
100
AcDbEntity
  8
0
370
    35
390
0
 62
     7
 48
0.07616
100
AcDbLine
 10
230.700363
 20
139.675629
 30
0.0
 11
233.74678
 21
139.675629
 31
0.0
210
0.0
220
0.0
230
1.0
  0
LINE
  5
133
100
AcDbEntity
  8
0
370
    35
390
0
 62
     7
 48
0.005
100
AcDbLine
 10
233.74678
 20
139.675629
 30
0.0
 11
233.946777
 21
139.675629
 31
0.0
210
0.0
220
0.0
230
1.0
  0
LINE
  5
134
100
AcDbEntity
  8
0
370
    35
390
0
 62
     7
 48
0.01
100
AcDbLine
 10
235.823578
 20
139.425629
 30
0.0
 11
235.823578
 21
139.825638
 31
0.0
210
0.0
220
0.0
230
1.0
  0
LINE
  5
135
100
AcDbEntity
  8
0
370
    35
390
0
 62
     7
 48
0.01
100
AcDbLine
 10
237.623566
 20
139.425629
 30
0.0
 11
237.623566
 21
139.825638
 31
0.0
210
0.0
220
0.0
230
1.0
  0
LINE
  5
136
100
AcDbEntity
  8
0
370
    35
390
0
 62
     7
 48
0.01
100
AcDbLine
 10
229.223572
 20
139.425629
 30
0.0
 11
229.223572
 21
139.825638
 31
0.0
210
0.0
220
0.0
230
1.0
  0
CIRCLE
  5
137
100
AcDbEntity
  8
0
370
    35
390
0
 62
     7
100
AcDbCircle
 10
203.223572
 20
156.025635
 30
0.0
 40
2.5
210
0.0
220
0.0
230
1.0
  0
CIRCLE
  5
138
100
AcDbEntity
  8
0
370
    35
390
0
 62
     7
100
AcDbCircle
 10
147.223572
 20
156.025635
 30
0.0
 40
2.5
210
0.0
220
0.0
230
1.0
  0
ARC
  5
139
100
AcDbEntity
  8
0
370
    35
390
0
 62
     7
100
AcDbCircle
 10
135.429031
 20
158.421692
 30
0.0
 40
1.651645
210
0.0
220
0.0
230
1.0
100
AcDbArc
 50
3.608974
 51
90.189533
  0
LINE
  5
13A
100
AcDbEntity
  8
0
370
    35
390
0
 62
     7
 48
0.2975
100
AcDbLine
 10
135.423569
 20
160.073944
 30
0.0
 11
123.523575
 21
160.073944
 31
0.0
210
0.0
220
0.0
230
1.0
  0
POLYLINE
  5
13B
100
AcDbEntity
  8
0
370
    35
390
0
 62
     7
100
AcDb2dPolyline
 66
     1
 10
0.0
 20
0.0
 30
0.0
 71
    25
  0
VERTEX
  5
13C
100
AcDbEntity
  8
0
370
     0
390
0
100
AcDbVertex
100
AcDb2dVertex
 10
121.947632
 20
161.525635
 30
0.0
  0
VERTEX
  5
13D
100
AcDbEntity
  8
0
370
     0
390
0
100
AcDbVertex
100
AcDb2dVertex
 10
121.960823
 20
161.421707
 30
0.0
  0
VERTEX
  5
13E
100
AcDbEntity
  8
0
370
     0
390
0
100
AcDbVertex
100
AcDb2dVertex
 10
121.980682
 20
161.318817
 30
0.0
  0
VERTEX
  5
13F
100
AcDbEntity
  8
0
370
     0
390
0
100
AcDbVertex
100
AcDb2dVertex
 10
122.007118
 20
161.217438
 30
0.0
  0
VERTEX
  5
140
100
AcDbEntity
  8
0
370
     0
390
0
100
AcDbVertex
100
AcDb2dVertex
 10
122.040024
 20
161.117981
 30
0.0
  0
VERTEX
  5
141
100
AcDbEntity
  8
0
370
     0
390
0
100
AcDbVertex
100
AcDb2dVertex
 10
122.079277
 20
161.020874
 30
0.0
  0
VERTEX
  5
142
100
AcDbEntity
  8
0
370
     0
390
0
100
AcDbVertex
100
AcDb2dVertex
 10
122.124718
 20
160.926559
 30
0.0
  0
VERTEX
  5
143
100
AcDbEntity
  8
0
370
     0
390
0
100
AcDbVertex
100
AcDb2dVertex
 10
122.176178
 20
160.835419
 30
0.0
  0
VERTEX
  5
144
100
AcDbEntity
  8
0
370
     0
390
0
100
AcDbVertex
100
AcDb2dVertex
 10
122.233459
 20
160.747864
 30
0.0
  0
VERTEX
  5
145
100
AcDbEntity
  8
0
370
     0
390
0
100
AcDbVertex
100
AcDb2dVertex
 10
122.296341
 20
160.664261
 30
0.0
  0
VERTEX
  5
146
100
AcDbEntity
  8
0
370
     0
390
0
100
AcDbVertex
100
AcDb2dVertex
 10
122.362045
 20
160.587738
 30
0.0
  0
VERTEX
  5
147
100
AcDbEntity
  8
0
370
     0
390
0
100
AcDbVertex
100
AcDb2dVertex
 10
122.432465
 20
160.515564
 30
0.0
  0
VERTEX
  5
148
100
AcDbEntity
  8
0
370
     0
390
0
100
AcDbVertex
100
AcDb2dVertex
 10
122.507332
 20
160.448013
 30
0.0
  0
VERTEX
  5
149
100
AcDbEntity
  8
0
370
     0
390
0
100
AcDbVertex
100
AcDb2dVertex
 10
122.586357
 20
160.385345
 30
0.0
  0
VERTEX
  5
14A
100
AcDbEntity
  8
0
370
     0
390
0
100
AcDbVertex
100
AcDb2dVertex
 10
122.669228
 20
160.32785
 30
0.0
  0
VERTEX
  5
14B
100
AcDbEntity
  8
0
370
     0
390
0
100
AcDbVertex
100
AcDb2dVertex
 10
122.755615
 20
160.275726
 30
0.0
  0
VERTEX
  5
14C
100
AcDbEntity
  8
0
370
     0
390
0
100
AcDbVertex
100
AcDb2dVertex
 10
122.845161
 20
160.229187
 30
0.0
  0
VERTEX
  5
14D
100
AcDbEntity
  8
0
370
     0
390
0
100
AcDbVertex
100
AcDb2dVertex
 10
122.931252
 20
160.19101
 30
0.0
  0
VERTEX
  5
14E
100
AcDbEntity
  8
0
370
     0
390
0
100
AcDbVertex
100
AcDb2dVertex
 10
123.019577
 20
160.157959
 30
0.0
  0
VERTEX
  5
14F
100
AcDbEntity
  8
0
370
     0
390
0
100
AcDbVertex
100
AcDb2dVertex
 10
123.109833
 20
160.130188
 30
0.0
  0
VERTEX
  5
150
100
AcDbEntity
  8
0
370
     0
390
0
100
AcDbVertex
100
AcDb2dVertex
 10
123.201622
 20
160.107864
 30
0.0
  0
VERTEX
  5
151
100
AcDbEntity
  8
0
370
     0
390
0
100
AcDbVertex
100
AcDb2dVertex
 10
123.294563
 20
160.09108
 30
0.0
  0
VERTEX
  5
152
100
AcDbEntity
  8
0
370
     0
390
0
100
AcDbVertex
100
AcDb2dVertex
 10
123.370674
 20
160.081589
 30
0.0
  0
VERTEX
  5
153
100
AcDbEntity
  8
0
370
     0
390
0
100
AcDbVertex
100
AcDb2dVertex
 10
123.44709
 20
160.075851
 30
0.0
  0
VERTEX
  5
154
100
AcDbEntity
  8
0
370
     0
390
0
100
AcDbVertex
100
AcDb2dVertex
 10
123.523575
 20
160.073944
 30
0.0
  0
SEQEND
  5
155
100
AcDbEntity
  8
0
370
     0
390
0
  0
ARC
  5
156
100
AcDbEntity
  8
0
370
    35
390
0
 62
     7
100
AcDbCircle
 10
148.223114
 20
147.566559
 30
0.0
 40
0.58977
210
0.0
220
0.0
230
1.0
100
AcDbArc
 50
89.95519
 51
183.980124
  0
LINE
  5
157
100
AcDbEntity
  8
0
370
    35
390
0
 62
     7
 48
0.17
100
AcDbLine
 10
148.223572
 20
148.156509
 30
0.0
 11
155.023575
 21
148.156509
 31
0.0
210
0.0
220
0.0
230
1.0
  0
POLYLINE
  5
158
100
AcDbEntity
  8
0
370
    35
390
0
 62
     7
100
AcDb2dPolyline
 66
     1
 10
0.0
 20
0.0
 30
0.0
 71
    29
  0
VERTEX
  5
159
100
AcDbEntity
  8
0
370
     0
390
0
100
AcDbVertex
100
AcDb2dVertex
 10
155.023575
 20
148.156509
 30
0.0
  0
VERTEX
  5
15A
100
AcDbEntity
  8
0
370
     0
390
0
100
AcDbVertex
100
AcDb2dVertex
 10
155.154587
 20
148.160385
 30
0.0
  0
VERTEX
  5
15B
100
AcDbEntity
  8
0
370
     0
390
0
100
AcDbVertex
100
AcDb2dVertex
 10
155.28511
 20
148.171967
 30
0.0
  0
VERTEX
  5
15C
100
AcDbEntity
  8
0
370
     0
390
0
100
AcDbVertex
100
AcDb2dVertex
 10
155.414627
 20
148.191223
 30
0.0
  0
VERTEX
  5
15D
100
AcDbEntity
  8
0
370
     0
390
0
100
AcDbVertex
100
AcDb2dVertex
 10
155.542679
 20
148.218048
 30
0.0
  0
VERTEX
  5
15E
100
AcDbEntity
  8
0
370
     0
390
0
100
AcDbVertex
100
AcDb2dVertex
 10
155.668808
 20
148.252304
 30
0.0
  0
VERTEX
  5
15F
100
AcDbEntity
  8
0
370
     0
390
0
100
AcDbVertex
100
AcDb2dVertex
 10
155.792572
 20
148.293839
 30
0.0
  0
VERTEX
  5
160
100
AcDbEntity
  8
0
370
     0
390
0
100
AcDbVertex
100
AcDb2dVertex
 10
155.913544
 20
148.342468
 30
0.0
  0
VERTEX
  5
161
100
AcDbEntity
  8
0
370
     0
390
0
100
AcDbVertex
100
AcDb2dVertex
 10
156.031326
 20
148.397995
 30
0.0
  0
VERTEX
  5
162
100
AcDbEntity
  8
0
370
     0
390
0
100
AcDbVertex
100
AcDb2dVertex
 10
156.145523
 20
148.460175
 30
0.0
  0
VERTEX
  5
163
100
AcDbEntity
  8
0
370
     0
390
0
100
AcDbVertex
100
AcDb2dVertex
 10
156.255768
 20
148.528748
 30
0.0
  0
VERTEX
  5
164
100
AcDbEntity
  8
0
370
     0
390
0
100
AcDbVertex
100
AcDb2dVertex
 10
156.361725
 20
148.603439
 30
0.0
  0
VERTEX
  5
165
100
AcDbEntity
  8
0
370
     0
390
0
100
AcDbVertex
100
AcDb2dVertex
 10
156.463043
 20
148.68396
 30
0.0
  0
VERTEX
  5
166
100
AcDbEntity
  8
0
370
     0
390
0
100
AcDbVertex
100
AcDb2dVertex
 10
156.559448
 20
148.769974
 30
0.0
  0
VERTEX
  5
167
100
AcDbEntity
  8
0
370
     0
390
0
100
AcDbVertex
100
AcDb2dVertex
 10
156.65062
 20
148.861176
 30
0.0
  0
VERTEX
  5
168
100
AcDbEntity
  8
0
370
     0
390
0
100
AcDbVertex
100
AcDb2dVertex
 10
156.736328
 20
148.957199
 30
0.0
  0
VERTEX
  5
169
100
AcDbEntity
  8
0
370
     0
390
0
100
AcDbVertex
100
AcDb2dVertex
 10
156.81633
 20
149.057693
 30
0.0
  0
VERTEX
  5
16A
100
AcDbEntity
  8
0
370
     0
390
0
100
AcDbVertex
100
AcDb2dVertex
 10
156.890411
 20
149.162292
 30
0.0
  0
VERTEX
  5
16B
100
AcDbEntity
  8
0
370
     0
390
0
100
AcDbVertex
100
AcDb2dVertex
 10
156.960724
 20
149.274597
 30
0.0
  0
VERTEX
  5
16C
100
AcDbEntity
  8
0
370
     0
390
0
100
AcDbVertex
100
AcDb2dVertex
 10
157.024277
 20
149.390488
 30
0.0
  0
VERTEX
  5
16D
100
AcDbEntity
  8
0
370
     0
390
0
100
AcDbVertex
100
AcDb2dVertex
 10
157.080948
 20
149.509521
 30
0.0
  0
VERTEX
  5
16E
100
AcDbEntity
  8
0
370
     0
390
0
100
AcDbVertex
100
AcDb2dVertex
 10
157.130615
 20
149.631317
 30
0.0
  0
VERTEX
  5
16F
100
AcDbEntity
  8
0
370
     0
390
0
100
AcDbVertex
100
AcDb2dVertex
 10
157.173157
 20
149.755417
 30
0.0
  0
VERTEX
  5
170
100
AcDbEntity
  8
0
370
     0
390
0
100
AcDbVertex
100
AcDb2dVertex
 10
157.208511
 20
149.881439
 30
0.0
  0
VERTEX
  5
171
100
AcDbEntity
  8
0
370
     0
390
0
100
AcDbVertex
100
AcDb2dVertex
 10
157.236618
 20
150.008942
 30
0.0
  0
VERTEX
  5
172
100
AcDbEntity
  8
0
370
     0
390
0
100
AcDbVertex
100
AcDb2dVertex
 10
157.257446
 20
150.137512
 30
0.0
  0
VERTEX
  5
173
100
AcDbEntity
  8
0
370
     0
390
0
100
AcDbVertex
100
AcDb2dVertex
 10
157.270996
 20
150.266754
 30
0.0
  0
VERTEX
  5
174
100
AcDbEntity
  8
0
370
     0
390
0
100
AcDbVertex
100
AcDb2dVertex
 10
157.277283
 20
150.396255
 30
0.0
  0
VERTEX
  5
175
100
AcDbEntity
  8
0
370
     0
390
0
100
AcDbVertex
100
AcDb2dVertex
 10
157.276337
 20
150.525635
 30
0.0
  0
SEQEND
  5
176
100
AcDbEntity
  8
0
370
     0
390
0
  0
ARC
  5
177
100
AcDbEntity
  8
0
370
    35
390
0
 62
     7
100
AcDbCircle
 10
242.610718
 20
153.524704
 30
0.0
 40
85.387086
210
0.0
220
0.0
230
1.0
100
AcDbArc
 50
176.642393
 51
182.012824
  0
ARC
  5
178
100
AcDbEntity
  8
0
370
    35
390
0
 62
     7
100
AcDbCircle
 10
159.017776
 20
158.421936
 30
0.0
 40
1.651397
210
0.0
220
0.0
230
1.0
100
AcDbArc
 50
89.798874
 51
176.39876
  0
LINE
  5
179
100
AcDbEntity
  8
0
370
    35
390
0
 62
     7
100
AcDbLine
 10
191.423569
 20
160.073944
 30
0.0
 11
159.023575
 21
160.073944
 31
0.0
210
0.0
220
0.0
230
1.0
  0
ARC
  5
17A
100
AcDbEntity
  8
0
370
    35
390
0
 62
     7
100
AcDbCircle
 10
191.429413
 20
158.42189
 30
0.0
 40
1.651422
210
0.0
220
0.0
230
1.0
100
AcDbArc
 50
3.603088
 51
90.202463
  0
ARC
  5
17B
100
AcDbEntity
  8
0
370
    35
390
0
 62
     7
100
AcDbCircle
 10
107.83654
 20
153.524719
 30
0.0
 40
85.386964
210
0.0
220
0.0
230
1.0
100
AcDbArc
 50
357.987166
 51
3.357608
  0
POLYLINE
  5
17C
100
AcDbEntity
  8
0
370
    35
390
0
 62
     7
100
AcDb2dPolyline
 66
     1
 10
0.0
 20
0.0
 30
0.0
 71
    30
  0
VERTEX
  5
17D
100
AcDbEntity
  8
0
370
     0
390
0
100
AcDbVertex
100
AcDb2dVertex
 10
193.170807
 20
150.525635
 30
0.0
  0
VERTEX
  5
17E
100
AcDbEntity
  8
0
370
     0
390
0
100
AcDbVertex
100
AcDb2dVertex
 10
193.169952
 20
150.391357
 30
0.0
  0
VERTEX
  5
17F
100
AcDbEntity
  8
0
370
     0
390
0
100
AcDbVertex
100
AcDb2dVertex
 10
193.176849
 20
150.257492
 30
0.0
  0
VERTEX
  5
180
100
AcDbEntity
  8
0
370
     0
390
0
100
AcDbVertex
100
AcDb2dVertex
 10
193.191376
 20
150.124847
 30
0.0
  0
VERTEX
  5
181
100
AcDbEntity
  8
0
370
     0
390
0
100
AcDbVertex
100
AcDb2dVertex
 10
193.213379
 20
149.994019
 30
0.0
  0
VERTEX
  5
182
100
AcDbEntity
  8
0
370
     0
390
0
100
AcDbVertex
100
AcDb2dVertex
 10
193.242645
 20
149.865417
 30
0.0
  0
VERTEX
  5
183
100
AcDbEntity
  8
0
370
     0
390
0
100
AcDbVertex
100
AcDb2dVertex
 10
193.279007
 20
149.739319
 30
0.0
  0
VERTEX
  5
184
100
AcDbEntity
  8
0
370
     0
390
0
100
AcDbVertex
100
AcDb2dVertex
 10
193.322357
 20
149.615799
 30
0.0
  0
VERTEX
  5
185
100
AcDbEntity
  8
0
370
     0
390
0
100
AcDbVertex
100
AcDb2dVertex
 10
193.372696
 20
149.494781
 30
0.0
  0
VERTEX
  5
186
100
AcDbEntity
  8
0
370
     0
390
0
100
AcDbVertex
100
AcDb2dVertex
 10
193.423584
 20
149.388947
 30
0.0
  0
VERTEX
  5
187
100
AcDbEntity
  8
0
370
     0
390
0
100
AcDbVertex
100
AcDb2dVertex
 10
193.480286
 20
149.285034
 30
0.0
  0
VERTEX
  5
188
100
AcDbEntity
  8
0
370
     0
390
0
100
AcDbVertex
100
AcDb2dVertex
 10
193.542908
 20
149.183197
 30
0.0
  0
VERTEX
  5
189
100
AcDbEntity
  8
0
370
     0
390
0
100
AcDbVertex
100
AcDb2dVertex
 10
193.611481
 20
149.08374
 30
0.0
  0
VERTEX
  5
18A
100
AcDbEntity
  8
0
370
     0
390
0
100
AcDbVertex
100
AcDb2dVertex
 10
193.686005
 20
148.987106
 30
0.0
  0
VERTEX
  5
18B
100
AcDbEntity
  8
0
370
     0
390
0
100
AcDbVertex
100
AcDb2dVertex
 10
193.766251
 20
148.893829
 30
0.0
  0
VERTEX
  5
18C
100
AcDbEntity
  8
0
370
     0
390
0
100
AcDbVertex
100
AcDb2dVertex
 10
193.851791
 20
148.804657
 30
0.0
  0
VERTEX
  5
18D
100
AcDbEntity
  8
0
370
     0
390
0
100
AcDbVertex
100
AcDb2dVertex
 10
193.942307
 20
148.720047
 30
0.0
  0
VERTEX
  5
18E
100
AcDbEntity
  8
0
370
     0
390
0
100
AcDbVertex
100
AcDb2dVertex
 10
194.037415
 20
148.640427
 30
0.0
  0
VERTEX
  5
18F
100
AcDbEntity
  8
0
370
     0
390
0
100
AcDbVertex
100
AcDb2dVertex
 10
194.136734
 20
148.566132
 30
0.0
  0
VERTEX
  5
190
100
AcDbEntity
  8
0
370
     0
390
0
100
AcDbVertex
100
AcDb2dVertex
 10
194.23996
 20
148.497437
 30
0.0
  0
VERTEX
  5
191
100
AcDbEntity
  8
0
370
     0
390
0
100
AcDbVertex
100
AcDb2dVertex
 10
194.346786
 20
148.43457
 30
0.0
  0
VERTEX
  5
192
100
AcDbEntity
  8
0
370
     0
390
0
100
AcDbVertex
100
AcDb2dVertex
 10
194.457062
 20
148.377609
 30
0.0
  0
VERTEX
  5
193
100
AcDbEntity
  8
0
370
     0
390
0
100
AcDbVertex
100
AcDb2dVertex
 10
194.570419
 20
148.326797
 30
0.0
  0
VERTEX
  5
194
100
AcDbEntity
  8
0
370
     0
390
0
100
AcDbVertex
100
AcDb2dVertex
 10
194.686584
 20
148.282303
 30
0.0
  0
VERTEX
  5
195
100
AcDbEntity
  8
0
370
     0
390
0
100
AcDbVertex
100
AcDb2dVertex
 10
194.805237
 20
148.244308
 30
0.0
  0
VERTEX
  5
196
100
AcDbEntity
  8
0
370
     0
390
0
100
AcDbVertex
100
AcDb2dVertex
 10
194.926056
 20
148.212952
 30
0.0
  0
VERTEX
  5
197
100
AcDbEntity
  8
0
370
     0
390
0
100
AcDbVertex
100
AcDb2dVertex
 10
195.048721
 20
148.18837
 30
0.0
  0
VERTEX
  5
198
100
AcDbEntity
  8
0
370
     0
390
0
100
AcDbVertex
100
AcDb2dVertex
 10
195.172821
 20
148.170715
 30
0.0
  0
VERTEX
  5
199
100
AcDbEntity
  8
0
370
     0
390
0
100
AcDbVertex
100
AcDb2dVertex
 10
195.297928
 20
148.160065
 30
0.0
  0
VERTEX
  5
19A
100
AcDbEntity
  8
0
370
     0
390
0
100
AcDbVertex
100
AcDb2dVertex
 10
195.423569
 20
148.156509
 30
0.0
  0
SEQEND
  5
19B
100
AcDbEntity
  8
0
370
     0
390
0
  0
LINE
  5
19C
100
AcDbEntity
  8
0
370
    35
390
0
 62
     7
 48
0.17
100
AcDbLine
 10
195.423569
 20
148.156509
 30
0.0
 11
202.223572
 21
148.156509
 31
0.0
210
0.0
220
0.0
230
1.0
  0
ARC
  5
19D
100
AcDbEntity
  8
0
370
    35
390
0
 62
     7
100
AcDbCircle
 10
202.223785
 20
147.566391
 30
0.0
 40
0.590067
210
0.0
220
0.0
230
1.0
100
AcDbArc
 50
356.038842
 51
90.02177
  0
ARC
  5
19E
100
AcDbEntity
  8
0
370
    35
390
0
 62
     7
100
AcDbCircle
 10
215.017731
 20
158.42189
 30
0.0
 40
1.651425
210
0.0
220
0.0
230
1.0
100
AcDbArc
 50
89.797604
 51
176.396848
  0
LINE
  5
19F
100
AcDbEntity
  8
0
370
    35
390
0
 62
     7
100
AcDbLine
 10
251.923569
 20
160.073944
 30
0.0
 11
215.023575
 21
160.073944
 31
0.0
210
0.0
220
0.0
230
1.0
  0
POLYLINE
  5
1A0
100
AcDbEntity
  8
0
370
    35
390
0
 62
     7
100
AcDb2dPolyline
 66
     1
 10
0.0
 20
0.0
 30
0.0
 71
    24
  0
VERTEX
  5
1A1
100
AcDbEntity
  8
0
370
     0
390
0
100
AcDbVertex
100
AcDb2dVertex
 10
253.499512
 20
161.525635
 30
0.0
  0
VERTEX
  5
1A2
100
AcDbEntity
  8
0
370
     0
390
0
100
AcDbVertex
100
AcDb2dVertex
 10
253.485214
 20
161.414856
 30
0.0
  0
VERTEX
  5
1A3
100
AcDbEntity
  8
0
370
     0
390
0
100
AcDbVertex
100
AcDb2dVertex
 10
253.46347
 20
161.305878
 30
0.0
  0
VERTEX
  5
1A4
100
AcDbEntity
  8
0
370
     0
390
0
100
AcDbVertex
100
AcDb2dVertex
 10
253.434448
 20
161.199066
 30
0.0
  0
VERTEX
  5
1A5
100
AcDbEntity
  8
0
370
     0
390
0
100
AcDbVertex
100
AcDb2dVertex
 10
253.398346
 20
161.094788
 30
0.0
  0
VERTEX
  5
1A6
100
AcDbEntity
  8
0
370
     0
390
0
100
AcDbVertex
100
AcDb2dVertex
 10
253.355347
 20
160.993454
 30
0.0
  0
VERTEX
  5
1A7
100
AcDbEntity
  8
0
370
     0
390
0
100
AcDbVertex
100
AcDb2dVertex
 10
253.305664
 20
160.895508
 30
0.0
  0
VERTEX
  5
1A8
100
AcDbEntity
  8
0
370
     0
390
0
100
AcDbVertex
100
AcDb2dVertex
 10
253.249542
 20
160.801407
 30
0.0
  0
VERTEX
  5
1A9
100
AcDbEntity
  8
0
370
     0
390
0
100
AcDbVertex
100
AcDb2dVertex
 10
253.187317
 20
160.711563
 30
0.0
  0
VERTEX
  5
1AA
100
AcDbEntity
  8
0
370
     0
390
0
100
AcDbVertex
100
AcDb2dVertex
 10
253.119293
 20
160.626465
 30
0.0
  0
VERTEX
  5
1AB
100
AcDbEntity
  8
0
370
     0
390
0
100
AcDbVertex
100
AcDb2dVertex
 10
253.045929
 20
160.546509
 30
0.0
  0
VERTEX
  5
1AC
100
AcDbEntity
  8
0
370
     0
390
0
100
AcDbVertex
100
AcDb2dVertex
 10
252.967743
 20
160.472153
 30
0.0
  0
VERTEX
  5
1AD
100
AcDbEntity
  8
0
370
     0
390
0
100
AcDbVertex
100
AcDb2dVertex
 10
252.89032
 20
160.407669
 30
0.0
  0
VERTEX
  5
1AE
100
AcDbEntity
  8
0
370
     0
390
0
100
AcDbVertex
100
AcDb2dVertex
 10
252.809601
 20
160.348679
 30
0.0
  0
VERTEX
  5
1AF
100
AcDbEntity
  8
0
370
     0
390
0
100
AcDbVertex
100
AcDb2dVertex
 10
252.725983
 20
160.295288
 30
0.0
  0
VERTEX
  5
1B0
100
AcDbEntity
  8
0
370
     0
390
0
100
AcDbVertex
100
AcDb2dVertex
 10
252.639801
 20
160.247589
 30
0.0
  0
VERTEX
  5
1B1
100
AcDbEntity
  8
0
370
     0
390
0
100
AcDbVertex
100
AcDb2dVertex
 10
252.551361
 20
160.205612
 30
0.0
  0
VERTEX
  5
1B2
100
AcDbEntity
  8
0
370
     0
390
0
100
AcDbVertex
100
AcDb2dVertex
 10
252.460968
 20
160.169357
 30
0.0
  0
VERTEX
  5
1B3
100
AcDbEntity
  8
0
370
     0
390
0
100
AcDbVertex
100
AcDb2dVertex
 10
252.368805
 20
160.138855
 30
0.0
  0
VERTEX
  5
1B4
100
AcDbEntity
  8
0
370
     0
390
0
100
AcDbVertex
100
AcDb2dVertex
 10
252.281403
 20
160.115601
 30
0.0
  0
VERTEX
  5
1B5
100
AcDbEntity
  8
0
370
     0
390
0
100
AcDbVertex
100
AcDb2dVertex
 10
252.192902
 20
160.097443
 30
0.0
  0
VERTEX
  5
1B6
100
AcDbEntity
  8
0
370
     0
390
0
100
AcDbVertex
100
AcDb2dVertex
 10
252.103592
 20
160.084412
 30
0.0
  0
VERTEX
  5
1B7
100
AcDbEntity
  8
0
370
     0
390
0
100
AcDbVertex
100
AcDb2dVertex
 10
252.013733
 20
160.076569
 30
0.0
  0
VERTEX
  5
1B8
100
AcDbEntity
  8
0
370
     0
390
0
100
AcDbVertex
100
AcDb2dVertex
 10
251.923569
 20
160.073944
 30
0.0
  0
SEQEND
  5
1B9
100
AcDbEntity
  8
0
370
     0
390
0
  0
CIRCLE
  5
1BA
100
AcDbEntity
  8
0
370
    35
390
0
 62
     7
100
AcDbCircle
 10
203.223572
 20
156.025635
 30
0.0
 40
4.25
210
0.0
220
0.0
230
1.0
  0
CIRCLE
  5
1BB
100
AcDbEntity
  8
0
370
    35
390
0
 62
     7
100
AcDbCircle
 10
147.223572
 20
156.025635
 30
0.0
 40
4.25
210
0.0
220
0.0
230
1.0
  0
LINE
  5
1BC
100
AcDbEntity
  8
0
370
    35
390
0
 62
     7
 48
0.093341
100
AcDbLine
 10
175.036087
 20
158.795273
 30
0.0
 11
173.736084
 21
155.295273
 31
0.0
210
0.0
220
0.0
230
1.0
  0
ARC
  5
1BD
100
AcDbEntity
  8
0
370
    35
390
0
 62
     7
100
AcDbCircle
 10
175.223572
 20
158.725632
 30
0.0
 40
0.2
210
0.0
220
0.0
230
1.0
100
AcDbArc
 50
20.376416
 51
159.62357
  0
LINE
  5
1BE
100
AcDbEntity
  8
0
370
    35
390
0
 62
     7
 48
0.093341
100
AcDbLine
 10
175.411057
 20
158.795273
 30
0.0
 11
176.71106
 21
155.295273
 31
0.0
210
0.0
220
0.0
230
1.0
  0
ARC
  5
1BF
100
AcDbEntity
  8
0
370
    35
390
0
 62
     7
100
AcDbCircle
 10
176.523575
 20
155.225632
 30
0.0
 40
0.2
210
0.0
220
0.0
230
1.0
100
AcDbArc
 50
269.999997
 51
20.376456
  0
LINE
  5
1C0
100
AcDbEntity
  8
0
370
    35
390
0
 62
     7
 48
0.065
100
AcDbLine
 10
176.523575
 20
155.025635
 30
0.0
 11
173.923569
 21
155.025635
 31
0.0
210
0.0
220
0.0
230
1.0
  0
ARC
  5
1C1
100
AcDbEntity
  8
0
370
    35
390
0
 62
     7
100
AcDbCircle
 10
173.923569
 20
155.225632
 30
0.0
 40
0.2
210
0.0
220
0.0
230
1.0
100
AcDbArc
 50
159.623543
 51
269.999997
  0
LINE
  5
1C2
100
AcDbEntity
  8
0
370
    35
390
0
 62
     7
 48
0.17125
100
AcDbLine
 10
137.123566
 20
139.425629
 30
0.0
 11
130.273575
 21
139.425629
 31
0.0
210
0.0
220
0.0
230
1.0
  0
LINE
  5
1C3
100
AcDbEntity
  8
0
370
    35
390
0
 62
     7
100
AcDbLine
 10
245.173569
 20
136.925629
 30
0.0
 11
212.423569
 21
136.925629
 31
0.0
210
0.0
220
0.0
230
1.0
  0
LINE
  5
1C4
100
AcDbEntity
  8
0
370
    35
390
0
 62
     7
100
AcDbLine
 10
203.823578
 20
136.925629
 30
0.0
 11
146.623566
 21
136.925629
 31
0.0
210
0.0
220
0.0
230
1.0
  0
LINE
  5
1C5
100
AcDbEntity
  8
0
370
    35
390
0
 62
     7
 48
0.19375
100
AcDbLine
 10
138.023575
 20
136.925629
 30
0.0
 11
130.273575
 21
136.925629
 31
0.0
210
0.0
220
0.0
230
1.0
  0
LINE
  5
1C6
100
AcDbEntity
  8
0
370
    35
390
0
 62
     7
 48
0.28567
100
AcDbLine
 10
245.173569
 20
139.425629
 30
0.0
 11
233.74678
 21
139.425629
 31
0.0
210
0.0
220
0.0
230
1.0
  0
LINE
  5
1C7
100
AcDbEntity
  8
0
370
    35
390
0
 62
     7
 48
0.43442
100
AcDbLine
 10
230.700363
 20
139.425629
 30
0.0
 11
213.323578
 21
139.425629
 31
0.0
210
0.0
220
0.0
230
1.0
  0
LINE
  5
1C8
100
AcDbEntity
  8
0
370
    35
390
0
 62
     7
100
AcDbLine
 10
202.923569
 20
139.425629
 30
0.0
 11
147.523575
 21
139.425629
 31
0.0
210
0.0
220
0.0
230
1.0
  0
LINE
  5
1C9
100
AcDbEntity
  8
0
370
    35
390
0
 62
     7
 48
0.025
100
AcDbLine
 10
129.273575
 20
139.425629
 30
0.0
 11
130.273575
 21
139.425629
 31
0.0
210
0.0
220
0.0
230
1.0
  0
LINE
  5
1CA
100
AcDbEntity
  8
0
370
    35
390
0
 62
     7
 48
0.025
100
AcDbLine
 10
245.173569
 20
139.425629
 30
0.0
 11
246.173569
 21
139.425629
 31
0.0
210
0.0
220
0.0
230
1.0
  0
LINE
  5
1CB
100
AcDbEntity
  8
0
370
    35
390
0
 62
     7
 48
0.025
100
AcDbLine
 10
245.173569
 20
136.925629
 30
0.0
 11
246.173569
 21
136.925629
 31
0.0
210
0.0
220
0.0
230
1.0
  0
LINE
  5
1CC
100
AcDbEntity
  8
0
370
    35
390
0
 62
     7
 48
0.025
100
AcDbLine
 10
129.273575
 20
136.925629
 30
0.0
 11
130.273575
 21
136.925629
 31
0.0
210
0.0
220
0.0
230
1.0
  0
LINE
  5
1CD
100
AcDbEntity
  8
0
370
    35
390
0
 62
     7
 48
0.0625
100
AcDbLine
 10
246.173569
 20
136.925629
 30
0.0
 11
246.173569
 21
139.425629
 31
0.0
210
0.0
220
0.0
230
1.0
  0
LINE
  5
1CE
100
AcDbEntity
  8
0
370
    35
390
0
 62
     7
 48
0.0625
100
AcDbLine
 10
129.273575
 20
136.925629
 30
0.0
 11
129.273575
 21
139.425629
 31
0.0
210
0.0
220
0.0
230
1.0
  0
LINE
  5
1CF
100
AcDbEntity
  8
0
370
    35
390
0
 62
     7
100
AcDbLine
 10
127.723572
 20
169.025635
 30
0.0
 11
1191.723633
 21
169.025635
 31
0.0
210
0.0
220
0.0
230
1.0
  0
LINE
  5
1D0
100
AcDbEntity
  8
0
370
    35
390
0
 62
     7
 48
0.12
100
AcDbLine
 10
132.523575
 20
167.709366
 30
0.0
 11
127.723564
 21
167.709366
 31
0.0
210
0.0
220
0.0
230
1.0
  0
LINE
  5
1D1
100
AcDbEntity
  8
0
370
    35
390
0
 62
     7
 48
0.120001
100
AcDbLine
 10
1191.723633
 20
167.709366
 30
0.0
 11
1186.923584
 21
167.709366
 31
0.0
210
0.0
220
0.0
230
1.0
  0
LINE
  5
1D2
100
AcDbEntity
  8
0
370
    35
390
0
 62
     7
 48
0.004825
100
AcDbLine
 10
1186.923584
 20
167.709366
 30
0.0
 11
1186.923584
 21
167.902374
 31
0.0
210
0.0
220
0.0
230
1.0
  0
LINE
  5
1D3
100
AcDbEntity
  8
0
370
    35
390
0
 62
     7
 48
0.028082
100
AcDbLine
 10
1186.923584
 20
167.902374
 30
0.0
 11
1186.923584
 21
169.025635
 31
0.0
210
0.0
220
0.0
230
1.0
  0
LINE
  5
1D4
100
AcDbEntity
  8
0
370
    35
390
0
 62
     7
100
AcDbLine
 10
127.723572
 20
165.025635
 30
0.0
 11
1191.723633
 21
165.025635
 31
0.0
210
0.0
220
0.0
230
1.0
  0
LINE
  5
1D5
100
AcDbEntity
  8
0
370
    35
390
0
 62
     7
 48
0.1625
100
AcDbLine
 10
121.223572
 20
165.025635
 30
0.0
 11
127.723572
 21
165.025635
 31
0.0
210
0.0
220
0.0
230
1.0
  0
LINE
  5
1D6
100
AcDbEntity
  8
0
370
    35
390
0
 62
     7
 48
0.1625
100
AcDbLine
 10
1198.223633
 20
165.025635
 30
0.0
 11
1191.723633
 21
165.025635
 31
0.0
210
0.0
220
0.0
230
1.0
  0
LINE
  5
1D7
100
AcDbEntity
  8
0
370
    35
390
0
 62
     7
 48
0.032907
100
AcDbLine
 10
132.523575
 20
169.025635
 30
0.0
 11
132.523575
 21
167.709366
 31
0.0
210
0.0
220
0.0
230
1.0
  0
LINE
  5
1D8
100
AcDbEntity
  8
0
370
    35
390
0
 62
     7
 48
0.003661
100
AcDbLine
 10
1191.723633
 20
165.025635
 30
0.0
 11
1191.723633
 21
165.172089
 31
0.0
210
0.0
220
0.0
230
1.0
  0
LINE
  5
1D9
100
AcDbEntity
  8
0
370
    35
390
0
 62
     7
 48
0.067677
100
AcDbLine
 10
1191.723633
 20
165.172089
 30
0.0
 11
1191.723633
 21
167.879181
 31
0.0
210
0.0
220
0.0
230
1.0
  0
LINE
  5
1DA
100
AcDbEntity
  8
0
370
    35
390
0
 62
     7
 48
0.008839
100
AcDbLine
 10
1191.723633
 20
167.879181
 30
0.0
 11
1191.723633
 21
168.232742
 31
0.0
210
0.0
220
0.0
230
1.0
  0
LINE
  5
1DB
100
AcDbEntity
  8
0
370
    35
390
0
 62
     7
100
AcDbLine
 10
1191.723633
 20
168.232742
 30
0.0
 11
1191.723633
 21
210.818527
 31
0.0
210
0.0
220
0.0
230
1.0
  0
LINE
  5
1DC
100
AcDbEntity
  8
0
370
    35
390
0
 62
     7
 48
0.008839
100
AcDbLine
 10
1191.723633
 20
210.818527
 30
0.0
 11
1191.723633
 21
211.172089
 31
0.0
210
0.0
220
0.0
230
1.0
  0
LINE
  5
1DD
100
AcDbEntity
  8
0
370
    35
390
0
 62
     7
 48
0.067677
100
AcDbLine
 10
1191.723633
 20
211.172089
 30
0.0
 11
1191.723633
 21
213.879181
 31
0.0
210
0.0
220
0.0
230
1.0
  0
LINE
  5
1DE
100
AcDbEntity
  8
0
370
    35
390
0
 62
     7
 48
0.003661
100
AcDbLine
 10
1191.723633
 20
213.879181
 30
0.0
 11
1191.723633
 21
214.025635
 31
0.0
210
0.0
220
0.0
230
1.0
  0
ARC
  5
1DF
100
AcDbEntity
  8
0
370
    35
390
0
 62
     7
100
AcDbCircle
 10
1198.223633
 20
165.525635
 30
0.0
 40
0.5
210
0.0
220
0.0
230
1.0
100
AcDbArc
 50
269.999997
 51
360.0
  0
ARC
  5
1E0
100
AcDbEntity
  8
0
370
    35
390
0
 62
     7
100
AcDbCircle
 10
121.223572
 20
165.525635
 30
0.0
 40
0.5
210
0.0
220
0.0
230
1.0
100
AcDbArc
 50
180.000005
 51
269.999997
  0
LINE
  5
1E1
100
AcDbEntity
  8
0
370
    35
390
0
 62
     7
 48
0.003661
100
AcDbLine
 10
127.723572
 20
165.025635
 30
0.0
 11
127.723572
 21
165.172089
 31
0.0
210
0.0
220
0.0
230
1.0
  0
LINE
  5
1E2
100
AcDbEntity
  8
0
370
    35
390
0
 62
     7
 48
0.003661
100
AcDbLine
 10
127.723572
 20
213.879181
 30
0.0
 11
127.723572
 21
214.025635
 31
0.0
210
0.0
220
0.0
230
1.0
  0
LINE
  5
1E3
100
AcDbEntity
  8
0
370
    35
390
0
 62
     7
 48
0.067677
100
AcDbLine
 10
127.723572
 20
211.172089
 30
0.0
 11
127.723572
 21
213.879181
 31
0.0
210
0.0
220
0.0
230
1.0
  0
LINE
  5
1E4
100
AcDbEntity
  8
0
370
    35
390
0
 62
     7
 48
0.008839
100
AcDbLine
 10
127.723572
 20
210.818527
 30
0.0
 11
127.723572
 21
211.172089
 31
0.0
210
0.0
220
0.0
230
1.0
  0
LINE
  5
1E5
100
AcDbEntity
  8
0
370
    35
390
0
 62
     7
100
AcDbLine
 10
127.723572
 20
168.232742
 30
0.0
 11
127.723572
 21
210.818527
 31
0.0
210
0.0
220
0.0
230
1.0
  0
LINE
  5
1E6
100
AcDbEntity
  8
0
370
    35
390
0
 62
     7
 48
0.008839
100
AcDbLine
 10
127.723572
 20
167.879181
 30
0.0
 11
127.723572
 21
168.232742
 31
0.0
210
0.0
220
0.0
230
1.0
  0
LINE
  5
1E7
100
AcDbEntity
  8
0
370
    35
390
0
 62
     7
 48
0.067677
100
AcDbLine
 10
127.723572
 20
165.172089
 30
0.0
 11
127.723572
 21
167.879181
 31
0.0
210
0.0
220
0.0
230
1.0
  0
LINE
  5
1E8
100
AcDbEntity
  8
0
370
    35
390
0
 62
     7
100
AcDbLine
 10
127.723572
 20
171.025635
 30
0.0
 11
1191.723633
 21
171.025635
 31
0.0
210
0.0
220
0.0
230
1.0
  0
LINE
  5
1E9
100
AcDbEntity
  8
0
370
    35
390
0
 62
     7
100
AcDbLine
 10
1191.723633
 20
209.525635
 30
0.0
 11
127.723572
 21
209.525635
 31
0.0
210
0.0
220
0.0
230
1.0
  0
CIRCLE
  5
1EA
100
AcDbEntity
  8
0
370
    35
390
0
 62
     7
100
AcDbCircle
 10
1059.723633
 20
176.725632
 30
0.0
 40
3.5
210
0.0
220
0.0
230
1.0
  0
CIRCLE
  5
1EB
100
AcDbEntity
  8
0
370
    35
390
0
 62
     7
100
AcDbCircle
 10
509.723572
 20
199.025635
 30
0.0
 40
3.35
210
0.0
220
0.0
230
1.0
  0
CIRCLE
  5
1EC
100
AcDbEntity
  8
0
370
    35
390
0
 62
     7
100
AcDbCircle
 10
609.723572
 20
199.025635
 30
0.0
 40
3.35
210
0.0
220
0.0
230
1.0
  0
CIRCLE
  5
1ED
100
AcDbEntity
  8
0
370
    35
390
0
 62
     7
100
AcDbCircle
 10
709.723572
 20
199.025635
 30
0.0
 40
3.35
210
0.0
220
0.0
230
1.0
  0
CIRCLE
  5
1EE
100
AcDbEntity
  8
0
370
    35
390
0
 62
     7
100
AcDbCircle
 10
809.723572
 20
199.025635
 30
0.0
 40
3.35
210
0.0
220
0.0
230
1.0
  0
CIRCLE
  5
1EF
100
AcDbEntity
  8
0
370
    35
390
0
 62
     7
100
AcDbCircle
 10
909.723572
 20
199.025635
 30
0.0
 40
3.35
210
0.0
220
0.0
230
1.0
  0
CIRCLE
  5
1F0
100
AcDbEntity
  8
0
370
    35
390
0
 62
     7
100
AcDbCircle
 10
1009.723572
 20
199.025635
 30
0.0
 40
3.35
210
0.0
220
0.0
230
1.0
  0
CIRCLE
  5
1F1
100
AcDbEntity
  8
0
370
    35
390
0
 62
     7
100
AcDbCircle
 10
1109.723633
 20
199.025635
 30
0.0
 40
3.35
210
0.0
220
0.0
230
1.0
  0
CIRCLE
  5
1F2
100
AcDbEntity
  8
0
370
    35
390
0
 62
     7
100
AcDbCircle
 10
140.723572
 20
199.025635
 30
0.0
 40
3.35
210
0.0
220
0.0
230
1.0
  0
CIRCLE
  5
1F3
100
AcDbEntity
  8
0
370
    35
390
0
 62
     7
100
AcDbCircle
 10
1178.723633
 20
199.025635
 30
0.0
 40
3.35
210
0.0
220
0.0
230
1.0
  0
CIRCLE
  5
1F4
100
AcDbEntity
  8
0
370
    35
390
0
 62
     7
100
AcDbCircle
 10
159.723572
 20
202.025635
 30
0.0
 40
5.5
210
0.0
220
0.0
230
1.0
  0
CIRCLE
  5
1F5
100
AcDbEntity
  8
0
370
    35
390
0
 62
     7
100
AcDbCircle
 10
259.723572
 20
202.025635
 30
0.0
 40
5.5
210
0.0
220
0.0
230
1.0
  0
CIRCLE
  5
1F6
100
AcDbEntity
  8
0
370
    35
390
0
 62
     7
100
AcDbCircle
 10
359.723572
 20
202.025635
 30
0.0
 40
5.5
210
0.0
220
0.0
230
1.0
  0
CIRCLE
  5
1F7
100
AcDbEntity
  8
0
370
    35
390
0
 62
     7
100
AcDbCircle
 10
459.723572
 20
202.025635
 30
0.0
 40
5.5
210
0.0
220
0.0
230
1.0
  0
CIRCLE
  5
1F8
100
AcDbEntity
  8
0
370
    35
390
0
 62
     7
100
AcDbCircle
 10
559.723572
 20
202.025635
 30
0.0
 40
5.5
210
0.0
220
0.0
230
1.0
  0
CIRCLE
  5
1F9
100
AcDbEntity
  8
0
370
    35
390
0
 62
     7
100
AcDbCircle
 10
659.723572
 20
202.025635
 30
0.0
 40
5.5
210
0.0
220
0.0
230
1.0
  0
CIRCLE
  5
1FA
100
AcDbEntity
  8
0
370
    35
390
0
 62
     7
100
AcDbCircle
 10
759.723572
 20
202.025635
 30
0.0
 40
5.5
210
0.0
220
0.0
230
1.0
  0
CIRCLE
  5
1FB
100
AcDbEntity
  8
0
370
    35
390
0
 62
     7
100
AcDbCircle
 10
859.723572
 20
202.025635
 30
0.0
 40
5.5
210
0.0
220
0.0
230
1.0
  0
CIRCLE
  5
1FC
100
AcDbEntity
  8
0
370
    35
390
0
 62
     7
100
AcDbCircle
 10
959.723572
 20
202.025635
 30
0.0
 40
5.5
210
0.0
220
0.0
230
1.0
  0
CIRCLE
  5
1FD
100
AcDbEntity
  8
0
370
    35
390
0
 62
     7
100
AcDbCircle
 10
1059.723633
 20
202.025635
 30
0.0
 40
5.5
210
0.0
220
0.0
230
1.0
  0
CIRCLE
  5
1FE
100
AcDbEntity
  8
0
370
    35
390
0
 62
     7
100
AcDbCircle
 10
1159.723633
 20
202.025635
 30
0.0
 40
5.5
210
0.0
220
0.0
230
1.0
  0
CIRCLE
  5
1FF
100
AcDbEntity
  8
0
370
    35
390
0
 62
     7
100
AcDbCircle
 10
159.723572
 20
176.725632
 30
0.0
 40
3.5
210
0.0
220
0.0
230
1.0
  0
CIRCLE
  5
200
100
AcDbEntity
  8
0
370
    35
390
0
 62
     7
100
AcDbCircle
 10
259.723572
 20
176.725632
 30
0.0
 40
3.5
210
0.0
220
0.0
230
1.0
  0
CIRCLE
  5
201
100
AcDbEntity
  8
0
370
    35
390
0
 62
     7
100
AcDbCircle
 10
359.723572
 20
176.725632
 30
0.0
 40
3.5
210
0.0
220
0.0
230
1.0
  0
CIRCLE
  5
202
100
AcDbEntity
  8
0
370
    35
390
0
 62
     7
100
AcDbCircle
 10
459.723572
 20
176.725632
 30
0.0
 40
3.5
210
0.0
220
0.0
230
1.0
  0
CIRCLE
  5
203
100
AcDbEntity
  8
0
370
    35
390
0
 62
     7
100
AcDbCircle
 10
559.723572
 20
176.725632
 30
0.0
 40
3.5
210
0.0
220
0.0
230
1.0
  0
CIRCLE
  5
204
100
AcDbEntity
  8
0
370
    35
390
0
 62
     7
100
AcDbCircle
 10
659.723572
 20
176.725632
 30
0.0
 40
3.5
210
0.0
220
0.0
230
1.0
  0
CIRCLE
  5
205
100
AcDbEntity
  8
0
370
    35
390
0
 62
     7
100
AcDbCircle
 10
759.723572
 20
176.725632
 30
0.0
 40
3.5
210
0.0
220
0.0
230
1.0
  0
CIRCLE
  5
206
100
AcDbEntity
  8
0
370
    35
390
0
 62
     7
100
AcDbCircle
 10
859.723572
 20
176.725632
 30
0.0
 40
3.5
210
0.0
220
0.0
230
1.0
  0
CIRCLE
  5
207
100
AcDbEntity
  8
0
370
    35
390
0
 62
     7
100
AcDbCircle
 10
959.723572
 20
176.725632
 30
0.0
 40
3.5
210
0.0
220
0.0
230
1.0
  0
CIRCLE
  5
208
100
AcDbEntity
  8
0
370
    35
390
0
 62
     7
100
AcDbCircle
 10
1159.723633
 20
176.725632
 30
0.0
 40
3.5
210
0.0
220
0.0
230
1.0
  0
CIRCLE
  5
209
100
AcDbEntity
  8
0
370
    35
390
0
 62
     7
100
AcDbCircle
 10
409.723572
 20
199.025635
 30
0.0
 40
3.35
210
0.0
220
0.0
230
1.0
  0
CIRCLE
  5
20A
100
AcDbEntity
  8
0
370
    35
390
0
 62
     7
100
AcDbCircle
 10
309.723572
 20
199.025635
 30
0.0
 40
3.35
210
0.0
220
0.0
230
1.0
  0
CIRCLE
  5
20B
100
AcDbEntity
  8
0
370
    35
390
0
 62
     7
100
AcDbCircle
 10
209.723572
 20
199.025635
 30
0.0
 40
3.35
210
0.0
220
0.0
230
1.0
  0
LINE
  5
20C
100
AcDbEntity
  8
0
370
    35
390
0
 62
     7
 48
0.1625
100
AcDbLine
 10
1198.223633
 20
214.025635
 30
0.0
 11
1191.723633
 21
214.025635
 31
0.0
210
0.0
220
0.0
230
1.0
  0
LINE
  5
20D
100
AcDbEntity
  8
0
370
    35
390
0
 62
     7
 48
0.067678
100
AcDbLine
 10
1198.723633
 20
210.818527
 30
0.0
 11
1198.723633
 21
213.525635
 31
0.0
210
0.0
220
0.0
230
1.0
  0
LINE
  5
20E
100
AcDbEntity
  8
0
370
    35
390
0
 62
     7
100
AcDbLine
 10
1198.723633
 20
210.818527
 30
0.0
 11
1198.723633
 21
168.232742
 31
0.0
210
0.0
220
0.0
230
1.0
  0
LINE
  5
20F
100
AcDbEntity
  8
0
370
    35
390
0
 62
     7
 48
0.067678
100
AcDbLine
 10
1198.723633
 20
168.232742
 30
0.0
 11
1198.723633
 21
165.525635
 31
0.0
210
0.0
220
0.0
230
1.0
  0
LINE
  5
210
100
AcDbEntity
  8
0
370
    35
390
0
 62
     7
100
AcDbLine
 10
127.723572
 20
211.025635
 30
0.0
 11
1191.723633
 21
211.025635
 31
0.0
210
0.0
220
0.0
230
1.0
  0
LINE
  5
211
100
AcDbEntity
  8
0
370
    35
390
0
 62
     7
 48
0.067678
100
AcDbLine
 10
120.723572
 20
168.232742
 30
0.0
 11
120.723572
 21
165.525635
 31
0.0
210
0.0
220
0.0
230
1.0
  0
LINE
  5
212
100
AcDbEntity
  8
0
370
    35
390
0
 62
     7
100
AcDbLine
 10
120.723572
 20
210.818527
 30
0.0
 11
120.723572
 21
168.232742
 31
0.0
210
0.0
220
0.0
230
1.0
  0
LINE
  5
213
100
AcDbEntity
  8
0
370
    35
390
0
 62
     7
 48
0.067678
100
AcDbLine
 10
120.723572
 20
210.818527
 30
0.0
 11
120.723572
 21
213.525635
 31
0.0
210
0.0
220
0.0
230
1.0
  0
LINE
  5
214
100
AcDbEntity
  8
0
370
    35
390
0
 62
     7
 48
0.1625
100
AcDbLine
 10
121.223572
 20
214.025635
 30
0.0
 11
127.723572
 21
214.025635
 31
0.0
210
0.0
220
0.0
230
1.0
  0
CIRCLE
  5
215
100
AcDbEntity
  8
0
370
    35
390
0
 62
     7
100
AcDbCircle
 10
159.723572
 20
202.025635
 30
0.0
 40
3.5
210
0.0
220
0.0
230
1.0
  0
CIRCLE
  5
216
100
AcDbEntity
  8
0
370
    35
390
0
 62
     7
100
AcDbCircle
 10
259.723572
 20
202.025635
 30
0.0
 40
3.5
210
0.0
220
0.0
230
1.0
  0
CIRCLE
  5
217
100
AcDbEntity
  8
0
370
    35
390
0
 62
     7
100
AcDbCircle
 10
359.723572
 20
202.025635
 30
0.0
 40
3.5
210
0.0
220
0.0
230
1.0
  0
CIRCLE
  5
218
100
AcDbEntity
  8
0
370
    35
390
0
 62
     7
100
AcDbCircle
 10
459.723572
 20
202.025635
 30
0.0
 40
3.5
210
0.0
220
0.0
230
1.0
  0
CIRCLE
  5
219
100
AcDbEntity
  8
0
370
    35
390
0
 62
     7
100
AcDbCircle
 10
559.723572
 20
202.025635
 30
0.0
 40
3.5
210
0.0
220
0.0
230
1.0
  0
CIRCLE
  5
21A
100
AcDbEntity
  8
0
370
    35
390
0
 62
     7
100
AcDbCircle
 10
659.723572
 20
202.025635
 30
0.0
 40
3.5
210
0.0
220
0.0
230
1.0
  0
CIRCLE
  5
21B
100
AcDbEntity
  8
0
370
    35
390
0
 62
     7
100
AcDbCircle
 10
759.723572
 20
202.025635
 30
0.0
 40
3.5
210
0.0
220
0.0
230
1.0
  0
CIRCLE
  5
21C
100
AcDbEntity
  8
0
370
    35
390
0
 62
     7
100
AcDbCircle
 10
859.723572
 20
202.025635
 30
0.0
 40
3.5
210
0.0
220
0.0
230
1.0
  0
CIRCLE
  5
21D
100
AcDbEntity
  8
0
370
    35
390
0
 62
     7
100
AcDbCircle
 10
959.723572
 20
202.025635
 30
0.0
 40
3.5
210
0.0
220
0.0
230
1.0
  0
CIRCLE
  5
21E
100
AcDbEntity
  8
0
370
    35
390
0
 62
     7
100
AcDbCircle
 10
1059.723633
 20
202.025635
 30
0.0
 40
3.5
210
0.0
220
0.0
230
1.0
  0
CIRCLE
  5
21F
100
AcDbEntity
  8
0
370
    35
390
0
 62
     7
100
AcDbCircle
 10
1159.723633
 20
202.025635
 30
0.0
 40
3.5
210
0.0
220
0.0
230
1.0
  0
LINE
  5
220
100
AcDbEntity
  8
0
370
    35
390
0
 62
     7
 48
0.1
100
AcDbLine
 10
1111.223633
 20
176.525635
 30
0.0
 11
1111.223633
 21
172.525635
 31
0.0
210
0.0
220
0.0
230
1.0
  0
ARC
  5
221
100
AcDbEntity
  8
0
370
    35
390
0
 62
     7
100
AcDbCircle
 10
1111.723633
 20
176.525635
 30
0.0
 40
0.5
210
0.0
220
0.0
230
1.0
100
AcDbArc
 50
90.000003
 51
180.000005
  0
LINE
  5
222
100
AcDbEntity
  8
0
370
    35
390
0
 62
     7
 48
0.175
100
AcDbLine
 10
1111.723633
 20
177.025635
 30
0.0
 11
1118.723633
 21
177.025635
 31
0.0
210
0.0
220
0.0
230
1.0
  0
ARC
  5
223
100
AcDbEntity
  8
0
370
    35
390
0
 62
     7
100
AcDbCircle
 10
1118.723633
 20
176.525635
 30
0.0
 40
0.5
210
0.0
220
0.0
230
1.0
100
AcDbArc
 50
0.0
 51
90.000003
  0
LINE
  5
224
100
AcDbEntity
  8
0
370
    35
390
0
 62
     7
 48
0.1
100
AcDbLine
 10
1119.223633
 20
172.525635
 30
0.0
 11
1119.223633
 21
176.525635
 31
0.0
210
0.0
220
0.0
230
1.0
  0
ARC
  5
225
100
AcDbEntity
  8
0
370
    35
390
0
 62
     7
100
AcDbCircle
 10
1118.723633
 20
172.525635
 30
0.0
 40
0.5
210
0.0
220
0.0
230
1.0
100
AcDbArc
 50
269.999997
 51
360.0
  0
LINE
  5
226
100
AcDbEntity
  8
0
370
    35
390
0
 62
     7
 48
0.175
100
AcDbLine
 10
1118.723633
 20
172.025635
 30
0.0
 11
1111.723633
 21
172.025635
 31
0.0
210
0.0
220
0.0
230
1.0
  0
ARC
  5
227
100
AcDbEntity
  8
0
370
    35
390
0
 62
     7
100
AcDbCircle
 10
1111.723633
 20
172.525635
 30
0.0
 40
0.5
210
0.0
220
0.0
230
1.0
100
AcDbArc
 50
180.000005
 51
269.999997
  0
LINE
  5
228
100
AcDbEntity
  8
0
370
    35
390
0
 62
     7
 48
0.1
100
AcDbLine
 10
171.223572
 20
176.525635
 30
0.0
 11
171.223572
 21
172.525635
 31
0.0
210
0.0
220
0.0
230
1.0
  0
ARC
  5
229
100
AcDbEntity
  8
0
370
    35
390
0
 62
     7
100
AcDbCircle
 10
171.723572
 20
176.525635
 30
0.0
 40
0.5
210
0.0
220
0.0
230
1.0
100
AcDbArc
 50
90.000003
 51
180.000005
  0
LINE
  5
22A
100
AcDbEntity
  8
0
370
    35
390
0
 62
     7
 48
0.175
100
AcDbLine
 10
171.723572
 20
177.025635
 30
0.0
 11
178.723572
 21
177.025635
 31
0.0
210
0.0
220
0.0
230
1.0
  0
ARC
  5
22B
100
AcDbEntity
  8
0
370
    35
390
0
 62
     7
100
AcDbCircle
 10
178.723572
 20
176.525635
 30
0.0
 40
0.5
210
0.0
220
0.0
230
1.0
100
AcDbArc
 50
0.0
 51
90.000003
  0
LINE
  5
22C
100
AcDbEntity
  8
0
370
    35
390
0
 62
     7
 48
0.1
100
AcDbLine
 10
179.223572
 20
172.525635
 30
0.0
 11
179.223572
 21
176.525635
 31
0.0
210
0.0
220
0.0
230
1.0
  0
ARC
  5
22D
100
AcDbEntity
  8
0
370
    35
390
0
 62
     7
100
AcDbCircle
 10
178.723572
 20
172.525635
 30
0.0
 40
0.5
210
0.0
220
0.0
230
1.0
100
AcDbArc
 50
269.999997
 51
360.0
  0
LINE
  5
22E
100
AcDbEntity
  8
0
370
    35
390
0
 62
     7
 48
0.175
100
AcDbLine
 10
178.723572
 20
172.025635
 30
0.0
 11
171.723572
 21
172.025635
 31
0.0
210
0.0
220
0.0
230
1.0
  0
ARC
  5
22F
100
AcDbEntity
  8
0
370
    35
390
0
 62
     7
100
AcDbCircle
 10
171.723572
 20
172.525635
 30
0.0
 40
0.5
210
0.0
220
0.0
230
1.0
100
AcDbArc
 50
180.000005
 51
269.999997
  0
ARC
  5
230
100
AcDbEntity
  8
0
370
    35
390
0
 62
     7
100
AcDbCircle
 10
1198.223633
 20
213.525635
 30
0.0
 40
0.5
210
0.0
220
0.0
230
1.0
100
AcDbArc
 50
0.0
 51
90.000003
  0
LINE
  5
231
100
AcDbEntity
  8
0
370
    35
390
0
 62
     7
 48
0.0075
100
AcDbLine
 10
1193.223633
 20
214.525635
 30
0.0
 11
1193.223633
 21
214.225632
 31
0.0
210
0.0
220
0.0
230
1.0
  0
LINE
  5
232
100
AcDbEntity
  8
0
370
    35
390
0
 62
     7
 48
0.005
100
AcDbLine
 10
1193.223633
 20
214.225632
 30
0.0
 11
1193.223633
 21
214.025635
 31
0.0
210
0.0
220
0.0
230
1.0
  0
LINE
  5
233
100
AcDbEntity
  8
0
370
    35
390
0
 62
     7
 48
0.005
100
AcDbLine
 10
126.223572
 20
214.225632
 30
0.0
 11
126.223572
 21
214.025635
 31
0.0
210
0.0
220
0.0
230
1.0
  0
LINE
  5
234
100
AcDbEntity
  8
0
370
    35
390
0
 62
     7
 48
0.0075
100
AcDbLine
 10
126.223572
 20
214.525635
 30
0.0
 11
126.223572
 21
214.225632
 31
0.0
210
0.0
220
0.0
230
1.0
  0
ARC
  5
235
100
AcDbEntity
  8
0
370
    35
390
0
 62
     7
100
AcDbCircle
 10
121.223572
 20
213.525635
 30
0.0
 40
0.5
210
0.0
220
0.0
230
1.0
100
AcDbArc
 50
90.000003
 51
180.000005
  0
LINE
  5
236
100
AcDbEntity
  8
0
370
    35
390
0
 62
     7
 48
0.099341
100
AcDbLine
 10
1117.090088
 20
176.140808
 30
0.0
 11
1115.404663
 21
172.542328
 31
0.0
210
0.0
220
0.0
230
1.0
  0
ARC
  5
237
100
AcDbEntity
  8
0
370
    35
390
0
 62
     7
100
AcDbCircle
 10
1115.223633
 20
172.627151
 30
0.0
 40
0.2
210
0.0
220
0.0
230
1.0
100
AcDbArc
 50
205.097648
 51
334.902357
  0
LINE
  5
238
100
AcDbEntity
  8
0
370
    35
390
0
 62
     7
 48
0.099342
100
AcDbLine
 10
1113.356934
 20
176.140808
 30
0.0
 11
1115.04248
 21
172.542328
 31
0.0
210
0.0
220
0.0
230
1.0
  0
ARC
  5
239
100
AcDbEntity
  8
0
370
    35
390
0
 62
     7
100
AcDbCircle
 10
1113.538086
 20
176.225632
 30
0.0
 40
0.2
210
0.0
220
0.0
230
1.0
100
AcDbArc
 50
90.000003
 51
205.097648
  0
LINE
  5
23A
100
AcDbEntity
  8
0
370
    35
390
0
 62
     7
 48
0.084274
100
AcDbLine
 10
1116.909058
 20
176.425629
 30
0.0
 11
1113.538086
 21
176.425629
 31
0.0
210
0.0
220
0.0
230
1.0
  0
ARC
  5
23B
100
AcDbEntity
  8
0
370
    35
390
0
 62
     7
100
AcDbCircle
 10
1116.909058
 20
176.225632
 30
0.0
 40
0.2
210
0.0
220
0.0
230
1.0
100
AcDbArc
 50
334.902357
 51
90.000003
  0
LINE
  5
23C
100
AcDbEntity
  8
0
370
    35
390
0
 62
     7
 48
0.099341
100
AcDbLine
 10
177.090164
 20
176.140808
 30
0.0
 11
175.404694
 21
172.542328
 31
0.0
210
0.0
220
0.0
230
1.0
  0
ARC
  5
23D
100
AcDbEntity
  8
0
370
    35
390
0
 62
     7
100
AcDbCircle
 10
175.223572
 20
172.627151
 30
0.0
 40
0.2
210
0.0
220
0.0
230
1.0
100
AcDbArc
 50
205.097648
 51
334.902357
  0
LINE
  5
23E
100
AcDbEntity
  8
0
370
    35
390
0
 62
     7
 48
0.099341
100
AcDbLine
 10
173.356979
 20
176.140808
 30
0.0
 11
175.04245
 21
172.542328
 31
0.0
210
0.0
220
0.0
230
1.0
  0
ARC
  5
23F
100
AcDbEntity
  8
0
370
    35
390
0
 62
     7
100
AcDbCircle
 10
173.538101
 20
176.225632
 30
0.0
 40
0.2
210
0.0
220
0.0
230
1.0
100
AcDbArc
 50
90.000003
 51
205.097648
  0
LINE
  5
240
100
AcDbEntity
  8
0
370
    35
390
0
 62
     7
 48
0.084274
100
AcDbLine
 10
176.909042
 20
176.425629
 30
0.0
 11
173.538101
 21
176.425629
 31
0.0
210
0.0
220
0.0
230
1.0
  0
ARC
  5
241
100
AcDbEntity
  8
0
370
    35
390
0
 62
     7
100
AcDbCircle
 10
176.909042
 20
176.225632
 30
0.0
 40
0.2
210
0.0
220
0.0
230
1.0
100
AcDbArc
 50
334.902357
 51
90.000003
  0
LINE
  5
242
100
AcDbEntity
  8
0
370
    35
390
0
 62
     7
100
AcDbLine
 10
1193.223633
 20
214.525635
 30
0.0
 11
126.223572
 21
214.525635
 31
0.0
210
0.0
220
0.0
230
1.0
  0
LINE
  5
243
100
AcDbEntity
  8
0
370
    35
390
0
 62
     7
 48
0.0725
100
AcDbLine
 10
254.223572
 20
162.575638
 30
0.0
 11
254.223572
 21
159.675629
 31
0.0
210
0.0
220
0.0
230
1.0
  0
LINE
  5
244
100
AcDbEntity
  8
0
370
    35
390
0
 62
     7
 48
0.0725
100
AcDbLine
 10
254.223572
 20
158.375641
 30
0.0
 11
254.223572
 21
155.475632
 31
0.0
210
0.0
220
0.0
230
1.0
  0
CIRCLE
  5
245
100
AcDbEntity
  8
0
370
    35
390
0
 62
     7
100
AcDbCircle
 10
1059.723633
 20
176.725632
 30
0.0
 40
3.0
210
0.0
220
0.0
230
1.0
  0
CIRCLE
  5
246
100
AcDbEntity
  8
0
370
    35
390
0
 62
     7
100
AcDbCircle
 10
509.723572
 20
199.025635
 30
0.0
 40
3.0
210
0.0
220
0.0
230
1.0
  0
CIRCLE
  5
247
100
AcDbEntity
  8
0
370
    35
390
0
 62
     7
100
AcDbCircle
 10
609.723572
 20
199.025635
 30
0.0
 40
3.0
210
0.0
220
0.0
230
1.0
  0
CIRCLE
  5
248
100
AcDbEntity
  8
0
370
    35
390
0
 62
     7
100
AcDbCircle
 10
709.723572
 20
199.025635
 30
0.0
 40
3.0
210
0.0
220
0.0
230
1.0
  0
CIRCLE
  5
249
100
AcDbEntity
  8
0
370
    35
390
0
 62
     7
100
AcDbCircle
 10
809.723572
 20
199.025635
 30
0.0
 40
3.0
210
0.0
220
0.0
230
1.0
  0
CIRCLE
  5
24A
100
AcDbEntity
  8
0
370
    35
390
0
 62
     7
100
AcDbCircle
 10
909.723572
 20
199.025635
 30
0.0
 40
3.0
210
0.0
220
0.0
230
1.0
  0
CIRCLE
  5
24B
100
AcDbEntity
  8
0
370
    35
390
0
 62
     7
100
AcDbCircle
 10
1009.723572
 20
199.025635
 30
0.0
 40
3.0
210
0.0
220
0.0
230
1.0
  0
CIRCLE
  5
24C
100
AcDbEntity
  8
0
370
    35
390
0
 62
     7
100
AcDbCircle
 10
1109.723633
 20
199.025635
 30
0.0
 40
3.0
210
0.0
220
0.0
230
1.0
  0
CIRCLE
  5
24D
100
AcDbEntity
  8
0
370
    35
390
0
 62
     7
100
AcDbCircle
 10
140.723572
 20
199.025635
 30
0.0
 40
3.0
210
0.0
220
0.0
230
1.0
  0
CIRCLE
  5
24E
100
AcDbEntity
  8
0
370
    35
390
0
 62
     7
100
AcDbCircle
 10
1178.723633
 20
199.025635
 30
0.0
 40
3.0
210
0.0
220
0.0
230
1.0
  0
CIRCLE
  5
24F
100
AcDbEntity
  8
0
370
    35
390
0
 62
     7
100
AcDbCircle
 10
159.723572
 20
176.725632
 30
0.0
 40
3.0
210
0.0
220
0.0
230
1.0
  0
CIRCLE
  5
250
100
AcDbEntity
  8
0
370
    35
390
0
 62
     7
100
AcDbCircle
 10
259.723572
 20
176.725632
 30
0.0
 40
3.0
210
0.0
220
0.0
230
1.0
  0
CIRCLE
  5
251
100
AcDbEntity
  8
0
370
    35
390
0
 62
     7
100
AcDbCircle
 10
359.723572
 20
176.725632
 30
0.0
 40
3.0
210
0.0
220
0.0
230
1.0
  0
CIRCLE
  5
252
100
AcDbEntity
  8
0
370
    35
390
0
 62
     7
100
AcDbCircle
 10
459.723572
 20
176.725632
 30
0.0
 40
3.0
210
0.0
220
0.0
230
1.0
  0
CIRCLE
  5
253
100
AcDbEntity
  8
0
370
    35
390
0
 62
     7
100
AcDbCircle
 10
559.723572
 20
176.725632
 30
0.0
 40
3.0
210
0.0
220
0.0
230
1.0
  0
CIRCLE
  5
254
100
AcDbEntity
  8
0
370
    35
390
0
 62
     7
100
AcDbCircle
 10
659.723572
 20
176.725632
 30
0.0
 40
3.0
210
0.0
220
0.0
230
1.0
  0
CIRCLE
  5
255
100
AcDbEntity
  8
0
370
    35
390
0
 62
     7
100
AcDbCircle
 10
759.723572
 20
176.725632
 30
0.0
 40
3.0
210
0.0
220
0.0
230
1.0
  0
CIRCLE
  5
256
100
AcDbEntity
  8
0
370
    35
390
0
 62
     7
100
AcDbCircle
 10
859.723572
 20
176.725632
 30
0.0
 40
3.0
210
0.0
220
0.0
230
1.0
  0
CIRCLE
  5
257
100
AcDbEntity
  8
0
370
    35
390
0
 62
     7
100
AcDbCircle
 10
959.723572
 20
176.725632
 30
0.0
 40
3.0
210
0.0
220
0.0
230
1.0
  0
CIRCLE
  5
258
100
AcDbEntity
  8
0
370
    35
390
0
 62
     7
100
AcDbCircle
 10
1159.723633
 20
176.725632
 30
0.0
 40
3.0
210
0.0
220
0.0
230
1.0
  0
CIRCLE
  5
259
100
AcDbEntity
  8
0
370
    35
390
0
 62
     7
100
AcDbCircle
 10
409.723572
 20
199.025635
 30
0.0
 40
3.0
210
0.0
220
0.0
230
1.0
  0
CIRCLE
  5
25A
100
AcDbEntity
  8
0
370
    35
390
0
 62
     7
100
AcDbCircle
 10
309.723572
 20
199.025635
 30
0.0
 40
3.0
210
0.0
220
0.0
230
1.0
  0
CIRCLE
  5
25B
100
AcDbEntity
  8
0
370
    35
390
0
 62
     7
100
AcDbCircle
 10
209.723572
 20
199.025635
 30
0.0
 40
3.0
210
0.0
220
0.0
230
1.0
  0
LINE
  5
25C
100
AcDbEntity
  8
0
370
    35
390
0
 62
     7
 48
0.0775
100
AcDbLine
 10
1199.023682
 20
173.275635
 30
0.0
 11
1199.023682
 21
176.375641
 31
0.0
210
0.0
220
0.0
230
1.0
  0
LINE
  5
25D
100
AcDbEntity
  8
0
370
    35
390
0
 62
     7
 48
0.007501
100
AcDbLine
 10
1198.723633
 20
176.375641
 30
0.0
 11
1199.023682
 21
176.375641
 31
0.0
210
0.0
220
0.0
230
1.0
  0
LINE
  5
25E
100
AcDbEntity
  8
0
370
    35
390
0
 62
     7
 48
0.007501
100
AcDbLine
 10
1198.723633
 20
177.675629
 30
0.0
 11
1199.023682
 21
177.675629
 31
0.0
210
0.0
220
0.0
230
1.0
  0
LINE
  5
25F
100
AcDbEntity
  8
0
370
    35
390
0
 62
     7
 48
0.027165
100
AcDbLine
 10
1199.023682
 20
177.675629
 30
0.0
 11
1199.023682
 21
178.762222
 31
0.0
210
0.0
220
0.0
230
1.0
  0
LINE
  5
260
100
AcDbEntity
  8
0
370
    35
390
0
 62
     7
 48
0.050335
100
AcDbLine
 10
1199.023682
 20
178.762222
 30
0.0
 11
1199.023682
 21
180.775635
 31
0.0
210
0.0
220
0.0
230
1.0
  0
LINE
  5
261
100
AcDbEntity
  8
0
370
    35
390
0
 62
     7
 48
0.01625
100
AcDbLine
 10
510.123566
 20
200.125641
 30
0.0
 11
510.123566
 21
200.775635
 31
0.0
210
0.0
220
0.0
230
1.0
  0
ARC
  5
262
100
AcDbEntity
  8
0
370
    35
390
0
 62
     7
100
AcDbCircle
 10
510.823578
 20
200.125641
 30
0.0
 40
0.7
210
0.0
220
0.0
230
1.0
100
AcDbArc
 50
180.000005
 51
269.999997
  0
LINE
  5
263
100
AcDbEntity
  8
0
370
    35
390
0
 62
     7
 48
0.01625
100
AcDbLine
 10
511.473572
 20
199.425629
 30
0.0
 11
510.823578
 21
199.425629
 31
0.0
210
0.0
220
0.0
230
1.0
  0
LINE
  5
264
100
AcDbEntity
  8
0
370
    35
390
0
 62
     7
 48
0.02
100
AcDbLine
 10
511.473572
 20
198.625641
 30
0.0
 11
511.473572
 21
199.425629
 31
0.0
210
0.0
220
0.0
230
1.0
  0
LINE
  5
265
100
AcDbEntity
  8
0
370
    35
390
0
 62
     7
 48
0.01625
100
AcDbLine
 10
510.823578
 20
198.625641
 30
0.0
 11
511.473572
 21
198.625641
 31
0.0
210
0.0
220
0.0
230
1.0
  0
ARC
  5
266
100
AcDbEntity
  8
0
370
    35
390
0
 62
     7
100
AcDbCircle
 10
510.823578
 20
197.925629
 30
0.0
 40
0.7
210
0.0
220
0.0
230
1.0
100
AcDbArc
 50
90.000003
 51
179.999995
  0
LINE
  5
267
100
AcDbEntity
  8
0
370
    35
390
0
 62
     7
 48
0.01625
100
AcDbLine
 10
510.123566
 20
197.275635
 30
0.0
 11
510.123566
 21
197.925629
 31
0.0
210
0.0
220
0.0
230
1.0
  0
LINE
  5
268
100
AcDbEntity
  8
0
370
    35
390
0
 62
     7
 48
0.02
100
AcDbLine
 10
509.323578
 20
197.275635
 30
0.0
 11
510.123566
 21
197.275635
 31
0.0
210
0.0
220
0.0
230
1.0
  0
LINE
  5
269
100
AcDbEntity
  8
0
370
    35
390
0
 62
     7
 48
0.01625
100
AcDbLine
 10
509.323578
 20
197.925629
 30
0.0
 11
509.323578
 21
197.275635
 31
0.0
210
0.0
220
0.0
230
1.0
  0
ARC
  5
26A
100
AcDbEntity
  8
0
370
    35
390
0
 62
     7
100
AcDbCircle
 10
508.623566
 20
197.925629
 30
0.0
 40
0.7
210
0.0
220
0.0
230
1.0
100
AcDbArc
 50
360.0
 51
90.000003
  0
LINE
  5
26B
100
AcDbEntity
  8
0
370
    35
390
0
 62
     7
 48
0.01625
100
AcDbLine
 10
507.973572
 20
198.625641
 30
0.0
 11
508.623566
 21
198.625641
 31
0.0
210
0.0
220
0.0
230
1.0
  0
LINE
  5
26C
100
AcDbEntity
  8
0
370
    35
390
0
 62
     7
 48
0.02
100
AcDbLine
 10
507.973572
 20
199.425629
 30
0.0
 11
507.973572
 21
198.625641
 31
0.0
210
0.0
220
0.0
230
1.0
  0
LINE
  5
26D
100
AcDbEntity
  8
0
370
    35
390
0
 62
     7
 48
0.01625
100
AcDbLine
 10
508.623566
 20
199.425629
 30
0.0
 11
507.973572
 21
199.425629
 31
0.0
210
0.0
220
0.0
230
1.0
  0
ARC
  5
26E
100
AcDbEntity
  8
0
370
    35
390
0
 62
     7
100
AcDbCircle
 10
508.623566
 20
200.125641
 30
0.0
 40
0.7
210
0.0
220
0.0
230
1.0
100
AcDbArc
 50
269.999997
 51
0.0
  0
LINE
  5
26F
100
AcDbEntity
  8
0
370
    35
390
0
 62
     7
 48
0.01625
100
AcDbLine
 10
509.323578
 20
200.775635
 30
0.0
 11
509.323578
 21
200.125641
 31
0.0
210
0.0
220
0.0
230
1.0
  0
LINE
  5
270
100
AcDbEntity
  8
0
370
    35
390
0
 62
     7
 48
0.02
100
AcDbLine
 10
510.123566
 20
200.775635
 30
0.0
 11
509.323578
 21
200.775635
 31
0.0
210
0.0
220
0.0
230
1.0
  0
LINE
  5
271
100
AcDbEntity
  8
0
370
    35
390
0
 62
     7
 48
0.01625
100
AcDbLine
 10
610.123535
 20
200.125641
 30
0.0
 11
610.123535
 21
200.775635
 31
0.0
210
0.0
220
0.0
230
1.0
  0
ARC
  5
272
100
AcDbEntity
  8
0
370
    35
390
0
 62
     7
100
AcDbCircle
 10
610.823608
 20
200.125641
 30
0.0
 40
0.7
210
0.0
220
0.0
230
1.0
100
AcDbArc
 50
180.000005
 51
269.999997
  0
LINE
  5
273
100
AcDbEntity
  8
0
370
    35
390
0
 62
     7
 48
0.016249
100
AcDbLine
 10
611.473572
 20
199.425629
 30
0.0
 11
610.823608
 21
199.425629
 31
0.0
210
0.0
220
0.0
230
1.0
  0
LINE
  5
274
100
AcDbEntity
  8
0
370
    35
390
0
 62
     7
 48
0.02
100
AcDbLine
 10
611.473572
 20
198.625641
 30
0.0
 11
611.473572
 21
199.425629
 31
0.0
210
0.0
220
0.0
230
1.0
  0
LINE
  5
275
100
AcDbEntity
  8
0
370
    35
390
0
 62
     7
 48
0.016249
100
AcDbLine
 10
610.823608
 20
198.625641
 30
0.0
 11
611.473572
 21
198.625641
 31
0.0
210
0.0
220
0.0
230
1.0
  0
ARC
  5
276
100
AcDbEntity
  8
0
370
    35
390
0
 62
     7
100
AcDbCircle
 10
610.823608
 20
197.925629
 30
0.0
 40
0.7
210
0.0
220
0.0
230
1.0
100
AcDbArc
 50
90.000003
 51
179.999995
  0
LINE
  5
277
100
AcDbEntity
  8
0
370
    35
390
0
 62
     7
 48
0.01625
100
AcDbLine
 10
610.123535
 20
197.275635
 30
0.0
 11
610.123535
 21
197.925629
 31
0.0
210
0.0
220
0.0
230
1.0
  0
LINE
  5
278
100
AcDbEntity
  8
0
370
    35
390
0
 62
     7
 48
0.019998
100
AcDbLine
 10
609.323608
 20
197.275635
 30
0.0
 11
610.123535
 21
197.275635
 31
0.0
210
0.0
220
0.0
230
1.0
  0
LINE
  5
279
100
AcDbEntity
  8
0
370
    35
390
0
 62
     7
 48
0.01625
100
AcDbLine
 10
609.323608
 20
197.925629
 30
0.0
 11
609.323608
 21
197.275635
 31
0.0
210
0.0
220
0.0
230
1.0
  0
ARC
  5
27A
100
AcDbEntity
  8
0
370
    35
390
0
 62
     7
100
AcDbCircle
 10
608.623535
 20
197.925629
 30
0.0
 40
0.7
210
0.0
220
0.0
230
1.0
100
AcDbArc
 50
360.0
 51
90.000003
  0
LINE
  5
27B
100
AcDbEntity
  8
0
370
    35
390
0
 62
     7
 48
0.016249
100
AcDbLine
 10
607.973572
 20
198.625641
 30
0.0
 11
608.623535
 21
198.625641
 31
0.0
210
0.0
220
0.0
230
1.0
  0
LINE
  5
27C
100
AcDbEntity
  8
0
370
    35
390
0
 62
     7
 48
0.02
100
AcDbLine
 10
607.973572
 20
199.425629
 30
0.0
 11
607.973572
 21
198.625641
 31
0.0
210
0.0
220
0.0
230
1.0
  0
LINE
  5
27D
100
AcDbEntity
  8
0
370
    35
390
0
 62
     7
 48
0.016249
100
AcDbLine
 10
608.623535
 20
199.425629
 30
0.0
 11
607.973572
 21
199.425629
 31
0.0
210
0.0
220
0.0
230
1.0
  0
ARC
  5
27E
100
AcDbEntity
  8
0
370
    35
390
0
 62
     7
100
AcDbCircle
 10
608.623535
 20
200.125641
 30
0.0
 40
0.7
210
0.0
220
0.0
230
1.0
100
AcDbArc
 50
269.999997
 51
0.0
  0
LINE
  5
27F
100
AcDbEntity
  8
0
370
    35
390
0
 62
     7
 48
0.01625
100
AcDbLine
 10
609.323608
 20
200.775635
 30
0.0
 11
609.323608
 21
200.125641
 31
0.0
210
0.0
220
0.0
230
1.0
  0
LINE
  5
280
100
AcDbEntity
  8
0
370
    35
390
0
 62
     7
 48
0.019998
100
AcDbLine
 10
610.123535
 20
200.775635
 30
0.0
 11
609.323608
 21
200.775635
 31
0.0
210
0.0
220
0.0
230
1.0
  0
LINE
  5
281
100
AcDbEntity
  8
0
370
    35
390
0
 62
     7
 48
0.01625
100
AcDbLine
 10
710.123596
 20
200.125641
 30
0.0
 11
710.123596
 21
200.775635
 31
0.0
210
0.0
220
0.0
230
1.0
  0
ARC
  5
282
100
AcDbEntity
  8
0
370
    35
390
0
 62
     7
100
AcDbCircle
 10
710.823547
 20
200.125641
 30
0.0
 40
0.7
210
0.0
220
0.0
230
1.0
100
AcDbArc
 50
180.000005
 51
269.999997
  0
LINE
  5
283
100
AcDbEntity
  8
0
370
    35
390
0
 62
     7
 48
0.016251
100
AcDbLine
 10
711.473572
 20
199.425629
 30
0.0
 11
710.823547
 21
199.425629
 31
0.0
210
0.0
220
0.0
230
1.0
  0
LINE
  5
284
100
AcDbEntity
  8
0
370
    35
390
0
 62
     7
 48
0.02
100
AcDbLine
 10
711.473572
 20
198.625641
 30
0.0
 11
711.473572
 21
199.425629
 31
0.0
210
0.0
220
0.0
230
1.0
  0
LINE
  5
285
100
AcDbEntity
  8
0
370
    35
390
0
 62
     7
 48
0.016251
100
AcDbLine
 10
710.823547
 20
198.625641
 30
0.0
 11
711.473572
 21
198.625641
 31
0.0
210
0.0
220
0.0
230
1.0
  0
ARC
  5
286
100
AcDbEntity
  8
0
370
    35
390
0
 62
     7
100
AcDbCircle
 10
710.823547
 20
197.925629
 30
0.0
 40
0.7
210
0.0
220
0.0
230
1.0
100
AcDbArc
 50
90.000003
 51
179.999995
  0
LINE
  5
287
100
AcDbEntity
  8
0
370
    35
390
0
 62
     7
 48
0.01625
100
AcDbLine
 10
710.123596
 20
197.275635
 30
0.0
 11
710.123596
 21
197.925629
 31
0.0
210
0.0
220
0.0
230
1.0
  0
LINE
  5
288
100
AcDbEntity
  8
0
370
    35
390
0
 62
     7
 48
0.020001
100
AcDbLine
 10
709.323547
 20
197.275635
 30
0.0
 11
710.123596
 21
197.275635
 31
0.0
210
0.0
220
0.0
230
1.0
  0
LINE
  5
289
100
AcDbEntity
  8
0
370
    35
390
0
 62
     7
 48
0.01625
100
AcDbLine
 10
709.323547
 20
197.925629
 30
0.0
 11
709.323547
 21
197.275635
 31
0.0
210
0.0
220
0.0
230
1.0
  0
ARC
  5
28A
100
AcDbEntity
  8
0
370
    35
390
0
 62
     7
100
AcDbCircle
 10
708.623596
 20
197.925629
 30
0.0
 40
0.7
210
0.0
220
0.0
230
1.0
100
AcDbArc
 50
360.0
 51
90.000003
  0
LINE
  5
28B
100
AcDbEntity
  8
0
370
    35
390
0
 62
     7
 48
0.016251
100
AcDbLine
 10
707.973572
 20
198.625641
 30
0.0
 11
708.623596
 21
198.625641
 31
0.0
210
0.0
220
0.0
230
1.0
  0
LINE
  5
28C
100
AcDbEntity
  8
0
370
    35
390
0
 62
     7
 48
0.02
100
AcDbLine
 10
707.973572
 20
199.425629
 30
0.0
 11
707.973572
 21
198.625641
 31
0.0
210
0.0
220
0.0
230
1.0
  0
LINE
  5
28D
100
AcDbEntity
  8
0
370
    35
390
0
 62
     7
 48
0.016251
100
AcDbLine
 10
708.623596
 20
199.425629
 30
0.0
 11
707.973572
 21
199.425629
 31
0.0
210
0.0
220
0.0
230
1.0
  0
ARC
  5
28E
100
AcDbEntity
  8
0
370
    35
390
0
 62
     7
100
AcDbCircle
 10
708.623596
 20
200.125641
 30
0.0
 40
0.7
210
0.0
220
0.0
230
1.0
100
AcDbArc
 50
269.999997
 51
0.0
  0
LINE
  5
28F
100
AcDbEntity
  8
0
370
    35
390
0
 62
     7
 48
0.01625
100
AcDbLine
 10
709.323547
 20
200.775635
 30
0.0
 11
709.323547
 21
200.125641
 31
0.0
210
0.0
220
0.0
230
1.0
  0
LINE
  5
290
100
AcDbEntity
  8
0
370
    35
390
0
 62
     7
 48
0.020001
100
AcDbLine
 10
710.123596
 20
200.775635
 30
0.0
 11
709.323547
 21
200.775635
 31
0.0
210
0.0
220
0.0
230
1.0
  0
LINE
  5
291
100
AcDbEntity
  8
0
370
    35
390
0
 62
     7
 48
0.01625
100
AcDbLine
 10
810.123596
 20
200.125641
 30
0.0
 11
810.123596
 21
200.775635
 31
0.0
210
0.0
220
0.0
230
1.0
  0
ARC
  5
292
100
AcDbEntity
  8
0
370
    35
390
0
 62
     7
100
AcDbCircle
 10
810.823547
 20
200.125641
 30
0.0
 40
0.7
210
0.0
220
0.0
230
1.0
100
AcDbArc
 50
180.000005
 51
269.999997
  0
LINE
  5
293
100
AcDbEntity
  8
0
370
    35
390
0
 62
     7
 48
0.016251
100
AcDbLine
 10
811.473572
 20
199.425629
 30
0.0
 11
810.823547
 21
199.425629
 31
0.0
210
0.0
220
0.0
230
1.0
  0
LINE
  5
294
100
AcDbEntity
  8
0
370
    35
390
0
 62
     7
 48
0.02
100
AcDbLine
 10
811.473572
 20
198.625641
 30
0.0
 11
811.473572
 21
199.425629
 31
0.0
210
0.0
220
0.0
230
1.0
  0
LINE
  5
295
100
AcDbEntity
  8
0
370
    35
390
0
 62
     7
 48
0.016251
100
AcDbLine
 10
810.823547
 20
198.625641
 30
0.0
 11
811.473572
 21
198.625641
 31
0.0
210
0.0
220
0.0
230
1.0
  0
ARC
  5
296
100
AcDbEntity
  8
0
370
    35
390
0
 62
     7
100
AcDbCircle
 10
810.823547
 20
197.925629
 30
0.0
 40
0.7
210
0.0
220
0.0
230
1.0
100
AcDbArc
 50
90.000003
 51
179.999995
  0
LINE
  5
297
100
AcDbEntity
  8
0
370
    35
390
0
 62
     7
 48
0.01625
100
AcDbLine
 10
810.123596
 20
197.275635
 30
0.0
 11
810.123596
 21
197.925629
 31
0.0
210
0.0
220
0.0
230
1.0
  0
LINE
  5
298
100
AcDbEntity
  8
0
370
    35
390
0
 62
     7
 48
0.020001
100
AcDbLine
 10
809.323547
 20
197.275635
 30
0.0
 11
810.123596
 21
197.275635
 31
0.0
210
0.0
220
0.0
230
1.0
  0
LINE
  5
299
100
AcDbEntity
  8
0
370
    35
390
0
 62
     7
 48
0.01625
100
AcDbLine
 10
809.323547
 20
197.925629
 30
0.0
 11
809.323547
 21
197.275635
 31
0.0
210
0.0
220
0.0
230
1.0
  0
ARC
  5
29A
100
AcDbEntity
  8
0
370
    35
390
0
 62
     7
100
AcDbCircle
 10
808.623596
 20
197.925629
 30
0.0
 40
0.7
210
0.0
220
0.0
230
1.0
100
AcDbArc
 50
360.0
 51
90.000003
  0
LINE
  5
29B
100
AcDbEntity
  8
0
370
    35
390
0
 62
     7
 48
0.016251
100
AcDbLine
 10
807.973572
 20
198.625641
 30
0.0
 11
808.623596
 21
198.625641
 31
0.0
210
0.0
220
0.0
230
1.0
  0
LINE
  5
29C
100
AcDbEntity
  8
0
370
    35
390
0
 62
     7
 48
0.02
100
AcDbLine
 10
807.973572
 20
199.425629
 30
0.0
 11
807.973572
 21
198.625641
 31
0.0
210
0.0
220
0.0
230
1.0
  0
LINE
  5
29D
100
AcDbEntity
  8
0
370
    35
390
0
 62
     7
 48
0.016251
100
AcDbLine
 10
808.623596
 20
199.425629
 30
0.0
 11
807.973572
 21
199.425629
 31
0.0
210
0.0
220
0.0
230
1.0
  0
ARC
  5
29E
100
AcDbEntity
  8
0
370
    35
390
0
 62
     7
100
AcDbCircle
 10
808.623596
 20
200.125641
 30
0.0
 40
0.7
210
0.0
220
0.0
230
1.0
100
AcDbArc
 50
269.999997
 51
0.0
  0
LINE
  5
29F
100
AcDbEntity
  8
0
370
    35
390
0
 62
     7
 48
0.01625
100
AcDbLine
 10
809.323547
 20
200.775635
 30
0.0
 11
809.323547
 21
200.125641
 31
0.0
210
0.0
220
0.0
230
1.0
  0
LINE
  5
2A0
100
AcDbEntity
  8
0
370
    35
390
0
 62
     7
 48
0.020001
100
AcDbLine
 10
810.123596
 20
200.775635
 30
0.0
 11
809.323547
 21
200.775635
 31
0.0
210
0.0
220
0.0
230
1.0
  0
LINE
  5
2A1
100
AcDbEntity
  8
0
370
    35
390
0
 62
     7
 48
0.01625
100
AcDbLine
 10
910.123596
 20
200.125641
 30
0.0
 11
910.123596
 21
200.775635
 31
0.0
210
0.0
220
0.0
230
1.0
  0
ARC
  5
2A2
100
AcDbEntity
  8
0
370
    35
390
0
 62
     7
100
AcDbCircle
 10
910.823547
 20
200.125641
 30
0.0
 40
0.7
210
0.0
220
0.0
230
1.0
100
AcDbArc
 50
180.000005
 51
269.999997
  0
LINE
  5
2A3
100
AcDbEntity
  8
0
370
    35
390
0
 62
     7
 48
0.016251
100
AcDbLine
 10
911.473572
 20
199.425629
 30
0.0
 11
910.823547
 21
199.425629
 31
0.0
210
0.0
220
0.0
230
1.0
  0
LINE
  5
2A4
100
AcDbEntity
  8
0
370
    35
390
0
 62
     7
 48
0.02
100
AcDbLine
 10
911.473572
 20
198.625641
 30
0.0
 11
911.473572
 21
199.425629
 31
0.0
210
0.0
220
0.0
230
1.0
  0
LINE
  5
2A5
100
AcDbEntity
  8
0
370
    35
390
0
 62
     7
 48
0.016251
100
AcDbLine
 10
910.823547
 20
198.625641
 30
0.0
 11
911.473572
 21
198.625641
 31
0.0
210
0.0
220
0.0
230
1.0
  0
ARC
  5
2A6
100
AcDbEntity
  8
0
370
    35
390
0
 62
     7
100
AcDbCircle
 10
910.823547
 20
197.925629
 30
0.0
 40
0.7
210
0.0
220
0.0
230
1.0
100
AcDbArc
 50
90.000003
 51
179.999995
  0
LINE
  5
2A7
100
AcDbEntity
  8
0
370
    35
390
0
 62
     7
 48
0.01625
100
AcDbLine
 10
910.123596
 20
197.275635
 30
0.0
 11
910.123596
 21
197.925629
 31
0.0
210
0.0
220
0.0
230
1.0
  0
LINE
  5
2A8
100
AcDbEntity
  8
0
370
    35
390
0
 62
     7
 48
0.020001
100
AcDbLine
 10
909.323547
 20
197.275635
 30
0.0
 11
910.123596
 21
197.275635
 31
0.0
210
0.0
220
0.0
230
1.0
  0
LINE
  5
2A9
100
AcDbEntity
  8
0
370
    35
390
0
 62
     7
 48
0.01625
100
AcDbLine
 10
909.323547
 20
197.925629
 30
0.0
 11
909.323547
 21
197.275635
 31
0.0
210
0.0
220
0.0
230
1.0
  0
ARC
  5
2AA
100
AcDbEntity
  8
0
370
    35
390
0
 62
     7
100
AcDbCircle
 10
908.623596
 20
197.925629
 30
0.0
 40
0.7
210
0.0
220
0.0
230
1.0
100
AcDbArc
 50
360.0
 51
90.000003
  0
LINE
  5
2AB
100
AcDbEntity
  8
0
370
    35
390
0
 62
     7
 48
0.016251
100
AcDbLine
 10
907.973572
 20
198.625641
 30
0.0
 11
908.623596
 21
198.625641
 31
0.0
210
0.0
220
0.0
230
1.0
  0
LINE
  5
2AC
100
AcDbEntity
  8
0
370
    35
390
0
 62
     7
 48
0.02
100
AcDbLine
 10
907.973572
 20
199.425629
 30
0.0
 11
907.973572
 21
198.625641
 31
0.0
210
0.0
220
0.0
230
1.0
  0
LINE
  5
2AD
100
AcDbEntity
  8
0
370
    35
390
0
 62
     7
 48
0.016251
100
AcDbLine
 10
908.623596
 20
199.425629
 30
0.0
 11
907.973572
 21
199.425629
 31
0.0
210
0.0
220
0.0
230
1.0
  0
ARC
  5
2AE
100
AcDbEntity
  8
0
370
    35
390
0
 62
     7
100
AcDbCircle
 10
908.623596
 20
200.125641
 30
0.0
 40
0.7
210
0.0
220
0.0
230
1.0
100
AcDbArc
 50
269.999997
 51
0.0
  0
LINE
  5
2AF
100
AcDbEntity
  8
0
370
    35
390
0
 62
     7
 48
0.01625
100
AcDbLine
 10
909.323547
 20
200.775635
 30
0.0
 11
909.323547
 21
200.125641
 31
0.0
210
0.0
220
0.0
230
1.0
  0
LINE
  5
2B0
100
AcDbEntity
  8
0
370
    35
390
0
 62
     7
 48
0.020001
100
AcDbLine
 10
910.123596
 20
200.775635
 30
0.0
 11
909.323547
 21
200.775635
 31
0.0
210
0.0
220
0.0
230
1.0
  0
LINE
  5
2B1
100
AcDbEntity
  8
0
370
    35
390
0
 62
     7
 48
0.01625
100
AcDbLine
 10
1010.123596
 20
200.125641
 30
0.0
 11
1010.123596
 21
200.775635
 31
0.0
210
0.0
220
0.0
230
1.0
  0
ARC
  5
2B2
100
AcDbEntity
  8
0
370
    35
390
0
 62
     7
100
AcDbCircle
 10
1010.823547
 20
200.125641
 30
0.0
 40
0.7
210
0.0
220
0.0
230
1.0
100
AcDbArc
 50
180.000005
 51
269.999997
  0
LINE
  5
2B3
100
AcDbEntity
  8
0
370
    35
390
0
 62
     7
 48
0.016251
100
AcDbLine
 10
1011.473572
 20
199.425629
 30
0.0
 11
1010.823547
 21
199.425629
 31
0.0
210
0.0
220
0.0
230
1.0
  0
LINE
  5
2B4
100
AcDbEntity
  8
0
370
    35
390
0
 62
     7
 48
0.02
100
AcDbLine
 10
1011.473572
 20
198.625641
 30
0.0
 11
1011.473572
 21
199.425629
 31
0.0
210
0.0
220
0.0
230
1.0
  0
LINE
  5
2B5
100
AcDbEntity
  8
0
370
    35
390
0
 62
     7
 48
0.016251
100
AcDbLine
 10
1010.823547
 20
198.625641
 30
0.0
 11
1011.473572
 21
198.625641
 31
0.0
210
0.0
220
0.0
230
1.0
  0
ARC
  5
2B6
100
AcDbEntity
  8
0
370
    35
390
0
 62
     7
100
AcDbCircle
 10
1010.823547
 20
197.925629
 30
0.0
 40
0.7
210
0.0
220
0.0
230
1.0
100
AcDbArc
 50
90.000003
 51
179.999995
  0
LINE
  5
2B7
100
AcDbEntity
  8
0
370
    35
390
0
 62
     7
 48
0.01625
100
AcDbLine
 10
1010.123596
 20
197.275635
 30
0.0
 11
1010.123596
 21
197.925629
 31
0.0
210
0.0
220
0.0
230
1.0
  0
LINE
  5
2B8
100
AcDbEntity
  8
0
370
    35
390
0
 62
     7
 48
0.020001
100
AcDbLine
 10
1009.323547
 20
197.275635
 30
0.0
 11
1010.123596
 21
197.275635
 31
0.0
210
0.0
220
0.0
230
1.0
  0
LINE
  5
2B9
100
AcDbEntity
  8
0
370
    35
390
0
 62
     7
 48
0.01625
100
AcDbLine
 10
1009.323547
 20
197.925629
 30
0.0
 11
1009.323547
 21
197.275635
 31
0.0
210
0.0
220
0.0
230
1.0
  0
ARC
  5
2BA
100
AcDbEntity
  8
0
370
    35
390
0
 62
     7
100
AcDbCircle
 10
1008.623596
 20
197.925629
 30
0.0
 40
0.7
210
0.0
220
0.0
230
1.0
100
AcDbArc
 50
360.0
 51
90.000003
  0
LINE
  5
2BB
100
AcDbEntity
  8
0
370
    35
390
0
 62
     7
 48
0.016251
100
AcDbLine
 10
1007.973572
 20
198.625641
 30
0.0
 11
1008.623596
 21
198.625641
 31
0.0
210
0.0
220
0.0
230
1.0
  0
LINE
  5
2BC
100
AcDbEntity
  8
0
370
    35
390
0
 62
     7
 48
0.02
100
AcDbLine
 10
1007.973572
 20
199.425629
 30
0.0
 11
1007.973572
 21
198.625641
 31
0.0
210
0.0
220
0.0
230
1.0
  0
LINE
  5
2BD
100
AcDbEntity
  8
0
370
    35
390
0
 62
     7
 48
0.016251
100
AcDbLine
 10
1008.623596
 20
199.425629
 30
0.0
 11
1007.973572
 21
199.425629
 31
0.0
210
0.0
220
0.0
230
1.0
  0
ARC
  5
2BE
100
AcDbEntity
  8
0
370
    35
390
0
 62
     7
100
AcDbCircle
 10
1008.623596
 20
200.125641
 30
0.0
 40
0.7
210
0.0
220
0.0
230
1.0
100
AcDbArc
 50
269.999997
 51
0.0
  0
LINE
  5
2BF
100
AcDbEntity
  8
0
370
    35
390
0
 62
     7
 48
0.01625
100
AcDbLine
 10
1009.323547
 20
200.775635
 30
0.0
 11
1009.323547
 21
200.125641
 31
0.0
210
0.0
220
0.0
230
1.0
  0
LINE
  5
2C0
100
AcDbEntity
  8
0
370
    35
390
0
 62
     7
 48
0.020001
100
AcDbLine
 10
1010.123596
 20
200.775635
 30
0.0
 11
1009.323547
 21
200.775635
 31
0.0
210
0.0
220
0.0
230
1.0
  0
LINE
  5
2C1
100
AcDbEntity
  8
0
370
    35
390
0
 62
     7
 48
0.01625
100
AcDbLine
 10
1110.123535
 20
200.125641
 30
0.0
 11
1110.123535
 21
200.775635
 31
0.0
210
0.0
220
0.0
230
1.0
  0
ARC
  5
2C2
100
AcDbEntity
  8
0
370
    35
390
0
 62
     7
100
AcDbCircle
 10
1110.823486
 20
200.125641
 30
0.0
 40
0.7
210
0.0
220
0.0
230
1.0
100
AcDbArc
 50
180.000005
 51
269.999997
  0
LINE
  5
2C3
100
AcDbEntity
  8
0
370
    35
390
0
 62
     7
 48
0.016254
100
AcDbLine
 10
1111.473633
 20
199.425629
 30
0.0
 11
1110.823486
 21
199.425629
 31
0.0
210
0.0
220
0.0
230
1.0
  0
LINE
  5
2C4
100
AcDbEntity
  8
0
370
    35
390
0
 62
     7
 48
0.02
100
AcDbLine
 10
1111.473633
 20
198.625641
 30
0.0
 11
1111.473633
 21
199.425629
 31
0.0
210
0.0
220
0.0
230
1.0
  0
LINE
  5
2C5
100
AcDbEntity
  8
0
370
    35
390
0
 62
     7
 48
0.016254
100
AcDbLine
 10
1110.823486
 20
198.625641
 30
0.0
 11
1111.473633
 21
198.625641
 31
0.0
210
0.0
220
0.0
230
1.0
  0
ARC
  5
2C6
100
AcDbEntity
  8
0
370
    35
390
0
 62
     7
100
AcDbCircle
 10
1110.823486
 20
197.925629
 30
0.0
 40
0.7
210
0.0
220
0.0
230
1.0
100
AcDbArc
 50
90.000003
 51
179.999995
  0
LINE
  5
2C7
100
AcDbEntity
  8
0
370
    35
390
0
 62
     7
 48
0.01625
100
AcDbLine
 10
1110.123535
 20
197.275635
 30
0.0
 11
1110.123535
 21
197.925629
 31
0.0
210
0.0
220
0.0
230
1.0
  0
LINE
  5
2C8
100
AcDbEntity
  8
0
370
    35
390
0
 62
     7
 48
0.020001
100
AcDbLine
 10
1109.323486
 20
197.275635
 30
0.0
 11
1110.123535
 21
197.275635
 31
0.0
210
0.0
220
0.0
230
1.0
  0
LINE
  5
2C9
100
AcDbEntity
  8
0
370
    35
390
0
 62
     7
 48
0.01625
100
AcDbLine
 10
1109.323486
 20
197.925629
 30
0.0
 11
1109.323486
 21
197.275635
 31
0.0
210
0.0
220
0.0
230
1.0
  0
ARC
  5
2CA
100
AcDbEntity
  8
0
370
    35
390
0
 62
     7
100
AcDbCircle
 10
1108.623535
 20
197.925629
 30
0.0
 40
0.7
210
0.0
220
0.0
230
1.0
100
AcDbArc
 50
360.0
 51
90.000003
  0
LINE
  5
2CB
100
AcDbEntity
  8
0
370
    35
390
0
 62
     7
 48
0.016248
100
AcDbLine
 10
1107.973633
 20
198.625641
 30
0.0
 11
1108.623535
 21
198.625641
 31
0.0
210
0.0
220
0.0
230
1.0
  0
LINE
  5
2CC
100
AcDbEntity
  8
0
370
    35
390
0
 62
     7
 48
0.02
100
AcDbLine
 10
1107.973633
 20
199.425629
 30
0.0
 11
1107.973633
 21
198.625641
 31
0.0
210
0.0
220
0.0
230
1.0
  0
LINE
  5
2CD
100
AcDbEntity
  8
0
370
    35
390
0
 62
     7
 48
0.016248
100
AcDbLine
 10
1108.623535
 20
199.425629
 30
0.0
 11
1107.973633
 21
199.425629
 31
0.0
210
0.0
220
0.0
230
1.0
  0
ARC
  5
2CE
100
AcDbEntity
  8
0
370
    35
390
0
 62
     7
100
AcDbCircle
 10
1108.623535
 20
200.125641
 30
0.0
 40
0.7
210
0.0
220
0.0
230
1.0
100
AcDbArc
 50
269.999997
 51
0.0
  0
LINE
  5
2CF
100
AcDbEntity
  8
0
370
    35
390
0
 62
     7
 48
0.01625
100
AcDbLine
 10
1109.323486
 20
200.775635
 30
0.0
 11
1109.323486
 21
200.125641
 31
0.0
210
0.0
220
0.0
230
1.0
  0
LINE
  5
2D0
100
AcDbEntity
  8
0
370
    35
390
0
 62
     7
 48
0.020001
100
AcDbLine
 10
1110.123535
 20
200.775635
 30
0.0
 11
1109.323486
 21
200.775635
 31
0.0
210
0.0
220
0.0
230
1.0
  0
LINE
  5
2D1
100
AcDbEntity
  8
0
370
    35
390
0
 62
     7
 48
0.01625
100
AcDbLine
 10
141.123566
 20
200.125641
 30
0.0
 11
141.123566
 21
200.775635
 31
0.0
210
0.0
220
0.0
230
1.0
  0
ARC
  5
2D2
100
AcDbEntity
  8
0
370
    35
390
0
 62
     7
100
AcDbCircle
 10
141.823578
 20
200.125641
 30
0.0
 40
0.7
210
0.0
220
0.0
230
1.0
100
AcDbArc
 50
180.000005
 51
269.999997
  0
LINE
  5
2D3
100
AcDbEntity
  8
0
370
    35
390
0
 62
     7
 48
0.01625
100
AcDbLine
 10
142.473572
 20
199.425629
 30
0.0
 11
141.823578
 21
199.425629
 31
0.0
210
0.0
220
0.0
230
1.0
  0
LINE
  5
2D4
100
AcDbEntity
  8
0
370
    35
390
0
 62
     7
 48
0.02
100
AcDbLine
 10
142.473572
 20
198.625641
 30
0.0
 11
142.473572
 21
199.425629
 31
0.0
210
0.0
220
0.0
230
1.0
  0
LINE
  5
2D5
100
AcDbEntity
  8
0
370
    35
390
0
 62
     7
 48
0.01625
100
AcDbLine
 10
141.823578
 20
198.625641
 30
0.0
 11
142.473572
 21
198.625641
 31
0.0
210
0.0
220
0.0
230
1.0
  0
ARC
  5
2D6
100
AcDbEntity
  8
0
370
    35
390
0
 62
     7
100
AcDbCircle
 10
141.823578
 20
197.925629
 30
0.0
 40
0.7
210
0.0
220
0.0
230
1.0
100
AcDbArc
 50
90.000003
 51
179.999995
  0
LINE
  5
2D7
100
AcDbEntity
  8
0
370
    35
390
0
 62
     7
 48
0.01625
100
AcDbLine
 10
141.123566
 20
197.275635
 30
0.0
 11
141.123566
 21
197.925629
 31
0.0
210
0.0
220
0.0
230
1.0
  0
LINE
  5
2D8
100
AcDbEntity
  8
0
370
    35
390
0
 62
     7
 48
0.02
100
AcDbLine
 10
140.323578
 20
197.275635
 30
0.0
 11
141.123566
 21
197.275635
 31
0.0
210
0.0
220
0.0
230
1.0
  0
LINE
  5
2D9
100
AcDbEntity
  8
0
370
    35
390
0
 62
     7
 48
0.01625
100
AcDbLine
 10
140.323578
 20
197.925629
 30
0.0
 11
140.323578
 21
197.275635
 31
0.0
210
0.0
220
0.0
230
1.0
  0
ARC
  5
2DA
100
AcDbEntity
  8
0
370
    35
390
0
 62
     7
100
AcDbCircle
 10
139.623566
 20
197.925629
 30
0.0
 40
0.7
210
0.0
220
0.0
230
1.0
100
AcDbArc
 50
360.0
 51
90.000003
  0
LINE
  5
2DB
100
AcDbEntity
  8
0
370
    35
390
0
 62
     7
 48
0.01625
100
AcDbLine
 10
138.973572
 20
198.625641
 30
0.0
 11
139.623566
 21
198.625641
 31
0.0
210
0.0
220
0.0
230
1.0
  0
LINE
  5
2DC
100
AcDbEntity
  8
0
370
    35
390
0
 62
     7
 48
0.02
100
AcDbLine
 10
138.973572
 20
199.425629
 30
0.0
 11
138.973572
 21
198.625641
 31
0.0
210
0.0
220
0.0
230
1.0
  0
LINE
  5
2DD
100
AcDbEntity
  8
0
370
    35
390
0
 62
     7
 48
0.01625
100
AcDbLine
 10
139.623566
 20
199.425629
 30
0.0
 11
138.973572
 21
199.425629
 31
0.0
210
0.0
220
0.0
230
1.0
  0
ARC
  5
2DE
100
AcDbEntity
  8
0
370
    35
390
0
 62
     7
100
AcDbCircle
 10
139.623566
 20
200.125641
 30
0.0
 40
0.7
210
0.0
220
0.0
230
1.0
100
AcDbArc
 50
269.999997
 51
0.0
  0
LINE
  5
2DF
100
AcDbEntity
  8
0
370
    35
390
0
 62
     7
 48
0.01625
100
AcDbLine
 10
140.323578
 20
200.775635
 30
0.0
 11
140.323578
 21
200.125641
 31
0.0
210
0.0
220
0.0
230
1.0
  0
LINE
  5
2E0
100
AcDbEntity
  8
0
370
    35
390
0
 62
     7
 48
0.02
100
AcDbLine
 10
141.123566
 20
200.775635
 30
0.0
 11
140.323578
 21
200.775635
 31
0.0
210
0.0
220
0.0
230
1.0
  0
LINE
  5
2E1
100
AcDbEntity
  8
0
370
    35
390
0
 62
     7
 48
0.01625
100
AcDbLine
 10
1179.123535
 20
200.125641
 30
0.0
 11
1179.123535
 21
200.775635
 31
0.0
210
0.0
220
0.0
230
1.0
  0
ARC
  5
2E2
100
AcDbEntity
  8
0
370
    35
390
0
 62
     7
100
AcDbCircle
 10
1179.823486
 20
200.125641
 30
0.0
 40
0.7
210
0.0
220
0.0
230
1.0
100
AcDbArc
 50
180.000005
 51
269.999997
  0
LINE
  5
2E3
100
AcDbEntity
  8
0
370
    35
390
0
 62
     7
 48
0.016254
100
AcDbLine
 10
1180.473633
 20
199.425629
 30
0.0
 11
1179.823486
 21
199.425629
 31
0.0
210
0.0
220
0.0
230
1.0
  0
LINE
  5
2E4
100
AcDbEntity
  8
0
370
    35
390
0
 62
     7
 48
0.02
100
AcDbLine
 10
1180.473633
 20
198.625641
 30
0.0
 11
1180.473633
 21
199.425629
 31
0.0
210
0.0
220
0.0
230
1.0
  0
LINE
  5
2E5
100
AcDbEntity
  8
0
370
    35
390
0
 62
     7
 48
0.016254
100
AcDbLine
 10
1179.823486
 20
198.625641
 30
0.0
 11
1180.473633
 21
198.625641
 31
0.0
210
0.0
220
0.0
230
1.0
  0
ARC
  5
2E6
100
AcDbEntity
  8
0
370
    35
390
0
 62
     7
100
AcDbCircle
 10
1179.823486
 20
197.925629
 30
0.0
 40
0.7
210
0.0
220
0.0
230
1.0
100
AcDbArc
 50
90.000003
 51
179.999995
  0
LINE
  5
2E7
100
AcDbEntity
  8
0
370
    35
390
0
 62
     7
 48
0.01625
100
AcDbLine
 10
1179.123535
 20
197.275635
 30
0.0
 11
1179.123535
 21
197.925629
 31
0.0
210
0.0
220
0.0
230
1.0
  0
LINE
  5
2E8
100
AcDbEntity
  8
0
370
    35
390
0
 62
     7
 48
0.020001
100
AcDbLine
 10
1178.323486
 20
197.275635
 30
0.0
 11
1179.123535
 21
197.275635
 31
0.0
210
0.0
220
0.0
230
1.0
  0
LINE
  5
2E9
100
AcDbEntity
  8
0
370
    35
390
0
 62
     7
 48
0.01625
100
AcDbLine
 10
1178.323486
 20
197.925629
 30
0.0
 11
1178.323486
 21
197.275635
 31
0.0
210
0.0
220
0.0
230
1.0
  0
ARC
  5
2EA
100
AcDbEntity
  8
0
370
    35
390
0
 62
     7
100
AcDbCircle
 10
1177.623535
 20
197.925629
 30
0.0
 40
0.7
210
0.0
220
0.0
230
1.0
100
AcDbArc
 50
360.0
 51
90.000003
  0
LINE
  5
2EB
100
AcDbEntity
  8
0
370
    35
390
0
 62
     7
 48
0.016248
100
AcDbLine
 10
1176.973633
 20
198.625641
 30
0.0
 11
1177.623535
 21
198.625641
 31
0.0
210
0.0
220
0.0
230
1.0
  0
LINE
  5
2EC
100
AcDbEntity
  8
0
370
    35
390
0
 62
     7
 48
0.02
100
AcDbLine
 10
1176.973633
 20
199.425629
 30
0.0
 11
1176.973633
 21
198.625641
 31
0.0
210
0.0
220
0.0
230
1.0
  0
LINE
  5
2ED
100
AcDbEntity
  8
0
370
    35
390
0
 62
     7
 48
0.016248
100
AcDbLine
 10
1177.623535
 20
199.425629
 30
0.0
 11
1176.973633
 21
199.425629
 31
0.0
210
0.0
220
0.0
230
1.0
  0
ARC
  5
2EE
100
AcDbEntity
  8
0
370
    35
390
0
 62
     7
100
AcDbCircle
 10
1177.623535
 20
200.125641
 30
0.0
 40
0.7
210
0.0
220
0.0
230
1.0
100
AcDbArc
 50
269.999997
 51
0.0
  0
LINE
  5
2EF
100
AcDbEntity
  8
0
370
    35
390
0
 62
     7
 48
0.01625
100
AcDbLine
 10
1178.323486
 20
200.775635
 30
0.0
 11
1178.323486
 21
200.125641
 31
0.0
210
0.0
220
0.0
230
1.0
  0
LINE
  5
2F0
100
AcDbEntity
  8
0
370
    35
390
0
 62
     7
 48
0.020001
100
AcDbLine
 10
1179.123535
 20
200.775635
 30
0.0
 11
1178.323486
 21
200.775635
 31
0.0
210
0.0
220
0.0
230
1.0
  0
LINE
  5
2F1
100
AcDbEntity
  8
0
370
    35
390
0
 62
     7
 48
0.01625
100
AcDbLine
 10
410.123566
 20
200.125641
 30
0.0
 11
410.123566
 21
200.775635
 31
0.0
210
0.0
220
0.0
230
1.0
  0
ARC
  5
2F2
100
AcDbEntity
  8
0
370
    35
390
0
 62
     7
100
AcDbCircle
 10
410.823578
 20
200.125641
 30
0.0
 40
0.7
210
0.0
220
0.0
230
1.0
100
AcDbArc
 50
180.000005
 51
269.999997
  0
LINE
  5
2F3
100
AcDbEntity
  8
0
370
    35
390
0
 62
     7
 48
0.01625
100
AcDbLine
 10
411.473572
 20
199.425629
 30
0.0
 11
410.823578
 21
199.425629
 31
0.0
210
0.0
220
0.0
230
1.0
  0
LINE
  5
2F4
100
AcDbEntity
  8
0
370
    35
390
0
 62
     7
 48
0.02
100
AcDbLine
 10
411.473572
 20
198.625641
 30
0.0
 11
411.473572
 21
199.425629
 31
0.0
210
0.0
220
0.0
230
1.0
  0
LINE
  5
2F5
100
AcDbEntity
  8
0
370
    35
390
0
 62
     7
 48
0.01625
100
AcDbLine
 10
410.823578
 20
198.625641
 30
0.0
 11
411.473572
 21
198.625641
 31
0.0
210
0.0
220
0.0
230
1.0
  0
ARC
  5
2F6
100
AcDbEntity
  8
0
370
    35
390
0
 62
     7
100
AcDbCircle
 10
410.823578
 20
197.925629
 30
0.0
 40
0.7
210
0.0
220
0.0
230
1.0
100
AcDbArc
 50
90.000003
 51
179.999995
  0
LINE
  5
2F7
100
AcDbEntity
  8
0
370
    35
390
0
 62
     7
 48
0.01625
100
AcDbLine
 10
410.123566
 20
197.275635
 30
0.0
 11
410.123566
 21
197.925629
 31
0.0
210
0.0
220
0.0
230
1.0
  0
LINE
  5
2F8
100
AcDbEntity
  8
0
370
    35
390
0
 62
     7
 48
0.02
100
AcDbLine
 10
409.323578
 20
197.275635
 30
0.0
 11
410.123566
 21
197.275635
 31
0.0
210
0.0
220
0.0
230
1.0
  0
LINE
  5
2F9
100
AcDbEntity
  8
0
370
    35
390
0
 62
     7
 48
0.01625
100
AcDbLine
 10
409.323578
 20
197.925629
 30
0.0
 11
409.323578
 21
197.275635
 31
0.0
210
0.0
220
0.0
230
1.0
  0
ARC
  5
2FA
100
AcDbEntity
  8
0
370
    35
390
0
 62
     7
100
AcDbCircle
 10
408.623566
 20
197.925629
 30
0.0
 40
0.7
210
0.0
220
0.0
230
1.0
100
AcDbArc
 50
360.0
 51
90.000003
  0
LINE
  5
2FB
100
AcDbEntity
  8
0
370
    35
390
0
 62
     7
 48
0.01625
100
AcDbLine
 10
407.973572
 20
198.625641
 30
0.0
 11
408.623566
 21
198.625641
 31
0.0
210
0.0
220
0.0
230
1.0
  0
LINE
  5
2FC
100
AcDbEntity
  8
0
370
    35
390
0
 62
     7
 48
0.02
100
AcDbLine
 10
407.973572
 20
199.425629
 30
0.0
 11
407.973572
 21
198.625641
 31
0.0
210
0.0
220
0.0
230
1.0
  0
LINE
  5
2FD
100
AcDbEntity
  8
0
370
    35
390
0
 62
     7
 48
0.01625
100
AcDbLine
 10
408.623566
 20
199.425629
 30
0.0
 11
407.973572
 21
199.425629
 31
0.0
210
0.0
220
0.0
230
1.0
  0
ARC
  5
2FE
100
AcDbEntity
  8
0
370
    35
390
0
 62
     7
100
AcDbCircle
 10
408.623566
 20
200.125641
 30
0.0
 40
0.7
210
0.0
220
0.0
230
1.0
100
AcDbArc
 50
269.999997
 51
0.0
  0
LINE
  5
2FF
100
AcDbEntity
  8
0
370
    35
390
0
 62
     7
 48
0.01625
100
AcDbLine
 10
409.323578
 20
200.775635
 30
0.0
 11
409.323578
 21
200.125641
 31
0.0
210
0.0
220
0.0
230
1.0
  0
LINE
  5
300
100
AcDbEntity
  8
0
370
    35
390
0
 62
     7
 48
0.02
100
AcDbLine
 10
410.123566
 20
200.775635
 30
0.0
 11
409.323578
 21
200.775635
 31
0.0
210
0.0
220
0.0
230
1.0
  0
LINE
  5
301
100
AcDbEntity
  8
0
370
    35
390
0
 62
     7
 48
0.01625
100
AcDbLine
 10
310.123566
 20
200.125641
 30
0.0
 11
310.123566
 21
200.775635
 31
0.0
210
0.0
220
0.0
230
1.0
  0
ARC
  5
302
100
AcDbEntity
  8
0
370
    35
390
0
 62
     7
100
AcDbCircle
 10
310.823578
 20
200.125641
 30
0.0
 40
0.7
210
0.0
220
0.0
230
1.0
100
AcDbArc
 50
180.000005
 51
269.999997
  0
LINE
  5
303
100
AcDbEntity
  8
0
370
    35
390
0
 62
     7
 48
0.01625
100
AcDbLine
 10
311.473572
 20
199.425629
 30
0.0
 11
310.823578
 21
199.425629
 31
0.0
210
0.0
220
0.0
230
1.0
  0
LINE
  5
304
100
AcDbEntity
  8
0
370
    35
390
0
 62
     7
 48
0.02
100
AcDbLine
 10
311.473572
 20
198.625641
 30
0.0
 11
311.473572
 21
199.425629
 31
0.0
210
0.0
220
0.0
230
1.0
  0
LINE
  5
305
100
AcDbEntity
  8
0
370
    35
390
0
 62
     7
 48
0.01625
100
AcDbLine
 10
310.823578
 20
198.625641
 30
0.0
 11
311.473572
 21
198.625641
 31
0.0
210
0.0
220
0.0
230
1.0
  0
ARC
  5
306
100
AcDbEntity
  8
0
370
    35
390
0
 62
     7
100
AcDbCircle
 10
310.823578
 20
197.925629
 30
0.0
 40
0.7
210
0.0
220
0.0
230
1.0
100
AcDbArc
 50
90.000003
 51
179.999995
  0
LINE
  5
307
100
AcDbEntity
  8
0
370
    35
390
0
 62
     7
 48
0.01625
100
AcDbLine
 10
310.123566
 20
197.275635
 30
0.0
 11
310.123566
 21
197.925629
 31
0.0
210
0.0
220
0.0
230
1.0
  0
LINE
  5
308
100
AcDbEntity
  8
0
370
    35
390
0
 62
     7
 48
0.02
100
AcDbLine
 10
309.323578
 20
197.275635
 30
0.0
 11
310.123566
 21
197.275635
 31
0.0
210
0.0
220
0.0
230
1.0
  0
LINE
  5
309
100
AcDbEntity
  8
0
370
    35
390
0
 62
     7
 48
0.01625
100
AcDbLine
 10
309.323578
 20
197.925629
 30
0.0
 11
309.323578
 21
197.275635
 31
0.0
210
0.0
220
0.0
230
1.0
  0
ARC
  5
30A
100
AcDbEntity
  8
0
370
    35
390
0
 62
     7
100
AcDbCircle
 10
308.623566
 20
197.925629
 30
0.0
 40
0.7
210
0.0
220
0.0
230
1.0
100
AcDbArc
 50
360.0
 51
90.000003
  0
LINE
  5
30B
100
AcDbEntity
  8
0
370
    35
390
0
 62
     7
 48
0.01625
100
AcDbLine
 10
307.973572
 20
198.625641
 30
0.0
 11
308.623566
 21
198.625641
 31
0.0
210
0.0
220
0.0
230
1.0
  0
LINE
  5
30C
100
AcDbEntity
  8
0
370
    35
390
0
 62
     7
 48
0.02
100
AcDbLine
 10
307.973572
 20
199.425629
 30
0.0
 11
307.973572
 21
198.625641
 31
0.0
210
0.0
220
0.0
230
1.0
  0
LINE
  5
30D
100
AcDbEntity
  8
0
370
    35
390
0
 62
     7
 48
0.01625
100
AcDbLine
 10
308.623566
 20
199.425629
 30
0.0
 11
307.973572
 21
199.425629
 31
0.0
210
0.0
220
0.0
230
1.0
  0
ARC
  5
30E
100
AcDbEntity
  8
0
370
    35
390
0
 62
     7
100
AcDbCircle
 10
308.623566
 20
200.125641
 30
0.0
 40
0.7
210
0.0
220
0.0
230
1.0
100
AcDbArc
 50
269.999997
 51
0.0
  0
LINE
  5
30F
100
AcDbEntity
  8
0
370
    35
390
0
 62
     7
 48
0.01625
100
AcDbLine
 10
309.323578
 20
200.775635
 30
0.0
 11
309.323578
 21
200.125641
 31
0.0
210
0.0
220
0.0
230
1.0
  0
LINE
  5
310
100
AcDbEntity
  8
0
370
    35
390
0
 62
     7
 48
0.02
100
AcDbLine
 10
310.123566
 20
200.775635
 30
0.0
 11
309.323578
 21
200.775635
 31
0.0
210
0.0
220
0.0
230
1.0
  0
LINE
  5
311
100
AcDbEntity
  8
0
370
    35
390
0
 62
     7
 48
0.01625
100
AcDbLine
 10
210.123566
 20
200.125641
 30
0.0
 11
210.123566
 21
200.775635
 31
0.0
210
0.0
220
0.0
230
1.0
  0
ARC
  5
312
100
AcDbEntity
  8
0
370
    35
390
0
 62
     7
100
AcDbCircle
 10
210.823578
 20
200.125641
 30
0.0
 40
0.7
210
0.0
220
0.0
230
1.0
100
AcDbArc
 50
180.000005
 51
269.999997
  0
LINE
  5
313
100
AcDbEntity
  8
0
370
    35
390
0
 62
     7
 48
0.01625
100
AcDbLine
 10
211.473572
 20
199.425629
 30
0.0
 11
210.823578
 21
199.425629
 31
0.0
210
0.0
220
0.0
230
1.0
  0
LINE
  5
314
100
AcDbEntity
  8
0
370
    35
390
0
 62
     7
 48
0.02
100
AcDbLine
 10
211.473572
 20
198.625641
 30
0.0
 11
211.473572
 21
199.425629
 31
0.0
210
0.0
220
0.0
230
1.0
  0
LINE
  5
315
100
AcDbEntity
  8
0
370
    35
390
0
 62
     7
 48
0.01625
100
AcDbLine
 10
210.823578
 20
198.625641
 30
0.0
 11
211.473572
 21
198.625641
 31
0.0
210
0.0
220
0.0
230
1.0
  0
ARC
  5
316
100
AcDbEntity
  8
0
370
    35
390
0
 62
     7
100
AcDbCircle
 10
210.823578
 20
197.925629
 30
0.0
 40
0.7
210
0.0
220
0.0
230
1.0
100
AcDbArc
 50
90.000003
 51
179.999995
  0
LINE
  5
317
100
AcDbEntity
  8
0
370
    35
390
0
 62
     7
 48
0.01625
100
AcDbLine
 10
210.123566
 20
197.275635
 30
0.0
 11
210.123566
 21
197.925629
 31
0.0
210
0.0
220
0.0
230
1.0
  0
LINE
  5
318
100
AcDbEntity
  8
0
370
    35
390
0
 62
     7
 48
0.02
100
AcDbLine
 10
209.323578
 20
197.275635
 30
0.0
 11
210.123566
 21
197.275635
 31
0.0
210
0.0
220
0.0
230
1.0
  0
LINE
  5
319
100
AcDbEntity
  8
0
370
    35
390
0
 62
     7
 48
0.01625
100
AcDbLine
 10
209.323578
 20
197.925629
 30
0.0
 11
209.323578
 21
197.275635
 31
0.0
210
0.0
220
0.0
230
1.0
  0
ARC
  5
31A
100
AcDbEntity
  8
0
370
    35
390
0
 62
     7
100
AcDbCircle
 10
208.623566
 20
197.925629
 30
0.0
 40
0.7
210
0.0
220
0.0
230
1.0
100
AcDbArc
 50
360.0
 51
90.000003
  0
LINE
  5
31B
100
AcDbEntity
  8
0
370
    35
390
0
 62
     7
 48
0.01625
100
AcDbLine
 10
207.973572
 20
198.625641
 30
0.0
 11
208.623566
 21
198.625641
 31
0.0
210
0.0
220
0.0
230
1.0
  0
LINE
  5
31C
100
AcDbEntity
  8
0
370
    35
390
0
 62
     7
 48
0.02
100
AcDbLine
 10
207.973572
 20
199.425629
 30
0.0
 11
207.973572
 21
198.625641
 31
0.0
210
0.0
220
0.0
230
1.0
  0
LINE
  5
31D
100
AcDbEntity
  8
0
370
    35
390
0
 62
     7
 48
0.01625
100
AcDbLine
 10
208.623566
 20
199.425629
 30
0.0
 11
207.973572
 21
199.425629
 31
0.0
210
0.0
220
0.0
230
1.0
  0
ARC
  5
31E
100
AcDbEntity
  8
0
370
    35
390
0
 62
     7
100
AcDbCircle
 10
208.623566
 20
200.125641
 30
0.0
 40
0.7
210
0.0
220
0.0
230
1.0
100
AcDbArc
 50
269.999997
 51
0.0
  0
LINE
  5
31F
100
AcDbEntity
  8
0
370
    35
390
0
 62
     7
 48
0.01625
100
AcDbLine
 10
209.323578
 20
200.775635
 30
0.0
 11
209.323578
 21
200.125641
 31
0.0
210
0.0
220
0.0
230
1.0
  0
LINE
  5
320
100
AcDbEntity
  8
0
370
    35
390
0
 62
     7
 48
0.02
100
AcDbLine
 10
210.123566
 20
200.775635
 30
0.0
 11
209.323578
 21
200.775635
 31
0.0
210
0.0
220
0.0
230
1.0
  0
LINE
  5
321
100
AcDbEntity
  8
0
370
    35
390
0
 62
     7
 48
0.004999
100
AcDbLine
 10
1199.223633
 20
176.375641
 30
0.0
 11
1199.023682
 21
176.375641
 31
0.0
210
0.0
220
0.0
230
1.0
  0
LINE
  5
322
100
AcDbEntity
  8
0
370
    35
390
0
 62
     7
 48
0.0725
100
AcDbLine
 10
1199.223633
 20
173.475632
 30
0.0
 11
1199.223633
 21
176.375641
 31
0.0
210
0.0
220
0.0
230
1.0
  0
LINE
  5
323
100
AcDbEntity
  8
0
370
    35
390
0
 62
     7
 48
0.004999
100
AcDbLine
 10
1199.223633
 20
177.675629
 30
0.0
 11
1199.023682
 21
177.675629
 31
0.0
210
0.0
220
0.0
230
1.0
  0
LINE
  5
324
100
AcDbEntity
  8
0
370
    35
390
0
 62
     7
 48
0.024849
100
AcDbLine
 10
1199.223633
 20
177.675629
 30
0.0
 11
1199.223633
 21
178.669601
 31
0.0
210
0.0
220
0.0
230
1.0
  0
LINE
  5
325
100
AcDbEntity
  8
0
370
    35
390
0
 62
     7
 48
0.047651
100
AcDbLine
 10
1199.223633
 20
178.669601
 30
0.0
 11
1199.223633
 21
180.575638
 31
0.0
210
0.0
220
0.0
230
1.0
  0
LINE
  5
326
100
AcDbEntity
  8
0
370
    35
390
0
 62
     7
 48
0.02
100
AcDbLine
 10
120.723564
 20
176.375641
 30
0.0
 11
119.923569
 21
176.375641
 31
0.0
210
0.0
220
0.0
230
1.0
  0
LINE
  5
327
100
AcDbEntity
  8
0
370
    35
390
0
 62
     7
 48
0.0775
100
AcDbLine
 10
119.923569
 20
176.375641
 30
0.0
 11
119.923569
 21
173.275635
 31
0.0
210
0.0
220
0.0
230
1.0
  0
LINE
  5
328
100
AcDbEntity
  8
0
370
    35
390
0
 62
     7
 48
0.0775
100
AcDbLine
 10
119.923569
 20
180.775635
 30
0.0
 11
119.923569
 21
177.675629
 31
0.0
210
0.0
220
0.0
230
1.0
  0
LINE
  5
329
100
AcDbEntity
  8
0
370
    35
390
0
 62
     7
 48
0.02
100
AcDbLine
 10
120.723564
 20
177.675629
 30
0.0
 11
119.923569
 21
177.675629
 31
0.0
210
0.0
220
0.0
230
1.0
  0
LINE
  5
32A
100
AcDbEntity
  8
0
370
    35
390
0
 62
     7
 48
0.024689
100
AcDbLine
 10
509.229797
 20
199.775635
 30
0.0
 11
510.217346
 21
199.775635
 31
0.0
210
0.0
220
0.0
230
1.0
  0
LINE
  5
32B
100
AcDbEntity
  8
0
370
    35
390
0
 62
     7
 48
0.024689
100
AcDbLine
 10
510.473572
 20
199.519409
 30
0.0
 11
510.473572
 21
198.53186
 31
0.0
210
0.0
220
0.0
230
1.0
  0
LINE
  5
32C
100
AcDbEntity
  8
0
370
    35
390
0
 62
     7
 48
0.024689
100
AcDbLine
 10
508.973572
 20
198.53186
 30
0.0
 11
508.973572
 21
199.519409
 31
0.0
210
0.0
220
0.0
230
1.0
  0
LINE
  5
32D
100
AcDbEntity
  8
0
370
    35
390
0
 62
     7
 48
0.024689
100
AcDbLine
 10
510.217346
 20
198.275635
 30
0.0
 11
509.229797
 21
198.275635
 31
0.0
210
0.0
220
0.0
230
1.0
  0
LINE
  5
32E
100
AcDbEntity
  8
0
370
    35
390
0
 62
     7
 48
0.024689
100
AcDbLine
 10
609.229797
 20
199.775635
 30
0.0
 11
610.217346
 21
199.775635
 31
0.0
210
0.0
220
0.0
230
1.0
  0
LINE
  5
32F
100
AcDbEntity
  8
0
370
    35
390
0
 62
     7
 48
0.024689
100
AcDbLine
 10
610.473572
 20
199.519409
 30
0.0
 11
610.473572
 21
198.53186
 31
0.0
210
0.0
220
0.0
230
1.0
  0
LINE
  5
330
100
AcDbEntity
  8
0
370
    35
390
0
 62
     7
 48
0.024689
100
AcDbLine
 10
608.973572
 20
198.53186
 30
0.0
 11
608.973572
 21
199.519409
 31
0.0
210
0.0
220
0.0
230
1.0
  0
LINE
  5
331
100
AcDbEntity
  8
0
370
    35
390
0
 62
     7
 48
0.024689
100
AcDbLine
 10
610.217346
 20
198.275635
 30
0.0
 11
609.229797
 21
198.275635
 31
0.0
210
0.0
220
0.0
230
1.0
  0
LINE
  5
332
100
AcDbEntity
  8
0
370
    35
390
0
 62
     7
 48
0.024689
100
AcDbLine
 10
709.229797
 20
199.775635
 30
0.0
 11
710.217346
 21
199.775635
 31
0.0
210
0.0
220
0.0
230
1.0
  0
LINE
  5
333
100
AcDbEntity
  8
0
370
    35
390
0
 62
     7
 48
0.024689
100
AcDbLine
 10
710.473572
 20
199.519409
 30
0.0
 11
710.473572
 21
198.53186
 31
0.0
210
0.0
220
0.0
230
1.0
  0
LINE
  5
334
100
AcDbEntity
  8
0
370
    35
390
0
 62
     7
 48
0.024689
100
AcDbLine
 10
708.973572
 20
198.53186
 30
0.0
 11
708.973572
 21
199.519409
 31
0.0
210
0.0
220
0.0
230
1.0
  0
LINE
  5
335
100
AcDbEntity
  8
0
370
    35
390
0
 62
     7
 48
0.024689
100
AcDbLine
 10
710.217346
 20
198.275635
 30
0.0
 11
709.229797
 21
198.275635
 31
0.0
210
0.0
220
0.0
230
1.0
  0
LINE
  5
336
100
AcDbEntity
  8
0
370
    35
390
0
 62
     7
 48
0.024689
100
AcDbLine
 10
809.229797
 20
199.775635
 30
0.0
 11
810.217346
 21
199.775635
 31
0.0
210
0.0
220
0.0
230
1.0
  0
LINE
  5
337
100
AcDbEntity
  8
0
370
    35
390
0
 62
     7
 48
0.024689
100
AcDbLine
 10
810.473572
 20
199.519409
 30
0.0
 11
810.473572
 21
198.53186
 31
0.0
210
0.0
220
0.0
230
1.0
  0
LINE
  5
338
100
AcDbEntity
  8
0
370
    35
390
0
 62
     7
 48
0.024689
100
AcDbLine
 10
808.973572
 20
198.53186
 30
0.0
 11
808.973572
 21
199.519409
 31
0.0
210
0.0
220
0.0
230
1.0
  0
LINE
  5
339
100
AcDbEntity
  8
0
370
    35
390
0
 62
     7
 48
0.024689
100
AcDbLine
 10
810.217346
 20
198.275635
 30
0.0
 11
809.229797
 21
198.275635
 31
0.0
210
0.0
220
0.0
230
1.0
  0
LINE
  5
33A
100
AcDbEntity
  8
0
370
    35
390
0
 62
     7
 48
0.024689
100
AcDbLine
 10
909.229797
 20
199.775635
 30
0.0
 11
910.217346
 21
199.775635
 31
0.0
210
0.0
220
0.0
230
1.0
  0
LINE
  5
33B
100
AcDbEntity
  8
0
370
    35
390
0
 62
     7
 48
0.024689
100
AcDbLine
 10
910.473572
 20
199.519409
 30
0.0
 11
910.473572
 21
198.53186
 31
0.0
210
0.0
220
0.0
230
1.0
  0
LINE
  5
33C
100
AcDbEntity
  8
0
370
    35
390
0
 62
     7
 48
0.024689
100
AcDbLine
 10
908.973572
 20
198.53186
 30
0.0
 11
908.973572
 21
199.519409
 31
0.0
210
0.0
220
0.0
230
1.0
  0
LINE
  5
33D
100
AcDbEntity
  8
0
370
    35
390
0
 62
     7
 48
0.024689
100
AcDbLine
 10
910.217346
 20
198.275635
 30
0.0
 11
909.229797
 21
198.275635
 31
0.0
210
0.0
220
0.0
230
1.0
  0
LINE
  5
33E
100
AcDbEntity
  8
0
370
    35
390
0
 62
     7
 48
0.024689
100
AcDbLine
 10
1009.229797
 20
199.775635
 30
0.0
 11
1010.217346
 21
199.775635
 31
0.0
210
0.0
220
0.0
230
1.0
  0
LINE
  5
33F
100
AcDbEntity
  8
0
370
    35
390
0
 62
     7
 48
0.024689
100
AcDbLine
 10
1010.473572
 20
199.519409
 30
0.0
 11
1010.473572
 21
198.53186
 31
0.0
210
0.0
220
0.0
230
1.0
  0
LINE
  5
340
100
AcDbEntity
  8
0
370
    35
390
0
 62
     7
 48
0.024689
100
AcDbLine
 10
1008.973572
 20
198.53186
 30
0.0
 11
1008.973572
 21
199.519409
 31
0.0
210
0.0
220
0.0
230
1.0
  0
LINE
  5
341
100
AcDbEntity
  8
0
370
    35
390
0
 62
     7
 48
0.024689
100
AcDbLine
 10
1010.217346
 20
198.275635
 30
0.0
 11
1009.229797
 21
198.275635
 31
0.0
210
0.0
220
0.0
230
1.0
  0
LINE
  5
342
100
AcDbEntity
  8
0
370
    35
390
0
 62
     7
 48
0.024689
100
AcDbLine
 10
1109.229736
 20
199.775635
 30
0.0
 11
1110.217285
 21
199.775635
 31
0.0
210
0.0
220
0.0
230
1.0
  0
LINE
  5
343
100
AcDbEntity
  8
0
370
    35
390
0
 62
     7
 48
0.024689
100
AcDbLine
 10
1110.473633
 20
199.519409
 30
0.0
 11
1110.473633
 21
198.53186
 31
0.0
210
0.0
220
0.0
230
1.0
  0
LINE
  5
344
100
AcDbEntity
  8
0
370
    35
390
0
 62
     7
 48
0.024689
100
AcDbLine
 10
1108.973633
 20
198.53186
 30
0.0
 11
1108.973633
 21
199.519409
 31
0.0
210
0.0
220
0.0
230
1.0
  0
LINE
  5
345
100
AcDbEntity
  8
0
370
    35
390
0
 62
     7
 48
0.024689
100
AcDbLine
 10
1110.217285
 20
198.275635
 30
0.0
 11
1109.229736
 21
198.275635
 31
0.0
210
0.0
220
0.0
230
1.0
  0
LINE
  5
346
100
AcDbEntity
  8
0
370
    35
390
0
 62
     7
 48
0.024689
100
AcDbLine
 10
140.229797
 20
199.775635
 30
0.0
 11
141.217346
 21
199.775635
 31
0.0
210
0.0
220
0.0
230
1.0
  0
LINE
  5
347
100
AcDbEntity
  8
0
370
    35
390
0
 62
     7
 48
0.024689
100
AcDbLine
 10
141.473572
 20
199.519409
 30
0.0
 11
141.473572
 21
198.53186
 31
0.0
210
0.0
220
0.0
230
1.0
  0
LINE
  5
348
100
AcDbEntity
  8
0
370
    35
390
0
 62
     7
 48
0.024689
100
AcDbLine
 10
139.973572
 20
198.53186
 30
0.0
 11
139.973572
 21
199.519409
 31
0.0
210
0.0
220
0.0
230
1.0
  0
LINE
  5
349
100
AcDbEntity
  8
0
370
    35
390
0
 62
     7
 48
0.024689
100
AcDbLine
 10
141.217346
 20
198.275635
 30
0.0
 11
140.229797
 21
198.275635
 31
0.0
210
0.0
220
0.0
230
1.0
  0
LINE
  5
34A
100
AcDbEntity
  8
0
370
    35
390
0
 62
     7
 48
0.024689
100
AcDbLine
 10
1178.229736
 20
199.775635
 30
0.0
 11
1179.217285
 21
199.775635
 31
0.0
210
0.0
220
0.0
230
1.0
  0
LINE
  5
34B
100
AcDbEntity
  8
0
370
    35
390
0
 62
     7
 48
0.024689
100
AcDbLine
 10
1179.473633
 20
199.519409
 30
0.0
 11
1179.473633
 21
198.53186
 31
0.0
210
0.0
220
0.0
230
1.0
  0
LINE
  5
34C
100
AcDbEntity
  8
0
370
    35
390
0
 62
     7
 48
0.024689
100
AcDbLine
 10
1177.973633
 20
198.53186
 30
0.0
 11
1177.973633
 21
199.519409
 31
0.0
210
0.0
220
0.0
230
1.0
  0
LINE
  5
34D
100
AcDbEntity
  8
0
370
    35
390
0
 62
     7
 48
0.024689
100
AcDbLine
 10
1179.217285
 20
198.275635
 30
0.0
 11
1178.229736
 21
198.275635
 31
0.0
210
0.0
220
0.0
230
1.0
  0
LINE
  5
34E
100
AcDbEntity
  8
0
370
    35
390
0
 62
     7
 48
0.024689
100
AcDbLine
 10
409.229797
 20
199.775635
 30
0.0
 11
410.217346
 21
199.775635
 31
0.0
210
0.0
220
0.0
230
1.0
  0
LINE
  5
34F
100
AcDbEntity
  8
0
370
    35
390
0
 62
     7
 48
0.024689
100
AcDbLine
 10
410.473572
 20
199.519409
 30
0.0
 11
410.473572
 21
198.53186
 31
0.0
210
0.0
220
0.0
230
1.0
  0
LINE
  5
350
100
AcDbEntity
  8
0
370
    35
390
0
 62
     7
 48
0.024689
100
AcDbLine
 10
408.973572
 20
198.53186
 30
0.0
 11
408.973572
 21
199.519409
 31
0.0
210
0.0
220
0.0
230
1.0
  0
LINE
  5
351
100
AcDbEntity
  8
0
370
    35
390
0
 62
     7
 48
0.024689
100
AcDbLine
 10
410.217346
 20
198.275635
 30
0.0
 11
409.229797
 21
198.275635
 31
0.0
210
0.0
220
0.0
230
1.0
  0
LINE
  5
352
100
AcDbEntity
  8
0
370
    35
390
0
 62
     7
 48
0.024689
100
AcDbLine
 10
309.229797
 20
199.775635
 30
0.0
 11
310.217346
 21
199.775635
 31
0.0
210
0.0
220
0.0
230
1.0
  0
LINE
  5
353
100
AcDbEntity
  8
0
370
    35
390
0
 62
     7
 48
0.024689
100
AcDbLine
 10
310.473572
 20
199.519409
 30
0.0
 11
310.473572
 21
198.53186
 31
0.0
210
0.0
220
0.0
230
1.0
  0
LINE
  5
354
100
AcDbEntity
  8
0
370
    35
390
0
 62
     7
 48
0.024689
100
AcDbLine
 10
308.973572
 20
198.53186
 30
0.0
 11
308.973572
 21
199.519409
 31
0.0
210
0.0
220
0.0
230
1.0
  0
LINE
  5
355
100
AcDbEntity
  8
0
370
    35
390
0
 62
     7
 48
0.024689
100
AcDbLine
 10
310.217346
 20
198.275635
 30
0.0
 11
309.229797
 21
198.275635
 31
0.0
210
0.0
220
0.0
230
1.0
  0
LINE
  5
356
100
AcDbEntity
  8
0
370
    35
390
0
 62
     7
 48
0.024689
100
AcDbLine
 10
209.229797
 20
199.775635
 30
0.0
 11
210.217346
 21
199.775635
 31
0.0
210
0.0
220
0.0
230
1.0
  0
LINE
  5
357
100
AcDbEntity
  8
0
370
    35
390
0
 62
     7
 48
0.024689
100
AcDbLine
 10
210.473572
 20
199.519409
 30
0.0
 11
210.473572
 21
198.53186
 31
0.0
210
0.0
220
0.0
230
1.0
  0
LINE
  5
358
100
AcDbEntity
  8
0
370
    35
390
0
 62
     7
 48
0.024689
100
AcDbLine
 10
208.973572
 20
198.53186
 30
0.0
 11
208.973572
 21
199.519409
 31
0.0
210
0.0
220
0.0
230
1.0
  0
LINE
  5
359
100
AcDbEntity
  8
0
370
    35
390
0
 62
     7
 48
0.024689
100
AcDbLine
 10
210.217346
 20
198.275635
 30
0.0
 11
209.229797
 21
198.275635
 31
0.0
210
0.0
220
0.0
230
1.0
  0
LINE
  5
35A
100
AcDbEntity
  8
0
370
    35
390
0
 62
     7
 48
0.005
100
AcDbLine
 10
119.723572
 20
176.375641
 30
0.0
 11
119.923569
 21
176.375641
 31
0.0
210
0.0
220
0.0
230
1.0
  0
LINE
  5
35B
100
AcDbEntity
  8
0
370
    35
390
0
 62
     7
 48
0.0725
100
AcDbLine
 10
119.723572
 20
176.375641
 30
0.0
 11
119.723572
 21
173.475632
 31
0.0
210
0.0
220
0.0
230
1.0
  0
LINE
  5
35C
100
AcDbEntity
  8
0
370
    35
390
0
 62
     7
 48
0.005
100
AcDbLine
 10
119.723572
 20
177.675629
 30
0.0
 11
119.923569
 21
177.675629
 31
0.0
210
0.0
220
0.0
230
1.0
  0
LINE
  5
35D
100
AcDbEntity
  8
0
370
    35
390
0
 62
     7
 48
0.0725
100
AcDbLine
 10
119.723572
 20
180.575638
 30
0.0
 11
119.723572
 21
177.675629
 31
0.0
210
0.0
220
0.0
230
1.0
  0
LINE
  5
35E
100
AcDbEntity
  8
0
370
    35
390
0
 62
     7
 48
0.255201
100
AcDbLine
 10
254.223572
 20
149.033676
 30
0.0
 11
254.223572
 21
138.825638
 31
0.0
210
0.0
220
0.0
230
1.0
  0
LINE
  5
35F
100
AcDbEntity
  8
0
370
    35
390
0
 62
     7
 48
0.005272
100
AcDbLine
 10
1059.183716
 20
177.147934
 30
0.0
 11
1059.388916
 21
177.099289
 31
0.0
210
0.0
220
0.0
230
1.0
  0
ARC
  5
360
100
AcDbEntity
  8
0
370
    35
390
0
 62
     7
100
AcDbCircle
 10
1059.423584
 20
177.245255
 30
0.0
 40
0.15
210
0.0
220
0.0
230
1.0
100
AcDbArc
 50
256.667229
 51
343.332771
  0
LINE
  5
361
100
AcDbEntity
  8
0
370
    35
390
0
 62
     7
 48
0.005273
100
AcDbLine
 10
1059.627686
 20
177.404312
 30
0.0
 11
1059.567261
 21
177.202225
 31
0.0
210
0.0
220
0.0
230
1.0
  0
ARC
  5
362
100
AcDbEntity
  8
0
370
    35
390
0
 62
     7
100
AcDbCircle
 10
1059.723633
 20
177.375641
 30
0.0
 40
0.1
210
0.0
220
0.0
230
1.0
100
AcDbArc
 50
16.667231
 51
163.332772
  0
LINE
  5
363
100
AcDbEntity
  8
0
370
    35
390
0
 62
     7
 48
0.005274
100
AcDbLine
 10
1059.819336
 20
177.404312
 30
0.0
 11
1059.879883
 21
177.202225
 31
0.0
210
0.0
220
0.0
230
1.0
  0
ARC
  5
364
100
AcDbEntity
  8
0
370
    35
390
0
 62
     7
100
AcDbCircle
 10
1060.02356
 20
177.245255
 30
0.0
 40
0.15
210
0.0
220
0.0
230
1.0
100
AcDbArc
 50
196.667228
 51
283.332773
  0
LINE
  5
365
100
AcDbEntity
  8
0
370
    35
390
0
 62
     7
 48
0.005275
100
AcDbLine
 10
1060.263428
 20
177.147934
 30
0.0
 11
1060.058105
 21
177.099289
 31
0.0
210
0.0
220
0.0
230
1.0
  0
ARC
  5
366
100
AcDbEntity
  8
0
370
    35
390
0
 62
     7
100
AcDbCircle
 10
1060.286499
 20
177.050629
 30
0.0
 40
0.1
210
0.0
220
0.0
230
1.0
100
AcDbArc
 50
316.667231
 51
103.332764
  0
LINE
  5
367
100
AcDbEntity
  8
0
370
    35
390
0
 62
     7
 48
0.005274
100
AcDbLine
 10
1060.359253
 20
176.98201
 30
0.0
 11
1060.214478
 21
176.828568
 31
0.0
210
0.0
220
0.0
230
1.0
  0
ARC
  5
368
100
AcDbEntity
  8
0
370
    35
390
0
 62
     7
100
AcDbCircle
 10
1060.323486
 20
176.725632
 30
0.0
 40
0.15
210
0.0
220
0.0
230
1.0
100
AcDbArc
 50
136.667236
 51
223.332764
  0
LINE
  5
369
100
AcDbEntity
  8
0
370
    35
390
0
 62
     7
 48
0.005274
100
AcDbLine
 10
1060.359253
 20
176.469254
 30
0.0
 11
1060.214478
 21
176.622696
 31
0.0
210
0.0
220
0.0
230
1.0
  0
ARC
  5
36A
100
AcDbEntity
  8
0
370
    35
390
0
 62
     7
100
AcDbCircle
 10
1060.286499
 20
176.400635
 30
0.0
 40
0.1
210
0.0
220
0.0
230
1.0
100
AcDbArc
 50
256.667236
 51
43.332773
  0
LINE
  5
36B
100
AcDbEntity
  8
0
370
    35
390
0
 62
     7
 48
0.005275
100
AcDbLine
 10
1060.263428
 20
176.303329
 30
0.0
 11
1060.058105
 21
176.351974
 31
0.0
210
0.0
220
0.0
230
1.0
  0
ARC
  5
36C
100
AcDbEntity
  8
0
370
    35
390
0
 62
     7
100
AcDbCircle
 10
1060.02356
 20
176.206024
 30
0.0
 40
0.15
210
0.0
220
0.0
230
1.0
100
AcDbArc
 50
76.667227
 51
163.332772
  0
LINE
  5
36D
100
AcDbEntity
  8
0
370
    35
390
0
 62
     7
 48
0.005274
100
AcDbLine
 10
1059.819336
 20
176.046951
 30
0.0
 11
1059.879883
 21
176.249039
 31
0.0
210
0.0
220
0.0
230
1.0
  0
ARC
  5
36E
100
AcDbEntity
  8
0
370
    35
390
0
 62
     7
100
AcDbCircle
 10
1059.723633
 20
176.075638
 30
0.0
 40
0.1
210
0.0
220
0.0
230
1.0
100
AcDbArc
 50
196.667228
 51
343.332774
  0
LINE
  5
36F
100
AcDbEntity
  8
0
370
    35
390
0
 62
     7
 48
0.005273
100
AcDbLine
 10
1059.627686
 20
176.046951
 30
0.0
 11
1059.567261
 21
176.249039
 31
0.0
210
0.0
220
0.0
230
1.0
  0
ARC
  5
370
100
AcDbEntity
  8
0
370
    35
390
0
 62
     7
100
AcDbCircle
 10
1059.423584
 20
176.206024
 30
0.0
 40
0.15
210
0.0
220
0.0
230
1.0
100
AcDbArc
 50
16.667233
 51
103.332771
  0
LINE
  5
371
100
AcDbEntity
  8
0
370
    35
390
0
 62
     7
 48
0.005272
100
AcDbLine
 10
1059.183716
 20
176.303329
 30
0.0
 11
1059.388916
 21
176.351974
 31
0.0
210
0.0
220
0.0
230
1.0
  0
ARC
  5
372
100
AcDbEntity
  8
0
370
    35
390
0
 62
     7
100
AcDbCircle
 10
1059.160645
 20
176.400635
 30
0.0
 40
0.1
210
0.0
220
0.0
230
1.0
100
AcDbArc
 50
136.667236
 51
283.332766
  0
LINE
  5
373
100
AcDbEntity
  8
0
370
    35
390
0
 62
     7
 48
0.005274
100
AcDbLine
 10
1059.087891
 20
176.469254
 30
0.0
 11
1059.232666
 21
176.622696
 31
0.0
210
0.0
220
0.0
230
1.0
  0
ARC
  5
374
100
AcDbEntity
  8
0
370
    35
390
0
 62
     7
100
AcDbCircle
 10
1059.123535
 20
176.725632
 30
0.0
 40
0.15
210
0.0
220
0.0
230
1.0
100
AcDbArc
 50
316.667231
 51
43.332769
  0
LINE
  5
375
100
AcDbEntity
  8
0
370
    35
390
0
 62
     7
 48
0.005274
100
AcDbLine
 10
1059.087891
 20
176.98201
 30
0.0
 11
1059.232666
 21
176.828568
 31
0.0
210
0.0
220
0.0
230
1.0
  0
ARC
  5
376
100
AcDbEntity
  8
0
370
    35
390
0
 62
     7
100
AcDbCircle
 10
1059.160645
 20
177.050629
 30
0.0
 40
0.1
210
0.0
220
0.0
230
1.0
100
AcDbArc
 50
76.667234
 51
223.332764
  0
LINE
  5
377
100
AcDbEntity
  8
0
370
    35
390
0
 62
     7
 48
0.005274
100
AcDbLine
 10
159.183716
 20
177.147934
 30
0.0
 11
159.388977
 21
177.099289
 31
0.0
210
0.0
220
0.0
230
1.0
  0
ARC
  5
378
100
AcDbEntity
  8
0
370
    35
390
0
 62
     7
100
AcDbCircle
 10
159.423569
 20
177.245255
 30
0.0
 40
0.15
210
0.0
220
0.0
230
1.0
100
AcDbArc
 50
256.667229
 51
343.332771
  0
LINE
  5
379
100
AcDbEntity
  8
0
370
    35
390
0
 62
     7
 48
0.005274
100
AcDbLine
 10
159.627777
 20
177.404312
 30
0.0
 11
159.567261
 21
177.202225
 31
0.0
210
0.0
220
0.0
230
1.0
  0
ARC
  5
37A
100
AcDbEntity
  8
0
370
    35
390
0
 62
     7
100
AcDbCircle
 10
159.723572
 20
177.375641
 30
0.0
 40
0.1
210
0.0
220
0.0
230
1.0
100
AcDbArc
 50
16.667231
 51
163.332772
  0
LINE
  5
37B
100
AcDbEntity
  8
0
370
    35
390
0
 62
     7
 48
0.005274
100
AcDbLine
 10
159.819366
 20
177.404312
 30
0.0
 11
159.879883
 21
177.202225
 31
0.0
210
0.0
220
0.0
230
1.0
  0
ARC
  5
37C
100
AcDbEntity
  8
0
370
    35
390
0
 62
     7
100
AcDbCircle
 10
160.023575
 20
177.245255
 30
0.0
 40
0.15
210
0.0
220
0.0
230
1.0
100
AcDbArc
 50
196.667228
 51
283.332773
  0
LINE
  5
37D
100
AcDbEntity
  8
0
370
    35
390
0
 62
     7
 48
0.005274
100
AcDbLine
 10
160.263428
 20
177.147934
 30
0.0
 11
160.058167
 21
177.099289
 31
0.0
210
0.0
220
0.0
230
1.0
  0
ARC
  5
37E
100
AcDbEntity
  8
0
370
    35
390
0
 62
     7
100
AcDbCircle
 10
160.286484
 20
177.050629
 30
0.0
 40
0.1
210
0.0
220
0.0
230
1.0
100
AcDbArc
 50
316.667231
 51
103.332771
  0
LINE
  5
37F
100
AcDbEntity
  8
0
370
    35
390
0
 62
     7
 48
0.005274
100
AcDbLine
 10
160.359222
 20
176.98201
 30
0.0
 11
160.214462
 21
176.828568
 31
0.0
210
0.0
220
0.0
230
1.0
  0
ARC
  5
380
100
AcDbEntity
  8
0
370
    35
390
0
 62
     7
100
AcDbCircle
 10
160.323578
 20
176.725632
 30
0.0
 40
0.15
210
0.0
220
0.0
230
1.0
100
AcDbArc
 50
136.667236
 51
223.332764
  0
LINE
  5
381
100
AcDbEntity
  8
0
370
    35
390
0
 62
     7
 48
0.005274
100
AcDbLine
 10
160.359222
 20
176.469254
 30
0.0
 11
160.214462
 21
176.622696
 31
0.0
210
0.0
220
0.0
230
1.0
  0
ARC
  5
382
100
AcDbEntity
  8
0
370
    35
390
0
 62
     7
100
AcDbCircle
 10
160.286484
 20
176.400635
 30
0.0
 40
0.1
210
0.0
220
0.0
230
1.0
100
AcDbArc
 50
256.667229
 51
43.332769
  0
LINE
  5
383
100
AcDbEntity
  8
0
370
    35
390
0
 62
     7
 48
0.005274
100
AcDbLine
 10
160.263428
 20
176.303329
 30
0.0
 11
160.058167
 21
176.351974
 31
0.0
210
0.0
220
0.0
230
1.0
  0
ARC
  5
384
100
AcDbEntity
  8
0
370
    35
390
0
 62
     7
100
AcDbCircle
 10
160.023575
 20
176.206024
 30
0.0
 40
0.15
210
0.0
220
0.0
230
1.0
100
AcDbArc
 50
76.667227
 51
163.332772
  0
LINE
  5
385
100
AcDbEntity
  8
0
370
    35
390
0
 62
     7
 48
0.005274
100
AcDbLine
 10
159.819366
 20
176.046951
 30
0.0
 11
159.879883
 21
176.249039
 31
0.0
210
0.0
220
0.0
230
1.0
  0
ARC
  5
386
100
AcDbEntity
  8
0
370
    35
390
0
 62
     7
100
AcDbCircle
 10
159.723572
 20
176.075638
 30
0.0
 40
0.1
210
0.0
220
0.0
230
1.0
100
AcDbArc
 50
196.667228
 51
343.332771
  0
LINE
  5
387
100
AcDbEntity
  8
0
370
    35
390
0
 62
     7
 48
0.005274
100
AcDbLine
 10
159.627777
 20
176.046951
 30
0.0
 11
159.567261
 21
176.249039
 31
0.0
210
0.0
220
0.0
230
1.0
  0
ARC
  5
388
100
AcDbEntity
  8
0
370
    35
390
0
 62
     7
100
AcDbCircle
 10
159.423569
 20
176.206024
 30
0.0
 40
0.15
210
0.0
220
0.0
230
1.0
100
AcDbArc
 50
16.667233
 51
103.332771
  0
LINE
  5
389
100
AcDbEntity
  8
0
370
    35
390
0
 62
     7
 48
0.005274
100
AcDbLine
 10
159.183716
 20
176.303329
 30
0.0
 11
159.388977
 21
176.351974
 31
0.0
210
0.0
220
0.0
230
1.0
  0
ARC
  5
38A
100
AcDbEntity
  8
0
370
    35
390
0
 62
     7
100
AcDbCircle
 10
159.16066
 20
176.400635
 30
0.0
 40
0.1
210
0.0
220
0.0
230
1.0
100
AcDbArc
 50
136.667236
 51
283.332766
  0
LINE
  5
38B
100
AcDbEntity
  8
0
370
    35
390
0
 62
     7
 48
0.005274
100
AcDbLine
 10
159.087921
 20
176.469254
 30
0.0
 11
159.232681
 21
176.622696
 31
0.0
210
0.0
220
0.0
230
1.0
  0
ARC
  5
38C
100
AcDbEntity
  8
0
370
    35
390
0
 62
     7
100
AcDbCircle
 10
159.123566
 20
176.725632
 30
0.0
 40
0.15
210
0.0
220
0.0
230
1.0
100
AcDbArc
 50
316.667231
 51
43.332769
  0
LINE
  5
38D
100
AcDbEntity
  8
0
370
    35
390
0
 62
     7
 48
0.005274
100
AcDbLine
 10
159.087921
 20
176.98201
 30
0.0
 11
159.232681
 21
176.828568
 31
0.0
210
0.0
220
0.0
230
1.0
  0
ARC
  5
38E
100
AcDbEntity
  8
0
370
    35
390
0
 62
     7
100
AcDbCircle
 10
159.16066
 20
177.050629
 30
0.0
 40
0.1
210
0.0
220
0.0
230
1.0
100
AcDbArc
 50
76.667234
 51
223.332764
  0
LINE
  5
38F
100
AcDbEntity
  8
0
370
    35
390
0
 62
     7
 48
0.005274
100
AcDbLine
 10
259.183716
 20
177.147934
 30
0.0
 11
259.388977
 21
177.099289
 31
0.0
210
0.0
220
0.0
230
1.0
  0
ARC
  5
390
100
AcDbEntity
  8
0
370
    35
390
0
 62
     7
100
AcDbCircle
 10
259.423584
 20
177.245255
 30
0.0
 40
0.15
210
0.0
220
0.0
230
1.0
100
AcDbArc
 50
256.667229
 51
343.332771
  0
LINE
  5
391
100
AcDbEntity
  8
0
370
    35
390
0
 62
     7
 48
0.005274
100
AcDbLine
 10
259.627777
 20
177.404312
 30
0.0
 11
259.567261
 21
177.202225
 31
0.0
210
0.0
220
0.0
230
1.0
  0
ARC
  5
392
100
AcDbEntity
  8
0
370
    35
390
0
 62
     7
100
AcDbCircle
 10
259.723572
 20
177.375641
 30
0.0
 40
0.1
210
0.0
220
0.0
230
1.0
100
AcDbArc
 50
16.667231
 51
163.332772
  0
LINE
  5
393
100
AcDbEntity
  8
0
370
    35
390
0
 62
     7
 48
0.005274
100
AcDbLine
 10
259.819366
 20
177.404312
 30
0.0
 11
259.879883
 21
177.202225
 31
0.0
210
0.0
220
0.0
230
1.0
  0
ARC
  5
394
100
AcDbEntity
  8
0
370
    35
390
0
 62
     7
100
AcDbCircle
 10
260.02356
 20
177.245255
 30
0.0
 40
0.15
210
0.0
220
0.0
230
1.0
100
AcDbArc
 50
196.667228
 51
283.332773
  0
LINE
  5
395
100
AcDbEntity
  8
0
370
    35
390
0
 62
     7
 48
0.005274
100
AcDbLine
 10
260.263428
 20
177.147934
 30
0.0
 11
260.058167
 21
177.099289
 31
0.0
210
0.0
220
0.0
230
1.0
  0
ARC
  5
396
100
AcDbEntity
  8
0
370
    35
390
0
 62
     7
100
AcDbCircle
 10
260.286499
 20
177.050629
 30
0.0
 40
0.1
210
0.0
220
0.0
230
1.0
100
AcDbArc
 50
316.667231
 51
103.332764
  0
LINE
  5
397
100
AcDbEntity
  8
0
370
    35
390
0
 62
     7
 48
0.005273
100
AcDbLine
 10
260.359222
 20
176.98201
 30
0.0
 11
260.214478
 21
176.828568
 31
0.0
210
0.0
220
0.0
230
1.0
  0
ARC
  5
398
100
AcDbEntity
  8
0
370
    35
390
0
 62
     7
100
AcDbCircle
 10
260.323578
 20
176.725632
 30
0.0
 40
0.15
210
0.0
220
0.0
230
1.0
100
AcDbArc
 50
136.667236
 51
223.332764
  0
LINE
  5
399
100
AcDbEntity
  8
0
370
    35
390
0
 62
     7
 48
0.005273
100
AcDbLine
 10
260.359222
 20
176.469254
 30
0.0
 11
260.214478
 21
176.622696
 31
0.0
210
0.0
220
0.0
230
1.0
  0
ARC
  5
39A
100
AcDbEntity
  8
0
370
    35
390
0
 62
     7
100
AcDbCircle
 10
260.286499
 20
176.400635
 30
0.0
 40
0.1
210
0.0
220
0.0
230
1.0
100
AcDbArc
 50
256.667236
 51
43.332773
  0
LINE
  5
39B
100
AcDbEntity
  8
0
370
    35
390
0
 62
     7
 48
0.005274
100
AcDbLine
 10
260.263428
 20
176.303329
 30
0.0
 11
260.058167
 21
176.351974
 31
0.0
210
0.0
220
0.0
230
1.0
  0
ARC
  5
39C
100
AcDbEntity
  8
0
370
    35
390
0
 62
     7
100
AcDbCircle
 10
260.02356
 20
176.206024
 30
0.0
 40
0.15
210
0.0
220
0.0
230
1.0
100
AcDbArc
 50
76.667227
 51
163.332772
  0
LINE
  5
39D
100
AcDbEntity
  8
0
370
    35
390
0
 62
     7
 48
0.005274
100
AcDbLine
 10
259.819366
 20
176.046951
 30
0.0
 11
259.879883
 21
176.249039
 31
0.0
210
0.0
220
0.0
230
1.0
  0
ARC
  5
39E
100
AcDbEntity
  8
0
370
    35
390
0
 62
     7
100
AcDbCircle
 10
259.723572
 20
176.075638
 30
0.0
 40
0.1
210
0.0
220
0.0
230
1.0
100
AcDbArc
 50
196.667228
 51
343.332771
  0
LINE
  5
39F
100
AcDbEntity
  8
0
370
    35
390
0
 62
     7
 48
0.005274
100
AcDbLine
 10
259.627777
 20
176.046951
 30
0.0
 11
259.567261
 21
176.249039
 31
0.0
210
0.0
220
0.0
230
1.0
  0
ARC
  5
3A0
100
AcDbEntity
  8
0
370
    35
390
0
 62
     7
100
AcDbCircle
 10
259.423584
 20
176.206024
 30
0.0
 40
0.15
210
0.0
220
0.0
230
1.0
100
AcDbArc
 50
16.667233
 51
103.332771
  0
LINE
  5
3A1
100
AcDbEntity
  8
0
370
    35
390
0
 62
     7
 48
0.005274
100
AcDbLine
 10
259.183716
 20
176.303329
 30
0.0
 11
259.388977
 21
176.351974
 31
0.0
210
0.0
220
0.0
230
1.0
  0
ARC
  5
3A2
100
AcDbEntity
  8
0
370
    35
390
0
 62
     7
100
AcDbCircle
 10
259.160645
 20
176.400635
 30
0.0
 40
0.1
210
0.0
220
0.0
230
1.0
100
AcDbArc
 50
136.667236
 51
283.332766
  0
LINE
  5
3A3
100
AcDbEntity
  8
0
370
    35
390
0
 62
     7
 48
0.005273
100
AcDbLine
 10
259.087921
 20
176.469254
 30
0.0
 11
259.232666
 21
176.622696
 31
0.0
210
0.0
220
0.0
230
1.0
  0
ARC
  5
3A4
100
AcDbEntity
  8
0
370
    35
390
0
 62
     7
100
AcDbCircle
 10
259.123566
 20
176.725632
 30
0.0
 40
0.15
210
0.0
220
0.0
230
1.0
100
AcDbArc
 50
316.667231
 51
43.332769
  0
LINE
  5
3A5
100
AcDbEntity
  8
0
370
    35
390
0
 62
     7
 48
0.005273
100
AcDbLine
 10
259.087921
 20
176.98201
 30
0.0
 11
259.232666
 21
176.828568
 31
0.0
210
0.0
220
0.0
230
1.0
  0
ARC
  5
3A6
100
AcDbEntity
  8
0
370
    35
390
0
 62
     7
100
AcDbCircle
 10
259.160645
 20
177.050629
 30
0.0
 40
0.1
210
0.0
220
0.0
230
1.0
100
AcDbArc
 50
76.667234
 51
223.332764
  0
LINE
  5
3A7
100
AcDbEntity
  8
0
370
    35
390
0
 62
     7
 48
0.005274
100
AcDbLine
 10
359.183716
 20
177.147934
 30
0.0
 11
359.388977
 21
177.099289
 31
0.0
210
0.0
220
0.0
230
1.0
  0
ARC
  5
3A8
100
AcDbEntity
  8
0
370
    35
390
0
 62
     7
100
AcDbCircle
 10
359.423584
 20
177.245255
 30
0.0
 40
0.15
210
0.0
220
0.0
230
1.0
100
AcDbArc
 50
256.667229
 51
343.332771
  0
LINE
  5
3A9
100
AcDbEntity
  8
0
370
    35
390
0
 62
     7
 48
0.005274
100
AcDbLine
 10
359.627777
 20
177.404312
 30
0.0
 11
359.567261
 21
177.202225
 31
0.0
210
0.0
220
0.0
230
1.0
  0
ARC
  5
3AA
100
AcDbEntity
  8
0
370
    35
390
0
 62
     7
100
AcDbCircle
 10
359.723572
 20
177.375641
 30
0.0
 40
0.1
210
0.0
220
0.0
230
1.0
100
AcDbArc
 50
16.667231
 51
163.332772
  0
LINE
  5
3AB
100
AcDbEntity
  8
0
370
    35
390
0
 62
     7
 48
0.005274
100
AcDbLine
 10
359.819366
 20
177.404312
 30
0.0
 11
359.879883
 21
177.202225
 31
0.0
210
0.0
220
0.0
230
1.0
  0
ARC
  5
3AC
100
AcDbEntity
  8
0
370
    35
390
0
 62
     7
100
AcDbCircle
 10
360.02356
 20
177.245255
 30
0.0
 40
0.15
210
0.0
220
0.0
230
1.0
100
AcDbArc
 50
196.667228
 51
283.332773
  0
LINE
  5
3AD
100
AcDbEntity
  8
0
370
    35
390
0
 62
     7
 48
0.005274
100
AcDbLine
 10
360.263428
 20
177.147934
 30
0.0
 11
360.058167
 21
177.099289
 31
0.0
210
0.0
220
0.0
230
1.0
  0
ARC
  5
3AE
100
AcDbEntity
  8
0
370
    35
390
0
 62
     7
100
AcDbCircle
 10
360.286499
 20
177.050629
 30
0.0
 40
0.1
210
0.0
220
0.0
230
1.0
100
AcDbArc
 50
316.667231
 51
103.332764
  0
LINE
  5
3AF
100
AcDbEntity
  8
0
370
    35
390
0
 62
     7
 48
0.005273
100
AcDbLine
 10
360.359222
 20
176.98201
 30
0.0
 11
360.214478
 21
176.828568
 31
0.0
210
0.0
220
0.0
230
1.0
  0
ARC
  5
3B0
100
AcDbEntity
  8
0
370
    35
390
0
 62
     7
100
AcDbCircle
 10
360.323578
 20
176.725632
 30
0.0
 40
0.15
210
0.0
220
0.0
230
1.0
100
AcDbArc
 50
136.667236
 51
223.332764
  0
LINE
  5
3B1
100
AcDbEntity
  8
0
370
    35
390
0
 62
     7
 48
0.005273
100
AcDbLine
 10
360.359222
 20
176.469254
 30
0.0
 11
360.214478
 21
176.622696
 31
0.0
210
0.0
220
0.0
230
1.0
  0
ARC
  5
3B2
100
AcDbEntity
  8
0
370
    35
390
0
 62
     7
100
AcDbCircle
 10
360.286499
 20
176.400635
 30
0.0
 40
0.1
210
0.0
220
0.0
230
1.0
100
AcDbArc
 50
256.667236
 51
43.332773
  0
LINE
  5
3B3
100
AcDbEntity
  8
0
370
    35
390
0
 62
     7
 48
0.005274
100
AcDbLine
 10
360.263428
 20
176.303329
 30
0.0
 11
360.058167
 21
176.351974
 31
0.0
210
0.0
220
0.0
230
1.0
  0
ARC
  5
3B4
100
AcDbEntity
  8
0
370
    35
390
0
 62
     7
100
AcDbCircle
 10
360.02356
 20
176.206024
 30
0.0
 40
0.15
210
0.0
220
0.0
230
1.0
100
AcDbArc
 50
76.667227
 51
163.332772
  0
LINE
  5
3B5
100
AcDbEntity
  8
0
370
    35
390
0
 62
     7
 48
0.005274
100
AcDbLine
 10
359.819366
 20
176.046951
 30
0.0
 11
359.879883
 21
176.249039
 31
0.0
210
0.0
220
0.0
230
1.0
  0
ARC
  5
3B6
100
AcDbEntity
  8
0
370
    35
390
0
 62
     7
100
AcDbCircle
 10
359.723572
 20
176.075638
 30
0.0
 40
0.1
210
0.0
220
0.0
230
1.0
100
AcDbArc
 50
196.667228
 51
343.332771
  0
LINE
  5
3B7
100
AcDbEntity
  8
0
370
    35
390
0
 62
     7
 48
0.005274
100
AcDbLine
 10
359.627777
 20
176.046951
 30
0.0
 11
359.567261
 21
176.249039
 31
0.0
210
0.0
220
0.0
230
1.0
  0
ARC
  5
3B8
100
AcDbEntity
  8
0
370
    35
390
0
 62
     7
100
AcDbCircle
 10
359.423584
 20
176.206024
 30
0.0
 40
0.15
210
0.0
220
0.0
230
1.0
100
AcDbArc
 50
16.667233
 51
103.332771
  0
LINE
  5
3B9
100
AcDbEntity
  8
0
370
    35
390
0
 62
     7
 48
0.005274
100
AcDbLine
 10
359.183716
 20
176.303329
 30
0.0
 11
359.388977
 21
176.351974
 31
0.0
210
0.0
220
0.0
230
1.0
  0
ARC
  5
3BA
100
AcDbEntity
  8
0
370
    35
390
0
 62
     7
100
AcDbCircle
 10
359.160645
 20
176.400635
 30
0.0
 40
0.1
210
0.0
220
0.0
230
1.0
100
AcDbArc
 50
136.667236
 51
283.332766
  0
LINE
  5
3BB
100
AcDbEntity
  8
0
370
    35
390
0
 62
     7
 48
0.005273
100
AcDbLine
 10
359.087921
 20
176.469254
 30
0.0
 11
359.232666
 21
176.622696
 31
0.0
210
0.0
220
0.0
230
1.0
  0
ARC
  5
3BC
100
AcDbEntity
  8
0
370
    35
390
0
 62
     7
100
AcDbCircle
 10
359.123566
 20
176.725632
 30
0.0
 40
0.15
210
0.0
220
0.0
230
1.0
100
AcDbArc
 50
316.667231
 51
43.332769
  0
LINE
  5
3BD
100
AcDbEntity
  8
0
370
    35
390
0
 62
     7
 48
0.005273
100
AcDbLine
 10
359.087921
 20
176.98201
 30
0.0
 11
359.232666
 21
176.828568
 31
0.0
210
0.0
220
0.0
230
1.0
  0
ARC
  5
3BE
100
AcDbEntity
  8
0
370
    35
390
0
 62
     7
100
AcDbCircle
 10
359.160645
 20
177.050629
 30
0.0
 40
0.1
210
0.0
220
0.0
230
1.0
100
AcDbArc
 50
76.667234
 51
223.332764
  0
LINE
  5
3BF
100
AcDbEntity
  8
0
370
    35
390
0
 62
     7
 48
0.005274
100
AcDbLine
 10
459.183716
 20
177.147934
 30
0.0
 11
459.388977
 21
177.099289
 31
0.0
210
0.0
220
0.0
230
1.0
  0
ARC
  5
3C0
100
AcDbEntity
  8
0
370
    35
390
0
 62
     7
100
AcDbCircle
 10
459.423584
 20
177.245255
 30
0.0
 40
0.15
210
0.0
220
0.0
230
1.0
100
AcDbArc
 50
256.667229
 51
343.332771
  0
LINE
  5
3C1
100
AcDbEntity
  8
0
370
    35
390
0
 62
     7
 48
0.005274
100
AcDbLine
 10
459.627777
 20
177.404312
 30
0.0
 11
459.567261
 21
177.202225
 31
0.0
210
0.0
220
0.0
230
1.0
  0
ARC
  5
3C2
100
AcDbEntity
  8
0
370
    35
390
0
 62
     7
100
AcDbCircle
 10
459.723572
 20
177.375641
 30
0.0
 40
0.1
210
0.0
220
0.0
230
1.0
100
AcDbArc
 50
16.667231
 51
163.332772
  0
LINE
  5
3C3
100
AcDbEntity
  8
0
370
    35
390
0
 62
     7
 48
0.005274
100
AcDbLine
 10
459.819366
 20
177.404312
 30
0.0
 11
459.879883
 21
177.202225
 31
0.0
210
0.0
220
0.0
230
1.0
  0
ARC
  5
3C4
100
AcDbEntity
  8
0
370
    35
390
0
 62
     7
100
AcDbCircle
 10
460.02356
 20
177.245255
 30
0.0
 40
0.15
210
0.0
220
0.0
230
1.0
100
AcDbArc
 50
196.667228
 51
283.332773
  0
LINE
  5
3C5
100
AcDbEntity
  8
0
370
    35
390
0
 62
     7
 48
0.005274
100
AcDbLine
 10
460.263428
 20
177.147934
 30
0.0
 11
460.058167
 21
177.099289
 31
0.0
210
0.0
220
0.0
230
1.0
  0
ARC
  5
3C6
100
AcDbEntity
  8
0
370
    35
390
0
 62
     7
100
AcDbCircle
 10
460.286499
 20
177.050629
 30
0.0
 40
0.1
210
0.0
220
0.0
230
1.0
100
AcDbArc
 50
316.667231
 51
103.332764
  0
LINE
  5
3C7
100
AcDbEntity
  8
0
370
    35
390
0
 62
     7
 48
0.005273
100
AcDbLine
 10
460.359222
 20
176.98201
 30
0.0
 11
460.214478
 21
176.828568
 31
0.0
210
0.0
220
0.0
230
1.0
  0
ARC
  5
3C8
100
AcDbEntity
  8
0
370
    35
390
0
 62
     7
100
AcDbCircle
 10
460.323578
 20
176.725632
 30
0.0
 40
0.15
210
0.0
220
0.0
230
1.0
100
AcDbArc
 50
136.667236
 51
223.332764
  0
LINE
  5
3C9
100
AcDbEntity
  8
0
370
    35
390
0
 62
     7
 48
0.005273
100
AcDbLine
 10
460.359222
 20
176.469254
 30
0.0
 11
460.214478
 21
176.622696
 31
0.0
210
0.0
220
0.0
230
1.0
  0
ARC
  5
3CA
100
AcDbEntity
  8
0
370
    35
390
0
 62
     7
100
AcDbCircle
 10
460.286499
 20
176.400635
 30
0.0
 40
0.1
210
0.0
220
0.0
230
1.0
100
AcDbArc
 50
256.667236
 51
43.332773
  0
LINE
  5
3CB
100
AcDbEntity
  8
0
370
    35
390
0
 62
     7
 48
0.005274
100
AcDbLine
 10
460.263428
 20
176.303329
 30
0.0
 11
460.058167
 21
176.351974
 31
0.0
210
0.0
220
0.0
230
1.0
  0
ARC
  5
3CC
100
AcDbEntity
  8
0
370
    35
390
0
 62
     7
100
AcDbCircle
 10
460.02356
 20
176.206024
 30
0.0
 40
0.15
210
0.0
220
0.0
230
1.0
100
AcDbArc
 50
76.667227
 51
163.332772
  0
LINE
  5
3CD
100
AcDbEntity
  8
0
370
    35
390
0
 62
     7
 48
0.005274
100
AcDbLine
 10
459.819366
 20
176.046951
 30
0.0
 11
459.879883
 21
176.249039
 31
0.0
210
0.0
220
0.0
230
1.0
  0
ARC
  5
3CE
100
AcDbEntity
  8
0
370
    35
390
0
 62
     7
100
AcDbCircle
 10
459.723572
 20
176.075638
 30
0.0
 40
0.1
210
0.0
220
0.0
230
1.0
100
AcDbArc
 50
196.667228
 51
343.332774
  0
LINE
  5
3CF
100
AcDbEntity
  8
0
370
    35
390
0
 62
     7
 48
0.005274
100
AcDbLine
 10
459.627777
 20
176.046951
 30
0.0
 11
459.567261
 21
176.249039
 31
0.0
210
0.0
220
0.0
230
1.0
  0
ARC
  5
3D0
100
AcDbEntity
  8
0
370
    35
390
0
 62
     7
100
AcDbCircle
 10
459.423584
 20
176.206024
 30
0.0
 40
0.15
210
0.0
220
0.0
230
1.0
100
AcDbArc
 50
16.667233
 51
103.332771
  0
LINE
  5
3D1
100
AcDbEntity
  8
0
370
    35
390
0
 62
     7
 48
0.005274
100
AcDbLine
 10
459.183716
 20
176.303329
 30
0.0
 11
459.388977
 21
176.351974
 31
0.0
210
0.0
220
0.0
230
1.0
  0
ARC
  5
3D2
100
AcDbEntity
  8
0
370
    35
390
0
 62
     7
100
AcDbCircle
 10
459.160645
 20
176.400635
 30
0.0
 40
0.1
210
0.0
220
0.0
230
1.0
100
AcDbArc
 50
136.667236
 51
283.332766
  0
LINE
  5
3D3
100
AcDbEntity
  8
0
370
    35
390
0
 62
     7
 48
0.005273
100
AcDbLine
 10
459.087921
 20
176.469254
 30
0.0
 11
459.232666
 21
176.622696
 31
0.0
210
0.0
220
0.0
230
1.0
  0
ARC
  5
3D4
100
AcDbEntity
  8
0
370
    35
390
0
 62
     7
100
AcDbCircle
 10
459.123566
 20
176.725632
 30
0.0
 40
0.15
210
0.0
220
0.0
230
1.0
100
AcDbArc
 50
316.667231
 51
43.332769
  0
LINE
  5
3D5
100
AcDbEntity
  8
0
370
    35
390
0
 62
     7
 48
0.005273
100
AcDbLine
 10
459.087921
 20
176.98201
 30
0.0
 11
459.232666
 21
176.828568
 31
0.0
210
0.0
220
0.0
230
1.0
  0
ARC
  5
3D6
100
AcDbEntity
  8
0
370
    35
390
0
 62
     7
100
AcDbCircle
 10
459.160645
 20
177.050629
 30
0.0
 40
0.1
210
0.0
220
0.0
230
1.0
100
AcDbArc
 50
76.667234
 51
223.332764
  0
LINE
  5
3D7
100
AcDbEntity
  8
0
370
    35
390
0
 62
     7
 48
0.005274
100
AcDbLine
 10
559.183716
 20
177.147934
 30
0.0
 11
559.388977
 21
177.099289
 31
0.0
210
0.0
220
0.0
230
1.0
  0
ARC
  5
3D8
100
AcDbEntity
  8
0
370
    35
390
0
 62
     7
100
AcDbCircle
 10
559.423584
 20
177.245255
 30
0.0
 40
0.15
210
0.0
220
0.0
230
1.0
100
AcDbArc
 50
256.667229
 51
343.332771
  0
LINE
  5
3D9
100
AcDbEntity
  8
0
370
    35
390
0
 62
     7
 48
0.005274
100
AcDbLine
 10
559.627808
 20
177.404312
 30
0.0
 11
559.567261
 21
177.202225
 31
0.0
210
0.0
220
0.0
230
1.0
  0
ARC
  5
3DA
100
AcDbEntity
  8
0
370
    35
390
0
 62
     7
100
AcDbCircle
 10
559.723572
 20
177.375641
 30
0.0
 40
0.1
210
0.0
220
0.0
230
1.0
100
AcDbArc
 50
16.667231
 51
163.332772
  0
LINE
  5
3DB
100
AcDbEntity
  8
0
370
    35
390
0
 62
     7
 48
0.005274
100
AcDbLine
 10
559.819336
 20
177.404312
 30
0.0
 11
559.879883
 21
177.202225
 31
0.0
210
0.0
220
0.0
230
1.0
  0
ARC
  5
3DC
100
AcDbEntity
  8
0
370
    35
390
0
 62
     7
100
AcDbCircle
 10
560.02356
 20
177.245255
 30
0.0
 40
0.15
210
0.0
220
0.0
230
1.0
100
AcDbArc
 50
196.667228
 51
283.332773
  0
LINE
  5
3DD
100
AcDbEntity
  8
0
370
    35
390
0
 62
     7
 48
0.005274
100
AcDbLine
 10
560.263428
 20
177.147934
 30
0.0
 11
560.058167
 21
177.099289
 31
0.0
210
0.0
220
0.0
230
1.0
  0
ARC
  5
3DE
100
AcDbEntity
  8
0
370
    35
390
0
 62
     7
100
AcDbCircle
 10
560.286499
 20
177.050629
 30
0.0
 40
0.1
210
0.0
220
0.0
230
1.0
100
AcDbArc
 50
316.667231
 51
103.332764
  0
LINE
  5
3DF
100
AcDbEntity
  8
0
370
    35
390
0
 62
     7
 48
0.005274
100
AcDbLine
 10
560.359253
 20
176.98201
 30
0.0
 11
560.214478
 21
176.828568
 31
0.0
210
0.0
220
0.0
230
1.0
  0
ARC
  5
3E0
100
AcDbEntity
  8
0
370
    35
390
0
 62
     7
100
AcDbCircle
 10
560.323608
 20
176.725632
 30
0.0
 40
0.15
210
0.0
220
0.0
230
1.0
100
AcDbArc
 50
136.667236
 51
223.332764
  0
LINE
  5
3E1
100
AcDbEntity
  8
0
370
    35
390
0
 62
     7
 48
0.005274
100
AcDbLine
 10
560.359253
 20
176.469254
 30
0.0
 11
560.214478
 21
176.622696
 31
0.0
210
0.0
220
0.0
230
1.0
  0
ARC
  5
3E2
100
AcDbEntity
  8
0
370
    35
390
0
 62
     7
100
AcDbCircle
 10
560.286499
 20
176.400635
 30
0.0
 40
0.1
210
0.0
220
0.0
230
1.0
100
AcDbArc
 50
256.667236
 51
43.332773
  0
LINE
  5
3E3
100
AcDbEntity
  8
0
370
    35
390
0
 62
     7
 48
0.005274
100
AcDbLine
 10
560.263428
 20
176.303329
 30
0.0
 11
560.058167
 21
176.351974
 31
0.0
210
0.0
220
0.0
230
1.0
  0
ARC
  5
3E4
100
AcDbEntity
  8
0
370
    35
390
0
 62
     7
100
AcDbCircle
 10
560.02356
 20
176.206024
 30
0.0
 40
0.15
210
0.0
220
0.0
230
1.0
100
AcDbArc
 50
76.667227
 51
163.332772
  0
LINE
  5
3E5
100
AcDbEntity
  8
0
370
    35
390
0
 62
     7
 48
0.005274
100
AcDbLine
 10
559.819336
 20
176.046951
 30
0.0
 11
559.879883
 21
176.249039
 31
0.0
210
0.0
220
0.0
230
1.0
  0
ARC
  5
3E6
100
AcDbEntity
  8
0
370
    35
390
0
 62
     7
100
AcDbCircle
 10
559.723572
 20
176.075638
 30
0.0
 40
0.1
210
0.0
220
0.0
230
1.0
100
AcDbArc
 50
196.667228
 51
343.332774
  0
LINE
  5
3E7
100
AcDbEntity
  8
0
370
    35
390
0
 62
     7
 48
0.005274
100
AcDbLine
 10
559.627808
 20
176.046951
 30
0.0
 11
559.567261
 21
176.249039
 31
0.0
210
0.0
220
0.0
230
1.0
  0
ARC
  5
3E8
100
AcDbEntity
  8
0
370
    35
390
0
 62
     7
100
AcDbCircle
 10
559.423584
 20
176.206024
 30
0.0
 40
0.15
210
0.0
220
0.0
230
1.0
100
AcDbArc
 50
16.667233
 51
103.332771
  0
LINE
  5
3E9
100
AcDbEntity
  8
0
370
    35
390
0
 62
     7
 48
0.005274
100
AcDbLine
 10
559.183716
 20
176.303329
 30
0.0
 11
559.388977
 21
176.351974
 31
0.0
210
0.0
220
0.0
230
1.0
  0
ARC
  5
3EA
100
AcDbEntity
  8
0
370
    35
390
0
 62
     7
100
AcDbCircle
 10
559.160645
 20
176.400635
 30
0.0
 40
0.1
210
0.0
220
0.0
230
1.0
100
AcDbArc
 50
136.667236
 51
283.332766
  0
LINE
  5
3EB
100
AcDbEntity
  8
0
370
    35
390
0
 62
     7
 48
0.005274
100
AcDbLine
 10
559.087891
 20
176.469254
 30
0.0
 11
559.232666
 21
176.622696
 31
0.0
210
0.0
220
0.0
230
1.0
  0
ARC
  5
3EC
100
AcDbEntity
  8
0
370
    35
390
0
 62
     7
100
AcDbCircle
 10
559.123535
 20
176.725632
 30
0.0
 40
0.15
210
0.0
220
0.0
230
1.0
100
AcDbArc
 50
316.667231
 51
43.332769
  0
LINE
  5
3ED
100
AcDbEntity
  8
0
370
    35
390
0
 62
     7
 48
0.005274
100
AcDbLine
 10
559.087891
 20
176.98201
 30
0.0
 11
559.232666
 21
176.828568
 31
0.0
210
0.0
220
0.0
230
1.0
  0
ARC
  5
3EE
100
AcDbEntity
  8
0
370
    35
390
0
 62
     7
100
AcDbCircle
 10
559.160645
 20
177.050629
 30
0.0
 40
0.1
210
0.0
220
0.0
230
1.0
100
AcDbArc
 50
76.667234
 51
223.332764
  0
LINE
  5
3EF
100
AcDbEntity
  8
0
370
    35
390
0
 62
     7
 48
0.005274
100
AcDbLine
 10
659.183716
 20
177.147934
 30
0.0
 11
659.388977
 21
177.099289
 31
0.0
210
0.0
220
0.0
230
1.0
  0
ARC
  5
3F0
100
AcDbEntity
  8
0
370
    35
390
0
 62
     7
100
AcDbCircle
 10
659.423584
 20
177.245255
 30
0.0
 40
0.15
210
0.0
220
0.0
230
1.0
100
AcDbArc
 50
256.667229
 51
343.332771
  0
LINE
  5
3F1
100
AcDbEntity
  8
0
370
    35
390
0
 62
     7
 48
0.005274
100
AcDbLine
 10
659.627747
 20
177.404312
 30
0.0
 11
659.567261
 21
177.202225
 31
0.0
210
0.0
220
0.0
230
1.0
  0
ARC
  5
3F2
100
AcDbEntity
  8
0
370
    35
390
0
 62
     7
100
AcDbCircle
 10
659.723572
 20
177.375641
 30
0.0
 40
0.1
210
0.0
220
0.0
230
1.0
100
AcDbArc
 50
16.667231
 51
163.332772
  0
LINE
  5
3F3
100
AcDbEntity
  8
0
370
    35
390
0
 62
     7
 48
0.005274
100
AcDbLine
 10
659.819397
 20
177.404312
 30
0.0
 11
659.879883
 21
177.202225
 31
0.0
210
0.0
220
0.0
230
1.0
  0
ARC
  5
3F4
100
AcDbEntity
  8
0
370
    35
390
0
 62
     7
100
AcDbCircle
 10
660.02356
 20
177.245255
 30
0.0
 40
0.15
210
0.0
220
0.0
230
1.0
100
AcDbArc
 50
196.667228
 51
283.332773
  0
LINE
  5
3F5
100
AcDbEntity
  8
0
370
    35
390
0
 62
     7
 48
0.005274
100
AcDbLine
 10
660.263428
 20
177.147934
 30
0.0
 11
660.058167
 21
177.099289
 31
0.0
210
0.0
220
0.0
230
1.0
  0
ARC
  5
3F6
100
AcDbEntity
  8
0
370
    35
390
0
 62
     7
100
AcDbCircle
 10
660.286499
 20
177.050629
 30
0.0
 40
0.1
210
0.0
220
0.0
230
1.0
100
AcDbArc
 50
316.667231
 51
103.332764
  0
LINE
  5
3F7
100
AcDbEntity
  8
0
370
    35
390
0
 62
     7
 48
0.005274
100
AcDbLine
 10
660.359253
 20
176.98201
 30
0.0
 11
660.214478
 21
176.828568
 31
0.0
210
0.0
220
0.0
230
1.0
  0
ARC
  5
3F8
100
AcDbEntity
  8
0
370
    35
390
0
 62
     7
100
AcDbCircle
 10
660.323547
 20
176.725632
 30
0.0
 40
0.15
210
0.0
220
0.0
230
1.0
100
AcDbArc
 50
136.667236
 51
223.332764
  0
LINE
  5
3F9
100
AcDbEntity
  8
0
370
    35
390
0
 62
     7
 48
0.005274
100
AcDbLine
 10
660.359253
 20
176.469254
 30
0.0
 11
660.214478
 21
176.622696
 31
0.0
210
0.0
220
0.0
230
1.0
  0
ARC
  5
3FA
100
AcDbEntity
  8
0
370
    35
390
0
 62
     7
100
AcDbCircle
 10
660.286499
 20
176.400635
 30
0.0
 40
0.1
210
0.0
220
0.0
230
1.0
100
AcDbArc
 50
256.667236
 51
43.332773
  0
LINE
  5
3FB
100
AcDbEntity
  8
0
370
    35
390
0
 62
     7
 48
0.005274
100
AcDbLine
 10
660.263428
 20
176.303329
 30
0.0
 11
660.058167
 21
176.351974
 31
0.0
210
0.0
220
0.0
230
1.0
  0
ARC
  5
3FC
100
AcDbEntity
  8
0
370
    35
390
0
 62
     7
100
AcDbCircle
 10
660.02356
 20
176.206024
 30
0.0
 40
0.15
210
0.0
220
0.0
230
1.0
100
AcDbArc
 50
76.667227
 51
163.332772
  0
LINE
  5
3FD
100
AcDbEntity
  8
0
370
    35
390
0
 62
     7
 48
0.005274
100
AcDbLine
 10
659.819397
 20
176.046951
 30
0.0
 11
659.879883
 21
176.249039
 31
0.0
210
0.0
220
0.0
230
1.0
  0
ARC
  5
3FE
100
AcDbEntity
  8
0
370
    35
390
0
 62
     7
100
AcDbCircle
 10
659.723572
 20
176.075638
 30
0.0
 40
0.1
210
0.0
220
0.0
230
1.0
100
AcDbArc
 50
196.667228
 51
343.332774
  0
LINE
  5
3FF
100
AcDbEntity
  8
0
370
    35
390
0
 62
     7
 48
0.005274
100
AcDbLine
 10
659.627747
 20
176.046951
 30
0.0
 11
659.567261
 21
176.249039
 31
0.0
210
0.0
220
0.0
230
1.0
  0
ARC
  5
400
100
AcDbEntity
  8
0
370
    35
390
0
 62
     7
100
AcDbCircle
 10
659.423584
 20
176.206024
 30
0.0
 40
0.15
210
0.0
220
0.0
230
1.0
100
AcDbArc
 50
16.667233
 51
103.332771
  0
LINE
  5
401
100
AcDbEntity
  8
0
370
    35
390
0
 62
     7
 48
0.005274
100
AcDbLine
 10
659.183716
 20
176.303329
 30
0.0
 11
659.388977
 21
176.351974
 31
0.0
210
0.0
220
0.0
230
1.0
  0
ARC
  5
402
100
AcDbEntity
  8
0
370
    35
390
0
 62
     7
100
AcDbCircle
 10
659.160645
 20
176.400635
 30
0.0
 40
0.1
210
0.0
220
0.0
230
1.0
100
AcDbArc
 50
136.667236
 51
283.332766
  0
LINE
  5
403
100
AcDbEntity
  8
0
370
    35
390
0
 62
     7
 48
0.005274
100
AcDbLine
 10
659.087891
 20
176.469254
 30
0.0
 11
659.232666
 21
176.622696
 31
0.0
210
0.0
220
0.0
230
1.0
  0
ARC
  5
404
100
AcDbEntity
  8
0
370
    35
390
0
 62
     7
100
AcDbCircle
 10
659.123596
 20
176.725632
 30
0.0
 40
0.15
210
0.0
220
0.0
230
1.0
100
AcDbArc
 50
316.667231
 51
43.332769
  0
LINE
  5
405
100
AcDbEntity
  8
0
370
    35
390
0
 62
     7
 48
0.005274
100
AcDbLine
 10
659.087891
 20
176.98201
 30
0.0
 11
659.232666
 21
176.828568
 31
0.0
210
0.0
220
0.0
230
1.0
  0
ARC
  5
406
100
AcDbEntity
  8
0
370
    35
390
0
 62
     7
100
AcDbCircle
 10
659.160645
 20
177.050629
 30
0.0
 40
0.1
210
0.0
220
0.0
230
1.0
100
AcDbArc
 50
76.667234
 51
223.332764
  0
LINE
  5
407
100
AcDbEntity
  8
0
370
    35
390
0
 62
     7
 48
0.005274
100
AcDbLine
 10
759.183716
 20
177.147934
 30
0.0
 11
759.388977
 21
177.099289
 31
0.0
210
0.0
220
0.0
230
1.0
  0
ARC
  5
408
100
AcDbEntity
  8
0
370
    35
390
0
 62
     7
100
AcDbCircle
 10
759.423584
 20
177.245255
 30
0.0
 40
0.15
210
0.0
220
0.0
230
1.0
100
AcDbArc
 50
256.667229
 51
343.332771
  0
LINE
  5
409
100
AcDbEntity
  8
0
370
    35
390
0
 62
     7
 48
0.005274
100
AcDbLine
 10
759.627747
 20
177.404312
 30
0.0
 11
759.567261
 21
177.202225
 31
0.0
210
0.0
220
0.0
230
1.0
  0
ARC
  5
40A
100
AcDbEntity
  8
0
370
    35
390
0
 62
     7
100
AcDbCircle
 10
759.723572
 20
177.375641
 30
0.0
 40
0.1
210
0.0
220
0.0
230
1.0
100
AcDbArc
 50
16.667231
 51
163.332772
  0
LINE
  5
40B
100
AcDbEntity
  8
0
370
    35
390
0
 62
     7
 48
0.005274
100
AcDbLine
 10
759.819397
 20
177.404312
 30
0.0
 11
759.879883
 21
177.202225
 31
0.0
210
0.0
220
0.0
230
1.0
  0
ARC
  5
40C
100
AcDbEntity
  8
0
370
    35
390
0
 62
     7
100
AcDbCircle
 10
760.02356
 20
177.245255
 30
0.0
 40
0.15
210
0.0
220
0.0
230
1.0
100
AcDbArc
 50
196.667228
 51
283.332773
  0
LINE
  5
40D
100
AcDbEntity
  8
0
370
    35
390
0
 62
     7
 48
0.005274
100
AcDbLine
 10
760.263428
 20
177.147934
 30
0.0
 11
760.058167
 21
177.099289
 31
0.0
210
0.0
220
0.0
230
1.0
  0
ARC
  5
40E
100
AcDbEntity
  8
0
370
    35
390
0
 62
     7
100
AcDbCircle
 10
760.286499
 20
177.050629
 30
0.0
 40
0.1
210
0.0
220
0.0
230
1.0
100
AcDbArc
 50
316.667231
 51
103.332764
  0
LINE
  5
40F
100
AcDbEntity
  8
0
370
    35
390
0
 62
     7
 48
0.005274
100
AcDbLine
 10
760.359253
 20
176.98201
 30
0.0
 11
760.214478
 21
176.828568
 31
0.0
210
0.0
220
0.0
230
1.0
  0
ARC
  5
410
100
AcDbEntity
  8
0
370
    35
390
0
 62
     7
100
AcDbCircle
 10
760.323547
 20
176.725632
 30
0.0
 40
0.15
210
0.0
220
0.0
230
1.0
100
AcDbArc
 50
136.667236
 51
223.332764
  0
LINE
  5
411
100
AcDbEntity
  8
0
370
    35
390
0
 62
     7
 48
0.005274
100
AcDbLine
 10
760.359253
 20
176.469254
 30
0.0
 11
760.214478
 21
176.622696
 31
0.0
210
0.0
220
0.0
230
1.0
  0
ARC
  5
412
100
AcDbEntity
  8
0
370
    35
390
0
 62
     7
100
AcDbCircle
 10
760.286499
 20
176.400635
 30
0.0
 40
0.1
210
0.0
220
0.0
230
1.0
100
AcDbArc
 50
256.667236
 51
43.332773
  0
LINE
  5
413
100
AcDbEntity
  8
0
370
    35
390
0
 62
     7
 48
0.005274
100
AcDbLine
 10
760.263428
 20
176.303329
 30
0.0
 11
760.058167
 21
176.351974
 31
0.0
210
0.0
220
0.0
230
1.0
  0
ARC
  5
414
100
AcDbEntity
  8
0
370
    35
390
0
 62
     7
100
AcDbCircle
 10
760.02356
 20
176.206024
 30
0.0
 40
0.15
210
0.0
220
0.0
230
1.0
100
AcDbArc
 50
76.667227
 51
163.332772
  0
LINE
  5
415
100
AcDbEntity
  8
0
370
    35
390
0
 62
     7
 48
0.005274
100
AcDbLine
 10
759.819397
 20
176.046951
 30
0.0
 11
759.879883
 21
176.249039
 31
0.0
210
0.0
220
0.0
230
1.0
  0
ARC
  5
416
100
AcDbEntity
  8
0
370
    35
390
0
 62
     7
100
AcDbCircle
 10
759.723572
 20
176.075638
 30
0.0
 40
0.1
210
0.0
220
0.0
230
1.0
100
AcDbArc
 50
196.667228
 51
343.332774
  0
LINE
  5
417
100
AcDbEntity
  8
0
370
    35
390
0
 62
     7
 48
0.005274
100
AcDbLine
 10
759.627747
 20
176.046951
 30
0.0
 11
759.567261
 21
176.249039
 31
0.0
210
0.0
220
0.0
230
1.0
  0
ARC
  5
418
100
AcDbEntity
  8
0
370
    35
390
0
 62
     7
100
AcDbCircle
 10
759.423584
 20
176.206024
 30
0.0
 40
0.15
210
0.0
220
0.0
230
1.0
100
AcDbArc
 50
16.667233
 51
103.332771
  0
LINE
  5
419
100
AcDbEntity
  8
0
370
    35
390
0
 62
     7
 48
0.005274
100
AcDbLine
 10
759.183716
 20
176.303329
 30
0.0
 11
759.388977
 21
176.351974
 31
0.0
210
0.0
220
0.0
230
1.0
  0
ARC
  5
41A
100
AcDbEntity
  8
0
370
    35
390
0
 62
     7
100
AcDbCircle
 10
759.160645
 20
176.400635
 30
0.0
 40
0.1
210
0.0
220
0.0
230
1.0
100
AcDbArc
 50
136.667236
 51
283.332766
  0
LINE
  5
41B
100
AcDbEntity
  8
0
370
    35
390
0
 62
     7
 48
0.005274
100
AcDbLine
 10
759.087891
 20
176.469254
 30
0.0
 11
759.232666
 21
176.622696
 31
0.0
210
0.0
220
0.0
230
1.0
  0
ARC
  5
41C
100
AcDbEntity
  8
0
370
    35
390
0
 62
     7
100
AcDbCircle
 10
759.123596
 20
176.725632
 30
0.0
 40
0.15
210
0.0
220
0.0
230
1.0
100
AcDbArc
 50
316.667231
 51
43.332769
  0
LINE
  5
41D
100
AcDbEntity
  8
0
370
    35
390
0
 62
     7
 48
0.005274
100
AcDbLine
 10
759.087891
 20
176.98201
 30
0.0
 11
759.232666
 21
176.828568
 31
0.0
210
0.0
220
0.0
230
1.0
  0
ARC
  5
41E
100
AcDbEntity
  8
0
370
    35
390
0
 62
     7
100
AcDbCircle
 10
759.160645
 20
177.050629
 30
0.0
 40
0.1
210
0.0
220
0.0
230
1.0
100
AcDbArc
 50
76.667234
 51
223.332764
  0
LINE
  5
41F
100
AcDbEntity
  8
0
370
    35
390
0
 62
     7
 48
0.005274
100
AcDbLine
 10
859.183716
 20
177.147934
 30
0.0
 11
859.388977
 21
177.099289
 31
0.0
210
0.0
220
0.0
230
1.0
  0
ARC
  5
420
100
AcDbEntity
  8
0
370
    35
390
0
 62
     7
100
AcDbCircle
 10
859.423584
 20
177.245255
 30
0.0
 40
0.15
210
0.0
220
0.0
230
1.0
100
AcDbArc
 50
256.667229
 51
343.332771
  0
LINE
  5
421
100
AcDbEntity
  8
0
370
    35
390
0
 62
     7
 48
0.005274
100
AcDbLine
 10
859.627747
 20
177.404312
 30
0.0
 11
859.567261
 21
177.202225
 31
0.0
210
0.0
220
0.0
230
1.0
  0
ARC
  5
422
100
AcDbEntity
  8
0
370
    35
390
0
 62
     7
100
AcDbCircle
 10
859.723572
 20
177.375641
 30
0.0
 40
0.1
210
0.0
220
0.0
230
1.0
100
AcDbArc
 50
16.667231
 51
163.332772
  0
LINE
  5
423
100
AcDbEntity
  8
0
370
    35
390
0
 62
     7
 48
0.005274
100
AcDbLine
 10
859.819397
 20
177.404312
 30
0.0
 11
859.879883
 21
177.202225
 31
0.0
210
0.0
220
0.0
230
1.0
  0
ARC
  5
424
100
AcDbEntity
  8
0
370
    35
390
0
 62
     7
100
AcDbCircle
 10
860.02356
 20
177.245255
 30
0.0
 40
0.15
210
0.0
220
0.0
230
1.0
100
AcDbArc
 50
196.667228
 51
283.332773
  0
LINE
  5
425
100
AcDbEntity
  8
0
370
    35
390
0
 62
     7
 48
0.005274
100
AcDbLine
 10
860.263428
 20
177.147934
 30
0.0
 11
860.058167
 21
177.099289
 31
0.0
210
0.0
220
0.0
230
1.0
  0
ARC
  5
426
100
AcDbEntity
  8
0
370
    35
390
0
 62
     7
100
AcDbCircle
 10
860.286499
 20
177.050629
 30
0.0
 40
0.1
210
0.0
220
0.0
230
1.0
100
AcDbArc
 50
316.667231
 51
103.332764
  0
LINE
  5
427
100
AcDbEntity
  8
0
370
    35
390
0
 62
     7
 48
0.005274
100
AcDbLine
 10
860.359253
 20
176.98201
 30
0.0
 11
860.214478
 21
176.828568
 31
0.0
210
0.0
220
0.0
230
1.0
  0
ARC
  5
428
100
AcDbEntity
  8
0
370
    35
390
0
 62
     7
100
AcDbCircle
 10
860.323547
 20
176.725632
 30
0.0
 40
0.15
210
0.0
220
0.0
230
1.0
100
AcDbArc
 50
136.667236
 51
223.332764
  0
LINE
  5
429
100
AcDbEntity
  8
0
370
    35
390
0
 62
     7
 48
0.005274
100
AcDbLine
 10
860.359253
 20
176.469254
 30
0.0
 11
860.214478
 21
176.622696
 31
0.0
210
0.0
220
0.0
230
1.0
  0
ARC
  5
42A
100
AcDbEntity
  8
0
370
    35
390
0
 62
     7
100
AcDbCircle
 10
860.286499
 20
176.400635
 30
0.0
 40
0.1
210
0.0
220
0.0
230
1.0
100
AcDbArc
 50
256.667236
 51
43.332773
  0
LINE
  5
42B
100
AcDbEntity
  8
0
370
    35
390
0
 62
     7
 48
0.005274
100
AcDbLine
 10
860.263428
 20
176.303329
 30
0.0
 11
860.058167
 21
176.351974
 31
0.0
210
0.0
220
0.0
230
1.0
  0
ARC
  5
42C
100
AcDbEntity
  8
0
370
    35
390
0
 62
     7
100
AcDbCircle
 10
860.02356
 20
176.206024
 30
0.0
 40
0.15
210
0.0
220
0.0
230
1.0
100
AcDbArc
 50
76.667227
 51
163.332772
  0
LINE
  5
42D
100
AcDbEntity
  8
0
370
    35
390
0
 62
     7
 48
0.005274
100
AcDbLine
 10
859.819397
 20
176.046951
 30
0.0
 11
859.879883
 21
176.249039
 31
0.0
210
0.0
220
0.0
230
1.0
  0
ARC
  5
42E
100
AcDbEntity
  8
0
370
    35
390
0
 62
     7
100
AcDbCircle
 10
859.723572
 20
176.075638
 30
0.0
 40
0.1
210
0.0
220
0.0
230
1.0
100
AcDbArc
 50
196.667228
 51
343.332774
  0
LINE
  5
42F
100
AcDbEntity
  8
0
370
    35
390
0
 62
     7
 48
0.005274
100
AcDbLine
 10
859.627747
 20
176.046951
 30
0.0
 11
859.567261
 21
176.249039
 31
0.0
210
0.0
220
0.0
230
1.0
  0
ARC
  5
430
100
AcDbEntity
  8
0
370
    35
390
0
 62
     7
100
AcDbCircle
 10
859.423584
 20
176.206024
 30
0.0
 40
0.15
210
0.0
220
0.0
230
1.0
100
AcDbArc
 50
16.667233
 51
103.332771
  0
LINE
  5
431
100
AcDbEntity
  8
0
370
    35
390
0
 62
     7
 48
0.005274
100
AcDbLine
 10
859.183716
 20
176.303329
 30
0.0
 11
859.388977
 21
176.351974
 31
0.0
210
0.0
220
0.0
230
1.0
  0
ARC
  5
432
100
AcDbEntity
  8
0
370
    35
390
0
 62
     7
100
AcDbCircle
 10
859.160645
 20
176.400635
 30
0.0
 40
0.1
210
0.0
220
0.0
230
1.0
100
AcDbArc
 50
136.667236
 51
283.332766
  0
LINE
  5
433
100
AcDbEntity
  8
0
370
    35
390
0
 62
     7
 48
0.005274
100
AcDbLine
 10
859.087891
 20
176.469254
 30
0.0
 11
859.232666
 21
176.622696
 31
0.0
210
0.0
220
0.0
230
1.0
  0
ARC
  5
434
100
AcDbEntity
  8
0
370
    35
390
0
 62
     7
100
AcDbCircle
 10
859.123596
 20
176.725632
 30
0.0
 40
0.15
210
0.0
220
0.0
230
1.0
100
AcDbArc
 50
316.667231
 51
43.332769
  0
LINE
  5
435
100
AcDbEntity
  8
0
370
    35
390
0
 62
     7
 48
0.005274
100
AcDbLine
 10
859.087891
 20
176.98201
 30
0.0
 11
859.232666
 21
176.828568
 31
0.0
210
0.0
220
0.0
230
1.0
  0
ARC
  5
436
100
AcDbEntity
  8
0
370
    35
390
0
 62
     7
100
AcDbCircle
 10
859.160645
 20
177.050629
 30
0.0
 40
0.1
210
0.0
220
0.0
230
1.0
100
AcDbArc
 50
76.667234
 51
223.332764
  0
LINE
  5
437
100
AcDbEntity
  8
0
370
    35
390
0
 62
     7
 48
0.005274
100
AcDbLine
 10
959.183716
 20
177.147934
 30
0.0
 11
959.388977
 21
177.099289
 31
0.0
210
0.0
220
0.0
230
1.0
  0
ARC
  5
438
100
AcDbEntity
  8
0
370
    35
390
0
 62
     7
100
AcDbCircle
 10
959.423584
 20
177.245255
 30
0.0
 40
0.15
210
0.0
220
0.0
230
1.0
100
AcDbArc
 50
256.667229
 51
343.332771
  0
LINE
  5
439
100
AcDbEntity
  8
0
370
    35
390
0
 62
     7
 48
0.005274
100
AcDbLine
 10
959.627747
 20
177.404312
 30
0.0
 11
959.567261
 21
177.202225
 31
0.0
210
0.0
220
0.0
230
1.0
  0
ARC
  5
43A
100
AcDbEntity
  8
0
370
    35
390
0
 62
     7
100
AcDbCircle
 10
959.723572
 20
177.375641
 30
0.0
 40
0.1
210
0.0
220
0.0
230
1.0
100
AcDbArc
 50
16.667231
 51
163.332772
  0
LINE
  5
43B
100
AcDbEntity
  8
0
370
    35
390
0
 62
     7
 48
0.005274
100
AcDbLine
 10
959.819397
 20
177.404312
 30
0.0
 11
959.879883
 21
177.202225
 31
0.0
210
0.0
220
0.0
230
1.0
  0
ARC
  5
43C
100
AcDbEntity
  8
0
370
    35
390
0
 62
     7
100
AcDbCircle
 10
960.02356
 20
177.245255
 30
0.0
 40
0.15
210
0.0
220
0.0
230
1.0
100
AcDbArc
 50
196.667228
 51
283.332773
  0
LINE
  5
43D
100
AcDbEntity
  8
0
370
    35
390
0
 62
     7
 48
0.005274
100
AcDbLine
 10
960.263428
 20
177.147934
 30
0.0
 11
960.058167
 21
177.099289
 31
0.0
210
0.0
220
0.0
230
1.0
  0
ARC
  5
43E
100
AcDbEntity
  8
0
370
    35
390
0
 62
     7
100
AcDbCircle
 10
960.286499
 20
177.050629
 30
0.0
 40
0.1
210
0.0
220
0.0
230
1.0
100
AcDbArc
 50
316.667231
 51
103.332764
  0
LINE
  5
43F
100
AcDbEntity
  8
0
370
    35
390
0
 62
     7
 48
0.005274
100
AcDbLine
 10
960.359253
 20
176.98201
 30
0.0
 11
960.214478
 21
176.828568
 31
0.0
210
0.0
220
0.0
230
1.0
  0
ARC
  5
440
100
AcDbEntity
  8
0
370
    35
390
0
 62
     7
100
AcDbCircle
 10
960.323547
 20
176.725632
 30
0.0
 40
0.15
210
0.0
220
0.0
230
1.0
100
AcDbArc
 50
136.667236
 51
223.332764
  0
LINE
  5
441
100
AcDbEntity
  8
0
370
    35
390
0
 62
     7
 48
0.005274
100
AcDbLine
 10
960.359253
 20
176.469254
 30
0.0
 11
960.214478
 21
176.622696
 31
0.0
210
0.0
220
0.0
230
1.0
  0
ARC
  5
442
100
AcDbEntity
  8
0
370
    35
390
0
 62
     7
100
AcDbCircle
 10
960.286499
 20
176.400635
 30
0.0
 40
0.1
210
0.0
220
0.0
230
1.0
100
AcDbArc
 50
256.667236
 51
43.332773
  0
LINE
  5
443
100
AcDbEntity
  8
0
370
    35
390
0
 62
     7
 48
0.005274
100
AcDbLine
 10
960.263428
 20
176.303329
 30
0.0
 11
960.058167
 21
176.351974
 31
0.0
210
0.0
220
0.0
230
1.0
  0
ARC
  5
444
100
AcDbEntity
  8
0
370
    35
390
0
 62
     7
100
AcDbCircle
 10
960.02356
 20
176.206024
 30
0.0
 40
0.15
210
0.0
220
0.0
230
1.0
100
AcDbArc
 50
76.667227
 51
163.332772
  0
LINE
  5
445
100
AcDbEntity
  8
0
370
    35
390
0
 62
     7
 48
0.005274
100
AcDbLine
 10
959.819397
 20
176.046951
 30
0.0
 11
959.879883
 21
176.249039
 31
0.0
210
0.0
220
0.0
230
1.0
  0
ARC
  5
446
100
AcDbEntity
  8
0
370
    35
390
0
 62
     7
100
AcDbCircle
 10
959.723572
 20
176.075638
 30
0.0
 40
0.1
210
0.0
220
0.0
230
1.0
100
AcDbArc
 50
196.667228
 51
343.332774
  0
LINE
  5
447
100
AcDbEntity
  8
0
370
    35
390
0
 62
     7
 48
0.005274
100
AcDbLine
 10
959.627747
 20
176.046951
 30
0.0
 11
959.567261
 21
176.249039
 31
0.0
210
0.0
220
0.0
230
1.0
  0
ARC
  5
448
100
AcDbEntity
  8
0
370
    35
390
0
 62
     7
100
AcDbCircle
 10
959.423584
 20
176.206024
 30
0.0
 40
0.15
210
0.0
220
0.0
230
1.0
100
AcDbArc
 50
16.667233
 51
103.332771
  0
LINE
  5
449
100
AcDbEntity
  8
0
370
    35
390
0
 62
     7
 48
0.005274
100
AcDbLine
 10
959.183716
 20
176.303329
 30
0.0
 11
959.388977
 21
176.351974
 31
0.0
210
0.0
220
0.0
230
1.0
  0
ARC
  5
44A
100
AcDbEntity
  8
0
370
    35
390
0
 62
     7
100
AcDbCircle
 10
959.160645
 20
176.400635
 30
0.0
 40
0.1
210
0.0
220
0.0
230
1.0
100
AcDbArc
 50
136.667236
 51
283.332766
  0
LINE
  5
44B
100
AcDbEntity
  8
0
370
    35
390
0
 62
     7
 48
0.005274
100
AcDbLine
 10
959.087891
 20
176.469254
 30
0.0
 11
959.232666
 21
176.622696
 31
0.0
210
0.0
220
0.0
230
1.0
  0
ARC
  5
44C
100
AcDbEntity
  8
0
370
    35
390
0
 62
     7
100
AcDbCircle
 10
959.123596
 20
176.725632
 30
0.0
 40
0.15
210
0.0
220
0.0
230
1.0
100
AcDbArc
 50
316.667231
 51
43.332769
  0
LINE
  5
44D
100
AcDbEntity
  8
0
370
    35
390
0
 62
     7
 48
0.005274
100
AcDbLine
 10
959.087891
 20
176.98201
 30
0.0
 11
959.232666
 21
176.828568
 31
0.0
210
0.0
220
0.0
230
1.0
  0
ARC
  5
44E
100
AcDbEntity
  8
0
370
    35
390
0
 62
     7
100
AcDbCircle
 10
959.160645
 20
177.050629
 30
0.0
 40
0.1
210
0.0
220
0.0
230
1.0
100
AcDbArc
 50
76.667234
 51
223.332764
  0
LINE
  5
44F
100
AcDbEntity
  8
0
370
    35
390
0
 62
     7
 48
0.005269
100
AcDbLine
 10
1159.183838
 20
177.147934
 30
0.0
 11
1159.388916
 21
177.099289
 31
0.0
210
0.0
220
0.0
230
1.0
  0
ARC
  5
450
100
AcDbEntity
  8
0
370
    35
390
0
 62
     7
100
AcDbCircle
 10
1159.423584
 20
177.245255
 30
0.0
 40
0.15
210
0.0
220
0.0
230
1.0
100
AcDbArc
 50
256.667229
 51
343.332771
  0
LINE
  5
451
100
AcDbEntity
  8
0
370
    35
390
0
 62
     7
 48
0.005272
100
AcDbLine
 10
1159.627686
 20
177.404312
 30
0.0
 11
1159.567383
 21
177.202225
 31
0.0
210
0.0
220
0.0
230
1.0
  0
ARC
  5
452
100
AcDbEntity
  8
0
370
    35
390
0
 62
     7
100
AcDbCircle
 10
1159.723633
 20
177.375641
 30
0.0
 40
0.1
210
0.0
220
0.0
230
1.0
100
AcDbArc
 50
16.667234
 51
163.332759
  0
LINE
  5
453
100
AcDbEntity
  8
0
370
    35
390
0
 62
     7
 48
0.005274
100
AcDbLine
 10
1159.819336
 20
177.404312
 30
0.0
 11
1159.879883
 21
177.202225
 31
0.0
210
0.0
220
0.0
230
1.0
  0
ARC
  5
454
100
AcDbEntity
  8
0
370
    35
390
0
 62
     7
100
AcDbCircle
 10
1160.023682
 20
177.245255
 30
0.0
 40
0.15
210
0.0
220
0.0
230
1.0
100
AcDbArc
 50
196.667228
 51
283.332773
  0
LINE
  5
455
100
AcDbEntity
  8
0
370
    35
390
0
 62
     7
 48
0.005275
100
AcDbLine
 10
1160.263428
 20
177.147934
 30
0.0
 11
1160.058105
 21
177.099289
 31
0.0
210
0.0
220
0.0
230
1.0
  0
ARC
  5
456
100
AcDbEntity
  8
0
370
    35
390
0
 62
     7
100
AcDbCircle
 10
1160.286377
 20
177.050629
 30
0.0
 40
0.1
210
0.0
220
0.0
230
1.0
100
AcDbArc
 50
316.667234
 51
103.332757
  0
LINE
  5
457
100
AcDbEntity
  8
0
370
    35
390
0
 62
     7
 48
0.005274
100
AcDbLine
 10
1160.359131
 20
176.98201
 30
0.0
 11
1160.214355
 21
176.828568
 31
0.0
210
0.0
220
0.0
230
1.0
  0
ARC
  5
458
100
AcDbEntity
  8
0
370
    35
390
0
 62
     7
100
AcDbCircle
 10
1160.323486
 20
176.725632
 30
0.0
 40
0.15
210
0.0
220
0.0
230
1.0
100
AcDbArc
 50
136.667236
 51
223.332764
  0
LINE
  5
459
100
AcDbEntity
  8
0
370
    35
390
0
 62
     7
 48
0.005274
100
AcDbLine
 10
1160.359131
 20
176.469254
 30
0.0
 11
1160.214355
 21
176.622696
 31
0.0
210
0.0
220
0.0
230
1.0
  0
ARC
  5
45A
100
AcDbEntity
  8
0
370
    35
390
0
 62
     7
100
AcDbCircle
 10
1160.286377
 20
176.400635
 30
0.0
 40
0.1
210
0.0
220
0.0
230
1.0
100
AcDbArc
 50
256.667236
 51
43.332769
  0
LINE
  5
45B
100
AcDbEntity
  8
0
370
    35
390
0
 62
     7
 48
0.005275
100
AcDbLine
 10
1160.263428
 20
176.303329
 30
0.0
 11
1160.058105
 21
176.351974
 31
0.0
210
0.0
220
0.0
230
1.0
  0
ARC
  5
45C
100
AcDbEntity
  8
0
370
    35
390
0
 62
     7
100
AcDbCircle
 10
1160.023682
 20
176.206024
 30
0.0
 40
0.15
210
0.0
220
0.0
230
1.0
100
AcDbArc
 50
76.667227
 51
163.332772
  0
LINE
  5
45D
100
AcDbEntity
  8
0
370
    35
390
0
 62
     7
 48
0.005274
100
AcDbLine
 10
1159.819336
 20
176.046951
 30
0.0
 11
1159.879883
 21
176.249039
 31
0.0
210
0.0
220
0.0
230
1.0
  0
ARC
  5
45E
100
AcDbEntity
  8
0
370
    35
390
0
 62
     7
100
AcDbCircle
 10
1159.723633
 20
176.075638
 30
0.0
 40
0.1
210
0.0
220
0.0
230
1.0
100
AcDbArc
 50
196.667228
 51
343.332764
  0
LINE
  5
45F
100
AcDbEntity
  8
0
370
    35
390
0
 62
     7
 48
0.005272
100
AcDbLine
 10
1159.627686
 20
176.046951
 30
0.0
 11
1159.567383
 21
176.249039
 31
0.0
210
0.0
220
0.0
230
1.0
  0
ARC
  5
460
100
AcDbEntity
  8
0
370
    35
390
0
 62
     7
100
AcDbCircle
 10
1159.423584
 20
176.206024
 30
0.0
 40
0.15
210
0.0
220
0.0
230
1.0
100
AcDbArc
 50
16.667233
 51
103.332771
  0
LINE
  5
461
100
AcDbEntity
  8
0
370
    35
390
0
 62
     7
 48
0.005269
100
AcDbLine
 10
1159.183838
 20
176.303329
 30
0.0
 11
1159.388916
 21
176.351974
 31
0.0
210
0.0
220
0.0
230
1.0
  0
ARC
  5
462
100
AcDbEntity
  8
0
370
    35
390
0
 62
     7
100
AcDbCircle
 10
1159.160645
 20
176.400635
 30
0.0
 40
0.1
210
0.0
220
0.0
230
1.0
100
AcDbArc
 50
136.667236
 51
283.332766
  0
LINE
  5
463
100
AcDbEntity
  8
0
370
    35
390
0
 62
     7
 48
0.005274
100
AcDbLine
 10
1159.087891
 20
176.469254
 30
0.0
 11
1159.232666
 21
176.622696
 31
0.0
210
0.0
220
0.0
230
1.0
  0
ARC
  5
464
100
AcDbEntity
  8
0
370
    35
390
0
 62
     7
100
AcDbCircle
 10
1159.123535
 20
176.725632
 30
0.0
 40
0.15
210
0.0
220
0.0
230
1.0
100
AcDbArc
 50
316.667231
 51
43.332769
  0
LINE
  5
465
100
AcDbEntity
  8
0
370
    35
390
0
 62
     7
 48
0.005274
100
AcDbLine
 10
1159.087891
 20
176.98201
 30
0.0
 11
1159.232666
 21
176.828568
 31
0.0
210
0.0
220
0.0
230
1.0
  0
ARC
  5
466
100
AcDbEntity
  8
0
370
    35
390
0
 62
     7
100
AcDbCircle
 10
1159.160645
 20
177.050629
 30
0.0
 40
0.1
210
0.0
220
0.0
230
1.0
100
AcDbArc
 50
76.667234
 51
223.332764
  0
LINE
  5
467
100
AcDbEntity
  8
0
370
    35
390
0
 62
     7
 48
0.089799
100
AcDbLine
 10
254.223572
 20
152.625641
 30
0.0
 11
254.223572
 21
149.033676
 31
0.0
210
0.0
220
0.0
230
1.0
  0
LINE
  5
468
100
AcDbEntity
  8
0
370
    35
390
0
 62
     7
 48
0.02685
100
AcDbLine
 10
265.223572
 20
140.196869
 30
0.0
 11
265.223572
 21
141.270859
 31
0.0
210
0.0
220
0.0
230
1.0
  0
LINE
  5
469
100
AcDbEntity
  8
0
370
    35
390
0
 62
     7
 48
0.070605
100
AcDbLine
 10
255.223572
 20
144.095078
 30
0.0
 11
255.223572
 21
141.270859
 31
0.0
210
0.0
220
0.0
230
1.0
  0
LINE
  5
46A
100
AcDbEntity
  8
0
370
    35
390
0
 62
     7
 48
0.25
100
AcDbLine
 10
265.223572
 20
144.095078
 30
0.0
 11
255.223572
 21
144.095078
 31
0.0
210
0.0
220
0.0
230
1.0
  0
LINE
  5
46B
100
AcDbEntity
  8
0
370
    35
390
0
 62
     7
 48
0.081528
100
AcDbLine
 10
265.223572
 20
147.356201
 30
0.0
 11
265.223572
 21
144.095078
 31
0.0
210
0.0
220
0.0
230
1.0
  0
LINE
  5
46C
100
AcDbEntity
  8
0
370
    35
390
0
 62
     7
 48
0.25
100
AcDbLine
 10
265.223572
 20
147.356201
 30
0.0
 11
255.223572
 21
147.356201
 31
0.0
210
0.0
220
0.0
230
1.0
  0
LINE
  5
46D
100
AcDbEntity
  8
0
370
    35
390
0
 62
     7
 48
0.070605
100
AcDbLine
 10
255.223572
 20
150.180405
 30
0.0
 11
255.223572
 21
147.356201
 31
0.0
210
0.0
220
0.0
230
1.0
  0
LINE
  5
46E
100
AcDbEntity
  8
0
370
    35
390
0
 62
     7
 48
0.040764
100
AcDbLine
 10
265.223572
 20
151.810974
 30
0.0
 11
265.223572
 21
150.180405
 31
0.0
210
0.0
220
0.0
230
1.0
  0
LINE
  5
46F
100
AcDbEntity
  8
0
370
    35
390
0
 62
     7
 48
0.25
100
AcDbLine
 10
265.223572
 20
151.810974
 30
0.0
 11
255.223572
 21
151.810974
 31
0.0
210
0.0
220
0.0
230
1.0
  0
LINE
  5
470
100
AcDbEntity
  8
0
370
    35
390
0
 62
     7
 48
0.005367
100
AcDbLine
 10
255.223572
 20
152.025635
 30
0.0
 11
255.223572
 21
151.810974
 31
0.0
210
0.0
220
0.0
230
1.0
  0
LINE
  5
471
100
AcDbEntity
  8
0
370
    35
390
0
 62
     7
 48
0.005367
100
AcDbLine
 10
255.223572
 20
139.640305
 30
0.0
 11
255.223572
 21
139.425629
 31
0.0
210
0.0
220
0.0
230
1.0
  0
LINE
  5
472
100
AcDbEntity
  8
0
370
    35
390
0
 62
     7
 48
0.25
100
AcDbLine
 10
265.223572
 20
139.640305
 30
0.0
 11
255.223572
 21
139.640305
 31
0.0
210
0.0
220
0.0
230
1.0
  0
LINE
  5
473
100
AcDbEntity
  8
0
370
    35
390
0
 62
     7
 48
0.013914
100
AcDbLine
 10
265.223572
 20
139.640305
 30
0.0
 11
265.223572
 21
140.196869
 31
0.0
210
0.0
220
0.0
230
1.0
  0
LINE
  5
474
100
AcDbEntity
  8
0
370
    35
390
0
 62
     7
 48
0.005478
100
AcDbLine
 10
265.223572
 20
141.48996
 30
0.0
 11
265.223572
 21
141.270859
 31
0.0
210
0.0
220
0.0
230
1.0
  0
LINE
  5
475
100
AcDbEntity
  8
0
370
    35
390
0
 62
     7
 48
0.001782
100
AcDbLine
 10
265.223572
 20
139.640305
 30
0.0
 11
265.223572
 21
139.569016
 31
0.0
210
0.0
220
0.0
230
1.0
  0
LINE
  5
476
100
AcDbEntity
  8
0
370
    35
390
0
 62
     7
 48
0.013033
100
AcDbLine
 10
265.223572
 20
141.270859
 30
0.0
 11
264.723572
 21
141.12323
 31
0.0
210
0.0
220
0.0
230
1.0
  0
LINE
  5
477
100
AcDbEntity
  8
0
370
    35
390
0
 62
     7
 48
0.225
100
AcDbLine
 10
264.723572
 20
141.12323
 30
0.0
 11
255.723572
 21
141.12323
 31
0.0
210
0.0
220
0.0
230
1.0
  0
LINE
  5
478
100
AcDbEntity
  8
0
370
    35
390
0
 62
     7
 48
0.013033
100
AcDbLine
 10
255.223572
 20
141.270859
 30
0.0
 11
255.723572
 21
141.12323
 31
0.0
210
0.0
220
0.0
230
1.0
  0
LINE
  5
479
100
AcDbEntity
  8
0
370
    35
390
0
 62
     7
 48
0.016061
100
AcDbLine
 10
255.223572
 20
144.095078
 30
0.0
 11
255.723572
 21
143.691711
 31
0.0
210
0.0
220
0.0
230
1.0
  0
LINE
  5
47A
100
AcDbEntity
  8
0
370
    35
390
0
 62
     7
 48
0.064212
100
AcDbLine
 10
255.723572
 20
141.12323
 30
0.0
 11
255.723572
 21
143.691711
 31
0.0
210
0.0
220
0.0
230
1.0
  0
LINE
  5
47B
100
AcDbEntity
  8
0
370
    35
390
0
 62
     7
 48
0.225
100
AcDbLine
 10
264.723572
 20
143.691711
 30
0.0
 11
255.723572
 21
143.691711
 31
0.0
210
0.0
220
0.0
230
1.0
  0
LINE
  5
47C
100
AcDbEntity
  8
0
370
    35
390
0
 62
     7
 48
0.016061
100
AcDbLine
 10
265.223572
 20
144.095078
 30
0.0
 11
264.723572
 21
143.691711
 31
0.0
210
0.0
220
0.0
230
1.0
  0
LINE
  5
47D
100
AcDbEntity
  8
0
370
    35
390
0
 62
     7
 48
0.007259
100
AcDbLine
 10
265.223572
 20
147.646576
 30
0.0
 11
265.223572
 21
147.356201
 31
0.0
210
0.0
220
0.0
230
1.0
  0
LINE
  5
47E
100
AcDbEntity
  8
0
370
    35
390
0
 62
     7
 48
0.007259
100
AcDbLine
 10
265.223572
 20
144.095078
 30
0.0
 11
265.223572
 21
143.804703
 31
0.0
210
0.0
220
0.0
230
1.0
  0
LINE
  5
47F
100
AcDbEntity
  8
0
370
    35
390
0
 62
     7
 48
0.01606
100
AcDbLine
 10
265.223572
 20
147.356201
 30
0.0
 11
264.723572
 21
147.759552
 31
0.0
210
0.0
220
0.0
230
1.0
  0
LINE
  5
480
100
AcDbEntity
  8
0
370
    35
390
0
 62
     7
 48
0.225
100
AcDbLine
 10
264.723572
 20
147.759552
 30
0.0
 11
255.723572
 21
147.759552
 31
0.0
210
0.0
220
0.0
230
1.0
  0
LINE
  5
481
100
AcDbEntity
  8
0
370
    35
390
0
 62
     7
 48
0.01606
100
AcDbLine
 10
255.223572
 20
147.356201
 30
0.0
 11
255.723572
 21
147.759552
 31
0.0
210
0.0
220
0.0
230
1.0
  0
LINE
  5
482
100
AcDbEntity
  8
0
370
    35
390
0
 62
     7
 48
0.064212
100
AcDbLine
 10
255.723572
 20
147.759552
 30
0.0
 11
255.723572
 21
150.328049
 31
0.0
210
0.0
220
0.0
230
1.0
  0
LINE
  5
483
100
AcDbEntity
  8
0
370
    35
390
0
 62
     7
 48
0.013034
100
AcDbLine
 10
255.223572
 20
150.180405
 30
0.0
 11
255.723572
 21
150.328049
 31
0.0
210
0.0
220
0.0
230
1.0
  0
LINE
  5
484
100
AcDbEntity
  8
0
370
    35
390
0
 62
     7
 48
0.225
100
AcDbLine
 10
264.723572
 20
150.328049
 30
0.0
 11
255.723572
 21
150.328049
 31
0.0
210
0.0
220
0.0
230
1.0
  0
LINE
  5
485
100
AcDbEntity
  8
0
370
    35
390
0
 62
     7
 48
0.013034
100
AcDbLine
 10
265.223572
 20
150.180405
 30
0.0
 11
264.723572
 21
150.328049
 31
0.0
210
0.0
220
0.0
230
1.0
  0
LINE
  5
486
100
AcDbEntity
  8
0
370
    35
390
0
 62
     7
 48
0.001782
100
AcDbLine
 10
265.223572
 20
151.882263
 30
0.0
 11
265.223572
 21
151.810974
 31
0.0
210
0.0
220
0.0
230
1.0
  0
LINE
  5
487
100
AcDbEntity
  8
0
370
    35
390
0
 62
     7
 48
0.005477
100
AcDbLine
 10
265.223572
 20
150.180405
 30
0.0
 11
265.223572
 21
149.961319
 31
0.0
210
0.0
220
0.0
230
1.0
  0
ARC
  5
488
100
AcDbEntity
  8
0
370
    35
390
0
 62
     7
100
AcDbCircle
 10
216.913879
 20
108.472702
 30
0.0
 40
64.90017
210
0.0
220
0.0
230
1.0
100
AcDbArc
 50
41.895048
 51
42.551915
  0
LINE
  5
489
100
AcDbEntity
  8
0
370
    35
390
0
 62
     7
 48
0.225
100
AcDbLine
 10
264.723572
 20
152.361969
 30
0.0
 11
255.723572
 21
152.361969
 31
0.0
210
0.0
220
0.0
230
1.0
  0
ARC
  5
48A
100
AcDbEntity
  8
0
370
    35
390
0
 62
     7
100
AcDbCircle
 10
303.533264
 20
108.472702
 30
0.0
 40
64.90017
210
0.0
220
0.0
230
1.0
100
AcDbArc
 50
137.44809
 51
138.10495
  0
LINE
  5
48B
100
AcDbEntity
  8
0
370
    35
390
0
 62
     7
 48
0.004092
100
AcDbLine
 10
255.723572
 20
152.361969
 30
0.0
 11
255.723572
 21
152.525635
 31
0.0
210
0.0
220
0.0
230
1.0
  0
LINE
  5
48C
100
AcDbEntity
  8
0
370
    35
390
0
 62
     7
 48
0.004092
100
AcDbLine
 10
255.723572
 20
138.925629
 30
0.0
 11
255.723572
 21
139.089294
 31
0.0
210
0.0
220
0.0
230
1.0
  0
ARC
  5
48D
100
AcDbEntity
  8
0
370
    35
390
0
 62
     7
100
AcDbCircle
 10
303.526245
 20
182.972183
 30
0.0
 40
64.890675
210
0.0
220
0.0
230
1.0
100
AcDbArc
 50
221.894996
 51
222.551964
  0
LINE
  5
48E
100
AcDbEntity
  8
0
370
    35
390
0
 62
     7
 48
0.225
100
AcDbLine
 10
264.723572
 20
139.089294
 30
0.0
 11
255.723572
 21
139.089294
 31
0.0
210
0.0
220
0.0
230
1.0
  0
ARC
  5
48F
100
AcDbEntity
  8
0
370
    35
390
0
 62
     7
100
AcDbCircle
 10
216.913879
 20
182.978561
 30
0.0
 40
64.900172
210
0.0
220
0.0
230
1.0
100
AcDbArc
 50
317.448085
 51
318.104952
  0
LINE
  5
490
100
AcDbEntity
  8
0
370
    35
390
0
 62
     7
 48
0.064212
100
AcDbLine
 10
264.723572
 20
143.691711
 30
0.0
 11
264.723572
 21
141.12323
 31
0.0
210
0.0
220
0.0
230
1.0
  0
LINE
  5
491
100
AcDbEntity
  8
0
370
    35
390
0
 62
     7
 48
0.057869
100
AcDbLine
 10
265.223572
 20
143.804703
 30
0.0
 11
265.223572
 21
141.48996
 31
0.0
210
0.0
220
0.0
230
1.0
  0
LINE
  5
492
100
AcDbEntity
  8
0
370
    35
390
0
 62
     7
 48
0.003585
100
AcDbLine
 10
265.223572
 20
139.569016
 30
0.0
 11
265.223572
 21
139.425629
 31
0.0
210
0.0
220
0.0
230
1.0
  0
LINE
  5
493
100
AcDbEntity
  8
0
370
    35
390
0
 62
     7
 48
0.004092
100
AcDbLine
 10
264.723572
 20
139.089294
 30
0.0
 11
264.723572
 21
138.925629
 31
0.0
210
0.0
220
0.0
230
1.0
  0
ARC
  5
494
100
AcDbEntity
  8
0
370
    35
390
0
 62
     7
100
AcDbCircle
 10
269.477966
 20
140.52948
 30
0.0
 40
2.691812
210
0.0
220
0.0
230
1.0
100
AcDbArc
 50
339.094222
 51
20.905778
  0
LINE
  5
495
100
AcDbEntity
  8
0
370
    35
390
0
 62
     7
 48
0.169221
100
AcDbLine
 10
271.992401
 20
141.48996
 30
0.0
 11
265.223572
 21
141.48996
 31
0.0
210
0.0
220
0.0
230
1.0
  0
LINE
  5
496
100
AcDbEntity
  8
0
370
    35
390
0
 62
     7
 48
0.169221
100
AcDbLine
 10
265.223572
 20
139.569016
 30
0.0
 11
271.992401
 21
139.569016
 31
0.0
210
0.0
220
0.0
230
1.0
  0
ARC
  5
497
100
AcDbEntity
  8
0
370
    35
390
0
 62
     7
100
AcDbCircle
 10
261.665955
 20
145.725632
 30
0.0
 40
10.504325
210
0.0
220
0.0
230
1.0
100
AcDbArc
 50
349.462237
 51
10.537763
  0
LINE
  5
498
100
AcDbEntity
  8
0
370
    35
390
0
 62
     7
 48
0.169221
100
AcDbLine
 10
271.992401
 20
147.646576
 30
0.0
 11
265.223572
 21
147.646576
 31
0.0
210
0.0
220
0.0
230
1.0
  0
LINE
  5
499
100
AcDbEntity
  8
0
370
    35
390
0
 62
     7
 48
0.169221
100
AcDbLine
 10
265.223572
 20
143.804703
 30
0.0
 11
271.992401
 21
143.804703
 31
0.0
210
0.0
220
0.0
230
1.0
  0
LINE
  5
49A
100
AcDbEntity
  8
0
370
    35
390
0
 62
     7
 48
0.064212
100
AcDbLine
 10
264.723572
 20
150.328049
 30
0.0
 11
264.723572
 21
147.759552
 31
0.0
210
0.0
220
0.0
230
1.0
  0
LINE
  5
49B
100
AcDbEntity
  8
0
370
    35
390
0
 62
     7
 48
0.057869
100
AcDbLine
 10
265.223572
 20
149.961319
 30
0.0
 11
265.223572
 21
147.646576
 31
0.0
210
0.0
220
0.0
230
1.0
  0
LINE
  5
49C
100
AcDbEntity
  8
0
370
    35
390
0
 62
     7
 48
0.003584
100
AcDbLine
 10
265.223572
 20
152.025635
 30
0.0
 11
265.223572
 21
151.882263
 31
0.0
210
0.0
220
0.0
230
1.0
  0
LINE
  5
49D
100
AcDbEntity
  8
0
370
    35
390
0
 62
     7
 48
0.004092
100
AcDbLine
 10
264.723572
 20
152.525635
 30
0.0
 11
264.723572
 21
152.361969
 31
0.0
210
0.0
220
0.0
230
1.0
  0
ARC
  5
49E
100
AcDbEntity
  8
0
370
    35
390
0
 62
     7
100
AcDbCircle
 10
269.477966
 20
150.921783
 30
0.0
 40
2.691812
210
0.0
220
0.0
230
1.0
100
AcDbArc
 50
339.094222
 51
20.905778
  0
LINE
  5
49F
100
AcDbEntity
  8
0
370
    35
390
0
 62
     7
 48
0.169221
100
AcDbLine
 10
271.992401
 20
151.882263
 30
0.0
 11
265.223572
 21
151.882263
 31
0.0
210
0.0
220
0.0
230
1.0
  0
LINE
  5
4A0
100
AcDbEntity
  8
0
370
    35
390
0
 62
     7
 48
0.169221
100
AcDbLine
 10
271.992401
 20
149.961319
 30
0.0
 11
265.223572
 21
149.961319
 31
0.0
210
0.0
220
0.0
230
1.0
  0
LINE
  5
4A1
100
AcDbEntity
  8
0
370
    35
390
0
 62
     7
 48
0.057869
100
AcDbLine
 10
271.992401
 20
143.804703
 30
0.0
 11
271.992401
 21
141.48996
 31
0.0
210
0.0
220
0.0
230
1.0
  0
LINE
  5
4A2
100
AcDbEntity
  8
0
370
    35
390
0
 62
     7
 48
0.003585
100
AcDbLine
 10
271.992401
 20
139.569016
 30
0.0
 11
271.992401
 21
139.425629
 31
0.0
210
0.0
220
0.0
230
1.0
  0
LINE
  5
4A3
100
AcDbEntity
  8
0
370
    35
390
0
 62
     7
 48
0.218215
100
AcDbLine
 10
272.223572
 20
148.554245
 30
0.0
 11
272.223572
 21
139.825638
 31
0.0
210
0.0
220
0.0
230
1.0
  0
LINE
  5
4A4
100
AcDbEntity
  8
0
370
    35
390
0
 62
     7
 48
0.027486
100
AcDbLine
 10
271.992401
 20
148.746017
 30
0.0
 11
271.992401
 21
147.646576
 31
0.0
210
0.0
220
0.0
230
1.0
  0
LINE
  5
4A5
100
AcDbEntity
  8
0
370
    35
390
0
 62
     7
 48
0.030383
100
AcDbLine
 10
271.992401
 20
149.961319
 30
0.0
 11
271.992401
 21
148.746017
 31
0.0
210
0.0
220
0.0
230
1.0
  0
LINE
  5
4A6
100
AcDbEntity
  8
0
370
    35
390
0
 62
     7
 48
0.003584
100
AcDbLine
 10
271.992401
 20
152.025635
 30
0.0
 11
271.992401
 21
151.882263
 31
0.0
210
0.0
220
0.0
230
1.0
  0
LINE
  5
4A7
100
AcDbEntity
  8
0
370
    35
390
0
 62
     7
 48
0.076785
100
AcDbLine
 10
272.223572
 20
151.625641
 30
0.0
 11
272.223572
 21
148.554245
 31
0.0
210
0.0
220
0.0
230
1.0
  0
LINE
  5
4A8
100
AcDbEntity
  8
0
370
    35
390
0
 62
     7
 48
0.24878
100
AcDbLine
 10
277.223572
 20
151.025635
 30
0.0
 11
277.223572
 21
141.074448
 31
0.0
210
0.0
220
0.0
230
1.0
  0
LINE
  5
4A9
100
AcDbEntity
  8
0
370
    35
390
0
 62
     7
 48
0.01622
100
AcDbLine
 10
277.223572
 20
141.074448
 30
0.0
 11
277.223572
 21
140.425629
 31
0.0
210
0.0
220
0.0
230
1.0
  0
LINE
  5
4AA
100
AcDbEntity
  8
0
370
    35
390
0
 62
     7
 48
0.234698
100
AcDbLine
 10
278.223572
 20
150.725632
 30
0.0
 11
278.223572
 21
141.337723
 31
0.0
210
0.0
220
0.0
230
1.0
  0
LINE
  5
4AB
100
AcDbEntity
  8
0
370
    35
390
0
 62
     7
 48
0.015302
100
AcDbLine
 10
278.223572
 20
141.337723
 30
0.0
 11
278.223572
 21
140.725632
 31
0.0
210
0.0
220
0.0
230
1.0
  0
LINE
  5
4AC
100
AcDbEntity
  8
0
370
    35
390
0
 62
     7
 48
0.075373
100
AcDbLine
 10
285.02356
 20
144.725632
 30
0.0
 11
285.02356
 21
141.710693
 31
0.0
210
0.0
220
0.0
230
1.0
  0
LINE
  5
4AD
100
AcDbEntity
  8
0
370
    35
390
0
 62
     7
 48
0.025
100
AcDbLine
 10
286.02356
 20
144.725632
 30
0.0
 11
285.02356
 21
144.725632
 31
0.0
210
0.0
220
0.0
230
1.0
  0
LINE
  5
4AE
100
AcDbEntity
  8
0
370
    35
390
0
 62
     7
 48
0.074002
100
AcDbLine
 10
286.02356
 20
144.725632
 30
0.0
 11
286.02356
 21
141.765549
 31
0.0
210
0.0
220
0.0
230
1.0
  0
LINE
  5
4AF
100
AcDbEntity
  8
0
370
    35
390
0
 62
     7
 48
0.072357
100
AcDbLine
 10
287.223572
 20
144.725632
 30
0.0
 11
287.223572
 21
141.83136
 31
0.0
210
0.0
220
0.0
230
1.0
  0
LINE
  5
4B0
100
AcDbEntity
  8
0
370
    35
390
0
 62
     7
 48
0.025
100
AcDbLine
 10
288.223572
 20
144.725632
 30
0.0
 11
287.223572
 21
144.725632
 31
0.0
210
0.0
220
0.0
230
1.0
  0
LINE
  5
4B1
100
AcDbEntity
  8
0
370
    35
390
0
 62
     7
 48
0.070985
100
AcDbLine
 10
288.223572
 20
144.725632
 30
0.0
 11
288.223572
 21
141.886215
 31
0.0
210
0.0
220
0.0
230
1.0
  0
LINE
  5
4B2
100
AcDbEntity
  8
0
370
    35
390
0
 62
     7
 48
0.199493
100
AcDbLine
 10
290.223572
 20
149.975632
 30
0.0
 11
290.223572
 21
141.995911
 31
0.0
210
0.0
220
0.0
230
1.0
  0
LINE
  5
4B3
100
AcDbEntity
  8
0
370
    35
390
0
 62
     7
 48
0.084375
100
AcDbLine
 10
288.223572
 20
150.100632
 30
0.0
 11
288.223572
 21
146.725632
 31
0.0
210
0.0
220
0.0
230
1.0
  0
LINE
  5
4B4
100
AcDbEntity
  8
0
370
    35
390
0
 62
     7
 48
0.025
100
AcDbLine
 10
288.223572
 20
146.725632
 30
0.0
 11
287.223572
 21
146.725632
 31
0.0
210
0.0
220
0.0
230
1.0
  0
LINE
  5
4B5
100
AcDbEntity
  8
0
370
    35
390
0
 62
     7
 48
0.085938
100
AcDbLine
 10
287.223572
 20
150.163132
 30
0.0
 11
287.223572
 21
146.725632
 31
0.0
210
0.0
220
0.0
230
1.0
  0
LINE
  5
4B6
100
AcDbEntity
  8
0
370
    35
390
0
 62
     7
 48
0.087812
100
AcDbLine
 10
286.02356
 20
150.238129
 30
0.0
 11
286.02356
 21
146.725632
 31
0.0
210
0.0
220
0.0
230
1.0
  0
LINE
  5
4B7
100
AcDbEntity
  8
0
370
    35
390
0
 62
     7
 48
0.025
100
AcDbLine
 10
286.02356
 20
146.725632
 30
0.0
 11
285.02356
 21
146.725632
 31
0.0
210
0.0
220
0.0
230
1.0
  0
LINE
  5
4B8
100
AcDbEntity
  8
0
370
    35
390
0
 62
     7
 48
0.089375
100
AcDbLine
 10
285.02356
 20
150.300629
 30
0.0
 11
285.02356
 21
146.725632
 31
0.0
210
0.0
220
0.0
230
1.0
  0
LINE
  5
4B9
100
AcDbEntity
  8
0
370
    35
390
0
 62
     7
 48
0.09125
100
AcDbLine
 10
283.823578
 20
150.375641
 30
0.0
 11
283.823578
 21
146.725632
 31
0.0
210
0.0
220
0.0
230
1.0
  0
LINE
  5
4BA
100
AcDbEntity
  8
0
370
    35
390
0
 62
     7
 48
0.025
100
AcDbLine
 10
283.823578
 20
146.725632
 30
0.0
 11
282.823578
 21
146.725632
 31
0.0
210
0.0
220
0.0
230
1.0
  0
LINE
  5
4BB
100
AcDbEntity
  8
0
370
    35
390
0
 62
     7
 48
0.092813
100
AcDbLine
 10
282.823578
 20
150.438141
 30
0.0
 11
282.823578
 21
146.725632
 31
0.0
210
0.0
220
0.0
230
1.0
  0
LINE
  5
4BC
100
AcDbEntity
  8
0
370
    35
390
0
 62
     7
 48
0.07839
100
AcDbLine
 10
282.823578
 20
144.725632
 30
0.0
 11
282.823578
 21
141.590027
 31
0.0
210
0.0
220
0.0
230
1.0
  0
LINE
  5
4BD
100
AcDbEntity
  8
0
370
    35
390
0
 62
     7
 48
0.025
100
AcDbLine
 10
283.823578
 20
144.725632
 30
0.0
 11
282.823578
 21
144.725632
 31
0.0
210
0.0
220
0.0
230
1.0
  0
LINE
  5
4BE
100
AcDbEntity
  8
0
370
    35
390
0
 62
     7
 48
0.077019
100
AcDbLine
 10
283.823578
 20
144.725632
 30
0.0
 11
283.823578
 21
141.644867
 31
0.0
210
0.0
220
0.0
230
1.0
  0
LINE
  5
4BF
100
AcDbEntity
  8
0
370
    35
390
0
 62
     7
 48
0.013007
100
AcDbLine
 10
290.223572
 20
141.995911
 30
0.0
 11
290.223572
 21
141.475632
 31
0.0
210
0.0
220
0.0
230
1.0
  0
LINE
  5
4C0
100
AcDbEntity
  8
0
370
    35
390
0
 62
     7
 48
0.01339
100
AcDbLine
 10
288.223572
 20
141.886215
 30
0.0
 11
288.223572
 21
141.350632
 31
0.0
210
0.0
220
0.0
230
1.0
  0
LINE
  5
4C1
100
AcDbEntity
  8
0
370
    35
390
0
 62
     7
 48
0.013581
100
AcDbLine
 10
287.223572
 20
141.83136
 30
0.0
 11
287.223572
 21
141.288132
 31
0.0
210
0.0
220
0.0
230
1.0
  0
LINE
  5
4C2
100
AcDbEntity
  8
0
370
    35
390
0
 62
     7
 48
0.01381
100
AcDbLine
 10
286.02356
 20
141.765549
 30
0.0
 11
286.02356
 21
141.213135
 31
0.0
210
0.0
220
0.0
230
1.0
  0
LINE
  5
4C3
100
AcDbEntity
  8
0
370
    35
390
0
 62
     7
 48
0.014001
100
AcDbLine
 10
285.02356
 20
141.710693
 30
0.0
 11
285.02356
 21
141.150635
 31
0.0
210
0.0
220
0.0
230
1.0
  0
LINE
  5
4C4
100
AcDbEntity
  8
0
370
    35
390
0
 62
     7
 48
0.014231
100
AcDbLine
 10
283.823578
 20
141.644867
 30
0.0
 11
283.823578
 21
141.075638
 31
0.0
210
0.0
220
0.0
230
1.0
  0
LINE
  5
4C5
100
AcDbEntity
  8
0
370
    35
390
0
 62
     7
 48
0.014422
100
AcDbLine
 10
282.823578
 20
141.590027
 30
0.0
 11
282.823578
 21
141.013138
 31
0.0
210
0.0
220
0.0
230
1.0
  0
LINE
  5
4C6
100
AcDbEntity
  8
0
370
    35
390
0
 62
     7
 48
0.003751
100
AcDbLine
 10
287.223572
 20
149.275635
 30
0.0
 11
287.223572
 21
149.12561
 31
0.0
210
0.0
220
0.0
230
1.0
  0
LINE
  5
4C7
100
AcDbEntity
  8
0
370
    35
390
0
 62
     7
 48
0.003751
100
AcDbLine
 10
285.02356
 20
149.275635
 30
0.0
 11
285.02356
 21
149.12561
 31
0.0
210
0.0
220
0.0
230
1.0
  0
LINE
  5
4C8
100
AcDbEntity
  8
0
370
    35
390
0
 62
     7
 48
0.003751
100
AcDbLine
 10
282.823578
 20
149.275635
 30
0.0
 11
282.823578
 21
149.12561
 31
0.0
210
0.0
220
0.0
230
1.0
  0
ARC
  5
4C9
100
AcDbEntity
  8
0
370
    35
390
0
 62
     7
100
AcDbCircle
 10
287.223572
 20
70.725632
 30
0.0
 40
71.6
210
0.0
220
0.0
230
1.0
100
AcDbArc
 50
360.0
 51
87.598638
  0
ARC
  5
4CA
100
AcDbEntity
  8
0
370
    35
390
0
 62
     7
100
AcDbCircle
 10
287.223572
 20
70.725632
 30
0.0
 40
71.6
210
0.0
220
0.0
230
1.0
100
AcDbArc
 50
89.199757
 51
90.000003
  0
ARC
  5
4CB
100
AcDbEntity
  8
0
370
    35
390
0
 62
     7
100
AcDbCircle
 10
287.223572
 20
70.725632
 30
0.0
 40
78.4
210
0.0
220
0.0
230
1.0
100
AcDbArc
 50
89.269165
 51
90.000003
  0
ARC
  5
4CC
100
AcDbEntity
  8
0
370
    35
390
0
 62
     7
100
AcDbCircle
 10
287.223572
 20
70.725632
 30
0.0
 40
78.4
210
0.0
220
0.0
230
1.0
100
AcDbArc
 50
360.0
 51
87.807027
  0
LINE
  5
4CD
100
AcDbEntity
  8
0
370
    35
390
0
 62
     7
 48
0.085
100
AcDbLine
 10
362.223572
 20
60.725632
 30
0.0
 11
358.823578
 21
60.725632
 31
0.0
210
0.0
220
0.0
230
1.0
  0
LINE
  5
4CE
100
AcDbEntity
  8
0
370
    35
390
0
 62
     7
 48
0.085
100
AcDbLine
 10
365.623566
 20
60.725632
 30
0.0
 11
362.223572
 21
60.725632
 31
0.0
210
0.0
220
0.0
230
1.0
  0
ARC
  5
4CF
100
AcDbEntity
  8
0
370
    35
390
0
 62
     7
100
AcDbCircle
 10
159.661682
 20
272.069031
 30
0.0
 40
108.043386
210
0.0
220
0.0
230
1.0
100
AcDbArc
 50
267.373428
 51
269.999622
  0
ARC
  5
4D0
100
AcDbEntity
  8
0
370
    35
390
0
 62
     7
100
AcDbCircle
 10
230.78598
 20
272.039581
 30
0.0
 40
108.013945
210
0.0
220
0.0
230
1.0
100
AcDbArc
 50
270.000107
 51
272.776633
  0
LINE
  5
4D1
100
AcDbEntity
  8
0
370
    35
390
0
 62
     7
 48
0.00433
100
AcDbLine
 10
233.860168
 20
139.825638
 30
0.0
 11
233.946777
 21
139.675629
 31
0.0
210
0.0
220
0.0
230
1.0
  0
LINE
  5
4D2
100
AcDbEntity
  8
0
370
    35
390
0
 62
     7
 48
0.00433
100
AcDbLine
 10
230.586975
 20
139.825638
 30
0.0
 11
230.500366
 21
139.675629
 31
0.0
210
0.0
220
0.0
230
1.0
  0
LINE
  5
4D3
100
AcDbEntity
  8
0
370
    35
390
0
 62
     7
 48
0.00433
100
AcDbLine
 10
233.860168
 20
139.825638
 30
0.0
 11
233.946777
 21
139.675629
 31
0.0
210
0.0
220
0.0
230
1.0
  0
LINE
  5
4D4
100
AcDbEntity
  8
0
370
    35
390
0
 62
     7
 48
0.00625
100
AcDbLine
 10
233.946777
 20
139.425629
 30
0.0
 11
233.946777
 21
139.675629
 31
0.0
210
0.0
220
0.0
230
1.0
  0
LINE
  5
4D5
100
AcDbEntity
  8
0
370
    35
390
0
 62
     7
 48
0.00625
100
AcDbLine
 10
230.500366
 20
139.675629
 30
0.0
 11
230.500366
 21
139.425629
 31
0.0
210
0.0
220
0.0
230
1.0
  0
LINE
  5
4D6
100
AcDbEntity
  8
0
370
    35
390
0
 62
     7
 48
0.00625
100
AcDbLine
 10
233.946777
 20
139.675629
 30
0.0
 11
233.946777
 21
139.425629
 31
0.0
210
0.0
220
0.0
230
1.0
  0
LINE
  5
4D7
100
AcDbEntity
  8
0
370
    35
390
0
 62
     7
100
AcDbLine
 10
1186.923584
 20
167.768768
 30
0.0
 11
132.523575
 21
167.768768
 31
0.0
210
0.0
220
0.0
230
1.0
  0
LINE
  5
4D8
100
AcDbEntity
  8
0
370
    35
390
0
 62
     7
 48
0.007501
100
AcDbLine
 10
1198.723633
 20
173.275635
 30
0.0
 11
1199.023682
 21
173.275635
 31
0.0
210
0.0
220
0.0
230
1.0
  0
LINE
  5
4D9
100
AcDbEntity
  8
0
370
    35
390
0
 62
     7
 48
0.007501
100
AcDbLine
 10
1198.723633
 20
180.775635
 30
0.0
 11
1199.023682
 21
180.775635
 31
0.0
210
0.0
220
0.0
230
1.0
  0
LINE
  5
4DA
100
AcDbEntity
  8
0
370
    35
390
0
 62
     7
 48
0.00707
100
AcDbLine
 10
1199.223633
 20
173.475632
 30
0.0
 11
1199.023682
 21
173.275635
 31
0.0
210
0.0
220
0.0
230
1.0
  0
LINE
  5
4DB
100
AcDbEntity
  8
0
370
    35
390
0
 62
     7
 48
0.00707
100
AcDbLine
 10
1199.223633
 20
180.575638
 30
0.0
 11
1199.023682
 21
180.775635
 31
0.0
210
0.0
220
0.0
230
1.0
  0
LINE
  5
4DC
100
AcDbEntity
  8
0
370
    35
390
0
 62
     7
 48
0.02
100
AcDbLine
 10
120.723564
 20
173.275635
 30
0.0
 11
119.923569
 21
173.275635
 31
0.0
210
0.0
220
0.0
230
1.0
  0
LINE
  5
4DD
100
AcDbEntity
  8
0
370
    35
390
0
 62
     7
 48
0.02
100
AcDbLine
 10
120.723564
 20
180.775635
 30
0.0
 11
119.923569
 21
180.775635
 31
0.0
210
0.0
220
0.0
230
1.0
  0
LINE
  5
4DE
100
AcDbEntity
  8
0
370
    35
390
0
 62
     7
 48
0.007071
100
AcDbLine
 10
119.723572
 20
173.475632
 30
0.0
 11
119.923569
 21
173.275635
 31
0.0
210
0.0
220
0.0
230
1.0
  0
LINE
  5
4DF
100
AcDbEntity
  8
0
370
    35
390
0
 62
     7
 48
0.007071
100
AcDbLine
 10
119.723572
 20
180.575638
 30
0.0
 11
119.923569
 21
180.775635
 31
0.0
210
0.0
220
0.0
230
1.0
  0
LINE
  5
4E0
100
AcDbEntity
  8
0
370
    35
390
0
 62
     7
 48
0.025
100
AcDbLine
 10
255.223572
 20
152.025635
 30
0.0
 11
254.223572
 21
152.025635
 31
0.0
210
0.0
220
0.0
230
1.0
  0
LINE
  5
4E1
100
AcDbEntity
  8
0
370
    35
390
0
 62
     7
 48
0.025
100
AcDbLine
 10
255.223572
 20
139.425629
 30
0.0
 11
254.223572
 21
139.425629
 31
0.0
210
0.0
220
0.0
230
1.0
  0
LINE
  5
4E2
100
AcDbEntity
  8
0
370
    35
390
0
 62
     7
 48
0.017678
100
AcDbLine
 10
255.223572
 20
152.025635
 30
0.0
 11
255.723572
 21
152.525635
 31
0.0
210
0.0
220
0.0
230
1.0
  0
LINE
  5
4E3
100
AcDbEntity
  8
0
370
    35
390
0
 62
     7
 48
0.017678
100
AcDbLine
 10
255.223572
 20
139.425629
 30
0.0
 11
255.723572
 21
138.925629
 31
0.0
210
0.0
220
0.0
230
1.0
  0
LINE
  5
4E4
100
AcDbEntity
  8
0
370
    35
390
0
 62
     7
 48
0.017678
100
AcDbLine
 10
265.223572
 20
139.425629
 30
0.0
 11
264.723572
 21
138.925629
 31
0.0
210
0.0
220
0.0
230
1.0
  0
LINE
  5
4E5
100
AcDbEntity
  8
0
370
    35
390
0
 62
     7
 48
0.017678
100
AcDbLine
 10
265.223572
 20
152.025635
 30
0.0
 11
264.723572
 21
152.525635
 31
0.0
210
0.0
220
0.0
230
1.0
  0
LINE
  5
4E6
100
AcDbEntity
  8
0
370
    35
390
0
 62
     7
 48
0.225
100
AcDbLine
 10
264.723572
 20
152.525635
 30
0.0
 11
255.723572
 21
152.525635
 31
0.0
210
0.0
220
0.0
230
1.0
  0
LINE
  5
4E7
100
AcDbEntity
  8
0
370
    35
390
0
 62
     7
 48
0.225
100
AcDbLine
 10
264.723572
 20
138.925629
 30
0.0
 11
255.723572
 21
138.925629
 31
0.0
210
0.0
220
0.0
230
1.0
  0
LINE
  5
4E8
100
AcDbEntity
  8
0
370
    35
390
0
 62
     7
 48
0.169221
100
AcDbLine
 10
271.992401
 20
139.425629
 30
0.0
 11
265.223572
 21
139.425629
 31
0.0
210
0.0
220
0.0
230
1.0
  0
ARC
  5
4E9
100
AcDbEntity
  8
0
370
    35
390
0
 62
     7
100
AcDbCircle
 10
266.916992
 20
142.625641
 30
0.0
 40
6.000002
210
0.0
220
0.0
230
1.0
100
AcDbArc
 50
327.769051
 51
332.18186
  0
LINE
  5
4EA
100
AcDbEntity
  8
0
370
    35
390
0
 62
     7
 48
0.169221
100
AcDbLine
 10
271.992401
 20
152.025635
 30
0.0
 11
265.223572
 21
152.025635
 31
0.0
210
0.0
220
0.0
230
1.0
  0
ARC
  5
4EB
100
AcDbEntity
  8
0
370
    35
390
0
 62
     7
100
AcDbCircle
 10
266.916992
 20
148.825638
 30
0.0
 40
6.000002
210
0.0
220
0.0
230
1.0
100
AcDbArc
 50
27.81814
 51
32.230949
  0
LINE
  5
4EC
100
AcDbEntity
  8
0
370
    35
390
0
 62
     7
 48
0.125
100
AcDbLine
 10
277.223572
 20
140.725632
 30
0.0
 11
272.223572
 21
140.725632
 31
0.0
210
0.0
220
0.0
230
1.0
  0
LINE
  5
4ED
100
AcDbEntity
  8
0
370
    35
390
0
 62
     7
 48
0.125
100
AcDbLine
 10
277.223572
 20
150.725632
 30
0.0
 11
272.223572
 21
150.725632
 31
0.0
210
0.0
220
0.0
230
1.0
  0
LINE
  5
4EE
100
AcDbEntity
  8
0
370
    35
390
0
 62
     7
 48
0.026101
100
AcDbLine
 10
278.223572
 20
150.725632
 30
0.0
 11
277.223572
 21
151.025635
 31
0.0
210
0.0
220
0.0
230
1.0
  0
LINE
  5
4EF
100
AcDbEntity
  8
0
370
    35
390
0
 62
     7
 48
0.026101
100
AcDbLine
 10
278.223572
 20
140.725632
 30
0.0
 11
277.223572
 21
140.425629
 31
0.0
210
0.0
220
0.0
230
1.0
  0
LINE
  5
4F0
100
AcDbEntity
  8
0
370
    35
390
0
 62
     7
 48
0.050098
100
AcDbLine
 10
290.223572
 20
149.975632
 30
0.0
 11
288.223572
 21
150.100632
 31
0.0
210
0.0
220
0.0
230
1.0
  0
LINE
  5
4F1
100
AcDbEntity
  8
0
370
    35
390
0
 62
     7
 48
0.030059
100
AcDbLine
 10
287.223572
 20
150.163132
 30
0.0
 11
286.02356
 21
150.238129
 31
0.0
210
0.0
220
0.0
230
1.0
  0
LINE
  5
4F2
100
AcDbEntity
  8
0
370
    35
390
0
 62
     7
 48
0.030058
100
AcDbLine
 10
285.02356
 20
150.300629
 30
0.0
 11
283.823578
 21
150.375641
 31
0.0
210
0.0
220
0.0
230
1.0
  0
LINE
  5
4F3
100
AcDbEntity
  8
0
370
    35
390
0
 62
     7
 48
0.115225
100
AcDbLine
 10
282.823578
 20
150.438141
 30
0.0
 11
278.223572
 21
150.725632
 31
0.0
210
0.0
220
0.0
230
1.0
  0
LINE
  5
4F4
100
AcDbEntity
  8
0
370
    35
390
0
 62
     7
 48
0.050098
100
AcDbLine
 10
290.223572
 20
141.475632
 30
0.0
 11
288.223572
 21
141.350632
 31
0.0
210
0.0
220
0.0
230
1.0
  0
LINE
  5
4F5
100
AcDbEntity
  8
0
370
    35
390
0
 62
     7
 48
0.030059
100
AcDbLine
 10
287.223572
 20
141.288132
 30
0.0
 11
286.02356
 21
141.213135
 31
0.0
210
0.0
220
0.0
230
1.0
  0
LINE
  5
4F6
100
AcDbEntity
  8
0
370
    35
390
0
 62
     7
 48
0.030058
100
AcDbLine
 10
285.02356
 20
141.150635
 30
0.0
 11
283.823578
 21
141.075638
 31
0.0
210
0.0
220
0.0
230
1.0
  0
LINE
  5
4F7
100
AcDbEntity
  8
0
370
    35
390
0
 62
     7
 48
0.115225
100
AcDbLine
 10
282.823578
 20
141.013138
 30
0.0
 11
278.223572
 21
140.725632
 31
0.0
210
0.0
220
0.0
230
1.0
  0
LINE
  5
4F8
100
AcDbEntity
  8
0
370
    35
390
0
 62
     7
 48
0.025
100
AcDbLine
 10
286.02356
 20
142.325638
 30
0.0
 11
285.02356
 21
142.325638
 31
0.0
210
0.0
220
0.0
230
1.0
  0
LINE
  5
4F9
100
AcDbEntity
  8
0
370
    35
390
0
 62
     7
 48
0.025
100
AcDbLine
 10
283.823547
 20
142.325638
 30
0.0
 11
282.823547
 21
142.325638
 31
0.0
210
0.0
220
0.0
230
1.0
  0
LINE
  5
4FA
100
AcDbEntity
  8
0
370
    35
390
0
 62
     7
 48
0.025
100
AcDbLine
 10
286.02356
 20
149.125641
 30
0.0
 11
285.02356
 21
149.125641
 31
0.0
210
0.0
220
0.0
230
1.0
  0
LINE
  5
4FB
100
AcDbEntity
  8
0
370
    35
390
0
 62
     7
 48
0.025
100
AcDbLine
 10
283.823547
 20
149.125641
 30
0.0
 11
282.823547
 21
149.125641
 31
0.0
210
0.0
220
0.0
230
1.0
  0
LINE
  5
4FC
100
AcDbEntity
  8
0
370
    35
390
0
 62
     7
 48
0.25
100
AcDbLine
 10
358.823578
 20
60.725632
 30
0.0
 11
358.823578
 21
70.725632
 31
0.0
210
0.0
220
0.0
230
1.0
  0
LINE
  5
4FD
100
AcDbEntity
  8
0
370
    35
390
0
 62
     7
 48
0.25
100
AcDbLine
 10
365.623566
 20
60.725632
 30
0.0
 11
365.623566
 21
70.725632
 31
0.0
210
0.0
220
0.0
230
1.0
  0
LINE
  5
4FE
100
AcDbEntity
  8
0
370
    35
390
0
 62
     7
 48
0.007071
100
AcDbLine
 10
41.303993
 20
165.525635
 30
0.0
 11
41.103992
 21
165.325638
 31
0.0
210
0.0
220
0.0
230
1.0
  0
LINE
  5
4FF
100
AcDbEntity
  8
0
370
    35
390
0
 62
     7
 48
0.05
100
AcDbLine
 10
41.103992
 20
150.525635
 30
0.0
 11
41.103992
 21
148.525635
 31
0.0
210
0.0
220
0.0
230
1.0
  0
LINE
  5
500
100
AcDbEntity
  8
0
370
    35
390
0
 62
     7
 48
0.2
100
AcDbLine
 10
41.103992
 20
158.525635
 30
0.0
 11
41.103992
 21
150.525635
 31
0.0
210
0.0
220
0.0
230
1.0
  0
LINE
  5
501
100
AcDbEntity
  8
0
370
    35
390
0
 62
     7
 48
0.05
100
AcDbLine
 10
41.103992
 20
160.525635
 30
0.0
 11
41.103992
 21
158.525635
 31
0.0
210
0.0
220
0.0
230
1.0
  0
LINE
  5
502
100
AcDbEntity
  8
0
370
    35
390
0
 62
     7
 48
0.025
100
AcDbLine
 10
41.103992
 20
161.525635
 30
0.0
 11
41.103992
 21
160.525635
 31
0.0
210
0.0
220
0.0
230
1.0
  0
LINE
  5
503
100
AcDbEntity
  8
0
370
    35
390
0
 62
     7
 48
0.0325
100
AcDbLine
 10
41.103992
 20
162.825638
 30
0.0
 11
41.103992
 21
161.525635
 31
0.0
210
0.0
220
0.0
230
1.0
  0
LINE
  5
504
100
AcDbEntity
  8
0
370
    35
390
0
 62
     7
 48
0.025
100
AcDbLine
 10
41.103992
 20
163.825638
 30
0.0
 11
41.103992
 21
162.825638
 31
0.0
210
0.0
220
0.0
230
1.0
  0
LINE
  5
505
100
AcDbEntity
  8
0
370
    35
390
0
 62
     7
 48
0.0175
100
AcDbLine
 10
41.103992
 20
164.525635
 30
0.0
 11
41.103992
 21
163.825638
 31
0.0
210
0.0
220
0.0
230
1.0
  0
LINE
  5
506
100
AcDbEntity
  8
0
370
    35
390
0
 62
     7
 48
0.0125
100
AcDbLine
 10
41.103992
 20
164.525635
 30
0.0
 11
41.103992
 21
165.025635
 31
0.0
210
0.0
220
0.0
230
1.0
  0
LINE
  5
507
100
AcDbEntity
  8
0
370
    35
390
0
 62
     7
 48
0.0075
100
AcDbLine
 10
41.103992
 20
165.325638
 30
0.0
 11
41.103992
 21
165.025635
 31
0.0
210
0.0
220
0.0
230
1.0
  0
LINE
  5
508
100
AcDbEntity
  8
0
370
    35
390
0
 62
     7
 48
0.02
100
AcDbLine
 10
42.103992
 20
165.525635
 30
0.0
 11
41.303993
 21
165.525635
 31
0.0
210
0.0
220
0.0
230
1.0
  0
LINE
  5
509
100
AcDbEntity
  8
0
370
    35
390
0
 62
     7
 48
0.0125
100
AcDbLine
 10
41.303993
 20
165.525635
 30
0.0
 11
41.303993
 21
165.025635
 31
0.0
210
0.0
220
0.0
230
1.0
  0
LINE
  5
50A
100
AcDbEntity
  8
0
370
    35
390
0
 62
     7
 48
0.007071
100
AcDbLine
 10
41.303993
 20
148.325638
 30
0.0
 11
41.103992
 21
148.525635
 31
0.0
210
0.0
220
0.0
230
1.0
  0
LINE
  5
50B
100
AcDbEntity
  8
0
370
    35
390
0
 62
     7
 48
0.007071
100
AcDbLine
 10
41.303993
 20
160.325638
 30
0.0
 11
41.103992
 21
160.525635
 31
0.0
210
0.0
220
0.0
230
1.0
  0
LINE
  5
50C
100
AcDbEntity
  8
0
370
    35
390
0
 62
     7
 48
0.0325
100
AcDbLine
 10
41.303993
 20
161.525635
 30
0.0
 11
41.303993
 21
162.825638
 31
0.0
210
0.0
220
0.0
230
1.0
  0
LINE
  5
50D
100
AcDbEntity
  8
0
370
    35
390
0
 62
     7
 48
0.012426
100
AcDbLine
 10
41.303993
 20
164.025635
 30
0.0
 11
41.801048
 21
164.025635
 31
0.0
210
0.0
220
0.0
230
1.0
  0
LINE
  5
50E
100
AcDbEntity
  8
0
370
    35
390
0
 62
     7
 48
0.007071
100
AcDbLine
 10
41.303993
 20
164.025635
 30
0.0
 11
41.103992
 21
163.825638
 31
0.0
210
0.0
220
0.0
230
1.0
  0
LINE
  5
50F
100
AcDbEntity
  8
0
370
    35
390
0
 62
     7
 48
0.0125
100
AcDbLine
 10
41.303993
 20
164.525635
 30
0.0
 11
41.303993
 21
164.025635
 31
0.0
210
0.0
220
0.0
230
1.0
  0
LINE
  5
510
100
AcDbEntity
  8
0
370
    35
390
0
 62
     7
 48
0.0125
100
AcDbLine
 10
41.303993
 20
164.525635
 30
0.0
 11
41.303993
 21
165.025635
 31
0.0
210
0.0
220
0.0
230
1.0
  0
ARC
  5
511
100
AcDbEntity
  8
0
370
    35
390
0
 62
     7
100
AcDbCircle
 10
41.631897
 20
166.325638
 30
0.0
 40
0.8
210
0.0
220
0.0
230
1.0
100
AcDbArc
 50
270.000148
 51
298.152056
  0
LINE
  5
512
100
AcDbEntity
  8
0
370
    35
390
0
 62
     7
 48
0.426967
100
AcDbLine
 10
58.87973
 20
164.025635
 30
0.0
 11
41.801048
 21
164.025635
 31
0.0
210
0.0
220
0.0
230
1.0
  0
LINE
  5
513
100
AcDbEntity
  8
0
370
    35
390
0
 62
     7
 48
0.023107
100
AcDbLine
 10
59.803993
 20
164.025635
 30
0.0
 11
58.87973
 21
164.025635
 31
0.0
210
0.0
220
0.0
230
1.0
  0
LINE
  5
514
100
AcDbEntity
  8
0
370
    35
390
0
 62
     7
100
AcDbLine
 10
41.303993
 20
137.025635
 30
0.0
 11
41.303993
 21
161.525635
 31
0.0
210
0.0
220
0.0
230
1.0
  0
LINE
  5
515
100
AcDbEntity
  8
0
370
    35
390
0
 62
     7
 48
0.0175
100
AcDbLine
 10
41.303993
 20
162.825638
 30
0.0
 11
41.303993
 21
163.525635
 31
0.0
210
0.0
220
0.0
230
1.0
  0
LINE
  5
516
100
AcDbEntity
  8
0
370
    35
390
0
 62
     7
 48
0.005178
100
AcDbLine
 10
41.450439
 20
136.879181
 30
0.0
 11
41.303993
 21
137.025635
 31
0.0
210
0.0
220
0.0
230
1.0
  0
ARC
  5
517
100
AcDbEntity
  8
0
370
    35
390
0
 62
     7
100
AcDbCircle
 10
41.80386
 20
136.525299
 30
0.0
 40
0.50023
210
0.0
220
0.0
230
1.0
100
AcDbArc
 50
89.984696
 51
134.962407
  0
ARC
  5
518
100
AcDbEntity
  8
0
370
    35
390
0
 62
     7
100
AcDbCircle
 10
41.803993
 20
163.525635
 30
0.0
 40
0.5
210
0.0
220
0.0
230
1.0
100
AcDbArc
 50
90.337325
 51
179.999995
  0
ARC
  5
519
100
AcDbEntity
  8
0
370
    35
390
0
 62
     7
100
AcDbCircle
 10
44.649082
 20
164.725632
 30
0.0
 40
0.8
210
0.0
220
0.0
230
1.0
100
AcDbArc
 50
9.594069
 51
22.024812
  0
ARC
  5
51A
100
AcDbEntity
  8
0
370
    35
390
0
 62
     7
100
AcDbCircle
 10
58.875595
 20
163.669525
 30
0.0
 40
0.356092
210
0.0
220
0.0
230
1.0
100
AcDbArc
 50
89.334681
 51
100.229188
  0
ARC
  5
51B
100
AcDbEntity
  8
0
370
    35
390
0
 62
     7
100
AcDbCircle
 10
58.849625
 20
163.798126
 30
0.0
 40
0.224964
210
0.0
220
0.0
230
1.0
100
AcDbArc
 50
80.225278
 51
99.536702
  0
LINE
  5
51C
100
AcDbEntity
  8
0
370
    35
390
0
 62
     7
 48
0.000986
100
AcDbLine
 10
59.26931
 20
163.725632
 30
0.0
 11
59.253227
 21
163.761642
 31
0.0
210
0.0
220
0.0
230
1.0
  0
LINE
  5
51D
100
AcDbEntity
  8
0
370
    35
390
0
 62
     7
 48
0.020867
100
AcDbLine
 10
60.103992
 20
163.725632
 30
0.0
 11
59.26931
 21
163.725632
 31
0.0
210
0.0
220
0.0
230
1.0
  0
LINE
  5
51E
100
AcDbEntity
  8
0
370
    35
390
0
 62
     7
 48
0.010607
100
AcDbLine
 10
60.103992
 20
163.725632
 30
0.0
 11
59.803993
 21
164.025635
 31
0.0
210
0.0
220
0.0
230
1.0
  0
ARC
  5
51F
100
AcDbEntity
  8
0
370
    35
390
0
 62
     7
100
AcDbCircle
 10
46.423904
 20
165.025635
 30
0.0
 40
1.0
210
0.0
220
0.0
230
1.0
100
AcDbArc
 50
189.594075
 51
269.999997
  0
LINE
  5
520
100
AcDbEntity
  8
0
370
    35
390
0
 62
     7
 48
0.0125
100
AcDbLine
 10
41.803993
 20
136.525635
 30
0.0
 11
41.450439
 21
136.879181
 31
0.0
210
0.0
220
0.0
230
1.0
  0
LINE
  5
521
100
AcDbEntity
  8
0
370
    35
390
0
 62
     7
 48
0.0125
100
AcDbLine
 10
59.803993
 20
139.825638
 30
0.0
 11
59.303993
 21
139.825638
 31
0.0
210
0.0
220
0.0
230
1.0
  0
LINE
  5
522
100
AcDbEntity
  8
0
370
    35
390
0
 62
     7
 48
0.1975
100
AcDbLine
 10
49.703995
 20
137.025635
 30
0.0
 11
41.803993
 21
137.025635
 31
0.0
210
0.0
220
0.0
230
1.0
  0
LINE
  5
523
100
AcDbEntity
  8
0
370
    35
390
0
 62
     7
 48
0.0175
100
AcDbLine
 10
49.703995
 20
137.025635
 30
0.0
 11
49.703995
 21
137.725632
 31
0.0
210
0.0
220
0.0
230
1.0
  0
LINE
  5
524
100
AcDbEntity
  8
0
370
    35
390
0
 62
     7
 48
0.03
100
AcDbLine
 10
49.703995
 20
137.725632
 30
0.0
 11
50.903992
 21
137.725632
 31
0.0
210
0.0
220
0.0
230
1.0
  0
LINE
  5
525
100
AcDbEntity
  8
0
370
    35
390
0
 62
     7
 48
0.0175
100
AcDbLine
 10
50.903992
 20
137.025635
 30
0.0
 11
50.903992
 21
137.725632
 31
0.0
210
0.0
220
0.0
230
1.0
  0
LINE
  5
526
100
AcDbEntity
  8
0
370
    35
390
0
 62
     7
 48
0.1975
100
AcDbLine
 10
58.803993
 20
137.025635
 30
0.0
 11
50.903992
 21
137.025635
 31
0.0
210
0.0
220
0.0
230
1.0
  0
ARC
  5
527
100
AcDbEntity
  8
0
370
    35
390
0
 62
     7
100
AcDbCircle
 10
43.553993
 20
152.725632
 30
0.0
 40
1.75
210
0.0
220
0.0
230
1.0
100
AcDbArc
 50
90.000003
 51
269.999997
  0
LINE
  5
528
100
AcDbEntity
  8
0
370
    35
390
0
 62
     7
 48
0.0075
100
AcDbLine
 10
43.553993
 20
154.475632
 30
0.0
 11
43.853992
 21
154.475632
 31
0.0
210
0.0
220
0.0
230
1.0
  0
ARC
  5
529
100
AcDbEntity
  8
0
370
    35
390
0
 62
     7
100
AcDbCircle
 10
43.853992
 20
152.725632
 30
0.0
 40
1.75
210
0.0
220
0.0
230
1.0
100
AcDbArc
 50
269.999997
 51
90.000037
  0
LINE
  5
52A
100
AcDbEntity
  8
0
370
    35
390
0
 62
     7
 48
0.0075
100
AcDbLine
 10
43.853992
 20
150.975632
 30
0.0
 11
43.553993
 21
150.975632
 31
0.0
210
0.0
220
0.0
230
1.0
  0
CIRCLE
  5
52B
100
AcDbEntity
  8
0
370
    35
390
0
 62
     7
100
AcDbCircle
 10
46.703995
 20
159.025635
 30
0.0
 40
4.15
210
0.0
220
0.0
230
1.0
  0
CIRCLE
  5
52C
100
AcDbEntity
  8
0
370
    35
390
0
 62
     7
100
AcDbCircle
 10
55.303993
 20
158.525635
 30
0.0
 40
2.25
210
0.0
220
0.0
230
1.0
  0
CIRCLE
  5
52D
100
AcDbEntity
  8
0
370
    35
390
0
 62
     7
100
AcDbCircle
 10
50.303993
 20
145.725632
 30
0.0
 40
7.3
210
0.0
220
0.0
230
1.0
  0
LINE
  5
52E
100
AcDbEntity
  8
0
370
    35
390
0
 62
     7
 48
0.425
100
AcDbLine
 10
58.803993
 20
136.525635
 30
0.0
 11
41.803993
 21
136.525635
 31
0.0
210
0.0
220
0.0
230
1.0
  0
LINE
  5
52F
100
AcDbEntity
  8
0
370
    35
390
0
 62
     7
 48
0.0125
100
AcDbLine
 10
58.803993
 20
136.525635
 30
0.0
 11
59.157547
 21
136.879181
 31
0.0
210
0.0
220
0.0
230
1.0
  0
ARC
  5
530
100
AcDbEntity
  8
0
370
    35
390
0
 62
     7
100
AcDbCircle
 10
58.804279
 20
136.525421
 30
0.0
 40
0.500082
210
0.0
220
0.0
230
1.0
100
AcDbArc
 50
45.04087
 51
90.032801
  0
LINE
  5
531
100
AcDbEntity
  8
0
370
    35
390
0
 62
     7
 48
0.0075
100
AcDbLine
 10
50.903992
 20
136.725632
 30
0.0
 11
50.903992
 21
137.025635
 31
0.0
210
0.0
220
0.0
230
1.0
  0
LINE
  5
532
100
AcDbEntity
  8
0
370
    35
390
0
 62
     7
 48
0.03
100
AcDbLine
 10
50.903992
 20
136.725632
 30
0.0
 11
49.703995
 21
136.725632
 31
0.0
210
0.0
220
0.0
230
1.0
  0
LINE
  5
533
100
AcDbEntity
  8
0
370
    35
390
0
 62
     7
 48
0.0075
100
AcDbLine
 10
49.703995
 20
136.725632
 30
0.0
 11
49.703995
 21
137.025635
 31
0.0
210
0.0
220
0.0
230
1.0
  0
ARC
  5
534
100
AcDbEntity
  8
0
370
    35
390
0
 62
     7
100
AcDbCircle
 10
58.812363
 20
163.525635
 30
0.0
 40
0.5
210
0.0
220
0.0
230
1.0
100
AcDbArc
 50
6.77167
 51
10.499454
  0
ARC
  5
535
100
AcDbEntity
  8
0
370
    35
390
0
 62
     7
100
AcDbCircle
 10
58.866943
 20
163.537735
 30
0.0
 40
0.444106
210
0.0
220
0.0
230
1.0
100
AcDbArc
 50
10.247557
 51
25.03195
  0
LINE
  5
536
100
AcDbEntity
  8
0
370
    35
390
0
 62
     7
 48
0.055
100
AcDbLine
 10
60.103992
 20
161.525635
 30
0.0
 11
60.103992
 21
163.725632
 31
0.0
210
0.0
220
0.0
230
1.0
  0
LINE
  5
537
100
AcDbEntity
  8
0
370
    35
390
0
 62
     7
 48
0.025
100
AcDbLine
 10
60.103992
 20
160.525635
 30
0.0
 11
60.103992
 21
161.525635
 31
0.0
210
0.0
220
0.0
230
1.0
  0
LINE
  5
538
100
AcDbEntity
  8
0
370
    35
390
0
 62
     7
 48
0.05
100
AcDbLine
 10
60.103992
 20
158.525635
 30
0.0
 11
60.103992
 21
160.525635
 31
0.0
210
0.0
220
0.0
230
1.0
  0
LINE
  5
539
100
AcDbEntity
  8
0
370
    35
390
0
 62
     7
100
AcDbLine
 10
60.103992
 20
158.525635
 30
0.0
 11
60.103992
 21
137.525635
 31
0.0
210
0.0
220
0.0
230
1.0
  0
LINE
  5
53A
100
AcDbEntity
  8
0
370
    35
390
0
 62
     7
 48
0.025
100
AcDbLine
 10
60.103992
 20
136.525635
 30
0.0
 11
60.103992
 21
137.525635
 31
0.0
210
0.0
220
0.0
230
1.0
  0
LINE
  5
53B
100
AcDbEntity
  8
0
370
    35
390
0
 62
     7
 48
0.159259
100
AcDbLine
 10
59.303993
 20
137.025635
 30
0.0
 11
59.303993
 21
143.395981
 31
0.0
210
0.0
220
0.0
230
1.0
  0
LINE
  5
53C
100
AcDbEntity
  8
0
370
    35
390
0
 62
     7
 48
0.005178
100
AcDbLine
 10
59.303993
 20
137.025635
 30
0.0
 11
59.157547
 21
136.879181
 31
0.0
210
0.0
220
0.0
230
1.0
  0
LINE
  5
53D
100
AcDbEntity
  8
0
370
    35
390
0
 62
     7
 48
0.0125
100
AcDbLine
 10
59.303993
 20
136.525635
 30
0.0
 11
59.303993
 21
137.025635
 31
0.0
210
0.0
220
0.0
230
1.0
  0
LINE
  5
53E
100
AcDbEntity
  8
0
370
    35
390
0
 62
     7
 48
0.0125
100
AcDbLine
 10
59.803993
 20
137.825638
 30
0.0
 11
59.303993
 21
137.825638
 31
0.0
210
0.0
220
0.0
230
1.0
  0
LINE
  5
53F
100
AcDbEntity
  8
0
370
    35
390
0
 62
     7
 48
0.05
100
AcDbLine
 10
59.803993
 20
139.825638
 30
0.0
 11
59.803993
 21
137.825638
 31
0.0
210
0.0
220
0.0
230
1.0
  0
LINE
  5
540
100
AcDbEntity
  8
0
370
    35
390
0
 62
     7
 48
0.010607
100
AcDbLine
 10
59.803993
 20
137.825638
 30
0.0
 11
60.103992
 21
137.525635
 31
0.0
210
0.0
220
0.0
230
1.0
  0
ARC
  5
541
100
AcDbEntity
  8
0
370
    35
390
0
 62
     7
100
AcDbCircle
 10
59.803993
 20
143.395981
 30
0.0
 40
0.5
210
0.0
220
0.0
230
1.0
100
AcDbArc
 50
173.220428
 51
180.000005
  0
ARC
  5
542
100
AcDbEntity
  8
0
370
    35
390
0
 62
     7
100
AcDbCircle
 10
-25.404343
 20
153.525635
 30
0.0
 40
85.308333
210
0.0
220
0.0
230
1.0
100
AcDbArc
 50
353.220434
 51
6.771668
  0
ARC
  5
543
100
AcDbEntity
  8
0
370
    35
390
0
 62
     7
100
AcDbCircle
 10
43.553993
 20
152.725632
 30
0.0
 40
1.55
210
0.0
220
0.0
230
1.0
100
AcDbArc
 50
90.000003
 51
269.999997
  0
LINE
  5
544
100
AcDbEntity
  8
0
370
    35
390
0
 62
     7
 48
0.0075
100
AcDbLine
 10
43.553993
 20
154.275635
 30
0.0
 11
43.853992
 21
154.275635
 31
0.0
210
0.0
220
0.0
230
1.0
  0
ARC
  5
545
100
AcDbEntity
  8
0
370
    35
390
0
 62
     7
100
AcDbCircle
 10
43.853992
 20
152.725632
 30
0.0
 40
1.55
210
0.0
220
0.0
230
1.0
100
AcDbArc
 50
269.999997
 51
90.000003
  0
LINE
  5
546
100
AcDbEntity
  8
0
370
    35
390
0
 62
     7
 48
0.0075
100
AcDbLine
 10
43.853992
 20
151.175629
 30
0.0
 11
43.553993
 21
151.175629
 31
0.0
210
0.0
220
0.0
230
1.0
  0
CIRCLE
  5
547
100
AcDbEntity
  8
0
370
    35
390
0
 62
     7
100
AcDbCircle
 10
55.303993
 20
158.525635
 30
0.0
 40
2.05
210
0.0
220
0.0
230
1.0
  0
CIRCLE
  5
548
100
AcDbEntity
  8
0
370
    35
390
0
 62
     7
100
AcDbCircle
 10
50.303993
 20
145.725632
 30
0.0
 40
7.1
210
0.0
220
0.0
230
1.0
  0
LINE
  5
549
100
AcDbEntity
  8
0
370
    35
390
0
 62
     7
 48
0.01597
100
AcDbLine
 10
60.103992
 20
160.525635
 30
0.0
 11
59.652298
 21
160.073944
 31
0.0
210
0.0
220
0.0
230
1.0
  0
LINE
  5
54A
100
AcDbEntity
  8
0
370
    35
390
0
 62
     7
 48
0.02
100
AcDbLine
 10
60.103992
 20
136.525635
 30
0.0
 11
59.303993
 21
136.525635
 31
0.0
210
0.0
220
0.0
230
1.0
  0
ARC
  5
54B
100
AcDbEntity
  8
0
370
    35
390
0
 62
     7
100
AcDbCircle
 10
36.753994
 20
175.975632
 30
0.0
 40
0.25
210
0.0
220
0.0
230
1.0
100
AcDbArc
 50
126.869903
 51
180.000005
  0
LINE
  5
54C
100
AcDbEntity
  8
0
370
    35
390
0
 62
     7
 48
0.03375
100
AcDbLine
 10
36.503994
 20
175.975632
 30
0.0
 11
36.503994
 21
174.625641
 31
0.0
210
0.0
220
0.0
230
1.0
  0
ARC
  5
54D
100
AcDbEntity
  8
0
370
    35
390
0
 62
     7
100
AcDbCircle
 10
36.803993
 20
174.625641
 30
0.0
 40
0.3
210
0.0
220
0.0
230
1.0
100
AcDbArc
 50
179.999431
 51
228.188837
  0
LINE
  5
54E
100
AcDbEntity
  8
0
370
    35
390
0
 62
     7
100
AcDbLine
 10
64.396881
 20
165.025635
 30
0.0
 11
42.8111
 21
165.025635
 31
0.0
210
0.0
220
0.0
230
1.0
  0
LINE
  5
54F
100
AcDbEntity
  8
0
370
    35
390
0
 62
     7
100
AcDbLine
 10
36.603992
 20
171.232742
 30
0.0
 11
36.603992
 21
210.025635
 31
0.0
210
0.0
220
0.0
230
1.0
  0
LINE
  5
550
100
AcDbEntity
  8
0
370
    35
390
0
 62
     7
 48
0.0125
100
AcDbLine
 10
36.103992
 20
176.225632
 30
0.0
 11
36.603992
 21
176.225632
 31
0.0
210
0.0
220
0.0
230
1.0
  0
ARC
  5
551
100
AcDbEntity
  8
0
370
    35
390
0
 62
     7
100
AcDbCircle
 10
42.8111
 20
165.525635
 30
0.0
 40
0.5
210
0.0
220
0.0
230
1.0
100
AcDbArc
 50
225.0
 51
269.999997
  0
ARC
  5
552
100
AcDbEntity
  8
0
370
    35
390
0
 62
     7
100
AcDbCircle
 10
64.396881
 20
165.525635
 30
0.0
 40
0.5
210
0.0
220
0.0
230
1.0
100
AcDbArc
 50
269.999997
 51
314.999999
  0
LINE
  5
553
100
AcDbEntity
  8
0
370
    35
390
0
 62
     7
 48
0.1675
100
AcDbLine
 10
39.103992
 20
211.025635
 30
0.0
 11
45.803989
 21
211.025635
 31
0.0
210
0.0
220
0.0
230
1.0
  0
LINE
  5
554
100
AcDbEntity
  8
0
370
    35
390
0
 62
     7
 48
0.017678
100
AcDbLine
 10
38.603996
 20
210.525635
 30
0.0
 11
39.103992
 21
211.025635
 31
0.0
210
0.0
220
0.0
230
1.0
  0
LINE
  5
555
100
AcDbEntity
  8
0
370
    35
390
0
 62
     7
 48
0.0125
100
AcDbLine
 10
36.103992
 20
210.025635
 30
0.0
 11
36.603989
 21
210.025635
 31
0.0
210
0.0
220
0.0
230
1.0
  0
LINE
  5
556
100
AcDbEntity
  8
0
370
    35
390
0
 62
     7
100
AcDbLine
 10
36.103992
 20
210.025635
 30
0.0
 11
36.103992
 21
176.225632
 31
0.0
210
0.0
220
0.0
230
1.0
  0
ARC
  5
557
100
AcDbEntity
  8
0
370
    35
390
0
 62
     7
100
AcDbCircle
 10
37.103992
 20
210.025635
 30
0.0
 40
0.5
210
0.0
220
0.0
230
1.0
100
AcDbArc
 50
90.000003
 51
180.000005
  0
CIRCLE
  5
558
100
AcDbEntity
  8
0
370
    35
390
0
 62
     7
100
AcDbCircle
 10
39.503994
 20
185.325638
 30
0.0
 40
2.5
210
0.0
220
0.0
230
1.0
  0
ARC
  5
559
100
AcDbEntity
  8
0
370
    35
390
0
 62
     7
100
AcDbCircle
 10
37.103992
 20
171.232742
 30
0.0
 40
0.5
210
0.0
220
0.0
230
1.0
100
AcDbArc
 50
179.999995
 51
225.0
  0
LINE
  5
55A
100
AcDbEntity
  8
0
370
    35
390
0
 62
     7
 48
0.201776
100
AcDbLine
 10
42.457546
 20
165.172089
 30
0.0
 11
36.750439
 21
170.879181
 31
0.0
210
0.0
220
0.0
230
1.0
  0
CIRCLE
  5
55B
100
AcDbEntity
  8
0
370
    35
390
0
 62
     7
100
AcDbCircle
 10
43.103992
 20
199.025635
 30
0.0
 40
2.5
210
0.0
220
0.0
230
1.0
  0
CIRCLE
  5
55C
100
AcDbEntity
  8
0
370
    35
390
0
 62
     7
100
AcDbCircle
 10
52.903992
 20
177.025635
 30
0.0
 40
4.15
210
0.0
220
0.0
230
1.0
  0
CIRCLE
  5
55D
100
AcDbEntity
  8
0
370
    35
390
0
 62
     7
100
AcDbCircle
 10
59.103992
 20
199.025635
 30
0.0
 40
2.5
210
0.0
220
0.0
230
1.0
  0
CIRCLE
  5
55E
100
AcDbEntity
  8
0
370
    35
390
0
 62
     7
100
AcDbCircle
 10
59.00399
 20
168.525635
 30
0.0
 40
2.5
210
0.0
220
0.0
230
1.0
  0
LINE
  5
55F
100
AcDbEntity
  8
0
370
    35
390
0
 62
     7
 48
0.09571
100
AcDbLine
 10
67.45755
 20
167.879181
 30
0.0
 11
64.750443
 21
165.172089
 31
0.0
210
0.0
220
0.0
230
1.0
  0
LINE
  5
560
100
AcDbEntity
  8
0
370
    35
390
0
 62
     7
 48
0.452322
100
AcDbLine
 10
46.303993
 20
214.025635
 30
0.0
 11
64.396881
 21
214.025635
 31
0.0
210
0.0
220
0.0
230
1.0
  0
ARC
  5
561
100
AcDbEntity
  8
0
370
    35
390
0
 62
     7
100
AcDbCircle
 10
64.396881
 20
213.525635
 30
0.0
 40
0.5
210
0.0
220
0.0
230
1.0
100
AcDbArc
 50
45.000001
 51
90.000003
  0
LINE
  5
562
100
AcDbEntity
  8
0
370
    35
390
0
 62
     7
 48
0.09571
100
AcDbLine
 10
67.45755
 20
211.172089
 30
0.0
 11
64.750443
 21
213.879181
 31
0.0
210
0.0
220
0.0
230
1.0
  0
ARC
  5
563
100
AcDbEntity
  8
0
370
    35
390
0
 62
     7
100
AcDbCircle
 10
67.103989
 20
210.818527
 30
0.0
 40
0.5
210
0.0
220
0.0
230
1.0
100
AcDbArc
 50
0.0
 51
45.000001
  0
LINE
  5
564
100
AcDbEntity
  8
0
370
    35
390
0
 62
     7
100
AcDbLine
 10
67.603989
 20
210.818527
 30
0.0
 11
67.603989
 21
168.232742
 31
0.0
210
0.0
220
0.0
230
1.0
  0
ARC
  5
565
100
AcDbEntity
  8
0
370
    35
390
0
 62
     7
100
AcDbCircle
 10
67.103989
 20
168.232742
 30
0.0
 40
0.5
210
0.0
220
0.0
230
1.0
100
AcDbArc
 50
314.999999
 51
360.0
  0
LINE
  5
566
100
AcDbEntity
  8
0
370
    35
390
0
 62
     7
 48
0.205
100
AcDbLine
 10
37.103992
 20
210.525635
 30
0.0
 11
45.303993
 21
210.525635
 31
0.0
210
0.0
220
0.0
230
1.0
  0
ARC
  5
567
100
AcDbEntity
  8
0
370
    35
390
0
 62
     7
100
AcDbCircle
 10
45.303993
 20
211.025635
 30
0.0
 40
0.5
210
0.0
220
0.0
230
1.0
100
AcDbArc
 50
269.999997
 51
360.0
  0
LINE
  5
568
100
AcDbEntity
  8
0
370
    35
390
0
 62
     7
 48
0.0625
100
AcDbLine
 10
45.803993
 20
211.025635
 30
0.0
 11
45.803993
 21
213.525635
 31
0.0
210
0.0
220
0.0
230
1.0
  0
ARC
  5
569
100
AcDbEntity
  8
0
370
    35
390
0
 62
     7
100
AcDbCircle
 10
46.303993
 20
213.525635
 30
0.0
 40
0.5
210
0.0
220
0.0
230
1.0
100
AcDbArc
 50
90.000003
 51
180.000005
  0
ARC
  5
56A
100
AcDbEntity
  8
0
370
    35
390
0
 62
     7
100
AcDbCircle
 10
45.603992
 20
211.325638
 30
0.0
 40
0.3
210
0.0
220
0.0
230
1.0
100
AcDbArc
 50
180.000005
 51
269.999997
  0
LINE
  5
56B
100
AcDbEntity
  8
0
370
    35
390
0
 62
     7
 48
0.005
100
AcDbLine
 10
60.603992
 20
214.225632
 30
0.0
 11
60.603992
 21
214.025635
 31
0.0
210
0.0
220
0.0
230
1.0
  0
ARC
  5
56C
100
AcDbEntity
  8
0
370
    35
390
0
 62
     7
100
AcDbCircle
 10
60.303993
 20
214.225632
 30
0.0
 40
0.3
210
0.0
220
0.0
230
1.0
100
AcDbArc
 50
0.0
 51
90.000003
  0
LINE
  5
56D
100
AcDbEntity
  8
0
370
    35
390
0
 62
     7
 48
0.3675
100
AcDbLine
 10
45.603992
 20
214.525635
 30
0.0
 11
60.303993
 21
214.525635
 31
0.0
210
0.0
220
0.0
230
1.0
  0
ARC
  5
56E
100
AcDbEntity
  8
0
370
    35
390
0
 62
     7
100
AcDbCircle
 10
45.603992
 20
214.225632
 30
0.0
 40
0.3
210
0.0
220
0.0
230
1.0
100
AcDbArc
 50
90.000003
 51
180.000005
  0
LINE
  5
56F
100
AcDbEntity
  8
0
370
    35
390
0
 62
     7
 48
0.0725
100
AcDbLine
 10
45.303993
 20
211.325638
 30
0.0
 11
45.303993
 21
214.225632
 31
0.0
210
0.0
220
0.0
230
1.0
  0
ARC
  5
570
100
AcDbEntity
  8
0
370
    35
390
0
 62
     7
100
AcDbCircle
 10
46.703995
 20
159.025635
 30
0.0
 40
3.75
210
0.0
220
0.0
230
1.0
100
AcDbArc
 50
170.018312
 51
189.981688
  0
ARC
  5
571
100
AcDbEntity
  8
0
370
    35
390
0
 62
     7
100
AcDbCircle
 10
46.703995
 20
159.025635
 30
0.0
 40
3.75
210
0.0
220
0.0
230
1.0
100
AcDbArc
 50
9.981683
 51
170.018312
  0
ARC
  5
572
100
AcDbEntity
  8
0
370
    35
390
0
 62
     7
100
AcDbCircle
 10
46.703995
 20
159.025635
 30
0.0
 40
3.75
210
0.0
220
0.0
230
1.0
100
AcDbArc
 50
350.018317
 51
9.981683
  0
ARC
  5
573
100
AcDbEntity
  8
0
370
    35
390
0
 62
     7
100
AcDbCircle
 10
46.703995
 20
159.025635
 30
0.0
 40
3.75
210
0.0
220
0.0
230
1.0
100
AcDbArc
 50
189.981688
 51
350.018317
  0
ARC
  5
574
100
AcDbEntity
  8
0
370
    35
390
0
 62
     7
100
AcDbCircle
 10
54.836967
 20
169.407806
 30
0.0
 40
2.000344
210
0.0
220
0.0
230
1.0
100
AcDbArc
 50
354.993656
 51
9.186267
  0
LINE
  5
575
100
AcDbEntity
  8
0
370
    35
390
0
 62
     7
 48
0.004987
100
AcDbLine
 10
56.812294
 20
169.034515
 30
0.0
 11
56.829681
 21
169.233246
 31
0.0
210
0.0
220
0.0
230
1.0
  0
ARC
  5
576
100
AcDbEntity
  8
0
370
    35
390
0
 62
     7
100
AcDbCircle
 10
54.71209
 20
168.013123
 30
0.0
 40
2.003195
210
0.0
220
0.0
230
1.0
100
AcDbArc
 50
348.557229
 51
355.001111
  0
LINE
  5
577
100
AcDbEntity
  8
0
370
    35
390
0
 62
     7
 48
0.014217
100
AcDbLine
 10
56.707664
 20
167.838577
 30
0.0
 11
56.757225
 21
168.405075
 31
0.0
210
0.0
220
0.0
230
1.0
  0
CIRCLE
  5
578
100
AcDbEntity
  8
0
370
    35
390
0
 62
     7
100
AcDbCircle
 10
39.503994
 20
185.325638
 30
0.0
 40
2.25
210
0.0
220
0.0
230
1.0
  0
LINE
  5
579
100
AcDbEntity
  8
0
370
    35
390
0
 62
     7
 48
0.005081
100
AcDbLine
 10
43.214008
 20
159.675629
 30
0.0
 11
43.010757
 21
159.675629
 31
0.0
210
0.0
220
0.0
230
1.0
  0
LINE
  5
57A
100
AcDbEntity
  8
0
370
    35
390
0
 62
     7
 48
0.005081
100
AcDbLine
 10
50.193977
 20
159.675629
 30
0.0
 11
50.397228
 21
159.675629
 31
0.0
210
0.0
220
0.0
230
1.0
  0
LINE
  5
57B
100
AcDbEntity
  8
0
370
    35
390
0
 62
     7
 48
0.174499
100
AcDbLine
 10
50.193977
 20
159.675629
 30
0.0
 11
43.214008
 21
159.675629
 31
0.0
210
0.0
220
0.0
230
1.0
  0
ARC
  5
57C
100
AcDbEntity
  8
0
370
    35
390
0
 62
     7
100
AcDbCircle
 10
46.703995
 20
159.025635
 30
0.0
 40
3.55
210
0.0
220
0.0
230
1.0
100
AcDbArc
 50
10.550296
 51
169.449699
  0
LINE
  5
57D
100
AcDbEntity
  8
0
370
    35
390
0
 62
     7
 48
0.005081
100
AcDbLine
 10
50.193977
 20
158.375641
 30
0.0
 11
50.397228
 21
158.375641
 31
0.0
210
0.0
220
0.0
230
1.0
  0
LINE
  5
57E
100
AcDbEntity
  8
0
370
    35
390
0
 62
     7
 48
0.005081
100
AcDbLine
 10
43.214008
 20
158.375641
 30
0.0
 11
43.010757
 21
158.375641
 31
0.0
210
0.0
220
0.0
230
1.0
  0
LINE
  5
57F
100
AcDbEntity
  8
0
370
    35
390
0
 62
     7
 48
0.174499
100
AcDbLine
 10
43.214008
 20
158.375641
 30
0.0
 11
50.193977
 21
158.375641
 31
0.0
210
0.0
220
0.0
230
1.0
  0
ARC
  5
580
100
AcDbEntity
  8
0
370
    35
390
0
 62
     7
100
AcDbCircle
 10
46.703995
 20
159.025635
 30
0.0
 40
3.55
210
0.0
220
0.0
230
1.0
100
AcDbArc
 50
190.550301
 51
349.449704
  0
CIRCLE
  5
581
100
AcDbEntity
  8
0
370
    35
390
0
 62
     7
100
AcDbCircle
 10
43.103992
 20
199.025635
 30
0.0
 40
2.25
210
0.0
220
0.0
230
1.0
  0
CIRCLE
  5
582
100
AcDbEntity
  8
0
370
    35
390
0
 62
     7
100
AcDbCircle
 10
59.103992
 20
199.025635
 30
0.0
 40
2.25
210
0.0
220
0.0
230
1.0
  0
CIRCLE
  5
583
100
AcDbEntity
  8
0
370
    35
390
0
 62
     7
100
AcDbCircle
 10
59.00399
 20
168.525635
 30
0.0
 40
2.25
210
0.0
220
0.0
230
1.0
  0
ARC
  5
584
100
AcDbEntity
  8
0
370
    35
390
0
 62
     7
100
AcDbCircle
 10
40.503994
 20
186.325638
 30
0.0
 40
0.7
210
0.0
220
0.0
230
1.0
100
AcDbArc
 50
179.999995
 51
269.999997
  0
LINE
  5
585
100
AcDbEntity
  8
0
370
    35
390
0
 62
     7
 48
0.0075
100
AcDbLine
 10
40.803993
 20
185.625641
 30
0.0
 11
40.503994
 21
185.625641
 31
0.0
210
0.0
220
0.0
230
1.0
  0
LINE
  5
586
100
AcDbEntity
  8
0
370
    35
390
0
 62
     7
 48
0.015
100
AcDbLine
 10
40.803993
 20
185.025635
 30
0.0
 11
40.803993
 21
185.625641
 31
0.0
210
0.0
220
0.0
230
1.0
  0
LINE
  5
587
100
AcDbEntity
  8
0
370
    35
390
0
 62
     7
 48
0.0075
100
AcDbLine
 10
40.503994
 20
185.025635
 30
0.0
 11
40.803993
 21
185.025635
 31
0.0
210
0.0
220
0.0
230
1.0
  0
ARC
  5
588
100
AcDbEntity
  8
0
370
    35
390
0
 62
     7
100
AcDbCircle
 10
40.503994
 20
184.325638
 30
0.0
 40
0.7
210
0.0
220
0.0
230
1.0
100
AcDbArc
 50
90.000003
 51
180.000005
  0
LINE
  5
589
100
AcDbEntity
  8
0
370
    35
390
0
 62
     7
 48
0.0075
100
AcDbLine
 10
39.803993
 20
184.025635
 30
0.0
 11
39.803993
 21
184.325638
 31
0.0
210
0.0
220
0.0
230
1.0
  0
LINE
  5
58A
100
AcDbEntity
  8
0
370
    35
390
0
 62
     7
 48
0.015
100
AcDbLine
 10
39.203991
 20
184.025635
 30
0.0
 11
39.803993
 21
184.025635
 31
0.0
210
0.0
220
0.0
230
1.0
  0
LINE
  5
58B
100
AcDbEntity
  8
0
370
    35
390
0
 62
     7
 48
0.0075
100
AcDbLine
 10
39.203991
 20
184.325638
 30
0.0
 11
39.203991
 21
184.025635
 31
0.0
210
0.0
220
0.0
230
1.0
  0
ARC
  5
58C
100
AcDbEntity
  8
0
370
    35
390
0
 62
     7
100
AcDbCircle
 10
38.503994
 20
184.325638
 30
0.0
 40
0.7
210
0.0
220
0.0
230
1.0
100
AcDbArc
 50
0.0
 51
90.000003
  0
LINE
  5
58D
100
AcDbEntity
  8
0
370
    35
390
0
 62
     7
 48
0.0075
100
AcDbLine
 10
38.203991
 20
185.025635
 30
0.0
 11
38.503994
 21
185.025635
 31
0.0
210
0.0
220
0.0
230
1.0
  0
LINE
  5
58E
100
AcDbEntity
  8
0
370
    35
390
0
 62
     7
 48
0.015
100
AcDbLine
 10
38.203991
 20
185.625641
 30
0.0
 11
38.203991
 21
185.025635
 31
0.0
210
0.0
220
0.0
230
1.0
  0
LINE
  5
58F
100
AcDbEntity
  8
0
370
    35
390
0
 62
     7
 48
0.0075
100
AcDbLine
 10
38.503994
 20
185.625641
 30
0.0
 11
38.203991
 21
185.625641
 31
0.0
210
0.0
220
0.0
230
1.0
  0
ARC
  5
590
100
AcDbEntity
  8
0
370
    35
390
0
 62
     7
100
AcDbCircle
 10
38.503994
 20
186.325638
 30
0.0
 40
0.7
210
0.0
220
0.0
230
1.0
100
AcDbArc
 50
269.999997
 51
360.0
  0
LINE
  5
591
100
AcDbEntity
  8
0
370
    35
390
0
 62
     7
 48
0.0075
100
AcDbLine
 10
39.203991
 20
186.625641
 30
0.0
 11
39.203991
 21
186.325638
 31
0.0
210
0.0
220
0.0
230
1.0
  0
LINE
  5
592
100
AcDbEntity
  8
0
370
    35
390
0
 62
     7
 48
0.015
100
AcDbLine
 10
39.803993
 20
186.625641
 30
0.0
 11
39.203991
 21
186.625641
 31
0.0
210
0.0
220
0.0
230
1.0
  0
LINE
  5
593
100
AcDbEntity
  8
0
370
    35
390
0
 62
     7
 48
0.0075
100
AcDbLine
 10
39.803993
 20
186.325638
 30
0.0
 11
39.803993
 21
186.625641
 31
0.0
210
0.0
220
0.0
230
1.0
  0
ARC
  5
594
100
AcDbEntity
  8
0
370
    35
390
0
 62
     7
100
AcDbCircle
 10
44.103992
 20
200.025635
 30
0.0
 40
0.7
210
0.0
220
0.0
230
1.0
100
AcDbArc
 50
179.999995
 51
269.999997
  0
LINE
  5
595
100
AcDbEntity
  8
0
370
    35
390
0
 62
     7
 48
0.0075
100
AcDbLine
 10
44.403992
 20
199.325638
 30
0.0
 11
44.103992
 21
199.325638
 31
0.0
210
0.0
220
0.0
230
1.0
  0
LINE
  5
596
100
AcDbEntity
  8
0
370
    35
390
0
 62
     7
 48
0.015
100
AcDbLine
 10
44.403992
 20
198.725632
 30
0.0
 11
44.403992
 21
199.325638
 31
0.0
210
0.0
220
0.0
230
1.0
  0
LINE
  5
597
100
AcDbEntity
  8
0
370
    35
390
0
 62
     7
 48
0.0075
100
AcDbLine
 10
44.103992
 20
198.725632
 30
0.0
 11
44.403992
 21
198.725632
 31
0.0
210
0.0
220
0.0
230
1.0
  0
ARC
  5
598
100
AcDbEntity
  8
0
370
    35
390
0
 62
     7
100
AcDbCircle
 10
44.103992
 20
198.025635
 30
0.0
 40
0.7
210
0.0
220
0.0
230
1.0
100
AcDbArc
 50
90.000003
 51
180.000005
  0
LINE
  5
599
100
AcDbEntity
  8
0
370
    35
390
0
 62
     7
 48
0.0075
100
AcDbLine
 10
43.403992
 20
197.725632
 30
0.0
 11
43.403992
 21
198.025635
 31
0.0
210
0.0
220
0.0
230
1.0
  0
LINE
  5
59A
100
AcDbEntity
  8
0
370
    35
390
0
 62
     7
 48
0.015
100
AcDbLine
 10
42.803993
 20
197.725632
 30
0.0
 11
43.403992
 21
197.725632
 31
0.0
210
0.0
220
0.0
230
1.0
  0
LINE
  5
59B
100
AcDbEntity
  8
0
370
    35
390
0
 62
     7
 48
0.0075
100
AcDbLine
 10
42.803993
 20
198.025635
 30
0.0
 11
42.803993
 21
197.725632
 31
0.0
210
0.0
220
0.0
230
1.0
  0
ARC
  5
59C
100
AcDbEntity
  8
0
370
    35
390
0
 62
     7
100
AcDbCircle
 10
42.103992
 20
198.025635
 30
0.0
 40
0.7
210
0.0
220
0.0
230
1.0
100
AcDbArc
 50
0.0
 51
90.000003
  0
LINE
  5
59D
100
AcDbEntity
  8
0
370
    35
390
0
 62
     7
 48
0.0075
100
AcDbLine
 10
41.803993
 20
198.725632
 30
0.0
 11
42.103992
 21
198.725632
 31
0.0
210
0.0
220
0.0
230
1.0
  0
LINE
  5
59E
100
AcDbEntity
  8
0
370
    35
390
0
 62
     7
 48
0.015
100
AcDbLine
 10
41.803993
 20
199.325638
 30
0.0
 11
41.803993
 21
198.725632
 31
0.0
210
0.0
220
0.0
230
1.0
  0
LINE
  5
59F
100
AcDbEntity
  8
0
370
    35
390
0
 62
     7
 48
0.0075
100
AcDbLine
 10
42.103992
 20
199.325638
 30
0.0
 11
41.803993
 21
199.325638
 31
0.0
210
0.0
220
0.0
230
1.0
  0
ARC
  5
5A0
100
AcDbEntity
  8
0
370
    35
390
0
 62
     7
100
AcDbCircle
 10
42.103992
 20
200.025635
 30
0.0
 40
0.7
210
0.0
220
0.0
230
1.0
100
AcDbArc
 50
269.999997
 51
360.0
  0
LINE
  5
5A1
100
AcDbEntity
  8
0
370
    35
390
0
 62
     7
 48
0.0075
100
AcDbLine
 10
42.803993
 20
200.325638
 30
0.0
 11
42.803993
 21
200.025635
 31
0.0
210
0.0
220
0.0
230
1.0
  0
LINE
  5
5A2
100
AcDbEntity
  8
0
370
    35
390
0
 62
     7
 48
0.015
100
AcDbLine
 10
43.403992
 20
200.325638
 30
0.0
 11
42.803993
 21
200.325638
 31
0.0
210
0.0
220
0.0
230
1.0
  0
LINE
  5
5A3
100
AcDbEntity
  8
0
370
    35
390
0
 62
     7
 48
0.0075
100
AcDbLine
 10
43.403992
 20
200.025635
 30
0.0
 11
43.403992
 21
200.325638
 31
0.0
210
0.0
220
0.0
230
1.0
  0
ARC
  5
5A4
100
AcDbEntity
  8
0
370
    35
390
0
 62
     7
100
AcDbCircle
 10
52.903992
 20
177.025635
 30
0.0
 40
3.75
210
0.0
220
0.0
230
1.0
100
AcDbArc
 50
350.018317
 51
9.981683
  0
ARC
  5
5A5
100
AcDbEntity
  8
0
370
    35
390
0
 62
     7
100
AcDbCircle
 10
52.903992
 20
177.025635
 30
0.0
 40
3.75
210
0.0
220
0.0
230
1.0
100
AcDbArc
 50
189.981688
 51
350.018317
  0
ARC
  5
5A6
100
AcDbEntity
  8
0
370
    35
390
0
 62
     7
100
AcDbCircle
 10
52.903992
 20
177.025635
 30
0.0
 40
3.75
210
0.0
220
0.0
230
1.0
100
AcDbArc
 50
170.018312
 51
189.981688
  0
ARC
  5
5A7
100
AcDbEntity
  8
0
370
    35
390
0
 62
     7
100
AcDbCircle
 10
52.903992
 20
177.025635
 30
0.0
 40
3.75
210
0.0
220
0.0
230
1.0
100
AcDbArc
 50
9.981683
 51
170.018312
  0
ARC
  5
5A8
100
AcDbEntity
  8
0
370
    35
390
0
 62
     7
100
AcDbCircle
 10
60.103992
 20
200.025635
 30
0.0
 40
0.7
210
0.0
220
0.0
230
1.0
100
AcDbArc
 50
179.999995
 51
269.999997
  0
LINE
  5
5A9
100
AcDbEntity
  8
0
370
    35
390
0
 62
     7
 48
0.0075
100
AcDbLine
 10
60.403992
 20
199.325638
 30
0.0
 11
60.103992
 21
199.325638
 31
0.0
210
0.0
220
0.0
230
1.0
  0
LINE
  5
5AA
100
AcDbEntity
  8
0
370
    35
390
0
 62
     7
 48
0.015
100
AcDbLine
 10
60.403992
 20
198.725632
 30
0.0
 11
60.403992
 21
199.325638
 31
0.0
210
0.0
220
0.0
230
1.0
  0
LINE
  5
5AB
100
AcDbEntity
  8
0
370
    35
390
0
 62
     7
 48
0.0075
100
AcDbLine
 10
60.103992
 20
198.725632
 30
0.0
 11
60.403992
 21
198.725632
 31
0.0
210
0.0
220
0.0
230
1.0
  0
ARC
  5
5AC
100
AcDbEntity
  8
0
370
    35
390
0
 62
     7
100
AcDbCircle
 10
60.103992
 20
198.025635
 30
0.0
 40
0.7
210
0.0
220
0.0
230
1.0
100
AcDbArc
 50
90.000003
 51
180.000005
  0
LINE
  5
5AD
100
AcDbEntity
  8
0
370
    35
390
0
 62
     7
 48
0.0075
100
AcDbLine
 10
59.403992
 20
197.725632
 30
0.0
 11
59.403992
 21
198.025635
 31
0.0
210
0.0
220
0.0
230
1.0
  0
LINE
  5
5AE
100
AcDbEntity
  8
0
370
    35
390
0
 62
     7
 48
0.015
100
AcDbLine
 10
58.803993
 20
197.725632
 30
0.0
 11
59.403992
 21
197.725632
 31
0.0
210
0.0
220
0.0
230
1.0
  0
LINE
  5
5AF
100
AcDbEntity
  8
0
370
    35
390
0
 62
     7
 48
0.0075
100
AcDbLine
 10
58.803993
 20
198.025635
 30
0.0
 11
58.803993
 21
197.725632
 31
0.0
210
0.0
220
0.0
230
1.0
  0
ARC
  5
5B0
100
AcDbEntity
  8
0
370
    35
390
0
 62
     7
100
AcDbCircle
 10
58.103992
 20
198.025635
 30
0.0
 40
0.7
210
0.0
220
0.0
230
1.0
100
AcDbArc
 50
0.0
 51
90.000003
  0
LINE
  5
5B1
100
AcDbEntity
  8
0
370
    35
390
0
 62
     7
 48
0.0075
100
AcDbLine
 10
57.803993
 20
198.725632
 30
0.0
 11
58.103992
 21
198.725632
 31
0.0
210
0.0
220
0.0
230
1.0
  0
LINE
  5
5B2
100
AcDbEntity
  8
0
370
    35
390
0
 62
     7
 48
0.015
100
AcDbLine
 10
57.803993
 20
199.325638
 30
0.0
 11
57.803993
 21
198.725632
 31
0.0
210
0.0
220
0.0
230
1.0
  0
LINE
  5
5B3
100
AcDbEntity
  8
0
370
    35
390
0
 62
     7
 48
0.0075
100
AcDbLine
 10
58.103992
 20
199.325638
 30
0.0
 11
57.803993
 21
199.325638
 31
0.0
210
0.0
220
0.0
230
1.0
  0
ARC
  5
5B4
100
AcDbEntity
  8
0
370
    35
390
0
 62
     7
100
AcDbCircle
 10
58.103992
 20
200.025635
 30
0.0
 40
0.7
210
0.0
220
0.0
230
1.0
100
AcDbArc
 50
269.999997
 51
360.0
  0
LINE
  5
5B5
100
AcDbEntity
  8
0
370
    35
390
0
 62
     7
 48
0.0075
100
AcDbLine
 10
58.803993
 20
200.325638
 30
0.0
 11
58.803993
 21
200.025635
 31
0.0
210
0.0
220
0.0
230
1.0
  0
LINE
  5
5B6
100
AcDbEntity
  8
0
370
    35
390
0
 62
     7
 48
0.015
100
AcDbLine
 10
59.403992
 20
200.325638
 30
0.0
 11
58.803993
 21
200.325638
 31
0.0
210
0.0
220
0.0
230
1.0
  0
LINE
  5
5B7
100
AcDbEntity
  8
0
370
    35
390
0
 62
     7
 48
0.0075
100
AcDbLine
 10
59.403992
 20
200.025635
 30
0.0
 11
59.403992
 21
200.325638
 31
0.0
210
0.0
220
0.0
230
1.0
  0
ARC
  5
5B8
100
AcDbEntity
  8
0
370
    35
390
0
 62
     7
100
AcDbCircle
 10
58.00399
 20
167.525635
 30
0.0
 40
0.7
210
0.0
220
0.0
230
1.0
100
AcDbArc
 50
0.0
 51
90.000003
  0
LINE
  5
5B9
100
AcDbEntity
  8
0
370
    35
390
0
 62
     7
 48
0.0075
100
AcDbLine
 10
57.703995
 20
168.225632
 30
0.0
 11
58.00399
 21
168.225632
 31
0.0
210
0.0
220
0.0
230
1.0
  0
LINE
  5
5BA
100
AcDbEntity
  8
0
370
    35
390
0
 62
     7
 48
0.015
100
AcDbLine
 10
57.703995
 20
168.825638
 30
0.0
 11
57.703995
 21
168.225632
 31
0.0
210
0.0
220
0.0
230
1.0
  0
LINE
  5
5BB
100
AcDbEntity
  8
0
370
    35
390
0
 62
     7
 48
0.0075
100
AcDbLine
 10
58.00399
 20
168.825638
 30
0.0
 11
57.703995
 21
168.825638
 31
0.0
210
0.0
220
0.0
230
1.0
  0
ARC
  5
5BC
100
AcDbEntity
  8
0
370
    35
390
0
 62
     7
100
AcDbCircle
 10
58.00399
 20
169.525635
 30
0.0
 40
0.7
210
0.0
220
0.0
230
1.0
100
AcDbArc
 50
269.999997
 51
360.0
  0
LINE
  5
5BD
100
AcDbEntity
  8
0
370
    35
390
0
 62
     7
 48
0.0075
100
AcDbLine
 10
58.703995
 20
169.825638
 30
0.0
 11
58.703995
 21
169.525635
 31
0.0
210
0.0
220
0.0
230
1.0
  0
LINE
  5
5BE
100
AcDbEntity
  8
0
370
    35
390
0
 62
     7
 48
0.015
100
AcDbLine
 10
59.303993
 20
169.825638
 30
0.0
 11
58.703995
 21
169.825638
 31
0.0
210
0.0
220
0.0
230
1.0
  0
LINE
  5
5BF
100
AcDbEntity
  8
0
370
    35
390
0
 62
     7
 48
0.0075
100
AcDbLine
 10
59.303993
 20
169.525635
 30
0.0
 11
59.303993
 21
169.825638
 31
0.0
210
0.0
220
0.0
230
1.0
  0
ARC
  5
5C0
100
AcDbEntity
  8
0
370
    35
390
0
 62
     7
100
AcDbCircle
 10
60.00399
 20
169.525635
 30
0.0
 40
0.7
210
0.0
220
0.0
230
1.0
100
AcDbArc
 50
179.999995
 51
269.999997
  0
LINE
  5
5C1
100
AcDbEntity
  8
0
370
    35
390
0
 62
     7
 48
0.0075
100
AcDbLine
 10
60.303993
 20
168.825638
 30
0.0
 11
60.00399
 21
168.825638
 31
0.0
210
0.0
220
0.0
230
1.0
  0
LINE
  5
5C2
100
AcDbEntity
  8
0
370
    35
390
0
 62
     7
 48
0.015
100
AcDbLine
 10
60.303993
 20
168.225632
 30
0.0
 11
60.303993
 21
168.825638
 31
0.0
210
0.0
220
0.0
230
1.0
  0
LINE
  5
5C3
100
AcDbEntity
  8
0
370
    35
390
0
 62
     7
 48
0.0075
100
AcDbLine
 10
60.00399
 20
168.225632
 30
0.0
 11
60.303993
 21
168.225632
 31
0.0
210
0.0
220
0.0
230
1.0
  0
ARC
  5
5C4
100
AcDbEntity
  8
0
370
    35
390
0
 62
     7
100
AcDbCircle
 10
60.00399
 20
167.525635
 30
0.0
 40
0.7
210
0.0
220
0.0
230
1.0
100
AcDbArc
 50
90.000003
 51
180.000005
  0
LINE
  5
5C5
100
AcDbEntity
  8
0
370
    35
390
0
 62
     7
 48
0.0075
100
AcDbLine
 10
59.303993
 20
167.225632
 30
0.0
 11
59.303993
 21
167.525635
 31
0.0
210
0.0
220
0.0
230
1.0
  0
LINE
  5
5C6
100
AcDbEntity
  8
0
370
    35
390
0
 62
     7
 48
0.015
100
AcDbLine
 10
58.703995
 20
167.225632
 30
0.0
 11
59.303993
 21
167.225632
 31
0.0
210
0.0
220
0.0
230
1.0
  0
LINE
  5
5C7
100
AcDbEntity
  8
0
370
    35
390
0
 62
     7
 48
0.0075
100
AcDbLine
 10
58.703995
 20
167.525635
 30
0.0
 11
58.703995
 21
167.225632
 31
0.0
210
0.0
220
0.0
230
1.0
  0
LINE
  5
5C8
100
AcDbEntity
  8
0
370
    35
390
0
 62
     7
 48
0.005081
100
AcDbLine
 10
56.393978
 20
176.375641
 30
0.0
 11
56.597229
 21
176.375641
 31
0.0
210
0.0
220
0.0
230
1.0
  0
LINE
  5
5C9
100
AcDbEntity
  8
0
370
    35
390
0
 62
     7
 48
0.005081
100
AcDbLine
 10
49.414009
 20
176.375641
 30
0.0
 11
49.210754
 21
176.375641
 31
0.0
210
0.0
220
0.0
230
1.0
  0
LINE
  5
5CA
100
AcDbEntity
  8
0
370
    35
390
0
 62
     7
 48
0.174499
100
AcDbLine
 10
56.393978
 20
176.375641
 30
0.0
 11
49.414009
 21
176.375641
 31
0.0
210
0.0
220
0.0
230
1.0
  0
ARC
  5
5CB
100
AcDbEntity
  8
0
370
    35
390
0
 62
     7
100
AcDbCircle
 10
52.903992
 20
177.025635
 30
0.0
 40
3.55
210
0.0
220
0.0
230
1.0
100
AcDbArc
 50
190.550301
 51
349.449695
  0
LINE
  5
5CC
100
AcDbEntity
  8
0
370
    35
390
0
 62
     7
 48
0.005081
100
AcDbLine
 10
49.414009
 20
177.675629
 30
0.0
 11
49.210754
 21
177.675629
 31
0.0
210
0.0
220
0.0
230
1.0
  0
LINE
  5
5CD
100
AcDbEntity
  8
0
370
    35
390
0
 62
     7
 48
0.005081
100
AcDbLine
 10
56.393978
 20
177.675629
 30
0.0
 11
56.597229
 21
177.675629
 31
0.0
210
0.0
220
0.0
230
1.0
  0
LINE
  5
5CE
100
AcDbEntity
  8
0
370
    35
390
0
 62
     7
 48
0.174499
100
AcDbLine
 10
49.414009
 20
177.675629
 30
0.0
 11
56.393978
 21
177.675629
 31
0.0
210
0.0
220
0.0
230
1.0
  0
ARC
  5
5CF
100
AcDbEntity
  8
0
370
    35
390
0
 62
     7
100
AcDbCircle
 10
52.903992
 20
177.025635
 30
0.0
 40
3.55
210
0.0
220
0.0
230
1.0
100
AcDbArc
 50
10.550303
 51
169.449699
  0
LINE
  5
5D0
100
AcDbEntity
  8
0
370
    35
390
0
 62
     7
 48
0.021277
100
AcDbLine
 10
39.078449
 20
185.925629
 30
0.0
 11
39.929535
 21
185.925629
 31
0.0
210
0.0
220
0.0
230
1.0
  0
LINE
  5
5D1
100
AcDbEntity
  8
0
370
    35
390
0
 62
     7
 48
0.021277
100
AcDbLine
 10
39.929535
 20
184.725632
 30
0.0
 11
39.078449
 21
184.725632
 31
0.0
210
0.0
220
0.0
230
1.0
  0
LINE
  5
5D2
100
AcDbEntity
  8
0
370
    35
390
0
 62
     7
 48
0.021277
100
AcDbLine
 10
40.103992
 20
185.751175
 30
0.0
 11
40.103992
 21
184.900085
 31
0.0
210
0.0
220
0.0
230
1.0
  0
LINE
  5
5D3
100
AcDbEntity
  8
0
370
    35
390
0
 62
     7
 48
0.021277
100
AcDbLine
 10
38.903992
 20
184.900085
 30
0.0
 11
38.903992
 21
185.751175
 31
0.0
210
0.0
220
0.0
230
1.0
  0
LINE
  5
5D4
100
AcDbEntity
  8
0
370
    35
390
0
 62
     7
 48
0.021277
100
AcDbLine
 10
42.678448
 20
199.625641
 30
0.0
 11
43.529537
 21
199.625641
 31
0.0
210
0.0
220
0.0
230
1.0
  0
LINE
  5
5D5
100
AcDbEntity
  8
0
370
    35
390
0
 62
     7
 48
0.021277
100
AcDbLine
 10
43.529537
 20
198.425629
 30
0.0
 11
42.678448
 21
198.425629
 31
0.0
210
0.0
220
0.0
230
1.0
  0
LINE
  5
5D6
100
AcDbEntity
  8
0
370
    35
390
0
 62
     7
 48
0.021277
100
AcDbLine
 10
43.703991
 20
199.451172
 30
0.0
 11
43.703991
 21
198.600098
 31
0.0
210
0.0
220
0.0
230
1.0
  0
LINE
  5
5D7
100
AcDbEntity
  8
0
370
    35
390
0
 62
     7
 48
0.021277
100
AcDbLine
 10
42.503994
 20
198.600098
 30
0.0
 11
42.503994
 21
199.451172
 31
0.0
210
0.0
220
0.0
230
1.0
  0
LINE
  5
5D8
100
AcDbEntity
  8
0
370
    35
390
0
 62
     7
 48
0.021277
100
AcDbLine
 10
58.678452
 20
199.625641
 30
0.0
 11
59.529533
 21
199.625641
 31
0.0
210
0.0
220
0.0
230
1.0
  0
LINE
  5
5D9
100
AcDbEntity
  8
0
370
    35
390
0
 62
     7
 48
0.021277
100
AcDbLine
 10
59.529533
 20
198.425629
 30
0.0
 11
58.678452
 21
198.425629
 31
0.0
210
0.0
220
0.0
230
1.0
  0
LINE
  5
5DA
100
AcDbEntity
  8
0
370
    35
390
0
 62
     7
 48
0.021277
100
AcDbLine
 10
59.703995
 20
199.451172
 30
0.0
 11
59.703995
 21
198.600098
 31
0.0
210
0.0
220
0.0
230
1.0
  0
LINE
  5
5DB
100
AcDbEntity
  8
0
370
    35
390
0
 62
     7
 48
0.021277
100
AcDbLine
 10
58.50399
 20
198.600098
 30
0.0
 11
58.50399
 21
199.451172
 31
0.0
210
0.0
220
0.0
230
1.0
  0
LINE
  5
5DC
100
AcDbEntity
  8
0
370
    35
390
0
 62
     7
 48
0.021277
100
AcDbLine
 10
59.429535
 20
167.925629
 30
0.0
 11
58.578449
 21
167.925629
 31
0.0
210
0.0
220
0.0
230
1.0
  0
LINE
  5
5DD
100
AcDbEntity
  8
0
370
    35
390
0
 62
     7
 48
0.021277
100
AcDbLine
 10
59.603992
 20
168.951172
 30
0.0
 11
59.603992
 21
168.100098
 31
0.0
210
0.0
220
0.0
230
1.0
  0
LINE
  5
5DE
100
AcDbEntity
  8
0
370
    35
390
0
 62
     7
 48
0.021277
100
AcDbLine
 10
58.578449
 20
169.125641
 30
0.0
 11
59.429535
 21
169.125641
 31
0.0
210
0.0
220
0.0
230
1.0
  0
LINE
  5
5DF
100
AcDbEntity
  8
0
370
    35
390
0
 62
     7
 48
0.021277
100
AcDbLine
 10
58.403992
 20
168.100098
 30
0.0
 11
58.403992
 21
168.951172
 31
0.0
210
0.0
220
0.0
230
1.0
  0
CIRCLE
  5
5E0
100
AcDbEntity
  8
0
370
    35
390
0
 62
     7
100
AcDbCircle
 10
50.303993
 20
145.725632
 30
0.0
 40
7.0
210
0.0
220
0.0
230
1.0
  0
CIRCLE
  5
5E1
100
AcDbEntity
  8
0
370
    35
390
0
 62
     7
100
AcDbCircle
 10
50.303993
 20
145.725632
 30
0.0
 40
6.9
210
0.0
220
0.0
230
1.0
  0
LINE
  5
5E2
100
AcDbEntity
  8
0
370
    35
390
0
 62
     7
 48
0.109697
100
AcDbLine
 10
46.403992
 20
143.358505
 30
0.0
 11
50.203991
 21
141.164566
 31
0.0
210
0.0
220
0.0
230
1.0
  0
ARC
  5
5E3
100
AcDbEntity
  8
0
370
    35
390
0
 62
     7
100
AcDbCircle
 10
46.50399
 20
143.531708
 30
0.0
 40
0.2
210
0.0
220
0.0
230
1.0
100
AcDbArc
 50
179.999991
 51
239.999983
  0
LINE
  5
5E4
100
AcDbEntity
  8
0
370
    35
390
0
 62
     7
 48
0.109697
100
AcDbLine
 10
46.303993
 20
147.919571
 30
0.0
 11
46.303993
 21
143.531708
 31
0.0
210
0.0
220
0.0
230
1.0
  0
ARC
  5
5E5
100
AcDbEntity
  8
0
370
    35
390
0
 62
     7
100
AcDbCircle
 10
46.503994
 20
147.919571
 30
0.0
 40
0.2
210
0.0
220
0.0
230
1.0
100
AcDbArc
 50
119.99999
 51
179.999991
  0
LINE
  5
5E6
100
AcDbEntity
  8
0
370
    35
390
0
 62
     7
 48
0.109697
100
AcDbLine
 10
50.203995
 20
150.286713
 30
0.0
 11
46.403992
 21
148.092773
 31
0.0
210
0.0
220
0.0
230
1.0
  0
ARC
  5
5E7
100
AcDbEntity
  8
0
370
    35
390
0
 62
     7
100
AcDbCircle
 10
50.303993
 20
150.113495
 30
0.0
 40
0.2
210
0.0
220
0.0
230
1.0
100
AcDbArc
 50
59.999988
 51
119.99999
  0
LINE
  5
5E8
100
AcDbEntity
  8
0
370
    35
390
0
 62
     7
 48
0.109697
100
AcDbLine
 10
54.203995
 20
148.092773
 30
0.0
 11
50.403992
 21
150.286713
 31
0.0
210
0.0
220
0.0
230
1.0
  0
ARC
  5
5E9
100
AcDbEntity
  8
0
370
    35
390
0
 62
     7
100
AcDbCircle
 10
54.103992
 20
147.919571
 30
0.0
 40
0.2
210
0.0
220
0.0
230
1.0
100
AcDbArc
 50
359.999989
 51
59.999988
  0
LINE
  5
5EA
100
AcDbEntity
  8
0
370
    35
390
0
 62
     7
 48
0.109697
100
AcDbLine
 10
54.303993
 20
143.531708
 30
0.0
 11
54.303993
 21
147.919571
 31
0.0
210
0.0
220
0.0
230
1.0
  0
ARC
  5
5EB
100
AcDbEntity
  8
0
370
    35
390
0
 62
     7
100
AcDbCircle
 10
54.103992
 20
143.531708
 30
0.0
 40
0.2
210
0.0
220
0.0
230
1.0
100
AcDbArc
 50
299.999992
 51
359.999987
  0
LINE
  5
5EC
100
AcDbEntity
  8
0
370
    35
390
0
 62
     7
 48
0.109697
100
AcDbLine
 10
50.403992
 20
141.164566
 30
0.0
 11
54.203995
 21
143.358505
 31
0.0
210
0.0
220
0.0
230
1.0
  0
ARC
  5
5ED
100
AcDbEntity
  8
0
370
    35
390
0
 62
     7
100
AcDbCircle
 10
50.303993
 20
141.337769
 30
0.0
 40
0.2
210
0.0
220
0.0
230
1.0
100
AcDbArc
 50
239.999983
 51
299.999992
  0
ARC
  5
5EE
100
AcDbEntity
  8
0
370
    35
390
0
 62
     7
100
AcDbCircle
 10
47.648182
 20
145.725632
 30
0.0
 40
0.2
210
0.0
220
0.0
230
1.0
100
AcDbArc
 50
149.999984
 51
209.999989
  0
LINE
  5
5EF
100
AcDbEntity
  8
0
370
    35
390
0
 62
     7
 48
0.066395
100
AcDbLine
 10
48.802883
 20
148.125641
 30
0.0
 11
47.474976
 21
145.825638
 31
0.0
210
0.0
220
0.0
230
1.0
  0
ARC
  5
5F0
100
AcDbEntity
  8
0
370
    35
390
0
 62
     7
100
AcDbCircle
 10
48.976089
 20
148.025635
 30
0.0
 40
0.2
210
0.0
220
0.0
230
1.0
100
AcDbArc
 50
89.999989
 51
149.999984
  0
LINE
  5
5F1
100
AcDbEntity
  8
0
370
    35
390
0
 62
     7
 48
0.066395
100
AcDbLine
 10
51.631897
 20
148.225632
 30
0.0
 11
48.976089
 21
148.225632
 31
0.0
210
0.0
220
0.0
230
1.0
  0
ARC
  5
5F2
100
AcDbEntity
  8
0
370
    35
390
0
 62
     7
100
AcDbCircle
 10
51.631897
 20
148.025635
 30
0.0
 40
0.2
210
0.0
220
0.0
230
1.0
100
AcDbArc
 50
29.999987
 51
89.999989
  0
LINE
  5
5F3
100
AcDbEntity
  8
0
370
    35
390
0
 62
     7
 48
0.066395
100
AcDbLine
 10
53.133011
 20
145.825638
 30
0.0
 11
51.805103
 21
148.125641
 31
0.0
210
0.0
220
0.0
230
1.0
  0
ARC
  5
5F4
100
AcDbEntity
  8
0
370
    35
390
0
 62
     7
100
AcDbCircle
 10
52.959805
 20
145.725632
 30
0.0
 40
0.2
210
0.0
220
0.0
230
1.0
100
AcDbArc
 50
329.999989
 51
29.999987
  0
LINE
  5
5F5
100
AcDbEntity
  8
0
370
    35
390
0
 62
     7
 48
0.066395
100
AcDbLine
 10
51.805103
 20
143.325638
 30
0.0
 11
53.133011
 21
145.625641
 31
0.0
210
0.0
220
0.0
230
1.0
  0
ARC
  5
5F6
100
AcDbEntity
  8
0
370
    35
390
0
 62
     7
100
AcDbCircle
 10
51.631897
 20
143.425629
 30
0.0
 40
0.2
210
0.0
220
0.0
230
1.0
100
AcDbArc
 50
269.999991
 51
329.999989
  0
LINE
  5
5F7
100
AcDbEntity
  8
0
370
    35
390
0
 62
     7
 48
0.066395
100
AcDbLine
 10
48.976086
 20
143.225632
 30
0.0
 11
51.631897
 21
143.225632
 31
0.0
210
0.0
220
0.0
230
1.0
  0
ARC
  5
5F8
100
AcDbEntity
  8
0
370
    35
390
0
 62
     7
100
AcDbCircle
 10
48.976086
 20
143.425629
 30
0.0
 40
0.2
210
0.0
220
0.0
230
1.0
100
AcDbArc
 50
209.999989
 51
269.999991
  0
LINE
  5
5F9
100
AcDbEntity
  8
0
370
    35
390
0
 62
     7
 48
0.066395
100
AcDbLine
 10
47.474976
 20
145.625641
 30
0.0
 11
48.802879
 21
143.325638
 31
0.0
210
0.0
220
0.0
230
1.0
  0
LINE
  5
5FA
100
AcDbEntity
  8
0
370
    35
390
0
 62
     7
100
AcDbLine
 10
46.903992
 20
136.52562
 30
0.0
 11
46.903992
 21
70.725632
 31
0.0
210
0.0
220
0.0
230
1.0
  0
LINE
  5
5FB
100
AcDbEntity
  8
0
370
    35
390
0
 62
     7
100
AcDbLine
 10
53.703995
 20
136.52562
 30
0.0
 11
53.703995
 21
70.725632
 31
0.0
210
0.0
220
0.0
230
1.0
  0
LINE
  5
5FC
100
AcDbEntity
  8
0
370
    35
390
0
 62
     7
 48
0.17
100
AcDbLine
 10
53.703995
 20
60.725632
 30
0.0
 11
46.903992
 21
60.725632
 31
0.0
210
0.0
220
0.0
230
1.0
  0
LINE
  5
5FD
100
AcDbEntity
  8
0
370
    35
390
0
 62
     7
 48
0.25
100
AcDbLine
 10
53.703995
 20
60.725632
 30
0.0
 11
53.703995
 21
70.725632
 31
0.0
210
0.0
220
0.0
230
1.0
  0
LINE
  5
5FE
100
AcDbEntity
  8
0
370
    35
390
0
 62
     7
 48
0.25
100
AcDbLine
 10
46.903992
 20
60.725632
 30
0.0
 11
46.903992
 21
70.725632
 31
0.0
210
0.0
220
0.0
230
1.0
  0
ARC
  5
5FF
100
AcDbEntity
  8
0
370
    35
390
0
 62
     7
100
AcDbCircle
 10
46.435265
 20
165.029465
 30
0.0
 40
1.011751
210
0.0
220
0.0
230
1.0
100
AcDbArc
 50
189.902649
 51
214.073527
  0
ARC
  5
600
100
AcDbEntity
  8
0
370
    35
390
0
 62
     7
100
AcDbCircle
 10
58.812363
 20
163.525635
 30
0.0
 40
0.5
210
0.0
220
0.0
230
1.0
100
AcDbArc
 50
28.146347
 51
81.323866
  0
LINE
  5
601
100
AcDbEntity
  8
0
370
    35
390
0
 62
     7
 48
0.000247
100
AcDbLine
 10
58.887779
 20
164.019913
 30
0.0
 11
58.897526
 21
164.018326
 31
0.0
210
0.0
220
0.0
230
1.0
  0
ENDSEC
  0
SECTION
  2
OBJECTS
  0
DICTIONARY
  5
19
100
AcDbDictionary
280
     0
281
     1
  3
ACAD_GROUP
350
1A
  3
ACAD_MLINESTYLE
350
1B
  3
ACAD_LAYOUT
350
1E
  3
ACAD_PLOTSETTINGS
350
22
  3
ACAD_PLOTSTYLENAME
350
1F
  3
ACAD_WIPEOUT_VARS
350
23
  0
DICTIONARY
  5
1A
102
{ACAD_REACTORS
330
19
102
}
100
AcDbDictionary
280
     0
281
     1
  0
DICTIONARY
  5
1B
102
{ACAD_REACTORS
330
19
102
}
100
AcDbDictionary
280
     0
281
     1
  3
Standard
350
1C
  0
MLINESTYLE
  5
1C
102
{ACAD_REACTORS
330
1B
102
}
100
AcDbMlineStyle
  2
Standard
 70
     0
  3

 62
     0
 51
90.0
 52
90.0
 71
     2
 49
0.5
 62
   256
  6
ByLayer
 49
-0.5
 62
   256
  6
ByLayer
  0
ACDBDICTIONARYWDFLT
  5
1F
102
{ACAD_REACTORS
330
19
102
}
100
AcDbDictionary
281
     1
  3
Normal
350
1D
100
AcDbDictionaryWithDefault
340
1D
  0
ACDBPLACEHOLDER
  5
1D
102
{ACAD_REACTORS
330
1F
102
}
  0
LAYOUT
  5
20
102
{ACAD_REACTORS
330
1E
102
}
100
AcDbPlotSettings
  1

  2

  4

  6

 40
0.0
 41
0.0
 42
0.0
 43
0.0
 44
0.0
 45
0.0
 46
0.0
 47
0.0
 48
0.0
 49
0.0
140
0.0
141
0.0
142
1.0
143
1.0
 70
  1024
 72
     0
 73
     0
 74
     0
  7

 75
     0
147
1.0
148
0.0
149
0.0
100
AcDbLayout
  1
Model
 70
     0
 71
     0
 10
0.0
 20
0.0
 11
0.0
 21
0.0
 12
0.0
 22
0.0
 32
0.0
 14
0.0
 24
0.0
 34
0.0
 15
0.0
 25
0.0
 35
0.0
146
0.0
 13
0.0
 23
0.0
 33
0.0
 16
0.0
 26
0.0
 36
0.0
 17
0.0
 27
0.0
 37
0.0
 76
     0
330
A
331
0
345
0
346
0
  0
LAYOUT
  5
21
102
{ACAD_REACTORS
330
1E
102
}
100
AcDbPlotSettings
  1

  2

  4

  6

 40
0.0
 41
0.0
 42
0.0
 43
0.0
 44
0.0
 45
0.0
 46
0.0
 47
0.0
 48
0.0
 49
0.0
140
0.0
141
0.0
142
1.0
143
1.0
 70
     0
 72
     0
 73
     0
 74
     0
  7

 75
     0
147
1.0
148
0.0
149
0.0
100
AcDbLayout
  1
Layout1
 70
     0
 71
     0
 10
0.0
 20
0.0
 11
0.0
 21
0.0
 12
0.0
 22
0.0
 32
0.0
 14
0.0
 24
0.0
 34
0.0
 15
0.0
 25
0.0
 35
0.0
146
0.0
 13
0.0
 23
0.0
 33
0.0
 16
0.0
 26
0.0
 36
0.0
 17
0.0
 27
0.0
 37
0.0
 76
     0
330
B
331
0
345
0
346
0
  0
DICTIONARY
  5
1E
102
{ACAD_REACTORS
330
19
102
}
100
AcDbDictionary
280
     0
281
     1
  3
Layout1
350
21
  3
Model
350
20
  0
DICTIONARY
  5
22
102
{ACAD_REACTORS
330
19
102
}
100
AcDbDictionary
280
     0
281
     1
  0
WIPEOUTVARIABLES
  5
23
100
AcDbWipeoutVariables
 70
     1
  0
ENDSEC
  0
EOF
