  0
SECTION
  2
HEADER
  9
$ACADVER
  1
AC1015
  9
$ACADMAINTVER
 70
     6
  9
$DWGCODEPAGE
  3
ANSI_1252
  9
$INSBASE
 10
0.0
 20
0.0
 30
0.0
  9
$EXTMIN
 10
0.0
 20
0.0
 30
0.0
  9
$EXTMAX
 10
754.325562
 20
373.900024
 30
2.0
  9
$LIMMIN
 10
0.0
 20
0.0
  9
$LIMMAX
 10
420.0
 20
297.0
  9
$ORTHOMODE
 70
     0
  9
$REGENMODE
 70
     1
  9
$FILLMODE
 70
     1
  9
$QTEXTMODE
 70
     0
  9
$MIRRTEXT
 70
     1
  9
$LTSCALE
 40
1.0
  9
$ATTMODE
 70
     1
  9
$TEXTSIZE
 40
2.5
  9
$TRACEWID
 40
1.0
  9
$TEXTSTYLE
  7
Standard
  9
$CLAYER
  8
0
  9
$CELTYPE
  6
ByLayer
  9
$CECOLOR
 62
   256
  9
$CELTSCALE
 40
1.0
  9
$DISPSILH
 70
     0
  9
$DIMSCALE
 40
1.0
  9
$DIMASZ
 40
2.5
  9
$DIMEXO
 40
0.625
  9
$DIMDLI
 40
3.75
  9
$DIMRND
 40
0.0
  9
$DIMDLE
 40
0.0
  9
$DIMEXE
 40
1.25
  9
$DIMTP
 40
0.0
  9
$DIMTM
 40
0.0
  9
$DIMTXT
 40
2.5
  9
$DIMCEN
 40
2.5
  9
$DIMTSZ
 40
0.0
  9
$DIMTOL
 70
     0
  9
$DIMLIM
 70
     0
  9
$DIMTIH
 70
     0
  9
$DIMTOH
 70
     0
  9
$DIMSE1
 70
     0
  9
$DIMSE2
 70
     0
  9
$DIMTAD
 70
     1
  9
$DIMZIN
 70
     8
  9
$DIMBLK
  1

  9
$DIMASO
 70
     1
  9
$DIMSHO
 70
     1
  9
$DIMPOST
  1

  9
$DIMAPOST
  1

  9
$DIMALT
 70
     0
  9
$DIMALTD
 70
     3
  9
$DIMALTF
 40
0.03937
  9
$DIMLFAC
 40
1.0
  9
$DIMTOFL
 70
     1
  9
$DIMTVP
 40
0.0
  9
$DIMTIX
 70
     0
  9
$DIMSOXD
 70
     0
  9
$DIMSAH
 70
     0
  9
$DIMBLK1
  1

  9
$DIMBLK2
  1

  9
$DIMSTYLE
  2

  9
$DIMCLRD
 70
     0
  9
$DIMCLRE
 70
     0
  9
$DIMCLRT
 70
     0
  9
$DIMTFAC
 40
1.0
  9
$DIMGAP
 40
0.625
  9
$DIMJUST
 70
     0
  9
$DIMSD1
 70
     0
  9
$DIMSD2
 70
     0
  9
$DIMTOLJ
 70
     0
  9
$DIMTZIN
 70
     8
  9
$DIMALTZ
 70
     0
  9
$DIMALTTZ
 70
     0
  9
$DIMUPT
 70
     0
  9
$DIMDEC
 70
     2
  9
$DIMTDEC
 70
     2
  9
$DIMALTU
 70
     2
  9
$DIMALTTD
 70
     3
  9
$DIMTXSTY
  7
Standard
  9
$DIMAUNIT
 70
     0
  9
$DIMADEC
 70
     0
  9
$DIMALTRND
 40
0.0
  9
$DIMAZIN
 70
     0
  9
$DIMDSEP
 70
    44
  9
$DIMATFIT
 70
     0
  9
$DIMFRAC
 70
     0
  9
$DIMLDRBLK
  1

  9
$DIMLUNIT
 70
     2
  9
$DIMLWD
 70
    -2
  9
$DIMLWE
 70
    -2
  9
$DIMTMOVE
 70
     0
  9
$LUNITS
 70
     2
  9
$LUPREC
 70
     4
  9
$SKETCHINC
 40
1.0
  9
$FILLETRAD
 40
2.5
  9
$AUNITS
 70
     0
  9
$AUPREC
 70
     0
  9
$MENU
  1
.
  9
$ELEVATION
 40
0.0
  9
$PELEVATION
 40
0.0
  9
$THICKNESS
 40
0.0
  9
$LIMCHECK
 70
     0
  9
$CHAMFERA
 40
2.5
  9
$CHAMFERB
 40
2.5
  9
$CHAMFERC
 40
0.0
  9
$CHAMFERD
 40
0.0
  9
$SKPOLY
 70
     0
  9
$TDCREATE
 40
0.000000000
  9
$TDUCREATE
 40
0.000000000
  9
$TDUPDATE
 40
0.000000000
  9
$TDUUPDATE
 40
0.000000000
  9
$TDINDWG
 40
0.0000000000
  9
$TDUSRTIMER
 40
0.0000000000
  9
$USRTIMER
 70
     1
  9
$ANGBASE
 50
0.0
  9
$ANGDIR
 70
     0
  9
$PDMODE
 70
     0
  9
$PDSIZE
 40
0.0
  9
$PLINEWID
 40
0.0
  9
$SPLFRAME
 70
     0
  9
$SPLINETYPE
 70
     6
  9
$SPLINESEGS
 70
     8
  9
$HANDSEED
  5
500
  9
$SURFTAB1
 70
     6
  9
$SURFTAB2
 70
     6
  9
$SURFTYPE
 70
     6
  9
$SURFU
 70
     6
  9
$SURFV
 70
     6
  9
$UCSBASE
  2

  9
$UCSNAME
  2

  9
$UCSORG
 10
0.0
 20
0.0
 30
0.0
  9
$UCSXDIR
 10
1.0
 20
0.0
 30
0.0
  9
$UCSYDIR
 10
0.0
 20
1.0
 30
0.0
  9
$UCSORTHOREF
  2

  9
$UCSORTHOVIEW
 70
     1
  9
$UCSORGTOP
 10
0.0
 20
0.0
 30
0.0
  9
$UCSORGBOTTOM
 10
0.0
 20
0.0
 30
0.0
  9
$UCSORGLEFT
 10
0.0
 20
0.0
 30
0.0
  9
$UCSORGRIGHT
 10
0.0
 20
0.0
 30
0.0
  9
$UCSORGFRONT
 10
0.0
 20
0.0
 30
0.0
  9
$UCSORGBACK
 10
0.0
 20
0.0
 30
0.0
  9
$PUCSBASE
  2

  9
$PUCSNAME
  2

  9
$PUCSORG
 10
0.0
 20
0.0
 30
0.0
  9
$PUCSXDIR
 10
1.0
 20
0.0
 30
0.0
  9
$PUCSYDIR
 10
0.0
 20
1.0
 30
0.0
  9
$PUCSORTHOREF
  2

  9
$PUCSORTHOVIEW
 70
     0
  9
$PUCSORGTOP
 10
0.0
 20
0.0
 30
0.0
  9
$PUCSORGBOTTOM
 10
0.0
 20
0.0
 30
0.0
  9
$PUCSORGLEFT
 10
0.0
 20
0.0
 30
0.0
  9
$PUCSORGRIGHT
 10
0.0
 20
0.0
 30
0.0
  9
$PUCSORGFRONT
 10
0.0
 20
0.0
 30
0.0
  9
$PUCSORGBACK
 10
0.0
 20
0.0
 30
0.0
  9
$USERI1
 70
     0
  9
$USERI2
 70
     0
  9
$USERI3
 70
     0
  9
$USERI4
 70
     0
  9
$USERI5
 70
     0
  9
$USERR1
 40
0.0
  9
$USERR2
 40
0.0
  9
$USERR3
 40
0.0
  9
$USERR4
 40
0.0
  9
$USERR5
 40
0.0
  9
$WORLDVIEW
 70
     1
  9
$SHADEDGE
 70
     3
  9
$SHADEDIF
 70
    70
  9
$TILEMODE
 70
     1
  9
$MAXACTVP
 70
    48
  9
$PINSBASE
 10
0.0
 20
0.0
 30
0.0
  9
$PLIMCHECK
 70
     0
  9
$PEXTMIN
 10
0.0
 20
0.0
 30
0.0
  9
$PEXTMAX
 10
754.325562
 20
373.900024
 30
2.0
  9
$PLIMMIN
 10
0.0
 20
0.0
  9
$PLIMMAX
 10
420.0
 20
297.0
  9
$UNITMODE
 70
     0
  9
$VISRETAIN
 70
     0
  9
$PLINEGEN
 70
     0
  9
$PSLTSCALE
 70
     1
  9
$TREEDEPTH
 70
  3020
  9
$CMLSTYLE
  2
Standard
  9
$CMLJUST
 70
     0
  9
$CMLSCALE
 40
20.0
  9
$PROXYGRAPHICS
 70
     1
  9
$MEASUREMENT
 70
     1
  9
$CELWEIGHT
370
    -1
  9
$ENDCAPS
280
     0
  9
$JOINSTYLE
280
     0
  9
$LWDISPLAY
290
     0
  9
$INSUNITS
 70
     0
  9
$HYPERLINKBASE
  1

  9
$STYLESHEET
  1

  9
$XEDIT
290
     1
  9
$CEPSNTYPE
380
     0
  9
$PSTYLEMODE
290
     0
  9
$FINGERPRINTGUID
  2

  9
$VERSIONGUID
  2

  9
$EXTNAMES
290
     0
  9
$PSVPSCALE
 40
0.0
  0
ENDSEC
  0
SECTION
  2
CLASSES
  0
CLASS
  1
LWPOLYLINE
  2
AcDbPolyline
  3
AutoCAD 2000
 90
        0
280
     0
281
     1
  0
CLASS
  1
IMAGE
  2
AcDbRasterImage
  3
ISM
 90
      127
280
     0
281
     1
  0
CLASS
  1
OLE2FRAME
  2
AcDbOle2Frame
  3
AutoCAD 2000
 90
        0
280
     0
281
     1
  0
CLASS
  1
HATCH
  2
AcDbHatch
  3
AutoCAD 2000
 90
        0
280
     0
281
     1
  0
CLASS
  1
DICTIONARYVAR
  2
AcDbDictionaryVar
  3
AutoCAD 2000
 90
        0
280
     0
281
     0
  0
CLASS
  1
RASTERVARIABLES
  2
AcDbRasterVariables
  3
ISM
 90
        0
280
     0
281
     0
  0
CLASS
  1
IMAGEDEF
  2
AcDbRasterImageDef
  3
ISM
 90
        0
280
     0
281
     0
  0
CLASS
  1
IMAGEDEF_REACTOR
  2
AcDbRasterImageDefReactor
  3
ISM
 90
        1
280
     0
281
     0
  0
CLASS
  1
IDBUFFER
  2
AcDbIdBuffer
  3
AutoCAD 2000
 90
        0
280
     0
281
     0
  0
CLASS
  1
SPATIAL_FILTER
  2
AcDbSpatialFilter
  3
AutoCAD 2000
 90
        0
280
     0
281
     0
  0
CLASS
  1
XRECORD
  2
AcDbXrecord
  3
AutoCAD 2000
 90
        0
280
     0
281
     0
  0
CLASS
  1
SORTENTSTABLE
  2
AcDbSortentsTable
  3
AutoCAD 2000
 90
        0
280
     0
281
     0
  0
CLASS
  1
LAYER_INDEX
  2
AcDbLayerIndex
  3
AutoCAD 2000
 90
        0
280
     0
281
     0
  0
CLASS
  1
SPATIAL_INDEX
  2
AcDbSpatialIndex
  3
AutoCAD 2000
 90
        0
280
     0
281
     0
  0
CLASS
  1
OBJECT_PTR
  2
CAseDLPNTableRecord
  3
"ASE-LPNTableRecord"
 90
        1
280
     0
281
     0
  0
CLASS
  1
LAYOUT
  2
AcDbLayout
  3
AutoCAD 2000
 90
        0
280
     0
281
     0
  0
CLASS
  1
PLOTSETTINGS
  2
AcDbPlotSettings
  3
AutoCAD 2000
 90
        0
280
     0
281
     0
  0
CLASS
  1
ACDBDICTIONARYWDFLT
  2
AcDbDictionaryWithDefault
  3
AutoCAD 2000
 90
        0
280
     0
281
     0
  0
CLASS
  1
ACDBPLACEHOLDER
  2
AcDbPlaceHolder
  3
AutoCAD 2000
 90
        0
280
     0
281
     0
  0
CLASS
  1
VBA_PROJECT
  2
AcDbVbaProject
  3
acadvba
 90
        0
280
     0
281
     0
  0
CLASS
  1
WIPEOUT
  2
AcDbWipeout
  3
WipeOut|AutoCAD Express Tool|expresstools@autodesk.com
 90
      127
280
     0
281
     1
  0
CLASS
  1
WIPEOUTVARIABLES
  2
AcDbWipeoutVariables
  3
WipeOut|AutoCAD Express Tool|expresstools@autodesk.com
 90
        0
280
     0
281
     0
  0
CLASS
  1
RTEXT
  2
RText
  3
RText|AutoCAD Express Tool|expresstools@autodesk.com
 90
        0
280
     0
281
     1
  0
CLASS
  1
ARCALIGNEDTEXT
  2
AcDbArcAlignedText
  3
ATEXT|AutoCAD Express Tool|expresstools@autodesk.com
 90
        0
280
     0
281
     1
  0
ENDSEC
  0
SECTION
  2
TABLES
  0
TABLE
  2
VPORT
  5
7
100
AcDbSymbolTable
 70
     1
  0
VPORT
  5
15
100
AcDbSymbolTableRecord
100
AcDbViewportTableRecord
  2
*ACTIVE
 70
     0
 10
0.0
 20
0.0
 11
1.0
 21
1.0
 12
6.591288
 22
4.579184
 13
0.0
 23
0.0
 14
1.0
 24
1.0
 15
0.0
 25
0.0
 16
0.0
 26
0.0
 36
1.0
 17
0.0
 27
0.0
 37
0.0
 40
9.158369
 41
0.688564
 42
50.0
 43
0.0
 44
0.0
 50
0.0
 51
0.0
 71
     0
 72
   100
 73
     1
 74
     1
 75
     0
 76
     0
 77
     0
 78
     0
281
     0
 65
     0
110
0.0
120
0.0
130
0.0
111
1.0
121
0.0
131
0.0
112
0.0
122
1.0
132
0.0
345
0
346
0
 79
     0
146
0.0
  0
ENDTAB
  0
TABLE
  2
LTYPE
  5
4
100
AcDbSymbolTable
 70
     3
  0
LTYPE
  5
11
100
AcDbSymbolTableRecord
100
AcDbLinetypeTableRecord
  2
ByBlock
 70
    64
  3

 72
    65
 73
     0
 40
0.0
  0
LTYPE
  5
12
100
AcDbSymbolTableRecord
100
AcDbLinetypeTableRecord
  2
ByLayer
 70
    64
  3

 72
    65
 73
     0
 40
0.0
  0
LTYPE
  5
13
100
AcDbSymbolTableRecord
100
AcDbLinetypeTableRecord
  2
Continuous
 70
    64
  3
Solid line
 72
    65
 73
     0
 40
0.0
  0
ENDTAB
  0
TABLE
  2
LAYER
  5
2
100
AcDbSymbolTable
 70
     1
  0
LAYER
  5
14
100
AcDbSymbolTableRecord
100
AcDbLayerTableRecord
  2
0
 70
     0
 62
     7
  6
Continuous
290
     1
370
    -3
390
1D
  0
ENDTAB
  0
TABLE
  2
STYLE
  5
3
100
AcDbSymbolTable
 70
     1
  0
STYLE
  5
17
100
AcDbSymbolTableRecord
100
AcDbTextStyleTableRecord
  2
Standard
 70
     0
 40
0.0
 41
1.0
 50
0.0
 71
     0
 42
0.0
  3
txt
  4

  0
ENDTAB
  0
TABLE
  2
VIEW
  5
5
100
AcDbSymbolTable
 70
     0
  0
ENDTAB
  0
TABLE
  2
UCS
  5
6
100
AcDbSymbolTable
 70
     0
  0
ENDTAB
  0
TABLE
  2
APPID
  5
8
100
AcDbSymbolTable
 70
     1
  0
APPID
  5
16
100
AcDbSymbolTableRecord
100
AcDbRegAppTableRecord
  2
ACAD
 70
     0
  0
ENDTAB
  0
TABLE
  2
DIMSTYLE
  5
9
100
AcDbSymbolTable
 70
     1
100
AcDbDimStyleTable
 71
     0
  0
DIMSTYLE
105
18
100
AcDbSymbolTableRecord
100
AcDbDimStyleTableRecord
  2
Standard
 70
     0
  3

  4

 40
1.0
 41
0.18
 42
0.0625
 43
0.38
 44
0.18
 45
0.0
 46
0.0
 47
0.0
 48
0.0
 71
     0
 72
     0
 73
     1
 74
     1
 75
     0
 76
     0
 77
     0
 78
     0
 79
     0
140
0.18
141
0.09
142
0.0
143
25.4
144
1.0
145
0.0
146
1.0
147
0.09
148
0.0
170
     0
171
     2
172
     0
173
     0
174
     0
175
     0
176
     0
177
     0
178
     0
179
     0
271
     4
272
     4
273
     2
274
     2
275
     0
276
     0
277
     2
278
    46
279
     0
280
     0
281
     0
282
     0
283
     1
284
     0
285
     0
286
     0
288
     0
289
     3
340
17
341
0
342
0
343
0
344
0
371
    -2
372
    -2
  0
ENDTAB
  0
TABLE
  2
BLOCK_RECORD
  5
1
100
AcDbSymbolTable
 70
     0
  0
BLOCK_RECORD
  5
A
100
AcDbSymbolTableRecord
100
AcDbBlockTableRecord
  2
*MODEL_SPACE
340
20
  0
BLOCK_RECORD
  5
B
100
AcDbSymbolTableRecord
100
AcDbBlockTableRecord
  2
*PAPER_SPACE
340
21
  0
ENDTAB
  0
ENDSEC
  0
SECTION
  2
BLOCKS
  0
BLOCK
  5
D
100
AcDbEntity
  8
0
390
0
100
AcDbBlockBegin
  2
*MODEL_SPACE
 70
     0
 10
0.0
 20
0.0
 30
0.0
  3
*MODEL_SPACE
  1

  0
ENDBLK
  5
E
100
AcDbEntity
  8
0
390
0
100
AcDbBlockEnd
  0
BLOCK
  5
F
100
AcDbEntity
 67
     1
  8
0
390
0
100
AcDbBlockBegin
  2
*PAPER_SPACE
 70
     0
 10
0.0
 20
0.0
 30
0.0
  3
*PAPER_SPACE
  1

  0
ENDBLK
  5
10
100
AcDbEntity
 67
     1
  8
0
390
0
100
AcDbBlockEnd
  0
ENDSEC
  0
SECTION
  2
ENTITIES
  0
VIEWPORT
  5
4FF
100
AcDbEntity
 67
     1
  8
0
370
     0
390
0
 62
     0
 48
0.0
100
AcDbViewport
 10
0.0
 20
0.0
 30
0.0
 40
1000.0
 41
1000.0
 68
     1
 69
     1
 12
0.0
 22
0.0
 13
0.0
 23
0.0
 14
1.0
 24
1.0
 15
1.0
 25
1.0
 16
0.0
 26
0.0
 36
1.0
 17
0.0
 27
0.0
 37
0.0
 42
50.0
 43
0.0
 44
0.0
 45
1000.0
 50
0.0
 51
0.0
 72
   100
 90
        0
340
0
  1

281
     0
 71
     0
 74
     1
110
0.0
120
0.0
130
0.0
111
1.0
121
0.0
131
0.0
112
0.0
122
1.0
132
0.0
345
0
346
0
 79
     0
146
0.0
  0
POLYLINE
  5
24
100
AcDbEntity
  8
0
370
    13
390
0
 62
     7
100
AcDb2dPolyline
 66
     1
 10
0.0
 20
0.0
 30
0.0
 71
     8
  0
VERTEX
  5
25
100
AcDbEntity
  8
0
370
     0
390
0
100
AcDbVertex
100
AcDb2dVertex
 10
276.05011
 20
229.053238
 30
0.0
  0
VERTEX
  5
26
100
AcDbEntity
  8
0
370
     0
390
0
100
AcDbVertex
100
AcDb2dVertex
 10
275.589478
 20
229.617752
 30
0.0
  0
VERTEX
  5
27
100
AcDbEntity
  8
0
370
     0
390
0
100
AcDbVertex
100
AcDb2dVertex
 10
274.898499
 20
229.85968
 30
0.0
  0
VERTEX
  5
28
100
AcDbEntity
  8
0
370
     0
390
0
100
AcDbVertex
100
AcDb2dVertex
 10
274.20752
 20
229.85968
 30
0.0
  0
VERTEX
  5
29
100
AcDbEntity
  8
0
370
     0
390
0
100
AcDbVertex
100
AcDb2dVertex
 10
273.516541
 20
229.617752
 30
0.0
  0
VERTEX
  5
2A
100
AcDbEntity
  8
0
370
     0
390
0
100
AcDbVertex
100
AcDb2dVertex
 10
273.055908
 20
228.972595
 30
0.0
  0
VERTEX
  5
2B
100
AcDbEntity
  8
0
370
     0
390
0
100
AcDbVertex
100
AcDb2dVertex
 10
273.055908
 20
228.408081
 30
0.0
  0
VERTEX
  5
2C
100
AcDbEntity
  8
0
370
     0
390
0
100
AcDbVertex
100
AcDb2dVertex
 10
273.458984
 20
227.843567
 30
0.0
  0
SEQEND
  5
2D
100
AcDbEntity
  8
0
370
     0
390
0
  0
LINE
  5
2E
100
AcDbEntity
  8
0
370
    13
390
0
 62
     7
 48
0.013569
100
AcDbLine
 10
274.553009
 20
227.440338
 30
0.0
 11
275.071228
 21
227.279037
 31
0.0
210
0.0
220
0.0
230
1.0
  0
POLYLINE
  5
2F
100
AcDbEntity
  8
0
370
    13
390
0
 62
     7
100
AcDb2dPolyline
 66
     1
 10
0.0
 20
0.0
 30
0.0
 71
     5
  0
VERTEX
  5
30
100
AcDbEntity
  8
0
370
     0
390
0
100
AcDbVertex
100
AcDb2dVertex
 10
275.589478
 20
225.020981
 30
0.0
  0
VERTEX
  5
31
100
AcDbEntity
  8
0
370
     0
390
0
100
AcDbVertex
100
AcDb2dVertex
 10
274.898499
 20
224.85968
 30
0.0
  0
VERTEX
  5
32
100
AcDbEntity
  8
0
370
     0
390
0
100
AcDbVertex
100
AcDb2dVertex
 10
274.20752
 20
224.85968
 30
0.0
  0
VERTEX
  5
33
100
AcDbEntity
  8
0
370
     0
390
0
100
AcDbVertex
100
AcDb2dVertex
 10
273.516541
 20
225.182266
 30
0.0
  0
VERTEX
  5
34
100
AcDbEntity
  8
0
370
     0
390
0
100
AcDbVertex
100
AcDb2dVertex
 10
273.055908
 20
225.74678
 30
0.0
  0
SEQEND
  5
35
100
AcDbEntity
  8
0
370
     0
390
0
  0
LINE
  5
36
100
AcDbEntity
  8
0
370
    13
390
0
 62
     7
 48
0.011692
100
AcDbLine
 10
274.092346
 20
227.520981
 30
0.0
 11
274.553009
 21
227.440338
 31
0.0
210
0.0
220
0.0
230
1.0
  0
LINE
  5
37
100
AcDbEntity
  8
0
370
    13
390
0
 62
     7
 48
0.01777
100
AcDbLine
 10
273.458984
 20
227.843567
 30
0.0
 11
274.092346
 21
227.520981
 31
0.0
210
0.0
220
0.0
230
1.0
  0
LINE
  5
38
100
AcDbEntity
  8
0
370
    13
390
0
 62
     7
 48
0.019818
100
AcDbLine
 10
276.05011
 20
225.666138
 30
0.0
 11
275.589478
 21
225.020981
 31
0.0
210
0.0
220
0.0
230
1.0
  0
LINE
  5
39
100
AcDbEntity
  8
0
370
    13
390
0
 62
     7
 48
0.018145
100
AcDbLine
 10
276.05011
 20
226.391937
 30
0.0
 11
276.05011
 21
225.666138
 31
0.0
210
0.0
220
0.0
230
1.0
  0
POLYLINE
  5
3A
100
AcDbEntity
  8
0
370
    13
390
0
 62
     7
100
AcDb2dPolyline
 66
     1
 10
0.0
 20
0.0
 30
0.0
 71
     3
  0
VERTEX
  5
3B
100
AcDbEntity
  8
0
370
     0
390
0
100
AcDbVertex
100
AcDb2dVertex
 10
275.071228
 20
227.279037
 30
0.0
  0
VERTEX
  5
3C
100
AcDbEntity
  8
0
370
     0
390
0
100
AcDbVertex
100
AcDb2dVertex
 10
275.589478
 20
226.956467
 30
0.0
  0
VERTEX
  5
3D
100
AcDbEntity
  8
0
370
     0
390
0
100
AcDbVertex
100
AcDb2dVertex
 10
276.05011
 20
226.391937
 30
0.0
  0
SEQEND
  5
3E
100
AcDbEntity
  8
0
370
     0
390
0
  0
LINE
  5
3F
100
AcDbEntity
  8
0
370
    13
390
0
 62
     7
 48
0.048944
100
AcDbLine
 10
278.968506
 20
229.85968
 30
0.0
 11
277.010742
 21
229.85968
 31
0.0
210
0.0
220
0.0
230
1.0
  0
LINE
  5
40
100
AcDbEntity
  8
0
370
    13
390
0
 62
     7
 48
0.051823
100
AcDbLine
 10
277.010742
 20
227.440338
 30
0.0
 11
279.083649
 21
227.440338
 31
0.0
210
0.0
220
0.0
230
1.0
  0
LINE
  5
41
100
AcDbEntity
  8
0
370
    13
390
0
 62
     7
 48
0.125
100
AcDbLine
 10
277.010742
 20
229.85968
 30
0.0
 11
277.010742
 21
224.85968
 31
0.0
210
0.0
220
0.0
230
1.0
  0
POLYLINE
  5
42
100
AcDbEntity
  8
0
370
    13
390
0
 62
     7
100
AcDb2dPolyline
 66
     1
 10
0.0
 20
0.0
 30
0.0
 71
     6
  0
VERTEX
  5
43
100
AcDbEntity
  8
0
370
     0
390
0
100
AcDbVertex
100
AcDb2dVertex
 10
278.968506
 20
229.85968
 30
0.0
  0
VERTEX
  5
44
100
AcDbEntity
  8
0
370
     0
390
0
100
AcDbVertex
100
AcDb2dVertex
 10
279.371552
 20
229.617752
 30
0.0
  0
VERTEX
  5
45
100
AcDbEntity
  8
0
370
     0
390
0
100
AcDbVertex
100
AcDb2dVertex
 10
279.774628
 20
229.053238
 30
0.0
  0
VERTEX
  5
46
100
AcDbEntity
  8
0
370
     0
390
0
100
AcDbVertex
100
AcDb2dVertex
 10
279.774628
 20
228.24678
 30
0.0
  0
VERTEX
  5
47
100
AcDbEntity
  8
0
370
     0
390
0
100
AcDbVertex
100
AcDb2dVertex
 10
279.486725
 20
227.762909
 30
0.0
  0
VERTEX
  5
48
100
AcDbEntity
  8
0
370
     0
390
0
100
AcDbVertex
100
AcDb2dVertex
 10
279.083649
 20
227.440338
 30
0.0
  0
SEQEND
  5
49
100
AcDbEntity
  8
0
370
     0
390
0
  0
LINE
  5
4A
100
AcDbEntity
  8
0
370
    13
390
0
 62
     7
 48
0.070649
100
AcDbLine
 10
278.623016
 20
227.440338
 30
0.0
 11
279.774628
 21
224.85968
 31
0.0
210
0.0
220
0.0
230
1.0
  0
POLYLINE
  5
4B
100
AcDbEntity
  8
0
370
    13
390
0
 62
     7
100
AcDb2dPolyline
 66
     1
 10
0.0
 20
0.0
 30
0.0
 71
    23
  0
VERTEX
  5
4C
100
AcDbEntity
  8
0
370
     0
390
0
100
AcDbVertex
100
AcDb2dVertex
 10
283.614319
 20
229.214523
 30
0.0
  0
VERTEX
  5
4D
100
AcDbEntity
  8
0
370
     0
390
0
100
AcDbVertex
100
AcDb2dVertex
 10
283.441559
 20
229.617752
 30
0.0
  0
VERTEX
  5
4E
100
AcDbEntity
  8
0
370
     0
390
0
100
AcDbVertex
100
AcDb2dVertex
 10
282.808167
 20
229.85968
 30
0.0
  0
VERTEX
  5
4F
100
AcDbEntity
  8
0
370
     0
390
0
100
AcDbVertex
100
AcDb2dVertex
 10
282.462708
 20
229.85968
 30
0.0
  0
VERTEX
  5
50
100
AcDbEntity
  8
0
370
     0
390
0
100
AcDbVertex
100
AcDb2dVertex
 10
281.829285
 20
229.617752
 30
0.0
  0
VERTEX
  5
51
100
AcDbEntity
  8
0
370
     0
390
0
100
AcDbVertex
100
AcDb2dVertex
 10
281.426239
 20
228.972595
 30
0.0
  0
VERTEX
  5
52
100
AcDbEntity
  8
0
370
     0
390
0
100
AcDbVertex
100
AcDb2dVertex
 10
281.253479
 20
227.843567
 30
0.0
  0
VERTEX
  5
53
100
AcDbEntity
  8
0
370
     0
390
0
100
AcDbVertex
100
AcDb2dVertex
 10
281.253479
 20
226.714523
 30
0.0
  0
VERTEX
  5
54
100
AcDbEntity
  8
0
370
     0
390
0
100
AcDbVertex
100
AcDb2dVertex
 10
281.426239
 20
225.827423
 30
0.0
  0
VERTEX
  5
55
100
AcDbEntity
  8
0
370
     0
390
0
100
AcDbVertex
100
AcDb2dVertex
 10
281.771729
 20
225.262909
 30
0.0
  0
VERTEX
  5
56
100
AcDbEntity
  8
0
370
     0
390
0
100
AcDbVertex
100
AcDb2dVertex
 10
282.40509
 20
224.85968
 30
0.0
  0
VERTEX
  5
57
100
AcDbEntity
  8
0
370
     0
390
0
100
AcDbVertex
100
AcDb2dVertex
 10
282.635437
 20
224.85968
 30
0.0
  0
VERTEX
  5
58
100
AcDbEntity
  8
0
370
     0
390
0
100
AcDbVertex
100
AcDb2dVertex
 10
283.268799
 20
225.101624
 30
0.0
  0
VERTEX
  5
59
100
AcDbEntity
  8
0
370
     0
390
0
100
AcDbVertex
100
AcDb2dVertex
 10
283.614319
 20
225.585495
 30
0.0
  0
VERTEX
  5
5A
100
AcDbEntity
  8
0
370
     0
390
0
100
AcDbVertex
100
AcDb2dVertex
 10
283.787048
 20
226.230652
 30
0.0
  0
VERTEX
  5
5B
100
AcDbEntity
  8
0
370
     0
390
0
100
AcDbVertex
100
AcDb2dVertex
 10
283.787048
 20
226.472595
 30
0.0
  0
VERTEX
  5
5C
100
AcDbEntity
  8
0
370
     0
390
0
100
AcDbVertex
100
AcDb2dVertex
 10
283.614319
 20
227.117752
 30
0.0
  0
VERTEX
  5
5D
100
AcDbEntity
  8
0
370
     0
390
0
100
AcDbVertex
100
AcDb2dVertex
 10
283.268799
 20
227.601624
 30
0.0
  0
VERTEX
  5
5E
100
AcDbEntity
  8
0
370
     0
390
0
100
AcDbVertex
100
AcDb2dVertex
 10
282.635437
 20
227.843567
 30
0.0
  0
VERTEX
  5
5F
100
AcDbEntity
  8
0
370
     0
390
0
100
AcDbVertex
100
AcDb2dVertex
 10
282.40509
 20
227.843567
 30
0.0
  0
VERTEX
  5
60
100
AcDbEntity
  8
0
370
     0
390
0
100
AcDbVertex
100
AcDb2dVertex
 10
281.771729
 20
227.601624
 30
0.0
  0
VERTEX
  5
61
100
AcDbEntity
  8
0
370
     0
390
0
100
AcDbVertex
100
AcDb2dVertex
 10
281.426239
 20
227.198395
 30
0.0
  0
VERTEX
  5
62
100
AcDbEntity
  8
0
370
     0
390
0
100
AcDbVertex
100
AcDb2dVertex
 10
281.253479
 20
226.633881
 30
0.0
  0
SEQEND
  5
63
100
AcDbEntity
  8
0
370
     0
390
0
  0
POLYLINE
  5
64
100
AcDbEntity
  8
0
370
    13
390
0
 62
     7
100
AcDb2dPolyline
 66
     1
 10
0.0
 20
0.0
 30
0.0
 71
     3
  0
VERTEX
  5
65
100
AcDbEntity
  8
0
370
     0
390
0
100
AcDbVertex
100
AcDb2dVertex
 10
285.035583
 20
229.85968
 30
0.0
  0
VERTEX
  5
66
100
AcDbEntity
  8
0
370
     0
390
0
100
AcDbVertex
100
AcDb2dVertex
 10
287.799469
 20
229.85968
 30
0.0
  0
VERTEX
  5
67
100
AcDbEntity
  8
0
370
     0
390
0
100
AcDbVertex
100
AcDb2dVertex
 10
285.726563
 20
224.85968
 30
0.0
  0
SEQEND
  5
68
100
AcDbEntity
  8
0
370
     0
390
0
  0
POLYLINE
  5
69
100
AcDbEntity
  8
0
370
    13
390
0
 62
     7
100
AcDb2dPolyline
 66
     1
 10
0.0
 20
0.0
 30
0.0
 71
     3
  0
VERTEX
  5
6A
100
AcDbEntity
  8
0
370
     0
390
0
100
AcDbVertex
100
AcDb2dVertex
 10
288.817688
 20
224.85968
 30
0.0
  0
VERTEX
  5
6B
100
AcDbEntity
  8
0
370
     0
390
0
100
AcDbVertex
100
AcDb2dVertex
 10
290.372375
 20
229.85968
 30
0.0
  0
VERTEX
  5
6C
100
AcDbEntity
  8
0
370
     0
390
0
100
AcDbVertex
100
AcDb2dVertex
 10
291.927063
 20
224.85968
 30
0.0
  0
SEQEND
  5
6D
100
AcDbEntity
  8
0
370
     0
390
0
  0
LINE
  5
6E
100
AcDbEntity
  8
0
370
    13
390
0
 62
     7
 48
0.051823
100
AcDbLine
 10
289.335907
 20
226.553238
 30
0.0
 11
291.408813
 21
226.553238
 31
0.0
210
0.0
220
0.0
230
1.0
  0
LINE
  5
6F
100
AcDbEntity
  8
0
370
    13
390
0
 62
     7
 48
0.066218
100
AcDbLine
 10
293.118011
 20
226.875824
 30
0.0
 11
295.766724
 21
226.875824
 31
0.0
210
0.0
220
0.0
230
1.0
  0
POLYLINE
  5
70
100
AcDbEntity
  8
0
370
    13
390
0
 62
     7
100
AcDb2dPolyline
 66
     1
 10
0.0
 20
0.0
 30
0.0
 70
     1
 71
    16
  0
VERTEX
  5
71
100
AcDbEntity
  8
0
370
     0
390
0
100
AcDbVertex
100
AcDb2dVertex
 10
298.051727
 20
229.85968
 30
0.0
  0
VERTEX
  5
72
100
AcDbEntity
  8
0
370
     0
390
0
100
AcDbVertex
100
AcDb2dVertex
 10
297.418335
 20
229.617752
 30
0.0
  0
VERTEX
  5
73
100
AcDbEntity
  8
0
370
     0
390
0
100
AcDbVertex
100
AcDb2dVertex
 10
297.015259
 20
228.811295
 30
0.0
  0
VERTEX
  5
74
100
AcDbEntity
  8
0
370
     0
390
0
100
AcDbVertex
100
AcDb2dVertex
 10
296.842529
 20
228.004852
 30
0.0
  0
VERTEX
  5
75
100
AcDbEntity
  8
0
370
     0
390
0
100
AcDbVertex
100
AcDb2dVertex
 10
296.842529
 20
226.956467
 30
0.0
  0
VERTEX
  5
76
100
AcDbEntity
  8
0
370
     0
390
0
100
AcDbVertex
100
AcDb2dVertex
 10
297.015259
 20
225.908081
 30
0.0
  0
VERTEX
  5
77
100
AcDbEntity
  8
0
370
     0
390
0
100
AcDbVertex
100
AcDb2dVertex
 10
297.418335
 20
225.101624
 30
0.0
  0
VERTEX
  5
78
100
AcDbEntity
  8
0
370
     0
390
0
100
AcDbVertex
100
AcDb2dVertex
 10
298.051727
 20
224.85968
 30
0.0
  0
VERTEX
  5
79
100
AcDbEntity
  8
0
370
     0
390
0
100
AcDbVertex
100
AcDb2dVertex
 10
298.51236
 20
224.85968
 30
0.0
  0
VERTEX
  5
7A
100
AcDbEntity
  8
0
370
     0
390
0
100
AcDbVertex
100
AcDb2dVertex
 10
299.145752
 20
225.101624
 30
0.0
  0
VERTEX
  5
7B
100
AcDbEntity
  8
0
370
     0
390
0
100
AcDbVertex
100
AcDb2dVertex
 10
299.548828
 20
225.908081
 30
0.0
  0
VERTEX
  5
7C
100
AcDbEntity
  8
0
370
     0
390
0
100
AcDbVertex
100
AcDb2dVertex
 10
299.721558
 20
226.875824
 30
0.0
  0
VERTEX
  5
7D
100
AcDbEntity
  8
0
370
     0
390
0
100
AcDbVertex
100
AcDb2dVertex
 10
299.721558
 20
228.004852
 30
0.0
  0
VERTEX
  5
7E
100
AcDbEntity
  8
0
370
     0
390
0
100
AcDbVertex
100
AcDb2dVertex
 10
299.548828
 20
228.811295
 30
0.0
  0
VERTEX
  5
7F
100
AcDbEntity
  8
0
370
     0
390
0
100
AcDbVertex
100
AcDb2dVertex
 10
299.145752
 20
229.617752
 30
0.0
  0
VERTEX
  5
80
100
AcDbEntity
  8
0
370
     0
390
0
100
AcDbVertex
100
AcDb2dVertex
 10
298.51236
 20
229.85968
 30
0.0
  0
SEQEND
  5
81
100
AcDbEntity
  8
0
370
     0
390
0
  0
POLYLINE
  5
82
100
AcDbEntity
  8
0
370
    13
390
0
 62
     7
100
AcDb2dPolyline
 66
     1
 10
0.0
 20
0.0
 30
0.0
 71
     5
  0
VERTEX
  5
83
100
AcDbEntity
  8
0
370
     0
390
0
100
AcDbVertex
100
AcDb2dVertex
 10
303.503662
 20
226.633881
 30
0.0
  0
VERTEX
  5
84
100
AcDbEntity
  8
0
370
     0
390
0
100
AcDbVertex
100
AcDb2dVertex
 10
300.85495
 20
226.633881
 30
0.0
  0
VERTEX
  5
85
100
AcDbEntity
  8
0
370
     0
390
0
100
AcDbVertex
100
AcDb2dVertex
 10
302.812683
 20
229.85968
 30
0.0
  0
VERTEX
  5
86
100
AcDbEntity
  8
0
370
     0
390
0
100
AcDbVertex
100
AcDb2dVertex
 10
302.812683
 20
227.440338
 30
0.0
  0
VERTEX
  5
87
100
AcDbEntity
  8
0
370
     0
390
0
100
AcDbVertex
100
AcDb2dVertex
 10
302.812683
 20
224.85968
 30
0.0
  0
SEQEND
  5
88
100
AcDbEntity
  8
0
370
     0
390
0
  0
POLYLINE
  5
89
100
AcDbEntity
  8
0
370
    13
390
0
 62
     7
100
AcDb2dPolyline
 66
     1
 10
0.0
 20
0.0
 30
0.0
 71
     5
  0
VERTEX
  5
8A
100
AcDbEntity
  8
0
370
     0
390
0
100
AcDbVertex
100
AcDb2dVertex
 10
307.458496
 20
226.633881
 30
0.0
  0
VERTEX
  5
8B
100
AcDbEntity
  8
0
370
     0
390
0
100
AcDbVertex
100
AcDb2dVertex
 10
304.809784
 20
226.633881
 30
0.0
  0
VERTEX
  5
8C
100
AcDbEntity
  8
0
370
     0
390
0
100
AcDbVertex
100
AcDb2dVertex
 10
306.767517
 20
229.85968
 30
0.0
  0
VERTEX
  5
8D
100
AcDbEntity
  8
0
370
     0
390
0
100
AcDbVertex
100
AcDb2dVertex
 10
306.767517
 20
227.440338
 30
0.0
  0
VERTEX
  5
8E
100
AcDbEntity
  8
0
370
     0
390
0
100
AcDbVertex
100
AcDb2dVertex
 10
306.767517
 20
224.85968
 30
0.0
  0
SEQEND
  5
8F
100
AcDbEntity
  8
0
370
     0
390
0
  0
ARC
  5
90
100
AcDbEntity
  8
0
370
    35
390
0
 62
     7
100
AcDbCircle
 10
308.825592
 20
322.900024
 30
0.0
 40
0.5
210
0.0
220
0.0
230
1.0
100
AcDbArc
 50
0.0
 51
90.000003
  0
ARC
  5
91
100
AcDbEntity
  8
0
370
    35
390
0
 62
     7
100
AcDbCircle
 10
285.926758
 20
517.618164
 30
0.0
 40
194.217865
210
0.0
220
0.0
230
1.0
100
AcDbArc
 50
269.988632
 51
275.287793
  0
ARC
  5
92
100
AcDbEntity
  8
0
370
    35
390
0
 62
     7
100
AcDbCircle
 10
285.888184
 20
431.400024
 30
0.0
 40
108.0
210
0.0
220
0.0
230
1.0
100
AcDbArc
 50
272.777316
 51
277.802239
  0
ARC
  5
93
100
AcDbEntity
  8
0
370
    35
390
0
 62
     7
100
AcDbCircle
 10
176.825592
 20
322.900024
 30
0.0
 40
0.5
210
0.0
220
0.0
230
1.0
100
AcDbArc
 50
90.000003
 51
179.999991
  0
LINE
  5
94
100
AcDbEntity
  8
0
370
    35
390
0
 62
     7
 48
0.023106
100
AcDbLine
 10
177.749847
 20
323.400024
 30
0.0
 11
176.825592
 21
323.400024
 31
0.0
210
0.0
220
0.0
230
1.0
  0
POLYLINE
  5
95
100
AcDbEntity
  8
0
370
    35
390
0
 62
     7
100
AcDb2dPolyline
 66
     1
 10
0.0
 20
0.0
 30
0.0
 71
    20
  0
VERTEX
  5
96
100
AcDbEntity
  8
0
370
     0
390
0
100
AcDbVertex
100
AcDb2dVertex
 10
176.790894
 20
323.100006
 30
0.0
  0
VERTEX
  5
97
100
AcDbEntity
  8
0
370
     0
390
0
100
AcDbVertex
100
AcDb2dVertex
 10
176.814621
 20
323.12384
 30
0.0
  0
VERTEX
  5
98
100
AcDbEntity
  8
0
370
     0
390
0
100
AcDbVertex
100
AcDb2dVertex
 10
176.83609
 20
323.148254
 30
0.0
  0
VERTEX
  5
99
100
AcDbEntity
  8
0
370
     0
390
0
100
AcDbVertex
100
AcDb2dVertex
 10
176.854492
 20
323.172241
 30
0.0
  0
VERTEX
  5
9A
100
AcDbEntity
  8
0
370
     0
390
0
100
AcDbVertex
100
AcDb2dVertex
 10
176.870331
 20
323.196198
 30
0.0
  0
VERTEX
  5
9B
100
AcDbEntity
  8
0
370
     0
390
0
100
AcDbVertex
100
AcDb2dVertex
 10
176.882858
 20
323.218781
 30
0.0
  0
VERTEX
  5
9C
100
AcDbEntity
  8
0
370
     0
390
0
100
AcDbVertex
100
AcDb2dVertex
 10
176.892761
 20
323.240875
 30
0.0
  0
VERTEX
  5
9D
100
AcDbEntity
  8
0
370
     0
390
0
100
AcDbVertex
100
AcDb2dVertex
 10
176.899597
 20
323.261017
 30
0.0
  0
VERTEX
  5
9E
100
AcDbEntity
  8
0
370
     0
390
0
100
AcDbVertex
100
AcDb2dVertex
 10
176.903961
 20
323.280334
 30
0.0
  0
VERTEX
  5
9F
100
AcDbEntity
  8
0
370
     0
390
0
100
AcDbVertex
100
AcDb2dVertex
 10
176.905792
 20
323.297516
 30
0.0
  0
VERTEX
  5
A0
100
AcDbEntity
  8
0
370
     0
390
0
100
AcDbVertex
100
AcDb2dVertex
 10
176.905411
 20
323.31366
 30
0.0
  0
VERTEX
  5
A1
100
AcDbEntity
  8
0
370
     0
390
0
100
AcDbVertex
100
AcDb2dVertex
 10
176.903061
 20
323.32785
 30
0.0
  0
VERTEX
  5
A2
100
AcDbEntity
  8
0
370
     0
390
0
100
AcDbVertex
100
AcDb2dVertex
 10
176.898804
 20
323.340942
 30
0.0
  0
VERTEX
  5
A3
100
AcDbEntity
  8
0
370
     0
390
0
100
AcDbVertex
100
AcDb2dVertex
 10
176.892929
 20
323.352356
 30
0.0
  0
VERTEX
  5
A4
100
AcDbEntity
  8
0
370
     0
390
0
100
AcDbVertex
100
AcDb2dVertex
 10
176.885376
 20
323.362671
 30
0.0
  0
VERTEX
  5
A5
100
AcDbEntity
  8
0
370
     0
390
0
100
AcDbVertex
100
AcDb2dVertex
 10
176.865509
 20
323.379364
 30
0.0
  0
VERTEX
  5
A6
100
AcDbEntity
  8
0
370
     0
390
0
100
AcDbVertex
100
AcDb2dVertex
 10
176.838837
 20
323.391052
 30
0.0
  0
VERTEX
  5
A7
100
AcDbEntity
  8
0
370
     0
390
0
100
AcDbVertex
100
AcDb2dVertex
 10
176.804688
 20
323.396973
 30
0.0
  0
VERTEX
  5
A8
100
AcDbEntity
  8
0
370
     0
390
0
100
AcDbVertex
100
AcDb2dVertex
 10
176.762604
 20
323.395935
 30
0.0
  0
VERTEX
  5
A9
100
AcDbEntity
  8
0
370
     0
390
0
100
AcDbVertex
100
AcDb2dVertex
 10
176.750122
 20
323.394287
 30
0.0
  0
SEQEND
  5
AA
100
AcDbEntity
  8
0
370
     0
390
0
  0
LINE
  5
AB
100
AcDbEntity
  8
0
370
    35
390
0
 62
     7
 48
0.020867
100
AcDbLine
 10
177.625595
 20
323.100006
 30
0.0
 11
176.790909
 21
323.100006
 31
0.0
210
0.0
220
0.0
230
1.0
  0
LINE
  5
AC
100
AcDbEntity
  8
0
370
    35
390
0
 62
     7
 48
0.008118
100
AcDbLine
 10
177.625595
 20
323.100006
 30
0.0
 11
177.749847
 21
323.400024
 31
0.0
210
0.0
220
0.0
230
1.0
  0
LINE
  5
AD
100
AcDbEntity
  8
0
370
    35
390
0
 62
     7
100
AcDbLine
 10
307.901337
 20
323.400024
 30
0.0
 11
177.749847
 21
323.400024
 31
0.0
210
0.0
220
0.0
230
1.0
  0
LINE
  5
AE
100
AcDbEntity
  8
0
370
    35
390
0
 62
     7
100
AcDbLine
 10
308.025574
 20
323.100006
 30
0.0
 11
177.625595
 21
323.100006
 31
0.0
210
0.0
220
0.0
230
1.0
  0
LINE
  5
AF
100
AcDbEntity
  8
0
370
    35
390
0
 62
     7
 48
0.008118
100
AcDbLine
 10
308.025574
 20
323.100006
 30
0.0
 11
307.901337
 21
323.400024
 31
0.0
210
0.0
220
0.0
230
1.0
  0
LINE
  5
B0
100
AcDbEntity
  8
0
370
    35
390
0
 62
     7
 48
0.023106
100
AcDbLine
 10
308.825592
 20
323.400024
 30
0.0
 11
307.901337
 21
323.400024
 31
0.0
210
0.0
220
0.0
230
1.0
  0
LINE
  5
B1
100
AcDbEntity
  8
0
370
    35
390
0
 62
     7
 48
0.020868
100
AcDbLine
 10
308.860291
 20
323.100006
 30
0.0
 11
308.025574
 21
323.100006
 31
0.0
210
0.0
220
0.0
230
1.0
  0
POLYLINE
  5
B2
100
AcDbEntity
  8
0
370
    35
390
0
 62
     7
100
AcDb2dPolyline
 66
     1
 10
0.0
 20
0.0
 30
0.0
 71
    18
  0
VERTEX
  5
B3
100
AcDbEntity
  8
0
370
     0
390
0
100
AcDbVertex
100
AcDb2dVertex
 10
308.901062
 20
323.394287
 30
0.0
  0
VERTEX
  5
B4
100
AcDbEntity
  8
0
370
     0
390
0
100
AcDbVertex
100
AcDb2dVertex
 10
308.876953
 20
323.396942
 30
0.0
  0
VERTEX
  5
B5
100
AcDbEntity
  8
0
370
     0
390
0
100
AcDbVertex
100
AcDb2dVertex
 10
308.854248
 20
323.3974
 30
0.0
  0
VERTEX
  5
B6
100
AcDbEntity
  8
0
370
     0
390
0
100
AcDbVertex
100
AcDb2dVertex
 10
308.834503
 20
323.395752
 30
0.0
  0
VERTEX
  5
B7
100
AcDbEntity
  8
0
370
     0
390
0
100
AcDbVertex
100
AcDb2dVertex
 10
308.816376
 20
323.392181
 30
0.0
  0
VERTEX
  5
B8
100
AcDbEntity
  8
0
370
     0
390
0
100
AcDbVertex
100
AcDb2dVertex
 10
308.801056
 20
323.387115
 30
0.0
  0
VERTEX
  5
B9
100
AcDbEntity
  8
0
370
     0
390
0
100
AcDbVertex
100
AcDb2dVertex
 10
308.787415
 20
323.380402
 30
0.0
  0
VERTEX
  5
BA
100
AcDbEntity
  8
0
370
     0
390
0
100
AcDbVertex
100
AcDb2dVertex
 10
308.776123
 20
323.37262
 30
0.0
  0
VERTEX
  5
BB
100
AcDbEntity
  8
0
370
     0
390
0
100
AcDbVertex
100
AcDb2dVertex
 10
308.766541
 20
323.363464
 30
0.0
  0
VERTEX
  5
BC
100
AcDbEntity
  8
0
370
     0
390
0
100
AcDbVertex
100
AcDb2dVertex
 10
308.758881
 20
323.353363
 30
0.0
  0
VERTEX
  5
BD
100
AcDbEntity
  8
0
370
     0
390
0
100
AcDbVertex
100
AcDb2dVertex
 10
308.752869
 20
323.342102
 30
0.0
  0
VERTEX
  5
BE
100
AcDbEntity
  8
0
370
     0
390
0
100
AcDbVertex
100
AcDb2dVertex
 10
308.746033
 20
323.316254
 30
0.0
  0
VERTEX
  5
BF
100
AcDbEntity
  8
0
370
     0
390
0
100
AcDbVertex
100
AcDb2dVertex
 10
308.74646
 20
323.285522
 30
0.0
  0
VERTEX
  5
C0
100
AcDbEntity
  8
0
370
     0
390
0
100
AcDbVertex
100
AcDb2dVertex
 10
308.755188
 20
323.249573
 30
0.0
  0
VERTEX
  5
C1
100
AcDbEntity
  8
0
370
     0
390
0
100
AcDbVertex
100
AcDb2dVertex
 10
308.773651
 20
323.208649
 30
0.0
  0
VERTEX
  5
C2
100
AcDbEntity
  8
0
370
     0
390
0
100
AcDbVertex
100
AcDb2dVertex
 10
308.802856
 20
323.163818
 30
0.0
  0
VERTEX
  5
C3
100
AcDbEntity
  8
0
370
     0
390
0
100
AcDbVertex
100
AcDb2dVertex
 10
308.842957
 20
323.117096
 30
0.0
  0
VERTEX
  5
C4
100
AcDbEntity
  8
0
370
     0
390
0
100
AcDbVertex
100
AcDb2dVertex
 10
308.860291
 20
323.100006
 30
0.0
  0
SEQEND
  5
C5
100
AcDbEntity
  8
0
370
     0
390
0
  0
LINE
  5
C6
100
AcDbEntity
  8
0
370
    35
390
0
 62
     7
 48
0.000175
100
AcDbLine
 10
304.325592
 20
324.393005
 30
0.0
 11
304.325592
 21
324.400024
 31
0.0
210
0.0
220
0.0
230
1.0
  0
LINE
  5
C7
100
AcDbEntity
  8
0
370
    35
390
0
 62
     7
 48
0.006308
100
AcDbLine
 10
304.325592
 20
324.140686
 30
0.0
 11
304.325592
 21
324.393005
 31
0.0
210
0.0
220
0.0
230
1.0
  0
LINE
  5
C8
100
AcDbEntity
  8
0
370
    35
390
0
 62
     7
 48
0.006017
100
AcDbLine
 10
304.325592
 20
324.140686
 30
0.0
 11
304.325592
 21
323.900024
 31
0.0
210
0.0
220
0.0
230
1.0
  0
ARC
  5
C9
100
AcDbEntity
  8
0
370
    35
390
0
 62
     7
100
AcDbCircle
 10
309.262848
 20
322.91217
 30
0.0
 40
0.444278
210
0.0
220
0.0
230
1.0
100
AcDbArc
 50
154.985393
 51
169.764024
  0
LINE
  5
CA
100
AcDbEntity
  8
0
370
    35
390
0
 62
     7
100
AcDbLine
 10
309.325592
 20
302.888397
 30
0.0
 11
309.325592
 21
322.900024
 31
0.0
210
0.0
220
0.0
230
1.0
  0
LINE
  5
CB
100
AcDbEntity
  8
0
370
    35
390
0
 62
     7
 48
0.002951
100
AcDbLine
 10
309.325592
 20
302.770355
 30
0.0
 11
309.325592
 21
302.888397
 31
0.0
210
0.0
220
0.0
230
1.0
  0
LINE
  5
CC
100
AcDbEntity
  8
0
370
    35
390
0
 62
     7
 48
0.159258
100
AcDbLine
 10
309.325592
 20
296.400024
 30
0.0
 11
309.325592
 21
302.770355
 31
0.0
210
0.0
220
0.0
230
1.0
  0
LINE
  5
CD
100
AcDbEntity
  8
0
370
    35
390
0
 62
     7
 48
0.004183
100
AcDbLine
 10
196.75882
 20
324.233337
 30
0.0
 11
196.773422
 21
324.400024
 31
0.0
210
0.0
220
0.0
230
1.0
  0
ARC
  5
CE
100
AcDbEntity
  8
0
370
    35
390
0
 62
     7
100
AcDbCircle
 10
214.724854
 20
517.599487
 30
0.0
 40
194.199265
210
0.0
220
0.0
230
1.0
100
AcDbArc
 50
264.691773
 51
270.011254
  0
ARC
  5
CF
100
AcDbEntity
  8
0
370
    35
390
0
 62
     7
100
AcDbCircle
 10
214.762985
 20
431.400024
 30
0.0
 40
108.0
210
0.0
220
0.0
230
1.0
100
AcDbArc
 50
262.197736
 51
267.372396
  0
LINE
  5
D0
100
AcDbEntity
  8
0
370
    35
390
0
 62
     7
 48
0.159258
100
AcDbLine
 10
176.325592
 20
296.400024
 30
0.0
 11
176.325592
 21
302.770355
 31
0.0
210
0.0
220
0.0
230
1.0
  0
LINE
  5
D1
100
AcDbEntity
  8
0
370
    35
390
0
 62
     7
 48
0.002951
100
AcDbLine
 10
176.325592
 20
302.888397
 30
0.0
 11
176.325592
 21
302.770355
 31
0.0
210
0.0
220
0.0
230
1.0
  0
LINE
  5
D2
100
AcDbEntity
  8
0
370
    35
390
0
 62
     7
100
AcDbLine
 10
176.325592
 20
322.900024
 30
0.0
 11
176.325592
 21
302.888397
 31
0.0
210
0.0
220
0.0
230
1.0
  0
ARC
  5
D3
100
AcDbEntity
  8
0
370
    35
390
0
 62
     7
100
AcDbCircle
 10
176.388336
 20
322.91217
 30
0.0
 40
0.444278
210
0.0
220
0.0
230
1.0
100
AcDbArc
 50
10.235973
 51
25.01461
  0
LINE
  5
D4
100
AcDbEntity
  8
0
370
    35
390
0
 62
     7
 48
0.000813
100
AcDbLine
 10
176.830475
 20
322.958984
 30
0.0
 11
176.825592
 21
322.991119
 31
0.0
210
0.0
220
0.0
230
1.0
  0
ARC
  5
D5
100
AcDbEntity
  8
0
370
    35
390
0
 62
     7
100
AcDbCircle
 10
92.108147
 20
312.899048
 30
0.0
 40
85.317497
210
0.0
220
0.0
230
1.0
100
AcDbArc
 50
5.381035
 51
6.771593
  0
LINE
  5
D6
100
AcDbEntity
  8
0
370
    35
390
0
 62
     7
 48
0.055
100
AcDbLine
 10
177.625595
 20
320.900024
 30
0.0
 11
177.625595
 21
323.100006
 31
0.0
210
0.0
220
0.0
230
1.0
  0
ARC
  5
D7
100
AcDbEntity
  8
0
370
    35
390
0
 62
     7
100
AcDbCircle
 10
178.625595
 20
320.900024
 30
0.0
 40
1.0
210
0.0
220
0.0
230
1.0
100
AcDbArc
 50
180.000009
 51
269.999997
  0
LINE
  5
D8
100
AcDbEntity
  8
0
370
    35
390
0
 62
     7
 48
0.2975
100
AcDbLine
 10
190.525589
 20
319.900024
 30
0.0
 11
178.625595
 21
319.900024
 31
0.0
210
0.0
220
0.0
230
1.0
  0
ARC
  5
D9
100
AcDbEntity
  8
0
370
    35
390
0
 62
     7
100
AcDbCircle
 10
190.525589
 20
317.900024
 30
0.0
 40
2.0
210
0.0
220
0.0
230
1.0
100
AcDbArc
 50
0.0
 51
90.000003
  0
LINE
  5
DA
100
AcDbEntity
  8
0
370
    35
390
0
 62
     7
100
AcDbLine
 10
192.525589
 20
317.900024
 30
0.0
 11
192.525589
 21
296.900024
 31
0.0
210
0.0
220
0.0
230
1.0
  0
LINE
  5
DB
100
AcDbEntity
  8
0
370
    35
390
0
 62
     7
 48
0.035355
100
AcDbLine
 10
193.525589
 20
295.900024
 30
0.0
 11
192.525589
 21
296.900024
 31
0.0
210
0.0
220
0.0
230
1.0
  0
LINE
  5
DC
100
AcDbEntity
  8
0
370
    35
390
0
 62
     7
 48
0.195
100
AcDbLine
 10
201.325592
 20
295.900024
 30
0.0
 11
193.525589
 21
295.900024
 31
0.0
210
0.0
220
0.0
230
1.0
  0
LINE
  5
DD
100
AcDbEntity
  8
0
370
    35
390
0
 62
     7
 48
0.035355
100
AcDbLine
 10
201.325592
 20
295.900024
 30
0.0
 11
202.325592
 21
296.900024
 31
0.0
210
0.0
220
0.0
230
1.0
  0
LINE
  5
DE
100
AcDbEntity
  8
0
370
    35
390
0
 62
     7
 48
0.25
100
AcDbLine
 10
202.325592
 20
296.900024
 30
0.0
 11
202.325592
 21
306.900024
 31
0.0
210
0.0
220
0.0
230
1.0
  0
ARC
  5
DF
100
AcDbEntity
  8
0
370
    35
390
0
 62
     7
100
AcDbCircle
 10
203.325592
 20
306.900024
 30
0.0
 40
1.0
210
0.0
220
0.0
230
1.0
100
AcDbArc
 50
90.000003
 51
180.000009
  0
LINE
  5
E0
100
AcDbEntity
  8
0
370
    35
390
0
 62
     7
 48
0.17
100
AcDbLine
 10
203.325592
 20
307.900024
 30
0.0
 11
210.125595
 21
307.900024
 31
0.0
210
0.0
220
0.0
230
1.0
  0
ARC
  5
E1
100
AcDbEntity
  8
0
370
    35
390
0
 62
     7
100
AcDbCircle
 10
210.125595
 20
309.900024
 30
0.0
 40
2.0
210
0.0
220
0.0
230
1.0
100
AcDbArc
 50
269.999997
 51
360.0
  0
LINE
  5
E2
100
AcDbEntity
  8
0
370
    35
390
0
 62
     7
 48
0.2
100
AcDbLine
 10
212.125595
 20
317.900024
 30
0.0
 11
212.125595
 21
309.900024
 31
0.0
210
0.0
220
0.0
230
1.0
  0
ARC
  5
E3
100
AcDbEntity
  8
0
370
    35
390
0
 62
     7
100
AcDbCircle
 10
214.125595
 20
317.900024
 30
0.0
 40
2.0
210
0.0
220
0.0
230
1.0
100
AcDbArc
 50
90.000003
 51
179.999991
  0
LINE
  5
E4
100
AcDbEntity
  8
0
370
    35
390
0
 62
     7
100
AcDbLine
 10
246.525589
 20
319.900024
 30
0.0
 11
214.125595
 21
319.900024
 31
0.0
210
0.0
220
0.0
230
1.0
  0
ARC
  5
E5
100
AcDbEntity
  8
0
370
    35
390
0
 62
     7
100
AcDbCircle
 10
246.525589
 20
317.900024
 30
0.0
 40
2.0
210
0.0
220
0.0
230
1.0
100
AcDbArc
 50
0.0
 51
90.000003
  0
LINE
  5
E6
100
AcDbEntity
  8
0
370
    35
390
0
 62
     7
 48
0.2
100
AcDbLine
 10
248.525589
 20
309.900024
 30
0.0
 11
248.525589
 21
317.900024
 31
0.0
210
0.0
220
0.0
230
1.0
  0
ARC
  5
E7
100
AcDbEntity
  8
0
370
    35
390
0
 62
     7
100
AcDbCircle
 10
250.525589
 20
309.900024
 30
0.0
 40
2.0
210
0.0
220
0.0
230
1.0
100
AcDbArc
 50
180.000009
 51
269.999997
  0
LINE
  5
E8
100
AcDbEntity
  8
0
370
    35
390
0
 62
     7
 48
0.17
100
AcDbLine
 10
250.525589
 20
307.900024
 30
0.0
 11
257.325592
 21
307.900024
 31
0.0
210
0.0
220
0.0
230
1.0
  0
ARC
  5
E9
100
AcDbEntity
  8
0
370
    35
390
0
 62
     7
100
AcDbCircle
 10
257.325592
 20
306.900024
 30
0.0
 40
1.0
210
0.0
220
0.0
230
1.0
100
AcDbArc
 50
0.0
 51
90.000003
  0
LINE
  5
EA
100
AcDbEntity
  8
0
370
    35
390
0
 62
     7
 48
0.25
100
AcDbLine
 10
258.325592
 20
306.900024
 30
0.0
 11
258.325592
 21
296.900024
 31
0.0
210
0.0
220
0.0
230
1.0
  0
LINE
  5
EB
100
AcDbEntity
  8
0
370
    35
390
0
 62
     7
 48
0.035355
100
AcDbLine
 10
259.325592
 20
295.900024
 30
0.0
 11
258.325592
 21
296.900024
 31
0.0
210
0.0
220
0.0
230
1.0
  0
LINE
  5
EC
100
AcDbEntity
  8
0
370
    35
390
0
 62
     7
 48
0.195
100
AcDbLine
 10
267.12561
 20
295.900024
 30
0.0
 11
259.325592
 21
295.900024
 31
0.0
210
0.0
220
0.0
230
1.0
  0
LINE
  5
ED
100
AcDbEntity
  8
0
370
    35
390
0
 62
     7
 48
0.035355
100
AcDbLine
 10
267.12561
 20
295.900024
 30
0.0
 11
268.12561
 21
296.900024
 31
0.0
210
0.0
220
0.0
230
1.0
  0
LINE
  5
EE
100
AcDbEntity
  8
0
370
    35
390
0
 62
     7
100
AcDbLine
 10
268.12561
 20
296.900024
 30
0.0
 11
268.12561
 21
317.900024
 31
0.0
210
0.0
220
0.0
230
1.0
  0
ARC
  5
EF
100
AcDbEntity
  8
0
370
    35
390
0
 62
     7
100
AcDbCircle
 10
270.12561
 20
317.900024
 30
0.0
 40
2.0
210
0.0
220
0.0
230
1.0
100
AcDbArc
 50
90.000003
 51
180.000009
  0
LINE
  5
F0
100
AcDbEntity
  8
0
370
    35
390
0
 62
     7
100
AcDbLine
 10
270.12561
 20
319.900024
 30
0.0
 11
307.025574
 21
319.900024
 31
0.0
210
0.0
220
0.0
230
1.0
  0
ARC
  5
F1
100
AcDbEntity
  8
0
370
    35
390
0
 62
     7
100
AcDbCircle
 10
307.025574
 20
320.900024
 30
0.0
 40
1.0
210
0.0
220
0.0
230
1.0
100
AcDbArc
 50
269.999997
 51
360.0
  0
LINE
  5
F2
100
AcDbEntity
  8
0
370
    35
390
0
 62
     7
 48
0.055
100
AcDbLine
 10
308.025574
 20
323.100006
 30
0.0
 11
308.025574
 21
320.900024
 31
0.0
210
0.0
220
0.0
230
1.0
  0
CIRCLE
  5
F3
100
AcDbEntity
  8
0
370
    35
390
0
 62
     7
100
AcDbCircle
 10
258.325592
 20
315.400024
 30
0.0
 40
4.55
210
0.0
220
0.0
230
1.0
  0
CIRCLE
  5
F4
100
AcDbEntity
  8
0
370
    35
390
0
 62
     7
100
AcDbCircle
 10
202.325592
 20
315.400024
 30
0.0
 40
4.55
210
0.0
220
0.0
230
1.0
  0
ARC
  5
F5
100
AcDbEntity
  8
0
370
    35
390
0
 62
     7
100
AcDbCircle
 10
393.542236
 20
312.899109
 30
0.0
 40
85.316704
210
0.0
220
0.0
230
1.0
100
AcDbArc
 50
173.228405
 51
174.618977
  0
LINE
  5
F6
100
AcDbEntity
  8
0
370
    35
390
0
 62
     7
 48
0.000813
100
AcDbLine
 10
308.820709
 20
322.958984
 30
0.0
 11
308.825592
 21
322.991119
 31
0.0
210
0.0
220
0.0
230
1.0
  0
LINE
  5
F7
100
AcDbEntity
  8
0
370
    35
390
0
 62
     7
 48
0.010001
100
AcDbLine
 10
301.325592
 20
296.0
 30
0.0
 11
301.325592
 21
296.400024
 31
0.0
210
0.0
220
0.0
230
1.0
  0
LINE
  5
F8
100
AcDbEntity
  8
0
370
    35
390
0
 62
     7
 48
0.07
100
AcDbLine
 10
301.325592
 20
296.400024
 30
0.0
 11
301.325592
 21
299.200012
 31
0.0
210
0.0
220
0.0
230
1.0
  0
LINE
  5
F9
100
AcDbEntity
  8
0
370
    35
390
0
 62
     7
 48
0.005178
100
AcDbLine
 10
309.325592
 20
296.400024
 30
0.0
 11
309.179138
 21
296.253571
 31
0.0
210
0.0
220
0.0
230
1.0
  0
LINE
  5
FA
100
AcDbEntity
  8
0
370
    35
390
0
 62
     7
 48
0.0125
100
AcDbLine
 10
308.825592
 20
295.900024
 30
0.0
 11
309.179138
 21
296.253571
 31
0.0
210
0.0
220
0.0
230
1.0
  0
LINE
  5
FB
100
AcDbEntity
  8
0
370
    35
390
0
 62
     7
 48
0.0125
100
AcDbLine
 10
176.825592
 20
295.900024
 30
0.0
 11
176.472046
 21
296.253571
 31
0.0
210
0.0
220
0.0
230
1.0
  0
LINE
  5
FC
100
AcDbEntity
  8
0
370
    35
390
0
 62
     7
 48
0.005178
100
AcDbLine
 10
176.472046
 20
296.253571
 30
0.0
 11
176.325592
 21
296.400024
 31
0.0
210
0.0
220
0.0
230
1.0
  0
ARC
  5
FD
100
AcDbEntity
  8
0
370
    35
390
0
 62
     7
100
AcDbCircle
 10
176.825317
 20
295.899811
 30
0.0
 40
0.500079
210
0.0
220
0.0
230
1.0
100
AcDbArc
 50
89.969772
 51
134.962407
  0
POLYLINE
  5
FE
100
AcDbEntity
  8
0
370
    35
390
0
 62
     7
100
AcDb2dPolyline
 66
     1
 10
0.0
 20
0.0
 30
0.0
 71
    24
  0
VERTEX
  5
FF
100
AcDbEntity
  8
0
370
     0
390
0
100
AcDbVertex
100
AcDb2dVertex
 10
177.049652
 20
320.900024
 30
0.0
  0
VERTEX
  5
100
100
AcDbEntity
  8
0
370
     0
390
0
100
AcDbVertex
100
AcDb2dVertex
 10
177.06395
 20
320.789246
 30
0.0
  0
VERTEX
  5
101
100
AcDbEntity
  8
0
370
     0
390
0
100
AcDbVertex
100
AcDb2dVertex
 10
177.085693
 20
320.680237
 30
0.0
  0
VERTEX
  5
102
100
AcDbEntity
  8
0
370
     0
390
0
100
AcDbVertex
100
AcDb2dVertex
 10
177.1147
 20
320.573425
 30
0.0
  0
VERTEX
  5
103
100
AcDbEntity
  8
0
370
     0
390
0
100
AcDbVertex
100
AcDb2dVertex
 10
177.150803
 20
320.469177
 30
0.0
  0
VERTEX
  5
104
100
AcDbEntity
  8
0
370
     0
390
0
100
AcDbVertex
100
AcDb2dVertex
 10
177.193787
 20
320.367859
 30
0.0
  0
VERTEX
  5
105
100
AcDbEntity
  8
0
370
     0
390
0
100
AcDbVertex
100
AcDb2dVertex
 10
177.243469
 20
320.269958
 30
0.0
  0
VERTEX
  5
106
100
AcDbEntity
  8
0
370
     0
390
0
100
AcDbVertex
100
AcDb2dVertex
 10
177.299561
 20
320.175842
 30
0.0
  0
VERTEX
  5
107
100
AcDbEntity
  8
0
370
     0
390
0
100
AcDbVertex
100
AcDb2dVertex
 10
177.361786
 20
320.086029
 30
0.0
  0
VERTEX
  5
108
100
AcDbEntity
  8
0
370
     0
390
0
100
AcDbVertex
100
AcDb2dVertex
 10
177.429779
 20
320.000946
 30
0.0
  0
VERTEX
  5
109
100
AcDbEntity
  8
0
370
     0
390
0
100
AcDbVertex
100
AcDb2dVertex
 10
177.503113
 20
319.921021
 30
0.0
  0
VERTEX
  5
10A
100
AcDbEntity
  8
0
370
     0
390
0
100
AcDbVertex
100
AcDb2dVertex
 10
177.581284
 20
319.846649
 30
0.0
  0
VERTEX
  5
10B
100
AcDbEntity
  8
0
370
     0
390
0
100
AcDbVertex
100
AcDb2dVertex
 10
177.658691
 20
319.782166
 30
0.0
  0
VERTEX
  5
10C
100
AcDbEntity
  8
0
370
     0
390
0
100
AcDbVertex
100
AcDb2dVertex
 10
177.73941
 20
319.723145
 30
0.0
  0
VERTEX
  5
10D
100
AcDbEntity
  8
0
370
     0
390
0
100
AcDbVertex
100
AcDb2dVertex
 10
177.823059
 20
319.669739
 30
0.0
  0
VERTEX
  5
10E
100
AcDbEntity
  8
0
370
     0
390
0
100
AcDbVertex
100
AcDb2dVertex
 10
177.909271
 20
319.622009
 30
0.0
  0
VERTEX
  5
10F
100
AcDbEntity
  8
0
370
     0
390
0
100
AcDbVertex
100
AcDb2dVertex
 10
177.997711
 20
319.580017
 30
0.0
  0
VERTEX
  5
110
100
AcDbEntity
  8
0
370
     0
390
0
100
AcDbVertex
100
AcDb2dVertex
 10
178.088135
 20
319.543762
 30
0.0
  0
VERTEX
  5
111
100
AcDbEntity
  8
0
370
     0
390
0
100
AcDbVertex
100
AcDb2dVertex
 10
178.180298
 20
319.513245
 30
0.0
  0
VERTEX
  5
112
100
AcDbEntity
  8
0
370
     0
390
0
100
AcDbVertex
100
AcDb2dVertex
 10
178.267715
 20
319.48999
 30
0.0
  0
VERTEX
  5
113
100
AcDbEntity
  8
0
370
     0
390
0
100
AcDbVertex
100
AcDb2dVertex
 10
178.356216
 20
319.471802
 30
0.0
  0
VERTEX
  5
114
100
AcDbEntity
  8
0
370
     0
390
0
100
AcDbVertex
100
AcDb2dVertex
 10
178.445557
 20
319.458801
 30
0.0
  0
VERTEX
  5
115
100
AcDbEntity
  8
0
370
     0
390
0
100
AcDbVertex
100
AcDb2dVertex
 10
178.535431
 20
319.450928
 30
0.0
  0
VERTEX
  5
116
100
AcDbEntity
  8
0
370
     0
390
0
100
AcDbVertex
100
AcDb2dVertex
 10
178.625595
 20
319.448303
 30
0.0
  0
SEQEND
  5
117
100
AcDbEntity
  8
0
370
     0
390
0
  0
LINE
  5
118
100
AcDbEntity
  8
0
370
    35
390
0
 62
     7
 48
0.2975
100
AcDbLine
 10
190.525589
 20
319.448303
 30
0.0
 11
178.625595
 21
319.448303
 31
0.0
210
0.0
220
0.0
230
1.0
  0
ARC
  5
119
100
AcDbEntity
  8
0
370
    35
390
0
 62
     7
100
AcDbCircle
 10
190.531342
 20
317.796326
 30
0.0
 40
1.651438
210
0.0
220
0.0
230
1.0
100
AcDbArc
 50
3.60149
 51
90.199246
  0
LINE
  5
11A
100
AcDbEntity
  8
0
370
    35
390
0
 62
     7
 48
0.001478
100
AcDbLine
 10
191.725586
 20
302.770355
 30
0.0
 11
191.729095
 21
302.829376
 31
0.0
210
0.0
220
0.0
230
1.0
  0
LINE
  5
11B
100
AcDbEntity
  8
0
370
    35
390
0
 62
     7
 48
0.089259
100
AcDbLine
 10
191.725586
 20
302.770355
 30
0.0
 11
191.725586
 21
299.200012
 31
0.0
210
0.0
220
0.0
230
1.0
  0
LINE
  5
11C
100
AcDbEntity
  8
0
370
    35
390
0
 62
     7
 48
0.0125
100
AcDbLine
 10
192.225586
 20
299.200012
 30
0.0
 11
191.725586
 21
299.200012
 31
0.0
210
0.0
220
0.0
230
1.0
  0
LINE
  5
11D
100
AcDbEntity
  8
0
370
    35
390
0
 62
     7
 48
0.05
100
AcDbLine
 10
192.225586
 20
299.200012
 30
0.0
 11
192.225586
 21
297.200012
 31
0.0
210
0.0
220
0.0
230
1.0
  0
LINE
  5
11E
100
AcDbEntity
  8
0
370
    35
390
0
 62
     7
 48
0.010606
100
AcDbLine
 10
192.225586
 20
297.200012
 30
0.0
 11
192.525589
 21
296.900024
 31
0.0
210
0.0
220
0.0
230
1.0
  0
ARC
  5
11F
100
AcDbEntity
  8
0
370
    35
390
0
 62
     7
100
AcDbCircle
 10
107.01696
 20
312.899994
 30
0.0
 40
85.308632
210
0.0
220
0.0
230
1.0
100
AcDbArc
 50
353.220474
 51
3.360084
  0
LINE
  5
120
100
AcDbEntity
  8
0
370
    35
390
0
 62
     7
 48
0.001478
100
AcDbLine
 10
203.125595
 20
302.770355
 30
0.0
 11
203.122101
 21
302.829376
 31
0.0
210
0.0
220
0.0
230
1.0
  0
ARC
  5
121
100
AcDbEntity
  8
0
370
    35
390
0
 62
     7
100
AcDbCircle
 10
287.866394
 20
312.903076
 30
0.0
 40
85.340919
210
0.0
220
0.0
230
1.0
100
AcDbArc
 50
184.033645
 51
186.77904
  0
LINE
  5
122
100
AcDbEntity
  8
0
370
    35
390
0
 62
     7
 48
0.010606
100
AcDbLine
 10
202.625595
 20
297.200012
 30
0.0
 11
202.325592
 21
296.900024
 31
0.0
210
0.0
220
0.0
230
1.0
  0
LINE
  5
123
100
AcDbEntity
  8
0
370
    35
390
0
 62
     7
 48
0.05
100
AcDbLine
 10
202.625595
 20
297.200012
 30
0.0
 11
202.625595
 21
299.200012
 31
0.0
210
0.0
220
0.0
230
1.0
  0
LINE
  5
124
100
AcDbEntity
  8
0
370
    35
390
0
 62
     7
 48
0.0125
100
AcDbLine
 10
202.625595
 20
299.200012
 30
0.0
 11
203.125595
 21
299.200012
 31
0.0
210
0.0
220
0.0
230
1.0
  0
LINE
  5
125
100
AcDbEntity
  8
0
370
    35
390
0
 62
     7
 48
0.089259
100
AcDbLine
 10
203.125595
 20
302.770355
 30
0.0
 11
203.125595
 21
299.200012
 31
0.0
210
0.0
220
0.0
230
1.0
  0
ARC
  5
126
100
AcDbEntity
  8
0
370
    35
390
0
 62
     7
100
AcDbCircle
 10
203.325134
 20
306.940948
 30
0.0
 40
0.589764
210
0.0
220
0.0
230
1.0
100
AcDbArc
 50
89.954718
 51
183.980493
  0
LINE
  5
127
100
AcDbEntity
  8
0
370
    35
390
0
 62
     7
 48
0.17
100
AcDbLine
 10
203.325592
 20
307.530884
 30
0.0
 11
210.125595
 21
307.530884
 31
0.0
210
0.0
220
0.0
230
1.0
  0
POLYLINE
  5
128
100
AcDbEntity
  8
0
370
    35
390
0
 62
     7
100
AcDb2dPolyline
 66
     1
 10
0.0
 20
0.0
 30
0.0
 71
    29
  0
VERTEX
  5
129
100
AcDbEntity
  8
0
370
     0
390
0
100
AcDbVertex
100
AcDb2dVertex
 10
210.125595
 20
307.530884
 30
0.0
  0
VERTEX
  5
12A
100
AcDbEntity
  8
0
370
     0
390
0
100
AcDbVertex
100
AcDb2dVertex
 10
210.256607
 20
307.53476
 30
0.0
  0
VERTEX
  5
12B
100
AcDbEntity
  8
0
370
     0
390
0
100
AcDbVertex
100
AcDb2dVertex
 10
210.387115
 20
307.546356
 30
0.0
  0
VERTEX
  5
12C
100
AcDbEntity
  8
0
370
     0
390
0
100
AcDbVertex
100
AcDb2dVertex
 10
210.516632
 20
307.565613
 30
0.0
  0
VERTEX
  5
12D
100
AcDbEntity
  8
0
370
     0
390
0
100
AcDbVertex
100
AcDb2dVertex
 10
210.644684
 20
307.592407
 30
0.0
  0
VERTEX
  5
12E
100
AcDbEntity
  8
0
370
     0
390
0
100
AcDbVertex
100
AcDb2dVertex
 10
210.770798
 20
307.626678
 30
0.0
  0
VERTEX
  5
12F
100
AcDbEntity
  8
0
370
     0
390
0
100
AcDbVertex
100
AcDb2dVertex
 10
210.894562
 20
307.668213
 30
0.0
  0
VERTEX
  5
130
100
AcDbEntity
  8
0
370
     0
390
0
100
AcDbVertex
100
AcDb2dVertex
 10
211.015533
 20
307.716827
 30
0.0
  0
VERTEX
  5
131
100
AcDbEntity
  8
0
370
     0
390
0
100
AcDbVertex
100
AcDb2dVertex
 10
211.133301
 20
307.772339
 30
0.0
  0
VERTEX
  5
132
100
AcDbEntity
  8
0
370
     0
390
0
100
AcDbVertex
100
AcDb2dVertex
 10
211.247498
 20
307.834534
 30
0.0
  0
VERTEX
  5
133
100
AcDbEntity
  8
0
370
     0
390
0
100
AcDbVertex
100
AcDb2dVertex
 10
211.357727
 20
307.903076
 30
0.0
  0
VERTEX
  5
134
100
AcDbEntity
  8
0
370
     0
390
0
100
AcDbVertex
100
AcDb2dVertex
 10
211.463684
 20
307.977783
 30
0.0
  0
VERTEX
  5
135
100
AcDbEntity
  8
0
370
     0
390
0
100
AcDbVertex
100
AcDb2dVertex
 10
211.565002
 20
308.058289
 30
0.0
  0
VERTEX
  5
136
100
AcDbEntity
  8
0
370
     0
390
0
100
AcDbVertex
100
AcDb2dVertex
 10
211.661407
 20
308.144287
 30
0.0
  0
VERTEX
  5
137
100
AcDbEntity
  8
0
370
     0
390
0
100
AcDbVertex
100
AcDb2dVertex
 10
211.752579
 20
308.235474
 30
0.0
  0
VERTEX
  5
138
100
AcDbEntity
  8
0
370
     0
390
0
100
AcDbVertex
100
AcDb2dVertex
 10
211.838287
 20
308.331482
 30
0.0
  0
VERTEX
  5
139
100
AcDbEntity
  8
0
370
     0
390
0
100
AcDbVertex
100
AcDb2dVertex
 10
211.918304
 20
308.432007
 30
0.0
  0
VERTEX
  5
13A
100
AcDbEntity
  8
0
370
     0
390
0
100
AcDbVertex
100
AcDb2dVertex
 10
211.992371
 20
308.536591
 30
0.0
  0
VERTEX
  5
13B
100
AcDbEntity
  8
0
370
     0
390
0
100
AcDbVertex
100
AcDb2dVertex
 10
212.062683
 20
308.648895
 30
0.0
  0
VERTEX
  5
13C
100
AcDbEntity
  8
0
370
     0
390
0
100
AcDbVertex
100
AcDb2dVertex
 10
212.126266
 20
308.764771
 30
0.0
  0
VERTEX
  5
13D
100
AcDbEntity
  8
0
370
     0
390
0
100
AcDbVertex
100
AcDb2dVertex
 10
212.182938
 20
308.88385
 30
0.0
  0
VERTEX
  5
13E
100
AcDbEntity
  8
0
370
     0
390
0
100
AcDbVertex
100
AcDb2dVertex
 10
212.232605
 20
309.005615
 30
0.0
  0
VERTEX
  5
13F
100
AcDbEntity
  8
0
370
     0
390
0
100
AcDbVertex
100
AcDb2dVertex
 10
212.275162
 20
309.12973
 30
0.0
  0
VERTEX
  5
140
100
AcDbEntity
  8
0
370
     0
390
0
100
AcDbVertex
100
AcDb2dVertex
 10
212.310516
 20
309.255768
 30
0.0
  0
VERTEX
  5
141
100
AcDbEntity
  8
0
370
     0
390
0
100
AcDbVertex
100
AcDb2dVertex
 10
212.338623
 20
309.38327
 30
0.0
  0
VERTEX
  5
142
100
AcDbEntity
  8
0
370
     0
390
0
100
AcDbVertex
100
AcDb2dVertex
 10
212.359467
 20
309.511841
 30
0.0
  0
VERTEX
  5
143
100
AcDbEntity
  8
0
370
     0
390
0
100
AcDbVertex
100
AcDb2dVertex
 10
212.373016
 20
309.641113
 30
0.0
  0
VERTEX
  5
144
100
AcDbEntity
  8
0
370
     0
390
0
100
AcDbVertex
100
AcDb2dVertex
 10
212.379303
 20
309.77063
 30
0.0
  0
VERTEX
  5
145
100
AcDbEntity
  8
0
370
     0
390
0
100
AcDbVertex
100
AcDb2dVertex
 10
212.378357
 20
309.900024
 30
0.0
  0
SEQEND
  5
146
100
AcDbEntity
  8
0
370
     0
390
0
  0
ARC
  5
147
100
AcDbEntity
  8
0
370
    35
390
0
 62
     7
100
AcDbCircle
 10
297.712738
 20
312.899078
 30
0.0
 40
85.387077
210
0.0
220
0.0
230
1.0
100
AcDbArc
 50
176.642393
 51
182.012824
  0
ARC
  5
148
100
AcDbEntity
  8
0
370
    35
390
0
 62
     7
100
AcDbCircle
 10
214.119812
 20
317.796326
 30
0.0
 40
1.651395
210
0.0
220
0.0
230
1.0
100
AcDbArc
 50
89.799243
 51
176.399266
  0
LINE
  5
149
100
AcDbEntity
  8
0
370
    35
390
0
 62
     7
100
AcDbLine
 10
246.525589
 20
319.448303
 30
0.0
 11
214.125595
 21
319.448303
 31
0.0
210
0.0
220
0.0
230
1.0
  0
ARC
  5
14A
100
AcDbEntity
  8
0
370
    35
390
0
 62
     7
100
AcDbCircle
 10
246.531342
 20
317.796326
 30
0.0
 40
1.651438
210
0.0
220
0.0
230
1.0
100
AcDbArc
 50
3.60149
 51
90.199246
  0
ARC
  5
14B
100
AcDbEntity
  8
0
370
    35
390
0
 62
     7
100
AcDbCircle
 10
162.942795
 20
312.899139
 30
0.0
 40
85.382721
210
0.0
220
0.0
230
1.0
100
AcDbArc
 50
357.987044
 51
3.357741
  0
POLYLINE
  5
14C
100
AcDbEntity
  8
0
370
    35
390
0
 62
     7
100
AcDb2dPolyline
 66
     1
 10
0.0
 20
0.0
 30
0.0
 71
    35
  0
VERTEX
  5
14D
100
AcDbEntity
  8
0
370
     0
390
0
100
AcDbVertex
100
AcDb2dVertex
 10
248.272827
 20
309.900024
 30
0.0
  0
VERTEX
  5
14E
100
AcDbEntity
  8
0
370
     0
390
0
100
AcDbVertex
100
AcDb2dVertex
 10
248.271957
 20
309.767029
 30
0.0
  0
VERTEX
  5
14F
100
AcDbEntity
  8
0
370
     0
390
0
100
AcDbVertex
100
AcDb2dVertex
 10
248.278717
 20
309.633942
 30
0.0
  0
VERTEX
  5
150
100
AcDbEntity
  8
0
370
     0
390
0
100
AcDbVertex
100
AcDb2dVertex
 10
248.293152
 20
309.50116
 30
0.0
  0
VERTEX
  5
151
100
AcDbEntity
  8
0
370
     0
390
0
100
AcDbVertex
100
AcDb2dVertex
 10
248.315292
 20
309.36908
 30
0.0
  0
VERTEX
  5
152
100
AcDbEntity
  8
0
370
     0
390
0
100
AcDbVertex
100
AcDb2dVertex
 10
248.345093
 20
309.23822
 30
0.0
  0
VERTEX
  5
153
100
AcDbEntity
  8
0
370
     0
390
0
100
AcDbVertex
100
AcDb2dVertex
 10
248.382568
 20
309.108948
 30
0.0
  0
VERTEX
  5
154
100
AcDbEntity
  8
0
370
     0
390
0
100
AcDbVertex
100
AcDb2dVertex
 10
248.427612
 20
308.981781
 30
0.0
  0
VERTEX
  5
155
100
AcDbEntity
  8
0
370
     0
390
0
100
AcDbVertex
100
AcDb2dVertex
 10
248.480164
 20
308.857178
 30
0.0
  0
VERTEX
  5
156
100
AcDbEntity
  8
0
370
     0
390
0
100
AcDbVertex
100
AcDb2dVertex
 10
248.509277
 20
308.795837
 30
0.0
  0
VERTEX
  5
157
100
AcDbEntity
  8
0
370
     0
390
0
100
AcDbVertex
100
AcDb2dVertex
 10
248.540222
 20
308.735291
 30
0.0
  0
VERTEX
  5
158
100
AcDbEntity
  8
0
370
     0
390
0
100
AcDbVertex
100
AcDb2dVertex
 10
248.572861
 20
308.675873
 30
0.0
  0
VERTEX
  5
159
100
AcDbEntity
  8
0
370
     0
390
0
100
AcDbVertex
100
AcDb2dVertex
 10
248.607269
 20
308.617371
 30
0.0
  0
VERTEX
  5
15A
100
AcDbEntity
  8
0
370
     0
390
0
100
AcDbVertex
100
AcDb2dVertex
 10
248.656006
 20
308.54071
 30
0.0
  0
VERTEX
  5
15B
100
AcDbEntity
  8
0
370
     0
390
0
100
AcDbVertex
100
AcDb2dVertex
 10
248.707825
 20
308.465942
 30
0.0
  0
VERTEX
  5
15C
100
AcDbEntity
  8
0
370
     0
390
0
100
AcDbVertex
100
AcDb2dVertex
 10
248.762665
 20
308.393188
 30
0.0
  0
VERTEX
  5
15D
100
AcDbEntity
  8
0
370
     0
390
0
100
AcDbVertex
100
AcDb2dVertex
 10
248.832367
 20
308.308685
 30
0.0
  0
VERTEX
  5
15E
100
AcDbEntity
  8
0
370
     0
390
0
100
AcDbVertex
100
AcDb2dVertex
 10
248.906189
 20
308.227478
 30
0.0
  0
VERTEX
  5
15F
100
AcDbEntity
  8
0
370
     0
390
0
100
AcDbVertex
100
AcDb2dVertex
 10
248.983978
 20
308.14978
 30
0.0
  0
VERTEX
  5
160
100
AcDbEntity
  8
0
370
     0
390
0
100
AcDbVertex
100
AcDb2dVertex
 10
249.065582
 20
308.075836
 30
0.0
  0
VERTEX
  5
161
100
AcDbEntity
  8
0
370
     0
390
0
100
AcDbVertex
100
AcDb2dVertex
 10
249.150833
 20
308.005829
 30
0.0
  0
VERTEX
  5
162
100
AcDbEntity
  8
0
370
     0
390
0
100
AcDbVertex
100
AcDb2dVertex
 10
249.258636
 20
307.926636
 30
0.0
  0
VERTEX
  5
163
100
AcDbEntity
  8
0
370
     0
390
0
100
AcDbVertex
100
AcDb2dVertex
 10
249.314331
 20
307.889404
 30
0.0
  0
VERTEX
  5
164
100
AcDbEntity
  8
0
370
     0
390
0
100
AcDbVertex
100
AcDb2dVertex
 10
249.371155
 20
307.853851
 30
0.0
  0
VERTEX
  5
165
100
AcDbEntity
  8
0
370
     0
390
0
100
AcDbVertex
100
AcDb2dVertex
 10
249.45842
 20
307.80365
 30
0.0
  0
VERTEX
  5
166
100
AcDbEntity
  8
0
370
     0
390
0
100
AcDbVertex
100
AcDb2dVertex
 10
249.547943
 20
307.757385
 30
0.0
  0
VERTEX
  5
167
100
AcDbEntity
  8
0
370
     0
390
0
100
AcDbVertex
100
AcDb2dVertex
 10
249.639587
 20
307.715149
 30
0.0
  0
VERTEX
  5
168
100
AcDbEntity
  8
0
370
     0
390
0
100
AcDbVertex
100
AcDb2dVertex
 10
249.733109
 20
307.677063
 30
0.0
  0
VERTEX
  5
169
100
AcDbEntity
  8
0
370
     0
390
0
100
AcDbVertex
100
AcDb2dVertex
 10
249.842072
 20
307.638672
 30
0.0
  0
VERTEX
  5
16A
100
AcDbEntity
  8
0
370
     0
390
0
100
AcDbVertex
100
AcDb2dVertex
 10
249.953003
 20
307.606018
 30
0.0
  0
VERTEX
  5
16B
100
AcDbEntity
  8
0
370
     0
390
0
100
AcDbVertex
100
AcDb2dVertex
 10
250.065536
 20
307.579102
 30
0.0
  0
VERTEX
  5
16C
100
AcDbEntity
  8
0
370
     0
390
0
100
AcDbVertex
100
AcDb2dVertex
 10
250.179382
 20
307.558044
 30
0.0
  0
VERTEX
  5
16D
100
AcDbEntity
  8
0
370
     0
390
0
100
AcDbVertex
100
AcDb2dVertex
 10
250.29425
 20
307.542969
 30
0.0
  0
VERTEX
  5
16E
100
AcDbEntity
  8
0
370
     0
390
0
100
AcDbVertex
100
AcDb2dVertex
 10
250.40976
 20
307.533905
 30
0.0
  0
VERTEX
  5
16F
100
AcDbEntity
  8
0
370
     0
390
0
100
AcDbVertex
100
AcDb2dVertex
 10
250.525589
 20
307.530884
 30
0.0
  0
SEQEND
  5
170
100
AcDbEntity
  8
0
370
     0
390
0
  0
LINE
  5
171
100
AcDbEntity
  8
0
370
    35
390
0
 62
     7
 48
0.17
100
AcDbLine
 10
250.525589
 20
307.530884
 30
0.0
 11
257.325592
 21
307.530884
 31
0.0
210
0.0
220
0.0
230
1.0
  0
ARC
  5
172
100
AcDbEntity
  8
0
370
    35
390
0
 62
     7
100
AcDbCircle
 10
257.326111
 20
306.940979
 30
0.0
 40
0.589737
210
0.0
220
0.0
230
1.0
100
AcDbArc
 50
356.017272
 51
90.049002
  0
LINE
  5
173
100
AcDbEntity
  8
0
370
    35
390
0
 62
     7
 48
0.001478
100
AcDbLine
 10
257.525574
 20
302.770355
 30
0.0
 11
257.529083
 21
302.829376
 31
0.0
210
0.0
220
0.0
230
1.0
  0
LINE
  5
174
100
AcDbEntity
  8
0
370
    35
390
0
 62
     7
 48
0.089259
100
AcDbLine
 10
257.525574
 20
302.770355
 30
0.0
 11
257.525574
 21
299.200012
 31
0.0
210
0.0
220
0.0
230
1.0
  0
LINE
  5
175
100
AcDbEntity
  8
0
370
    35
390
0
 62
     7
 48
0.0125
100
AcDbLine
 10
258.025574
 20
299.200012
 30
0.0
 11
257.525574
 21
299.200012
 31
0.0
210
0.0
220
0.0
230
1.0
  0
LINE
  5
176
100
AcDbEntity
  8
0
370
    35
390
0
 62
     7
 48
0.05
100
AcDbLine
 10
258.025574
 20
299.200012
 30
0.0
 11
258.025574
 21
297.200012
 31
0.0
210
0.0
220
0.0
230
1.0
  0
LINE
  5
177
100
AcDbEntity
  8
0
370
    35
390
0
 62
     7
 48
0.010607
100
AcDbLine
 10
258.025574
 20
297.200012
 30
0.0
 11
258.325592
 21
296.900024
 31
0.0
210
0.0
220
0.0
230
1.0
  0
ARC
  5
178
100
AcDbEntity
  8
0
370
    35
390
0
 62
     7
100
AcDbCircle
 10
172.784805
 20
312.903076
 30
0.0
 40
85.340919
210
0.0
220
0.0
230
1.0
100
AcDbArc
 50
353.220966
 51
355.966346
  0
LINE
  5
179
100
AcDbEntity
  8
0
370
    35
390
0
 62
     7
 48
0.001478
100
AcDbLine
 10
268.925598
 20
302.770355
 30
0.0
 11
268.922089
 21
302.829376
 31
0.0
210
0.0
220
0.0
230
1.0
  0
ARC
  5
17A
100
AcDbEntity
  8
0
370
    35
390
0
 62
     7
100
AcDbCircle
 10
353.634216
 20
312.899994
 30
0.0
 40
85.308632
210
0.0
220
0.0
230
1.0
100
AcDbArc
 50
176.639921
 51
186.779531
  0
LINE
  5
17B
100
AcDbEntity
  8
0
370
    35
390
0
 62
     7
 48
0.010606
100
AcDbLine
 10
268.425598
 20
297.200012
 30
0.0
 11
268.12561
 21
296.900024
 31
0.0
210
0.0
220
0.0
230
1.0
  0
LINE
  5
17C
100
AcDbEntity
  8
0
370
    35
390
0
 62
     7
 48
0.05
100
AcDbLine
 10
268.425598
 20
297.200012
 30
0.0
 11
268.425598
 21
299.200012
 31
0.0
210
0.0
220
0.0
230
1.0
  0
LINE
  5
17D
100
AcDbEntity
  8
0
370
    35
390
0
 62
     7
 48
0.0125
100
AcDbLine
 10
268.425598
 20
299.200012
 30
0.0
 11
268.925598
 21
299.200012
 31
0.0
210
0.0
220
0.0
230
1.0
  0
LINE
  5
17E
100
AcDbEntity
  8
0
370
    35
390
0
 62
     7
 48
0.089259
100
AcDbLine
 10
268.925598
 20
302.770355
 30
0.0
 11
268.925598
 21
299.200012
 31
0.0
210
0.0
220
0.0
230
1.0
  0
ARC
  5
17F
100
AcDbEntity
  8
0
370
    35
390
0
 62
     7
100
AcDbCircle
 10
270.120056
 20
317.796387
 30
0.0
 40
1.651441
210
0.0
220
0.0
230
1.0
100
AcDbArc
 50
89.807903
 51
176.402012
  0
LINE
  5
180
100
AcDbEntity
  8
0
370
    35
390
0
 62
     7
100
AcDbLine
 10
307.025574
 20
319.448303
 30
0.0
 11
270.12561
 21
319.448303
 31
0.0
210
0.0
220
0.0
230
1.0
  0
POLYLINE
  5
181
100
AcDbEntity
  8
0
370
    35
390
0
 62
     7
100
AcDb2dPolyline
 66
     1
 10
0.0
 20
0.0
 30
0.0
 71
    25
  0
VERTEX
  5
182
100
AcDbEntity
  8
0
370
     0
390
0
100
AcDbVertex
100
AcDb2dVertex
 10
308.601532
 20
320.900024
 30
0.0
  0
VERTEX
  5
183
100
AcDbEntity
  8
0
370
     0
390
0
100
AcDbVertex
100
AcDb2dVertex
 10
308.588287
 20
320.795776
 30
0.0
  0
VERTEX
  5
184
100
AcDbEntity
  8
0
370
     0
390
0
100
AcDbVertex
100
AcDb2dVertex
 10
308.568298
 20
320.692596
 30
0.0
  0
VERTEX
  5
185
100
AcDbEntity
  8
0
370
     0
390
0
100
AcDbVertex
100
AcDb2dVertex
 10
308.541687
 20
320.590973
 30
0.0
  0
VERTEX
  5
186
100
AcDbEntity
  8
0
370
     0
390
0
100
AcDbVertex
100
AcDb2dVertex
 10
308.508606
 20
320.491302
 30
0.0
  0
VERTEX
  5
187
100
AcDbEntity
  8
0
370
     0
390
0
100
AcDbVertex
100
AcDb2dVertex
 10
308.469177
 20
320.394043
 30
0.0
  0
VERTEX
  5
188
100
AcDbEntity
  8
0
370
     0
390
0
100
AcDbVertex
100
AcDb2dVertex
 10
308.423553
 20
320.299591
 30
0.0
  0
VERTEX
  5
189
100
AcDbEntity
  8
0
370
     0
390
0
100
AcDbVertex
100
AcDb2dVertex
 10
308.371887
 20
320.208344
 30
0.0
  0
VERTEX
  5
18A
100
AcDbEntity
  8
0
370
     0
390
0
100
AcDbVertex
100
AcDb2dVertex
 10
308.314453
 20
320.120728
 30
0.0
  0
VERTEX
  5
18B
100
AcDbEntity
  8
0
370
     0
390
0
100
AcDbVertex
100
AcDb2dVertex
 10
308.251404
 20
320.037079
 30
0.0
  0
VERTEX
  5
18C
100
AcDbEntity
  8
0
370
     0
390
0
100
AcDbVertex
100
AcDb2dVertex
 10
308.185638
 20
319.960632
 30
0.0
  0
VERTEX
  5
18D
100
AcDbEntity
  8
0
370
     0
390
0
100
AcDbVertex
100
AcDb2dVertex
 10
308.115173
 20
319.888489
 30
0.0
  0
VERTEX
  5
18E
100
AcDbEntity
  8
0
370
     0
390
0
100
AcDbVertex
100
AcDb2dVertex
 10
308.040283
 20
319.821014
 30
0.0
  0
VERTEX
  5
18F
100
AcDbEntity
  8
0
370
     0
390
0
100
AcDbVertex
100
AcDb2dVertex
 10
307.961273
 20
319.758484
 30
0.0
  0
VERTEX
  5
190
100
AcDbEntity
  8
0
370
     0
390
0
100
AcDbVertex
100
AcDb2dVertex
 10
307.878418
 20
319.70105
 30
0.0
  0
VERTEX
  5
191
100
AcDbEntity
  8
0
370
     0
390
0
100
AcDbVertex
100
AcDb2dVertex
 10
307.792084
 20
319.649048
 30
0.0
  0
VERTEX
  5
192
100
AcDbEntity
  8
0
370
     0
390
0
100
AcDbVertex
100
AcDb2dVertex
 10
307.702606
 20
319.602661
 30
0.0
  0
VERTEX
  5
193
100
AcDbEntity
  8
0
370
     0
390
0
100
AcDbVertex
100
AcDb2dVertex
 10
307.616638
 20
319.564636
 30
0.0
  0
VERTEX
  5
194
100
AcDbEntity
  8
0
370
     0
390
0
100
AcDbVertex
100
AcDb2dVertex
 10
307.528442
 20
319.531738
 30
0.0
  0
VERTEX
  5
195
100
AcDbEntity
  8
0
370
     0
390
0
100
AcDbVertex
100
AcDb2dVertex
 10
307.438354
 20
319.50412
 30
0.0
  0
VERTEX
  5
196
100
AcDbEntity
  8
0
370
     0
390
0
100
AcDbVertex
100
AcDb2dVertex
 10
307.34671
 20
319.481934
 30
0.0
  0
VERTEX
  5
197
100
AcDbEntity
  8
0
370
     0
390
0
100
AcDbVertex
100
AcDb2dVertex
 10
307.253937
 20
319.465271
 30
0.0
  0
VERTEX
  5
198
100
AcDbEntity
  8
0
370
     0
390
0
100
AcDbVertex
100
AcDb2dVertex
 10
307.17804
 20
319.455872
 30
0.0
  0
VERTEX
  5
199
100
AcDbEntity
  8
0
370
     0
390
0
100
AcDbVertex
100
AcDb2dVertex
 10
307.101868
 20
319.450195
 30
0.0
  0
VERTEX
  5
19A
100
AcDbEntity
  8
0
370
     0
390
0
100
AcDbVertex
100
AcDb2dVertex
 10
307.025574
 20
319.448303
 30
0.0
  0
SEQEND
  5
19B
100
AcDbEntity
  8
0
370
     0
390
0
  0
LINE
  5
19C
100
AcDbEntity
  8
0
370
    35
390
0
 62
     7
 48
0.185
100
AcDbLine
 10
176.825592
 20
295.900024
 30
0.0
 11
184.225586
 21
295.900024
 31
0.0
210
0.0
220
0.0
230
1.0
  0
LINE
  5
19D
100
AcDbEntity
  8
0
370
    35
390
0
 62
     7
100
AcDbLine
 10
268.925598
 20
299.200012
 30
0.0
 11
301.325592
 21
299.200012
 31
0.0
210
0.0
220
0.0
230
1.0
  0
LINE
  5
19E
100
AcDbEntity
  8
0
370
    35
390
0
 62
     7
 48
0.1875
100
AcDbLine
 10
301.325592
 20
296.400024
 30
0.0
 11
308.825592
 21
296.400024
 31
0.0
210
0.0
220
0.0
230
1.0
  0
ARC
  5
19F
100
AcDbEntity
  8
0
370
    35
390
0
 62
     7
100
AcDbCircle
 10
301.425598
 20
296.0
 30
0.0
 40
0.1
210
0.0
220
0.0
230
1.0
100
AcDbArc
 50
179.999991
 51
269.999997
  0
LINE
  5
1A0
100
AcDbEntity
  8
0
370
    35
390
0
 62
     7
 48
0.185
100
AcDbLine
 10
301.425598
 20
295.900024
 30
0.0
 11
308.825592
 21
295.900024
 31
0.0
210
0.0
220
0.0
230
1.0
  0
ARC
  5
1A1
100
AcDbEntity
  8
0
370
    35
390
0
 62
     7
100
AcDbCircle
 10
184.225586
 20
296.0
 30
0.0
 40
0.1
210
0.0
220
0.0
230
1.0
100
AcDbArc
 50
269.999997
 51
360.0
  0
LINE
  5
1A2
100
AcDbEntity
  8
0
370
    35
390
0
 62
     7
 48
0.010001
100
AcDbLine
 10
184.325592
 20
296.400024
 30
0.0
 11
184.325592
 21
296.0
 31
0.0
210
0.0
220
0.0
230
1.0
  0
LINE
  5
1A3
100
AcDbEntity
  8
0
370
    35
390
0
 62
     7
 48
0.1875
100
AcDbLine
 10
176.825592
 20
296.400024
 30
0.0
 11
184.325592
 21
296.400024
 31
0.0
210
0.0
220
0.0
230
1.0
  0
LINE
  5
1A4
100
AcDbEntity
  8
0
370
    35
390
0
 62
     7
 48
0.07
100
AcDbLine
 10
184.325592
 20
296.400024
 30
0.0
 11
184.325592
 21
299.200012
 31
0.0
210
0.0
220
0.0
230
1.0
  0
LINE
  5
1A5
100
AcDbEntity
  8
0
370
    35
390
0
 62
     7
 48
0.185
100
AcDbLine
 10
184.325592
 20
299.200012
 30
0.0
 11
191.725586
 21
299.200012
 31
0.0
210
0.0
220
0.0
230
1.0
  0
LINE
  5
1A6
100
AcDbEntity
  8
0
370
    35
390
0
 62
     7
 48
0.01
100
AcDbLine
 10
290.925598
 20
298.800018
 30
0.0
 11
290.925598
 21
299.200012
 31
0.0
210
0.0
220
0.0
230
1.0
  0
LINE
  5
1A7
100
AcDbEntity
  8
0
370
    35
390
0
 62
     7
 48
0.01
100
AcDbLine
 10
292.725586
 20
298.800018
 30
0.0
 11
292.725586
 21
299.200012
 31
0.0
210
0.0
220
0.0
230
1.0
  0
LINE
  5
1A8
100
AcDbEntity
  8
0
370
    35
390
0
 62
     7
 48
0.17125
100
AcDbLine
 10
192.225586
 20
298.800018
 30
0.0
 11
185.375595
 21
298.800018
 31
0.0
210
0.0
220
0.0
230
1.0
  0
LINE
  5
1A9
100
AcDbEntity
  8
0
370
    35
390
0
 62
     7
100
AcDbLine
 10
300.275574
 20
296.300018
 30
0.0
 11
267.525574
 21
296.300018
 31
0.0
210
0.0
220
0.0
230
1.0
  0
LINE
  5
1AA
100
AcDbEntity
  8
0
370
    35
390
0
 62
     7
100
AcDbLine
 10
258.925598
 20
296.300018
 30
0.0
 11
201.725586
 21
296.300018
 31
0.0
210
0.0
220
0.0
230
1.0
  0
LINE
  5
1AB
100
AcDbEntity
  8
0
370
    35
390
0
 62
     7
 48
0.19375
100
AcDbLine
 10
193.125595
 20
296.300018
 30
0.0
 11
185.375595
 21
296.300018
 31
0.0
210
0.0
220
0.0
230
1.0
  0
LINE
  5
1AC
100
AcDbEntity
  8
0
370
    35
390
0
 62
     7
 48
0.285669
100
AcDbLine
 10
300.275574
 20
298.800018
 30
0.0
 11
288.848816
 21
298.800018
 31
0.0
210
0.0
220
0.0
230
1.0
  0
LINE
  5
1AD
100
AcDbEntity
  8
0
370
    35
390
0
 62
     7
 48
0.076161
100
AcDbLine
 10
285.802368
 20
299.050018
 30
0.0
 11
288.848816
 21
299.050018
 31
0.0
210
0.0
220
0.0
230
1.0
  0
LINE
  5
1AE
100
AcDbEntity
  8
0
370
    35
390
0
 62
     7
 48
0.434419
100
AcDbLine
 10
285.802368
 20
298.800018
 30
0.0
 11
268.425598
 21
298.800018
 31
0.0
210
0.0
220
0.0
230
1.0
  0
LINE
  5
1AF
100
AcDbEntity
  8
0
370
    35
390
0
 62
     7
100
AcDbLine
 10
258.025574
 20
298.800018
 30
0.0
 11
202.625595
 21
298.800018
 31
0.0
210
0.0
220
0.0
230
1.0
  0
LINE
  5
1B0
100
AcDbEntity
  8
0
370
    35
390
0
 62
     7
 48
0.025
100
AcDbLine
 10
184.375595
 20
298.800018
 30
0.0
 11
185.375595
 21
298.800018
 31
0.0
210
0.0
220
0.0
230
1.0
  0
LINE
  5
1B1
100
AcDbEntity
  8
0
370
    35
390
0
 62
     7
 48
0.025
100
AcDbLine
 10
300.275574
 20
298.800018
 30
0.0
 11
301.275574
 21
298.800018
 31
0.0
210
0.0
220
0.0
230
1.0
  0
LINE
  5
1B2
100
AcDbEntity
  8
0
370
    35
390
0
 62
     7
 48
0.005
100
AcDbLine
 10
288.848816
 20
299.050018
 30
0.0
 11
289.048798
 21
299.050018
 31
0.0
210
0.0
220
0.0
230
1.0
  0
LINE
  5
1B3
100
AcDbEntity
  8
0
370
    35
390
0
 62
     7
 48
0.025
100
AcDbLine
 10
300.275574
 20
296.300018
 30
0.0
 11
301.275574
 21
296.300018
 31
0.0
210
0.0
220
0.0
230
1.0
  0
LINE
  5
1B4
100
AcDbEntity
  8
0
370
    35
390
0
 62
     7
 48
0.0625
100
AcDbLine
 10
301.275574
 20
296.300018
 30
0.0
 11
301.275574
 21
298.800018
 31
0.0
210
0.0
220
0.0
230
1.0
  0
ARC
  5
1B5
100
AcDbEntity
  8
0
370
    35
390
0
 62
     7
100
AcDbCircle
 10
230.325592
 20
318.100006
 30
0.0
 40
0.2
210
0.0
220
0.0
230
1.0
100
AcDbArc
 50
20.376416
 51
159.62357
  0
LINE
  5
1B6
100
AcDbEntity
  8
0
370
    35
390
0
 62
     7
 48
0.093341
100
AcDbLine
 10
230.513077
 20
318.169647
 30
0.0
 11
231.81308
 21
314.669647
 31
0.0
210
0.0
220
0.0
230
1.0
  0
ARC
  5
1B7
100
AcDbEntity
  8
0
370
    35
390
0
 62
     7
100
AcDbCircle
 10
229.025589
 20
314.600006
 30
0.0
 40
0.2
210
0.0
220
0.0
230
1.0
100
AcDbArc
 50
159.623543
 51
269.999997
  0
LINE
  5
1B8
100
AcDbEntity
  8
0
370
    35
390
0
 62
     7
 48
0.0725
100
AcDbLine
 10
309.325592
 20
319.050018
 30
0.0
 11
309.325592
 21
321.950012
 31
0.0
210
0.0
220
0.0
230
1.0
  0
LINE
  5
1B9
100
AcDbEntity
  8
0
370
    35
390
0
 62
     7
 48
0.0725
100
AcDbLine
 10
309.325592
 20
314.850006
 30
0.0
 11
309.325592
 21
317.75
 31
0.0
210
0.0
220
0.0
230
1.0
  0
LINE
  5
1BA
100
AcDbEntity
  8
0
370
    35
390
0
 62
     7
 48
0.089799
100
AcDbLine
 10
309.325592
 20
312.0
 30
0.0
 11
309.325592
 21
308.408051
 31
0.0
210
0.0
220
0.0
230
1.0
  0
LINE
  5
1BB
100
AcDbEntity
  8
0
370
    35
390
0
 62
     7
 48
0.255201
100
AcDbLine
 10
309.325592
 20
308.408051
 30
0.0
 11
309.325592
 21
298.200012
 31
0.0
210
0.0
220
0.0
230
1.0
  0
CIRCLE
  5
1BC
100
AcDbEntity
  8
0
370
    35
390
0
 62
     7
100
AcDbCircle
 10
202.325592
 20
315.400024
 30
0.0
 40
2.5
210
0.0
220
0.0
230
1.0
  0
CIRCLE
  5
1BD
100
AcDbEntity
  8
0
370
    35
390
0
 62
     7
100
AcDbCircle
 10
258.325592
 20
315.400024
 30
0.0
 40
2.5
210
0.0
220
0.0
230
1.0
  0
LINE
  5
1BE
100
AcDbEntity
  8
0
370
    35
390
0
 62
     7
 48
0.065
100
AcDbLine
 10
231.625595
 20
314.400024
 30
0.0
 11
229.025589
 21
314.400024
 31
0.0
210
0.0
220
0.0
230
1.0
  0
ARC
  5
1BF
100
AcDbEntity
  8
0
370
    35
390
0
 62
     7
100
AcDbCircle
 10
231.625595
 20
314.600006
 30
0.0
 40
0.2
210
0.0
220
0.0
230
1.0
100
AcDbArc
 50
269.999997
 51
20.376456
  0
LINE
  5
1C0
100
AcDbEntity
  8
0
370
    35
390
0
 62
     7
 48
0.093341
100
AcDbLine
 10
230.138107
 20
318.169647
 30
0.0
 11
228.838104
 21
314.669647
 31
0.0
210
0.0
220
0.0
230
1.0
  0
CIRCLE
  5
1C1
100
AcDbEntity
  8
0
370
    35
390
0
 62
     7
100
AcDbCircle
 10
202.325592
 20
315.400024
 30
0.0
 40
4.25
210
0.0
220
0.0
230
1.0
  0
CIRCLE
  5
1C2
100
AcDbEntity
  8
0
370
    35
390
0
 62
     7
100
AcDbCircle
 10
258.325592
 20
315.400024
 30
0.0
 40
4.25
210
0.0
220
0.0
230
1.0
  0
LINE
  5
1C3
100
AcDbEntity
  8
0
370
    35
390
0
 62
     7
 48
0.0625
100
AcDbLine
 10
184.375595
 20
296.300018
 30
0.0
 11
184.375595
 21
298.800018
 31
0.0
210
0.0
220
0.0
230
1.0
  0
LINE
  5
1C4
100
AcDbEntity
  8
0
370
    35
390
0
 62
     7
 48
0.025
100
AcDbLine
 10
184.375595
 20
296.300018
 30
0.0
 11
185.375595
 21
296.300018
 31
0.0
210
0.0
220
0.0
230
1.0
  0
LINE
  5
1C5
100
AcDbEntity
  8
0
370
    35
390
0
 62
     7
 48
0.005
100
AcDbLine
 10
285.602386
 20
299.050018
 30
0.0
 11
285.802368
 21
299.050018
 31
0.0
210
0.0
220
0.0
230
1.0
  0
LINE
  5
1C6
100
AcDbEntity
  8
0
370
    35
390
0
 62
     7
 48
0.01
100
AcDbLine
 10
284.325592
 20
298.800018
 30
0.0
 11
284.325592
 21
299.200012
 31
0.0
210
0.0
220
0.0
230
1.0
  0
LINE
  5
1C7
100
AcDbEntity
  8
0
370
    35
390
0
 62
     7
100
AcDbLine
 10
203.125595
 20
299.200012
 30
0.0
 11
257.525574
 21
299.200012
 31
0.0
210
0.0
220
0.0
230
1.0
  0
ARC
  5
1C8
100
AcDbEntity
  8
0
370
    35
390
0
 62
     7
100
AcDbCircle
 10
308.825806
 20
295.899811
 30
0.0
 40
0.500098
210
0.0
220
0.0
230
1.0
100
AcDbArc
 50
45.032831
 51
90.022761
  0
ARC
  5
1C9
100
AcDbEntity
  8
0
370
    35
390
0
 62
     7
100
AcDbCircle
 10
304.825592
 20
323.900024
 30
0.0
 40
0.5
210
0.0
220
0.0
230
1.0
100
AcDbArc
 50
180.000009
 51
269.999997
  0
LINE
  5
1CA
100
AcDbEntity
  8
0
370
    35
390
0
 62
     7
 48
0.00625
100
AcDbLine
 10
185.325592
 20
324.150024
 30
0.0
 11
185.325592
 21
323.900024
 31
0.0
210
0.0
220
0.0
230
1.0
  0
LINE
  5
1CB
100
AcDbEntity
  8
0
370
    35
390
0
 62
     7
 48
0.00625
100
AcDbLine
 10
185.325592
 20
324.400024
 30
0.0
 11
185.325592
 21
324.150024
 31
0.0
210
0.0
220
0.0
230
1.0
  0
ARC
  5
1CC
100
AcDbEntity
  8
0
370
    35
390
0
 62
     7
100
AcDbCircle
 10
184.825592
 20
323.900024
 30
0.0
 40
0.5
210
0.0
220
0.0
230
1.0
100
AcDbArc
 50
269.999997
 51
360.0
  0
ARC
  5
1CD
100
AcDbEntity
  8
0
370
    35
390
0
 62
     7
100
AcDbCircle
 10
214.763702
 20
431.44339
 30
0.0
 40
108.043388
210
0.0
220
0.0
230
1.0
100
AcDbArc
 50
267.373435
 51
269.999615
  0
LINE
  5
1CE
100
AcDbEntity
  8
0
370
    35
390
0
 62
     7
 48
0.00433
100
AcDbLine
 10
288.962189
 20
299.200012
 30
0.0
 11
289.048798
 21
299.050018
 31
0.0
210
0.0
220
0.0
230
1.0
  0
LINE
  5
1CF
100
AcDbEntity
  8
0
370
    35
390
0
 62
     7
 48
0.00625
100
AcDbLine
 10
289.048798
 20
298.800018
 30
0.0
 11
289.048798
 21
299.050018
 31
0.0
210
0.0
220
0.0
230
1.0
  0
LINE
  5
1D0
100
AcDbEntity
  8
0
370
    35
390
0
 62
     7
 48
0.00625
100
AcDbLine
 10
289.048798
 20
299.050018
 30
0.0
 11
289.048798
 21
298.800018
 31
0.0
210
0.0
220
0.0
230
1.0
  0
LINE
  5
1D1
100
AcDbEntity
  8
0
370
    35
390
0
 62
     7
 48
0.00625
100
AcDbLine
 10
285.602386
 20
299.050018
 30
0.0
 11
285.602386
 21
298.800018
 31
0.0
210
0.0
220
0.0
230
1.0
  0
LINE
  5
1D2
100
AcDbEntity
  8
0
370
    35
390
0
 62
     7
 48
0.00433
100
AcDbLine
 10
288.962189
 20
299.200012
 30
0.0
 11
289.048798
 21
299.050018
 31
0.0
210
0.0
220
0.0
230
1.0
  0
LINE
  5
1D3
100
AcDbEntity
  8
0
370
    35
390
0
 62
     7
 48
0.00433
100
AcDbLine
 10
285.688995
 20
299.200012
 30
0.0
 11
285.602386
 21
299.050018
 31
0.0
210
0.0
220
0.0
230
1.0
  0
ARC
  5
1D4
100
AcDbEntity
  8
0
370
    35
390
0
 62
     7
100
AcDbCircle
 10
285.888
 20
431.41394
 30
0.0
 40
108.013947
210
0.0
220
0.0
230
1.0
100
AcDbArc
 50
270.000107
 51
272.776633
  0
LINE
  5
1D5
100
AcDbEntity
  8
0
370
    35
390
0
 62
     7
 48
0.085
100
AcDbLine
 10
420.725586
 20
220.100006
 30
0.0
 11
417.325592
 21
220.100006
 31
0.0
210
0.0
220
0.0
230
1.0
  0
LINE
  5
1D6
100
AcDbEntity
  8
0
370
    35
390
0
 62
     7
 48
0.085
100
AcDbLine
 10
417.325592
 20
220.100006
 30
0.0
 11
413.925598
 21
220.100006
 31
0.0
210
0.0
220
0.0
230
1.0
  0
LINE
  5
1D7
100
AcDbEntity
  8
0
370
    35
390
0
 62
     7
 48
0.003751
100
AcDbLine
 10
337.925598
 20
308.650024
 30
0.0
 11
337.925598
 21
308.5
 31
0.0
210
0.0
220
0.0
230
1.0
  0
LINE
  5
1D8
100
AcDbEntity
  8
0
370
    35
390
0
 62
     7
 48
0.003751
100
AcDbLine
 10
340.12561
 20
308.650024
 30
0.0
 11
340.12561
 21
308.5
 31
0.0
210
0.0
220
0.0
230
1.0
  0
LINE
  5
1D9
100
AcDbEntity
  8
0
370
    35
390
0
 62
     7
 48
0.003751
100
AcDbLine
 10
342.325592
 20
308.650024
 30
0.0
 11
342.325592
 21
308.5
 31
0.0
210
0.0
220
0.0
230
1.0
  0
LINE
  5
1DA
100
AcDbEntity
  8
0
370
    35
390
0
 62
     7
 48
0.092812
100
AcDbLine
 10
337.925598
 20
309.8125
 30
0.0
 11
337.925598
 21
306.100006
 31
0.0
210
0.0
220
0.0
230
1.0
  0
LINE
  5
1DB
100
AcDbEntity
  8
0
370
    35
390
0
 62
     7
 48
0.09125
100
AcDbLine
 10
338.925598
 20
306.100006
 30
0.0
 11
338.925598
 21
309.75
 31
0.0
210
0.0
220
0.0
230
1.0
  0
LINE
  5
1DC
100
AcDbEntity
  8
0
370
    35
390
0
 62
     7
 48
0.089375
100
AcDbLine
 10
340.12561
 20
309.675018
 30
0.0
 11
340.12561
 21
306.100006
 31
0.0
210
0.0
220
0.0
230
1.0
  0
LINE
  5
1DD
100
AcDbEntity
  8
0
370
    35
390
0
 62
     7
 48
0.087813
100
AcDbLine
 10
341.12561
 20
306.100006
 30
0.0
 11
341.12561
 21
309.612518
 31
0.0
210
0.0
220
0.0
230
1.0
  0
LINE
  5
1DE
100
AcDbEntity
  8
0
370
    35
390
0
 62
     7
 48
0.085938
100
AcDbLine
 10
342.325592
 20
309.537506
 30
0.0
 11
342.325592
 21
306.100006
 31
0.0
210
0.0
220
0.0
230
1.0
  0
LINE
  5
1DF
100
AcDbEntity
  8
0
370
    35
390
0
 62
     7
 48
0.084375
100
AcDbLine
 10
343.325592
 20
306.100006
 30
0.0
 11
343.325592
 21
309.475006
 31
0.0
210
0.0
220
0.0
230
1.0
  0
LINE
  5
1E0
100
AcDbEntity
  8
0
370
    35
390
0
 62
     7
 48
0.013007
100
AcDbLine
 10
345.325592
 20
301.3703
 30
0.0
 11
345.325592
 21
300.850006
 31
0.0
210
0.0
220
0.0
230
1.0
  0
LINE
  5
1E1
100
AcDbEntity
  8
0
370
    35
390
0
 62
     7
 48
0.199493
100
AcDbLine
 10
345.325592
 20
309.350006
 30
0.0
 11
345.325592
 21
301.3703
 31
0.0
210
0.0
220
0.0
230
1.0
  0
LINE
  5
1E2
100
AcDbEntity
  8
0
370
    35
390
0
 62
     7
 48
0.01339
100
AcDbLine
 10
343.325592
 20
300.725006
 30
0.0
 11
343.325592
 21
301.26059
 31
0.0
210
0.0
220
0.0
230
1.0
  0
LINE
  5
1E3
100
AcDbEntity
  8
0
370
    35
390
0
 62
     7
 48
0.070985
100
AcDbLine
 10
343.325592
 20
301.26059
 30
0.0
 11
343.325592
 21
304.100006
 31
0.0
210
0.0
220
0.0
230
1.0
  0
LINE
  5
1E4
100
AcDbEntity
  8
0
370
    35
390
0
 62
     7
 48
0.072356
100
AcDbLine
 10
342.325592
 20
304.100006
 30
0.0
 11
342.325592
 21
301.20575
 31
0.0
210
0.0
220
0.0
230
1.0
  0
LINE
  5
1E5
100
AcDbEntity
  8
0
370
    35
390
0
 62
     7
 48
0.013581
100
AcDbLine
 10
342.325592
 20
301.20575
 30
0.0
 11
342.325592
 21
300.662506
 31
0.0
210
0.0
220
0.0
230
1.0
  0
LINE
  5
1E6
100
AcDbEntity
  8
0
370
    35
390
0
 62
     7
 48
0.01381
100
AcDbLine
 10
341.12561
 20
300.587524
 30
0.0
 11
341.12561
 21
301.139923
 31
0.0
210
0.0
220
0.0
230
1.0
  0
LINE
  5
1E7
100
AcDbEntity
  8
0
370
    35
390
0
 62
     7
 48
0.074002
100
AcDbLine
 10
341.12561
 20
301.139923
 30
0.0
 11
341.12561
 21
304.100006
 31
0.0
210
0.0
220
0.0
230
1.0
  0
LINE
  5
1E8
100
AcDbEntity
  8
0
370
    35
390
0
 62
     7
 48
0.075373
100
AcDbLine
 10
340.12561
 20
304.100006
 30
0.0
 11
340.12561
 21
301.085083
 31
0.0
210
0.0
220
0.0
230
1.0
  0
LINE
  5
1E9
100
AcDbEntity
  8
0
370
    35
390
0
 62
     7
 48
0.014001
100
AcDbLine
 10
340.12561
 20
301.085083
 30
0.0
 11
340.12561
 21
300.525024
 31
0.0
210
0.0
220
0.0
230
1.0
  0
LINE
  5
1EA
100
AcDbEntity
  8
0
370
    35
390
0
 62
     7
 48
0.014231
100
AcDbLine
 10
338.925598
 20
300.450012
 30
0.0
 11
338.925598
 21
301.019257
 31
0.0
210
0.0
220
0.0
230
1.0
  0
LINE
  5
1EB
100
AcDbEntity
  8
0
370
    35
390
0
 62
     7
 48
0.077019
100
AcDbLine
 10
338.925598
 20
301.019257
 30
0.0
 11
338.925598
 21
304.100006
 31
0.0
210
0.0
220
0.0
230
1.0
  0
LINE
  5
1EC
100
AcDbEntity
  8
0
370
    35
390
0
 62
     7
 48
0.07839
100
AcDbLine
 10
337.925598
 20
304.100006
 30
0.0
 11
337.925598
 21
300.964417
 31
0.0
210
0.0
220
0.0
230
1.0
  0
LINE
  5
1ED
100
AcDbEntity
  8
0
370
    35
390
0
 62
     7
 48
0.014423
100
AcDbLine
 10
337.925598
 20
300.964417
 30
0.0
 11
337.925598
 21
300.387512
 31
0.0
210
0.0
220
0.0
230
1.0
  0
LINE
  5
1EE
100
AcDbEntity
  8
0
370
    35
390
0
 62
     7
 48
0.025
100
AcDbLine
 10
341.12561
 20
304.100006
 30
0.0
 11
340.12561
 21
304.100006
 31
0.0
210
0.0
220
0.0
230
1.0
  0
LINE
  5
1EF
100
AcDbEntity
  8
0
370
    35
390
0
 62
     7
 48
0.025
100
AcDbLine
 10
343.325592
 20
304.100006
 30
0.0
 11
342.325592
 21
304.100006
 31
0.0
210
0.0
220
0.0
230
1.0
  0
LINE
  5
1F0
100
AcDbEntity
  8
0
370
    35
390
0
 62
     7
 48
0.025
100
AcDbLine
 10
343.325592
 20
306.100006
 30
0.0
 11
342.325592
 21
306.100006
 31
0.0
210
0.0
220
0.0
230
1.0
  0
LINE
  5
1F1
100
AcDbEntity
  8
0
370
    35
390
0
 62
     7
 48
0.025
100
AcDbLine
 10
341.12561
 20
306.100006
 30
0.0
 11
340.12561
 21
306.100006
 31
0.0
210
0.0
220
0.0
230
1.0
  0
LINE
  5
1F2
100
AcDbEntity
  8
0
370
    35
390
0
 62
     7
 48
0.025
100
AcDbLine
 10
338.925598
 20
306.100006
 30
0.0
 11
337.925598
 21
306.100006
 31
0.0
210
0.0
220
0.0
230
1.0
  0
LINE
  5
1F3
100
AcDbEntity
  8
0
370
    35
390
0
 62
     7
 48
0.025
100
AcDbLine
 10
338.925598
 20
304.100006
 30
0.0
 11
337.925598
 21
304.100006
 31
0.0
210
0.0
220
0.0
230
1.0
  0
LINE
  5
1F4
100
AcDbEntity
  8
0
370
    35
390
0
 62
     7
 48
0.234698
100
AcDbLine
 10
333.325592
 20
310.100006
 30
0.0
 11
333.325592
 21
300.712097
 31
0.0
210
0.0
220
0.0
230
1.0
  0
LINE
  5
1F5
100
AcDbEntity
  8
0
370
    35
390
0
 62
     7
 48
0.015302
100
AcDbLine
 10
333.325592
 20
300.712097
 30
0.0
 11
333.325592
 21
300.100006
 31
0.0
210
0.0
220
0.0
230
1.0
  0
LINE
  5
1F6
100
AcDbEntity
  8
0
370
    35
390
0
 62
     7
 48
0.24878
100
AcDbLine
 10
332.325592
 20
310.400024
 30
0.0
 11
332.325592
 21
300.448822
 31
0.0
210
0.0
220
0.0
230
1.0
  0
LINE
  5
1F7
100
AcDbEntity
  8
0
370
    35
390
0
 62
     7
 48
0.01622
100
AcDbLine
 10
332.325592
 20
300.448822
 30
0.0
 11
332.325592
 21
299.800018
 31
0.0
210
0.0
220
0.0
230
1.0
  0
LINE
  5
1F8
100
AcDbEntity
  8
0
370
    35
390
0
 62
     7
 48
0.040764
100
AcDbLine
 10
320.325592
 20
309.554779
 30
0.0
 11
320.325592
 21
311.185333
 31
0.0
210
0.0
220
0.0
230
1.0
  0
LINE
  5
1F9
100
AcDbEntity
  8
0
370
    35
390
0
 62
     7
 48
0.25
100
AcDbLine
 10
320.325592
 20
311.185333
 30
0.0
 11
310.325592
 21
311.185333
 31
0.0
210
0.0
220
0.0
230
1.0
  0
LINE
  5
1FA
100
AcDbEntity
  8
0
370
    35
390
0
 62
     7
 48
0.005367
100
AcDbLine
 10
310.325592
 20
311.400024
 30
0.0
 11
310.325592
 21
311.185333
 31
0.0
210
0.0
220
0.0
230
1.0
  0
LINE
  5
1FB
100
AcDbEntity
  8
0
370
    35
390
0
 62
     7
 48
0.005367
100
AcDbLine
 10
310.325592
 20
299.014679
 30
0.0
 11
310.325592
 21
298.800018
 31
0.0
210
0.0
220
0.0
230
1.0
  0
LINE
  5
1FC
100
AcDbEntity
  8
0
370
    35
390
0
 62
     7
 48
0.25
100
AcDbLine
 10
320.325592
 20
299.014679
 30
0.0
 11
310.325592
 21
299.014679
 31
0.0
210
0.0
220
0.0
230
1.0
  0
LINE
  5
1FD
100
AcDbEntity
  8
0
370
    35
390
0
 62
     7
 48
0.040764
100
AcDbLine
 10
320.325592
 20
299.014679
 30
0.0
 11
320.325592
 21
300.645233
 31
0.0
210
0.0
220
0.0
230
1.0
  0
LINE
  5
1FE
100
AcDbEntity
  8
0
370
    35
390
0
 62
     7
 48
0.070605
100
AcDbLine
 10
310.325592
 20
303.469452
 30
0.0
 11
310.325592
 21
300.645233
 31
0.0
210
0.0
220
0.0
230
1.0
  0
LINE
  5
1FF
100
AcDbEntity
  8
0
370
    35
390
0
 62
     7
 48
0.25
100
AcDbLine
 10
320.325592
 20
303.469452
 30
0.0
 11
310.325592
 21
303.469452
 31
0.0
210
0.0
220
0.0
230
1.0
  0
LINE
  5
200
100
AcDbEntity
  8
0
370
    35
390
0
 62
     7
 48
0.081528
100
AcDbLine
 10
320.325592
 20
303.469452
 30
0.0
 11
320.325592
 21
306.73056
 31
0.0
210
0.0
220
0.0
230
1.0
  0
LINE
  5
201
100
AcDbEntity
  8
0
370
    35
390
0
 62
     7
 48
0.25
100
AcDbLine
 10
320.325592
 20
306.73056
 30
0.0
 11
310.325592
 21
306.73056
 31
0.0
210
0.0
220
0.0
230
1.0
  0
LINE
  5
202
100
AcDbEntity
  8
0
370
    35
390
0
 62
     7
 48
0.070605
100
AcDbLine
 10
310.325592
 20
309.554779
 30
0.0
 11
310.325592
 21
306.73056
 31
0.0
210
0.0
220
0.0
230
1.0
  0
LINE
  5
203
100
AcDbEntity
  8
0
370
    35
390
0
 62
     7
 48
0.001782
100
AcDbLine
 10
320.325592
 20
311.185333
 30
0.0
 11
320.325592
 21
311.256622
 31
0.0
210
0.0
220
0.0
230
1.0
  0
LINE
  5
204
100
AcDbEntity
  8
0
370
    35
390
0
 62
     7
 48
0.005477
100
AcDbLine
 10
320.325592
 20
309.335693
 30
0.0
 11
320.325592
 21
309.554779
 31
0.0
210
0.0
220
0.0
230
1.0
  0
ARC
  5
205
100
AcDbEntity
  8
0
370
    35
390
0
 62
     7
100
AcDbCircle
 10
272.014832
 20
267.8461
 30
0.0
 40
64.901611
210
0.0
220
0.0
230
1.0
100
AcDbArc
 50
41.895052
 51
42.551911
  0
LINE
  5
206
100
AcDbEntity
  8
0
370
    35
390
0
 62
     7
 48
0.225
100
AcDbLine
 10
319.825592
 20
311.736328
 30
0.0
 11
310.825592
 21
311.736328
 31
0.0
210
0.0
220
0.0
230
1.0
  0
ARC
  5
207
100
AcDbEntity
  8
0
370
    35
390
0
 62
     7
100
AcDbCircle
 10
358.636353
 20
267.8461
 30
0.0
 40
64.901611
210
0.0
220
0.0
230
1.0
100
AcDbArc
 50
137.44809
 51
138.10495
  0
LINE
  5
208
100
AcDbEntity
  8
0
370
    35
390
0
 62
     7
 48
0.004092
100
AcDbLine
 10
310.825592
 20
311.900024
 30
0.0
 11
310.825592
 21
311.736328
 31
0.0
210
0.0
220
0.0
230
1.0
  0
LINE
  5
209
100
AcDbEntity
  8
0
370
    35
390
0
 62
     7
 48
0.004092
100
AcDbLine
 10
310.825592
 20
298.463684
 30
0.0
 11
310.825592
 21
298.300018
 31
0.0
210
0.0
220
0.0
230
1.0
  0
ARC
  5
20A
100
AcDbEntity
  8
0
370
    35
390
0
 62
     7
100
AcDbCircle
 10
358.636353
 20
342.353912
 30
0.0
 40
64.901611
210
0.0
220
0.0
230
1.0
100
AcDbArc
 50
221.89505
 51
222.55191
  0
LINE
  5
20B
100
AcDbEntity
  8
0
370
    35
390
0
 62
     7
 48
0.225
100
AcDbLine
 10
319.825592
 20
298.463684
 30
0.0
 11
310.825592
 21
298.463684
 31
0.0
210
0.0
220
0.0
230
1.0
  0
ARC
  5
20C
100
AcDbEntity
  8
0
370
    35
390
0
 62
     7
100
AcDbCircle
 10
272.014832
 20
342.353912
 30
0.0
 40
64.901611
210
0.0
220
0.0
230
1.0
100
AcDbArc
 50
317.448096
 51
318.104941
  0
LINE
  5
20D
100
AcDbEntity
  8
0
370
    35
390
0
 62
     7
 48
0.005477
100
AcDbLine
 10
320.325592
 20
300.645233
 30
0.0
 11
320.325592
 21
300.864319
 31
0.0
210
0.0
220
0.0
230
1.0
  0
LINE
  5
20E
100
AcDbEntity
  8
0
370
    35
390
0
 62
     7
 48
0.001782
100
AcDbLine
 10
320.325592
 20
298.94339
 30
0.0
 11
320.325592
 21
299.014679
 31
0.0
210
0.0
220
0.0
230
1.0
  0
LINE
  5
20F
100
AcDbEntity
  8
0
370
    35
390
0
 62
     7
 48
0.013034
100
AcDbLine
 10
320.325592
 20
300.645233
 30
0.0
 11
319.825592
 21
300.497589
 31
0.0
210
0.0
220
0.0
230
1.0
  0
LINE
  5
210
100
AcDbEntity
  8
0
370
    35
390
0
 62
     7
 48
0.225
100
AcDbLine
 10
319.825592
 20
300.497589
 30
0.0
 11
310.825592
 21
300.497589
 31
0.0
210
0.0
220
0.0
230
1.0
  0
LINE
  5
211
100
AcDbEntity
  8
0
370
    35
390
0
 62
     7
 48
0.013034
100
AcDbLine
 10
310.325592
 20
300.645233
 30
0.0
 11
310.825592
 21
300.497589
 31
0.0
210
0.0
220
0.0
230
1.0
  0
LINE
  5
212
100
AcDbEntity
  8
0
370
    35
390
0
 62
     7
 48
0.01606
100
AcDbLine
 10
310.325592
 20
303.469452
 30
0.0
 11
310.825592
 21
303.066101
 31
0.0
210
0.0
220
0.0
230
1.0
  0
LINE
  5
213
100
AcDbEntity
  8
0
370
    35
390
0
 62
     7
 48
0.064213
100
AcDbLine
 10
310.825592
 20
303.066101
 30
0.0
 11
310.825592
 21
300.497589
 31
0.0
210
0.0
220
0.0
230
1.0
  0
LINE
  5
214
100
AcDbEntity
  8
0
370
    35
390
0
 62
     7
 48
0.225
100
AcDbLine
 10
319.825592
 20
303.066101
 30
0.0
 11
310.825592
 21
303.066101
 31
0.0
210
0.0
220
0.0
230
1.0
  0
LINE
  5
215
100
AcDbEntity
  8
0
370
    35
390
0
 62
     7
 48
0.01606
100
AcDbLine
 10
320.325592
 20
303.469452
 30
0.0
 11
319.825592
 21
303.066101
 31
0.0
210
0.0
220
0.0
230
1.0
  0
LINE
  5
216
100
AcDbEntity
  8
0
370
    35
390
0
 62
     7
 48
0.007259
100
AcDbLine
 10
320.325592
 20
306.73056
 30
0.0
 11
320.325592
 21
307.020935
 31
0.0
210
0.0
220
0.0
230
1.0
  0
LINE
  5
217
100
AcDbEntity
  8
0
370
    35
390
0
 62
     7
 48
0.007259
100
AcDbLine
 10
320.325592
 20
303.179077
 30
0.0
 11
320.325592
 21
303.469452
 31
0.0
210
0.0
220
0.0
230
1.0
  0
LINE
  5
218
100
AcDbEntity
  8
0
370
    35
390
0
 62
     7
 48
0.01606
100
AcDbLine
 10
320.325592
 20
306.73056
 30
0.0
 11
319.825592
 21
307.133911
 31
0.0
210
0.0
220
0.0
230
1.0
  0
LINE
  5
219
100
AcDbEntity
  8
0
370
    35
390
0
 62
     7
 48
0.225
100
AcDbLine
 10
319.825592
 20
307.133911
 30
0.0
 11
310.825592
 21
307.133911
 31
0.0
210
0.0
220
0.0
230
1.0
  0
LINE
  5
21A
100
AcDbEntity
  8
0
370
    35
390
0
 62
     7
 48
0.01606
100
AcDbLine
 10
310.325592
 20
306.73056
 30
0.0
 11
310.825592
 21
307.133911
 31
0.0
210
0.0
220
0.0
230
1.0
  0
LINE
  5
21B
100
AcDbEntity
  8
0
370
    35
390
0
 62
     7
 48
0.064213
100
AcDbLine
 10
310.825592
 20
309.702423
 30
0.0
 11
310.825592
 21
307.133911
 31
0.0
210
0.0
220
0.0
230
1.0
  0
LINE
  5
21C
100
AcDbEntity
  8
0
370
    35
390
0
 62
     7
 48
0.013034
100
AcDbLine
 10
310.325592
 20
309.554779
 30
0.0
 11
310.825592
 21
309.702423
 31
0.0
210
0.0
220
0.0
230
1.0
  0
LINE
  5
21D
100
AcDbEntity
  8
0
370
    35
390
0
 62
     7
 48
0.225
100
AcDbLine
 10
319.825592
 20
309.702423
 30
0.0
 11
310.825592
 21
309.702423
 31
0.0
210
0.0
220
0.0
230
1.0
  0
LINE
  5
21E
100
AcDbEntity
  8
0
370
    35
390
0
 62
     7
 48
0.013034
100
AcDbLine
 10
320.325592
 20
309.554779
 30
0.0
 11
319.825592
 21
309.702423
 31
0.0
210
0.0
220
0.0
230
1.0
  0
LINE
  5
21F
100
AcDbEntity
  8
0
370
    35
390
0
 62
     7
 48
0.003585
100
AcDbLine
 10
320.325592
 20
311.400024
 30
0.0
 11
320.325592
 21
311.256622
 31
0.0
210
0.0
220
0.0
230
1.0
  0
LINE
  5
220
100
AcDbEntity
  8
0
370
    35
390
0
 62
     7
 48
0.004092
100
AcDbLine
 10
319.825592
 20
311.900024
 30
0.0
 11
319.825592
 21
311.736328
 31
0.0
210
0.0
220
0.0
230
1.0
  0
LINE
  5
221
100
AcDbEntity
  8
0
370
    35
390
0
 62
     7
 48
0.064213
100
AcDbLine
 10
319.825592
 20
309.702423
 30
0.0
 11
319.825592
 21
307.133911
 31
0.0
210
0.0
220
0.0
230
1.0
  0
LINE
  5
222
100
AcDbEntity
  8
0
370
    35
390
0
 62
     7
 48
0.057869
100
AcDbLine
 10
320.325592
 20
309.335693
 30
0.0
 11
320.325592
 21
307.020935
 31
0.0
210
0.0
220
0.0
230
1.0
  0
LINE
  5
223
100
AcDbEntity
  8
0
370
    35
390
0
 62
     7
 48
0.169221
100
AcDbLine
 10
327.094421
 20
309.335693
 30
0.0
 11
320.325592
 21
309.335693
 31
0.0
210
0.0
220
0.0
230
1.0
  0
LINE
  5
224
100
AcDbEntity
  8
0
370
    35
390
0
 62
     7
 48
0.169221
100
AcDbLine
 10
327.094421
 20
311.256622
 30
0.0
 11
320.325592
 21
311.256622
 31
0.0
210
0.0
220
0.0
230
1.0
  0
ARC
  5
225
100
AcDbEntity
  8
0
370
    35
390
0
 62
     7
100
AcDbCircle
 10
324.580017
 20
310.296143
 30
0.0
 40
2.691781
210
0.0
220
0.0
230
1.0
100
AcDbArc
 50
339.093949
 51
20.906017
  0
LINE
  5
226
100
AcDbEntity
  8
0
370
    35
390
0
 62
     7
 48
0.003584
100
AcDbLine
 10
320.325592
 20
298.94339
 30
0.0
 11
320.325592
 21
298.800018
 31
0.0
210
0.0
220
0.0
230
1.0
  0
LINE
  5
227
100
AcDbEntity
  8
0
370
    35
390
0
 62
     7
 48
0.004092
100
AcDbLine
 10
319.825592
 20
298.463684
 30
0.0
 11
319.825592
 21
298.300018
 31
0.0
210
0.0
220
0.0
230
1.0
  0
LINE
  5
228
100
AcDbEntity
  8
0
370
    35
390
0
 62
     7
 48
0.064213
100
AcDbLine
 10
319.825592
 20
303.066101
 30
0.0
 11
319.825592
 21
300.497589
 31
0.0
210
0.0
220
0.0
230
1.0
  0
LINE
  5
229
100
AcDbEntity
  8
0
370
    35
390
0
 62
     7
 48
0.057869
100
AcDbLine
 10
320.325592
 20
303.179077
 30
0.0
 11
320.325592
 21
300.864319
 31
0.0
210
0.0
220
0.0
230
1.0
  0
LINE
  5
22A
100
AcDbEntity
  8
0
370
    35
390
0
 62
     7
 48
0.169221
100
AcDbLine
 10
320.325592
 20
298.94339
 30
0.0
 11
327.094421
 21
298.94339
 31
0.0
210
0.0
220
0.0
230
1.0
  0
LINE
  5
22B
100
AcDbEntity
  8
0
370
    35
390
0
 62
     7
 48
0.169221
100
AcDbLine
 10
327.094421
 20
300.864319
 30
0.0
 11
320.325592
 21
300.864319
 31
0.0
210
0.0
220
0.0
230
1.0
  0
ARC
  5
22C
100
AcDbEntity
  8
0
370
    35
390
0
 62
     7
100
AcDbCircle
 10
324.580017
 20
299.90387
 30
0.0
 40
2.691781
210
0.0
220
0.0
230
1.0
100
AcDbArc
 50
339.093949
 51
20.906017
  0
LINE
  5
22D
100
AcDbEntity
  8
0
370
    35
390
0
 62
     7
 48
0.169221
100
AcDbLine
 10
320.325592
 20
303.179077
 30
0.0
 11
327.094421
 21
303.179077
 31
0.0
210
0.0
220
0.0
230
1.0
  0
LINE
  5
22E
100
AcDbEntity
  8
0
370
    35
390
0
 62
     7
 48
0.169221
100
AcDbLine
 10
327.094421
 20
307.020935
 30
0.0
 11
320.325592
 21
307.020935
 31
0.0
210
0.0
220
0.0
230
1.0
  0
ARC
  5
22F
100
AcDbEntity
  8
0
370
    35
390
0
 62
     7
100
AcDbCircle
 10
316.768097
 20
305.100006
 30
0.0
 40
10.504192
210
0.0
220
0.0
230
1.0
100
AcDbArc
 50
349.462094
 51
10.537886
  0
LINE
  5
230
100
AcDbEntity
  8
0
370
    35
390
0
 62
     7
 48
0.003585
100
AcDbLine
 10
327.094421
 20
311.400024
 30
0.0
 11
327.094421
 21
311.256622
 31
0.0
210
0.0
220
0.0
230
1.0
  0
LINE
  5
231
100
AcDbEntity
  8
0
370
    35
390
0
 62
     7
 48
0.027486
100
AcDbLine
 10
327.094421
 20
308.120392
 30
0.0
 11
327.094421
 21
307.020935
 31
0.0
210
0.0
220
0.0
230
1.0
  0
LINE
  5
232
100
AcDbEntity
  8
0
370
    35
390
0
 62
     7
 48
0.030383
100
AcDbLine
 10
327.094421
 20
308.120392
 30
0.0
 11
327.094421
 21
309.335693
 31
0.0
210
0.0
220
0.0
230
1.0
  0
LINE
  5
233
100
AcDbEntity
  8
0
370
    35
390
0
 62
     7
 48
0.076785
100
AcDbLine
 10
327.325592
 20
311.0
 30
0.0
 11
327.325592
 21
307.928619
 31
0.0
210
0.0
220
0.0
230
1.0
  0
LINE
  5
234
100
AcDbEntity
  8
0
370
    35
390
0
 62
     7
 48
0.003584
100
AcDbLine
 10
327.094421
 20
298.94339
 30
0.0
 11
327.094421
 21
298.800018
 31
0.0
210
0.0
220
0.0
230
1.0
  0
LINE
  5
235
100
AcDbEntity
  8
0
370
    35
390
0
 62
     7
 48
0.218215
100
AcDbLine
 10
327.325592
 20
307.928619
 30
0.0
 11
327.325592
 21
299.200012
 31
0.0
210
0.0
220
0.0
230
1.0
  0
LINE
  5
236
100
AcDbEntity
  8
0
370
    35
390
0
 62
     7
 48
0.057869
100
AcDbLine
 10
327.094421
 20
303.179077
 30
0.0
 11
327.094421
 21
300.864319
 31
0.0
210
0.0
220
0.0
230
1.0
  0
ARC
  5
237
100
AcDbEntity
  8
0
370
    35
390
0
 62
     7
100
AcDbCircle
 10
342.325592
 20
230.100006
 30
0.0
 40
78.400002
210
0.0
220
0.0
230
1.0
100
AcDbArc
 50
0.000002
 51
87.807034
  0
ARC
  5
238
100
AcDbEntity
  8
0
370
    35
390
0
 62
     7
100
AcDbCircle
 10
342.325562
 20
230.103851
 30
0.0
 40
78.396164
210
0.0
220
0.0
230
1.0
100
AcDbArc
 50
89.269111
 51
89.999968
  0
ARC
  5
239
100
AcDbEntity
  8
0
370
    35
390
0
 62
     7
100
AcDbCircle
 10
342.325592
 20
230.100006
 30
0.0
 40
71.599998
210
0.0
220
0.0
230
1.0
100
AcDbArc
 50
0.000002
 51
87.598651
  0
ARC
  5
23A
100
AcDbEntity
  8
0
370
    35
390
0
 62
     7
100
AcDbCircle
 10
342.325562
 20
230.102203
 30
0.0
 40
71.597794
210
0.0
220
0.0
230
1.0
100
AcDbArc
 50
89.199702
 51
89.999962
  0
LINE
  5
23B
100
AcDbEntity
  8
0
370
    35
390
0
 62
     7
 48
0.025
100
AcDbLine
 10
341.12561
 20
308.5
 30
0.0
 11
340.12561
 21
308.5
 31
0.0
210
0.0
220
0.0
230
1.0
  0
LINE
  5
23C
100
AcDbEntity
  8
0
370
    35
390
0
 62
     7
 48
0.025
100
AcDbLine
 10
338.925598
 20
308.5
 30
0.0
 11
337.925598
 21
308.5
 31
0.0
210
0.0
220
0.0
230
1.0
  0
LINE
  5
23D
100
AcDbEntity
  8
0
370
    35
390
0
 62
     7
 48
0.25
100
AcDbLine
 10
420.725586
 20
220.100006
 30
0.0
 11
420.725586
 21
230.100006
 31
0.0
210
0.0
220
0.0
230
1.0
  0
LINE
  5
23E
100
AcDbEntity
  8
0
370
    35
390
0
 62
     7
 48
0.025
100
AcDbLine
 10
341.12561
 20
301.700012
 30
0.0
 11
340.12561
 21
301.700012
 31
0.0
210
0.0
220
0.0
230
1.0
  0
LINE
  5
23F
100
AcDbEntity
  8
0
370
    35
390
0
 62
     7
 48
0.025
100
AcDbLine
 10
338.925598
 20
301.700012
 30
0.0
 11
337.925598
 21
301.700012
 31
0.0
210
0.0
220
0.0
230
1.0
  0
LINE
  5
240
100
AcDbEntity
  8
0
370
    35
390
0
 62
     7
 48
0.25
100
AcDbLine
 10
413.925598
 20
220.100006
 30
0.0
 11
413.925598
 21
230.100006
 31
0.0
210
0.0
220
0.0
230
1.0
  0
LINE
  5
241
100
AcDbEntity
  8
0
370
    35
390
0
 62
     7
 48
0.050098
100
AcDbLine
 10
345.325592
 20
309.350006
 30
0.0
 11
343.325592
 21
309.475006
 31
0.0
210
0.0
220
0.0
230
1.0
  0
LINE
  5
242
100
AcDbEntity
  8
0
370
    35
390
0
 62
     7
 48
0.030058
100
AcDbLine
 10
342.325592
 20
309.537506
 30
0.0
 11
341.12561
 21
309.612518
 31
0.0
210
0.0
220
0.0
230
1.0
  0
LINE
  5
243
100
AcDbEntity
  8
0
370
    35
390
0
 62
     7
 48
0.030059
100
AcDbLine
 10
340.12561
 20
309.675018
 30
0.0
 11
338.925598
 21
309.75
 31
0.0
210
0.0
220
0.0
230
1.0
  0
LINE
  5
244
100
AcDbEntity
  8
0
370
    35
390
0
 62
     7
 48
0.115225
100
AcDbLine
 10
337.925598
 20
309.8125
 30
0.0
 11
333.325592
 21
310.100006
 31
0.0
210
0.0
220
0.0
230
1.0
  0
LINE
  5
245
100
AcDbEntity
  8
0
370
    35
390
0
 62
     7
 48
0.050098
100
AcDbLine
 10
345.325592
 20
300.850006
 30
0.0
 11
343.325592
 21
300.725006
 31
0.0
210
0.0
220
0.0
230
1.0
  0
LINE
  5
246
100
AcDbEntity
  8
0
370
    35
390
0
 62
     7
 48
0.030058
100
AcDbLine
 10
342.325592
 20
300.662506
 30
0.0
 11
341.12561
 21
300.587524
 31
0.0
210
0.0
220
0.0
230
1.0
  0
LINE
  5
247
100
AcDbEntity
  8
0
370
    35
390
0
 62
     7
 48
0.030059
100
AcDbLine
 10
340.12561
 20
300.525024
 30
0.0
 11
338.925598
 21
300.450012
 31
0.0
210
0.0
220
0.0
230
1.0
  0
LINE
  5
248
100
AcDbEntity
  8
0
370
    35
390
0
 62
     7
 48
0.115225
100
AcDbLine
 10
337.925598
 20
300.387512
 30
0.0
 11
333.325592
 21
300.100006
 31
0.0
210
0.0
220
0.0
230
1.0
  0
LINE
  5
249
100
AcDbEntity
  8
0
370
    35
390
0
 62
     7
 48
0.026101
100
AcDbLine
 10
333.325592
 20
310.100006
 30
0.0
 11
332.325592
 21
310.400024
 31
0.0
210
0.0
220
0.0
230
1.0
  0
LINE
  5
24A
100
AcDbEntity
  8
0
370
    35
390
0
 62
     7
 48
0.026101
100
AcDbLine
 10
333.325592
 20
300.100006
 30
0.0
 11
332.325592
 21
299.800018
 31
0.0
210
0.0
220
0.0
230
1.0
  0
LINE
  5
24B
100
AcDbEntity
  8
0
370
    35
390
0
 62
     7
 48
0.125
100
AcDbLine
 10
332.325592
 20
300.100006
 30
0.0
 11
327.325592
 21
300.100006
 31
0.0
210
0.0
220
0.0
230
1.0
  0
LINE
  5
24C
100
AcDbEntity
  8
0
370
    35
390
0
 62
     7
 48
0.125
100
AcDbLine
 10
332.325592
 20
310.100006
 30
0.0
 11
327.325592
 21
310.100006
 31
0.0
210
0.0
220
0.0
230
1.0
  0
LINE
  5
24D
100
AcDbEntity
  8
0
370
    35
390
0
 62
     7
 48
0.025
100
AcDbLine
 10
310.325592
 20
298.800018
 30
0.0
 11
309.325592
 21
298.800018
 31
0.0
210
0.0
220
0.0
230
1.0
  0
LINE
  5
24E
100
AcDbEntity
  8
0
370
    35
390
0
 62
     7
 48
0.025
100
AcDbLine
 10
310.325592
 20
311.400024
 30
0.0
 11
309.325592
 21
311.400024
 31
0.0
210
0.0
220
0.0
230
1.0
  0
LINE
  5
24F
100
AcDbEntity
  8
0
370
    35
390
0
 62
     7
 48
0.017678
100
AcDbLine
 10
310.325592
 20
311.400024
 30
0.0
 11
310.825592
 21
311.900024
 31
0.0
210
0.0
220
0.0
230
1.0
  0
LINE
  5
250
100
AcDbEntity
  8
0
370
    35
390
0
 62
     7
 48
0.017678
100
AcDbLine
 10
310.325592
 20
298.800018
 30
0.0
 11
310.825592
 21
298.300018
 31
0.0
210
0.0
220
0.0
230
1.0
  0
LINE
  5
251
100
AcDbEntity
  8
0
370
    35
390
0
 62
     7
 48
0.017678
100
AcDbLine
 10
320.325592
 20
311.400024
 30
0.0
 11
319.825592
 21
311.900024
 31
0.0
210
0.0
220
0.0
230
1.0
  0
LINE
  5
252
100
AcDbEntity
  8
0
370
    35
390
0
 62
     7
 48
0.225
100
AcDbLine
 10
319.825592
 20
311.900024
 30
0.0
 11
310.825592
 21
311.900024
 31
0.0
210
0.0
220
0.0
230
1.0
  0
LINE
  5
253
100
AcDbEntity
  8
0
370
    35
390
0
 62
     7
 48
0.017678
100
AcDbLine
 10
320.325592
 20
298.800018
 30
0.0
 11
319.825592
 21
298.300018
 31
0.0
210
0.0
220
0.0
230
1.0
  0
LINE
  5
254
100
AcDbEntity
  8
0
370
    35
390
0
 62
     7
 48
0.225
100
AcDbLine
 10
319.825592
 20
298.300018
 30
0.0
 11
310.825592
 21
298.300018
 31
0.0
210
0.0
220
0.0
230
1.0
  0
LINE
  5
255
100
AcDbEntity
  8
0
370
    35
390
0
 62
     7
 48
0.169221
100
AcDbLine
 10
327.094421
 20
311.400024
 30
0.0
 11
320.325592
 21
311.400024
 31
0.0
210
0.0
220
0.0
230
1.0
  0
ARC
  5
256
100
AcDbEntity
  8
0
370
    35
390
0
 62
     7
100
AcDbCircle
 10
322.018982
 20
308.200012
 30
0.0
 40
6.000002
210
0.0
220
0.0
230
1.0
100
AcDbArc
 50
27.81814
 51
32.230949
  0
LINE
  5
257
100
AcDbEntity
  8
0
370
    35
390
0
 62
     7
 48
0.169221
100
AcDbLine
 10
327.094421
 20
298.800018
 30
0.0
 11
320.325592
 21
298.800018
 31
0.0
210
0.0
220
0.0
230
1.0
  0
ARC
  5
258
100
AcDbEntity
  8
0
370
    35
390
0
 62
     7
100
AcDbCircle
 10
322.018982
 20
302.0
 30
0.0
 40
6.000002
210
0.0
220
0.0
230
1.0
100
AcDbArc
 50
327.769058
 51
332.181852
  0
CIRCLE
  5
259
100
AcDbEntity
  8
0
370
    35
390
0
 62
     7
100
AcDbCircle
 10
214.825592
 20
361.400024
 30
0.0
 40
3.5
210
0.0
220
0.0
230
1.0
  0
CIRCLE
  5
25A
100
AcDbEntity
  8
0
370
    35
390
0
 62
     7
100
AcDbCircle
 10
314.825592
 20
361.400024
 30
0.0
 40
3.5
210
0.0
220
0.0
230
1.0
  0
CIRCLE
  5
25B
100
AcDbEntity
  8
0
370
    35
390
0
 62
     7
100
AcDbCircle
 10
414.825592
 20
361.400024
 30
0.0
 40
3.5
210
0.0
220
0.0
230
1.0
  0
CIRCLE
  5
25C
100
AcDbEntity
  8
0
370
    35
390
0
 62
     7
100
AcDbCircle
 10
514.825562
 20
361.400024
 30
0.0
 40
3.5
210
0.0
220
0.0
230
1.0
  0
CIRCLE
  5
25D
100
AcDbEntity
  8
0
370
    35
390
0
 62
     7
100
AcDbCircle
 10
614.825562
 20
361.400024
 30
0.0
 40
3.5
210
0.0
220
0.0
230
1.0
  0
CIRCLE
  5
25E
100
AcDbEntity
  8
0
370
    35
390
0
 62
     7
100
AcDbCircle
 10
714.825562
 20
361.400024
 30
0.0
 40
3.5
210
0.0
220
0.0
230
1.0
  0
LINE
  5
25F
100
AcDbEntity
  8
0
370
    35
390
0
 62
     7
100
AcDbLine
 10
182.825592
 20
330.400024
 30
0.0
 11
746.825562
 21
330.400024
 31
0.0
210
0.0
220
0.0
230
1.0
  0
LINE
  5
260
100
AcDbEntity
  8
0
370
    35
390
0
 62
     7
100
AcDbLine
 10
746.825562
 20
368.900024
 30
0.0
 11
182.825592
 21
368.900024
 31
0.0
210
0.0
220
0.0
230
1.0
  0
CIRCLE
  5
261
100
AcDbEntity
  8
0
370
    35
390
0
 62
     7
100
AcDbCircle
 10
614.825562
 20
336.100006
 30
0.0
 40
3.5
210
0.0
220
0.0
230
1.0
  0
CIRCLE
  5
262
100
AcDbEntity
  8
0
370
    35
390
0
 62
     7
100
AcDbCircle
 10
564.825562
 20
358.400024
 30
0.0
 40
3.35
210
0.0
220
0.0
230
1.0
  0
CIRCLE
  5
263
100
AcDbEntity
  8
0
370
    35
390
0
 62
     7
100
AcDbCircle
 10
664.825562
 20
358.400024
 30
0.0
 40
3.35
210
0.0
220
0.0
230
1.0
  0
CIRCLE
  5
264
100
AcDbEntity
  8
0
370
    35
390
0
 62
     7
100
AcDbCircle
 10
195.825592
 20
358.400024
 30
0.0
 40
3.35
210
0.0
220
0.0
230
1.0
  0
CIRCLE
  5
265
100
AcDbEntity
  8
0
370
    35
390
0
 62
     7
100
AcDbCircle
 10
733.825562
 20
358.400024
 30
0.0
 40
3.35
210
0.0
220
0.0
230
1.0
  0
CIRCLE
  5
266
100
AcDbEntity
  8
0
370
    35
390
0
 62
     7
100
AcDbCircle
 10
214.825592
 20
361.400024
 30
0.0
 40
5.5
210
0.0
220
0.0
230
1.0
  0
CIRCLE
  5
267
100
AcDbEntity
  8
0
370
    35
390
0
 62
     7
100
AcDbCircle
 10
314.825592
 20
361.400024
 30
0.0
 40
5.5
210
0.0
220
0.0
230
1.0
  0
CIRCLE
  5
268
100
AcDbEntity
  8
0
370
    35
390
0
 62
     7
100
AcDbCircle
 10
414.825592
 20
361.400024
 30
0.0
 40
5.5
210
0.0
220
0.0
230
1.0
  0
CIRCLE
  5
269
100
AcDbEntity
  8
0
370
    35
390
0
 62
     7
100
AcDbCircle
 10
514.825562
 20
361.400024
 30
0.0
 40
5.5
210
0.0
220
0.0
230
1.0
  0
CIRCLE
  5
26A
100
AcDbEntity
  8
0
370
    35
390
0
 62
     7
100
AcDbCircle
 10
614.825562
 20
361.400024
 30
0.0
 40
5.5
210
0.0
220
0.0
230
1.0
  0
CIRCLE
  5
26B
100
AcDbEntity
  8
0
370
    35
390
0
 62
     7
100
AcDbCircle
 10
714.825562
 20
361.400024
 30
0.0
 40
5.5
210
0.0
220
0.0
230
1.0
  0
CIRCLE
  5
26C
100
AcDbEntity
  8
0
370
    35
390
0
 62
     7
100
AcDbCircle
 10
214.825592
 20
336.100006
 30
0.0
 40
3.5
210
0.0
220
0.0
230
1.0
  0
CIRCLE
  5
26D
100
AcDbEntity
  8
0
370
    35
390
0
 62
     7
100
AcDbCircle
 10
314.825592
 20
336.100006
 30
0.0
 40
3.5
210
0.0
220
0.0
230
1.0
  0
CIRCLE
  5
26E
100
AcDbEntity
  8
0
370
    35
390
0
 62
     7
100
AcDbCircle
 10
414.825592
 20
336.100006
 30
0.0
 40
3.5
210
0.0
220
0.0
230
1.0
  0
CIRCLE
  5
26F
100
AcDbEntity
  8
0
370
    35
390
0
 62
     7
100
AcDbCircle
 10
514.825562
 20
336.100006
 30
0.0
 40
3.5
210
0.0
220
0.0
230
1.0
  0
CIRCLE
  5
270
100
AcDbEntity
  8
0
370
    35
390
0
 62
     7
100
AcDbCircle
 10
714.825562
 20
336.100006
 30
0.0
 40
3.5
210
0.0
220
0.0
230
1.0
  0
CIRCLE
  5
271
100
AcDbEntity
  8
0
370
    35
390
0
 62
     7
100
AcDbCircle
 10
464.825592
 20
358.400024
 30
0.0
 40
3.35
210
0.0
220
0.0
230
1.0
  0
CIRCLE
  5
272
100
AcDbEntity
  8
0
370
    35
390
0
 62
     7
100
AcDbCircle
 10
364.825592
 20
358.400024
 30
0.0
 40
3.35
210
0.0
220
0.0
230
1.0
  0
CIRCLE
  5
273
100
AcDbEntity
  8
0
370
    35
390
0
 62
     7
100
AcDbCircle
 10
264.825592
 20
358.400024
 30
0.0
 40
3.35
210
0.0
220
0.0
230
1.0
  0
LINE
  5
274
100
AcDbEntity
  8
0
370
    35
390
0
 62
     7
100
AcDbLine
 10
182.825592
 20
370.400024
 30
0.0
 11
746.825562
 21
370.400024
 31
0.0
210
0.0
220
0.0
230
1.0
  0
LINE
  5
275
100
AcDbEntity
  8
0
370
    35
390
0
 62
     7
 48
0.1
100
AcDbLine
 10
666.325562
 20
335.900024
 30
0.0
 11
666.325562
 21
331.900024
 31
0.0
210
0.0
220
0.0
230
1.0
  0
ARC
  5
276
100
AcDbEntity
  8
0
370
    35
390
0
 62
     7
100
AcDbCircle
 10
666.825562
 20
335.900024
 30
0.0
 40
0.5
210
0.0
220
0.0
230
1.0
100
AcDbArc
 50
90.000003
 51
180.000009
  0
LINE
  5
277
100
AcDbEntity
  8
0
370
    35
390
0
 62
     7
 48
0.175
100
AcDbLine
 10
666.825562
 20
336.400024
 30
0.0
 11
673.825562
 21
336.400024
 31
0.0
210
0.0
220
0.0
230
1.0
  0
ARC
  5
278
100
AcDbEntity
  8
0
370
    35
390
0
 62
     7
100
AcDbCircle
 10
673.825562
 20
335.900024
 30
0.0
 40
0.5
210
0.0
220
0.0
230
1.0
100
AcDbArc
 50
0.0
 51
90.000003
  0
LINE
  5
279
100
AcDbEntity
  8
0
370
    35
390
0
 62
     7
 48
0.1
100
AcDbLine
 10
674.325562
 20
331.900024
 30
0.0
 11
674.325562
 21
335.900024
 31
0.0
210
0.0
220
0.0
230
1.0
  0
ARC
  5
27A
100
AcDbEntity
  8
0
370
    35
390
0
 62
     7
100
AcDbCircle
 10
673.825562
 20
331.900024
 30
0.0
 40
0.5
210
0.0
220
0.0
230
1.0
100
AcDbArc
 50
269.999997
 51
360.0
  0
LINE
  5
27B
100
AcDbEntity
  8
0
370
    35
390
0
 62
     7
 48
0.175
100
AcDbLine
 10
673.825562
 20
331.400024
 30
0.0
 11
666.825562
 21
331.400024
 31
0.0
210
0.0
220
0.0
230
1.0
  0
ARC
  5
27C
100
AcDbEntity
  8
0
370
    35
390
0
 62
     7
100
AcDbCircle
 10
666.825562
 20
331.900024
 30
0.0
 40
0.5
210
0.0
220
0.0
230
1.0
100
AcDbArc
 50
180.000009
 51
269.999997
  0
LINE
  5
27D
100
AcDbEntity
  8
0
370
    35
390
0
 62
     7
 48
0.1
100
AcDbLine
 10
226.325592
 20
335.900024
 30
0.0
 11
226.325592
 21
331.900024
 31
0.0
210
0.0
220
0.0
230
1.0
  0
ARC
  5
27E
100
AcDbEntity
  8
0
370
    35
390
0
 62
     7
100
AcDbCircle
 10
226.825592
 20
335.900024
 30
0.0
 40
0.5
210
0.0
220
0.0
230
1.0
100
AcDbArc
 50
90.000003
 51
180.000009
  0
LINE
  5
27F
100
AcDbEntity
  8
0
370
    35
390
0
 62
     7
 48
0.175
100
AcDbLine
 10
226.825592
 20
336.400024
 30
0.0
 11
233.825592
 21
336.400024
 31
0.0
210
0.0
220
0.0
230
1.0
  0
ARC
  5
280
100
AcDbEntity
  8
0
370
    35
390
0
 62
     7
100
AcDbCircle
 10
233.825592
 20
335.900024
 30
0.0
 40
0.5
210
0.0
220
0.0
230
1.0
100
AcDbArc
 50
0.0
 51
90.000003
  0
LINE
  5
281
100
AcDbEntity
  8
0
370
    35
390
0
 62
     7
 48
0.1
100
AcDbLine
 10
234.325592
 20
331.900024
 30
0.0
 11
234.325592
 21
335.900024
 31
0.0
210
0.0
220
0.0
230
1.0
  0
ARC
  5
282
100
AcDbEntity
  8
0
370
    35
390
0
 62
     7
100
AcDbCircle
 10
233.825592
 20
331.900024
 30
0.0
 40
0.5
210
0.0
220
0.0
230
1.0
100
AcDbArc
 50
269.999997
 51
360.0
  0
LINE
  5
283
100
AcDbEntity
  8
0
370
    35
390
0
 62
     7
 48
0.175
100
AcDbLine
 10
233.825592
 20
331.400024
 30
0.0
 11
226.825592
 21
331.400024
 31
0.0
210
0.0
220
0.0
230
1.0
  0
ARC
  5
284
100
AcDbEntity
  8
0
370
    35
390
0
 62
     7
100
AcDbCircle
 10
226.825592
 20
331.900024
 30
0.0
 40
0.5
210
0.0
220
0.0
230
1.0
100
AcDbArc
 50
180.000009
 51
269.999997
  0
LINE
  5
285
100
AcDbEntity
  8
0
370
    35
390
0
 62
     7
 48
0.005
100
AcDbLine
 10
748.325562
 20
373.600006
 30
0.0
 11
748.325562
 21
373.400024
 31
0.0
210
0.0
220
0.0
230
1.0
  0
LINE
  5
286
100
AcDbEntity
  8
0
370
    35
390
0
 62
     7
 48
0.0075
100
AcDbLine
 10
748.325562
 20
373.900024
 30
0.0
 11
748.325562
 21
373.600006
 31
0.0
210
0.0
220
0.0
230
1.0
  0
LINE
  5
287
100
AcDbEntity
  8
0
370
    35
390
0
 62
     7
 48
0.005
100
AcDbLine
 10
181.325592
 20
373.600006
 30
0.0
 11
181.325592
 21
373.400024
 31
0.0
210
0.0
220
0.0
230
1.0
  0
LINE
  5
288
100
AcDbEntity
  8
0
370
    35
390
0
 62
     7
 48
0.0075
100
AcDbLine
 10
181.325592
 20
373.900024
 30
0.0
 11
181.325592
 21
373.600006
 31
0.0
210
0.0
220
0.0
230
1.0
  0
LINE
  5
289
100
AcDbEntity
  8
0
370
    35
390
0
 62
     7
100
AcDbLine
 10
182.825592
 20
328.400024
 30
0.0
 11
746.825562
 21
328.400024
 31
0.0
210
0.0
220
0.0
230
1.0
  0
LINE
  5
28A
100
AcDbEntity
  8
0
370
    35
390
0
 62
     7
 48
0.099341
100
AcDbLine
 10
672.192139
 20
335.515167
 30
0.0
 11
670.506714
 21
331.916687
 31
0.0
210
0.0
220
0.0
230
1.0
  0
ARC
  5
28B
100
AcDbEntity
  8
0
370
    35
390
0
 62
     7
100
AcDbCircle
 10
670.325562
 20
332.001526
 30
0.0
 40
0.2
210
0.0
220
0.0
230
1.0
100
AcDbArc
 50
205.097648
 51
334.902371
  0
LINE
  5
28C
100
AcDbEntity
  8
0
370
    35
390
0
 62
     7
 48
0.099341
100
AcDbLine
 10
668.458984
 20
335.515167
 30
0.0
 11
670.14447
 21
331.916687
 31
0.0
210
0.0
220
0.0
230
1.0
  0
ARC
  5
28D
100
AcDbEntity
  8
0
370
    35
390
0
 62
     7
100
AcDbCircle
 10
668.640137
 20
335.600006
 30
0.0
 40
0.2
210
0.0
220
0.0
230
1.0
100
AcDbArc
 50
90.000003
 51
205.097648
  0
LINE
  5
28E
100
AcDbEntity
  8
0
370
    35
390
0
 62
     7
 48
0.084274
100
AcDbLine
 10
672.011108
 20
335.800018
 30
0.0
 11
668.640137
 21
335.800018
 31
0.0
210
0.0
220
0.0
230
1.0
  0
ARC
  5
28F
100
AcDbEntity
  8
0
370
    35
390
0
 62
     7
100
AcDbCircle
 10
672.011108
 20
335.600006
 30
0.0
 40
0.2
210
0.0
220
0.0
230
1.0
100
AcDbArc
 50
334.902371
 51
90.000003
  0
LINE
  5
290
100
AcDbEntity
  8
0
370
    35
390
0
 62
     7
 48
0.099341
100
AcDbLine
 10
232.192184
 20
335.515167
 30
0.0
 11
230.506714
 21
331.916687
 31
0.0
210
0.0
220
0.0
230
1.0
  0
ARC
  5
291
100
AcDbEntity
  8
0
370
    35
390
0
 62
     7
100
AcDbCircle
 10
230.325592
 20
332.001526
 30
0.0
 40
0.2
210
0.0
220
0.0
230
1.0
100
AcDbArc
 50
205.097648
 51
334.902371
  0
LINE
  5
292
100
AcDbEntity
  8
0
370
    35
390
0
 62
     7
 48
0.099341
100
AcDbLine
 10
228.459
 20
335.515167
 30
0.0
 11
230.14447
 21
331.916687
 31
0.0
210
0.0
220
0.0
230
1.0
  0
ARC
  5
293
100
AcDbEntity
  8
0
370
    35
390
0
 62
     7
100
AcDbCircle
 10
228.640121
 20
335.600006
 30
0.0
 40
0.2
210
0.0
220
0.0
230
1.0
100
AcDbArc
 50
90.000003
 51
205.097648
  0
LINE
  5
294
100
AcDbEntity
  8
0
370
    35
390
0
 62
     7
 48
0.084274
100
AcDbLine
 10
232.011063
 20
335.800018
 30
0.0
 11
228.640121
 21
335.800018
 31
0.0
210
0.0
220
0.0
230
1.0
  0
ARC
  5
295
100
AcDbEntity
  8
0
370
    35
390
0
 62
     7
100
AcDbCircle
 10
232.011063
 20
335.600006
 30
0.0
 40
0.2
210
0.0
220
0.0
230
1.0
100
AcDbArc
 50
334.902371
 51
90.000003
  0
LINE
  5
296
100
AcDbEntity
  8
0
370
    35
390
0
 62
     7
100
AcDbLine
 10
181.325592
 20
373.900024
 30
0.0
 11
748.325562
 21
373.900024
 31
0.0
210
0.0
220
0.0
230
1.0
  0
LINE
  5
297
100
AcDbEntity
  8
0
370
    35
390
0
 62
     7
 48
0.1625
100
AcDbLine
 10
753.325562
 20
373.400024
 30
0.0
 11
746.825562
 21
373.400024
 31
0.0
210
0.0
220
0.0
230
1.0
  0
LINE
  5
298
100
AcDbEntity
  8
0
370
    35
390
0
 62
     7
 48
0.067678
100
AcDbLine
 10
753.825562
 20
370.192902
 30
0.0
 11
753.825562
 21
372.900024
 31
0.0
210
0.0
220
0.0
230
1.0
  0
LINE
  5
299
100
AcDbEntity
  8
0
370
    35
390
0
 62
     7
100
AcDbLine
 10
753.825562
 20
370.192902
 30
0.0
 11
753.825562
 21
327.607117
 31
0.0
210
0.0
220
0.0
230
1.0
  0
LINE
  5
29A
100
AcDbEntity
  8
0
370
    35
390
0
 62
     7
 48
0.067677
100
AcDbLine
 10
753.825562
 20
327.607117
 30
0.0
 11
753.825562
 21
324.900024
 31
0.0
210
0.0
220
0.0
230
1.0
  0
LINE
  5
29B
100
AcDbEntity
  8
0
370
    35
390
0
 62
     7
100
AcDbLine
 10
182.825592
 20
324.400024
 30
0.0
 11
746.825562
 21
324.400024
 31
0.0
210
0.0
220
0.0
230
1.0
  0
LINE
  5
29C
100
AcDbEntity
  8
0
370
    35
390
0
 62
     7
 48
0.1625
100
AcDbLine
 10
176.325592
 20
324.400024
 30
0.0
 11
182.825592
 21
324.400024
 31
0.0
210
0.0
220
0.0
230
1.0
  0
LINE
  5
29D
100
AcDbEntity
  8
0
370
    35
390
0
 62
     7
 48
0.1625
100
AcDbLine
 10
753.325562
 20
324.400024
 30
0.0
 11
746.825562
 21
324.400024
 31
0.0
210
0.0
220
0.0
230
1.0
  0
LINE
  5
29E
100
AcDbEntity
  8
0
370
    35
390
0
 62
     7
 48
0.1625
100
AcDbLine
 10
176.325592
 20
373.400024
 30
0.0
 11
182.825592
 21
373.400024
 31
0.0
210
0.0
220
0.0
230
1.0
  0
LINE
  5
29F
100
AcDbEntity
  8
0
370
    35
390
0
 62
     7
 48
0.067677
100
AcDbLine
 10
175.825592
 20
327.607117
 30
0.0
 11
175.825592
 21
324.900024
 31
0.0
210
0.0
220
0.0
230
1.0
  0
LINE
  5
2A0
100
AcDbEntity
  8
0
370
    35
390
0
 62
     7
100
AcDbLine
 10
175.825592
 20
370.192902
 30
0.0
 11
175.825592
 21
327.607117
 31
0.0
210
0.0
220
0.0
230
1.0
  0
LINE
  5
2A1
100
AcDbEntity
  8
0
370
    35
390
0
 62
     7
 48
0.067678
100
AcDbLine
 10
175.825592
 20
370.192902
 30
0.0
 11
175.825592
 21
372.900024
 31
0.0
210
0.0
220
0.0
230
1.0
  0
LINE
  5
2A2
100
AcDbEntity
  8
0
370
    35
390
0
 62
     7
 48
0.032907
100
AcDbLine
 10
187.625595
 20
328.400024
 30
0.0
 11
187.625595
 21
327.08374
 31
0.0
210
0.0
220
0.0
230
1.0
  0
LINE
  5
2A3
100
AcDbEntity
  8
0
370
    35
390
0
 62
     7
 48
0.12
100
AcDbLine
 10
187.625595
 20
327.08374
 30
0.0
 11
182.825592
 21
327.08374
 31
0.0
210
0.0
220
0.0
230
1.0
  0
LINE
  5
2A4
100
AcDbEntity
  8
0
370
    35
390
0
 62
     7
 48
0.028082
100
AcDbLine
 10
742.025635
 20
327.276764
 30
0.0
 11
742.025635
 21
328.400024
 31
0.0
210
0.0
220
0.0
230
1.0
  0
LINE
  5
2A5
100
AcDbEntity
  8
0
370
    35
390
0
 62
     7
 48
0.004826
100
AcDbLine
 10
742.025635
 20
327.08374
 30
0.0
 11
742.025635
 21
327.276764
 31
0.0
210
0.0
220
0.0
230
1.0
  0
LINE
  5
2A6
100
AcDbEntity
  8
0
370
    35
390
0
 62
     7
 48
0.003661
100
AcDbLine
 10
746.825562
 20
324.400024
 30
0.0
 11
746.825562
 21
324.546448
 31
0.0
210
0.0
220
0.0
230
1.0
  0
LINE
  5
2A7
100
AcDbEntity
  8
0
370
    35
390
0
 62
     7
 48
0.067678
100
AcDbLine
 10
746.825562
 20
324.546448
 30
0.0
 11
746.825562
 21
327.253571
 31
0.0
210
0.0
220
0.0
230
1.0
  0
LINE
  5
2A8
100
AcDbEntity
  8
0
370
    35
390
0
 62
     7
 48
0.008839
100
AcDbLine
 10
746.825562
 20
327.253571
 30
0.0
 11
746.825562
 21
327.607117
 31
0.0
210
0.0
220
0.0
230
1.0
  0
LINE
  5
2A9
100
AcDbEntity
  8
0
370
    35
390
0
 62
     7
100
AcDbLine
 10
746.825562
 20
327.607117
 30
0.0
 11
746.825562
 21
370.192902
 31
0.0
210
0.0
220
0.0
230
1.0
  0
LINE
  5
2AA
100
AcDbEntity
  8
0
370
    35
390
0
 62
     7
 48
0.008839
100
AcDbLine
 10
746.825562
 20
370.192902
 30
0.0
 11
746.825562
 21
370.546448
 31
0.0
210
0.0
220
0.0
230
1.0
  0
LINE
  5
2AB
100
AcDbEntity
  8
0
370
    35
390
0
 62
     7
 48
0.067678
100
AcDbLine
 10
746.825562
 20
370.546448
 30
0.0
 11
746.825562
 21
373.253571
 31
0.0
210
0.0
220
0.0
230
1.0
  0
LINE
  5
2AC
100
AcDbEntity
  8
0
370
    35
390
0
 62
     7
 48
0.003661
100
AcDbLine
 10
746.825562
 20
373.253571
 30
0.0
 11
746.825562
 21
373.400024
 31
0.0
210
0.0
220
0.0
230
1.0
  0
LINE
  5
2AD
100
AcDbEntity
  8
0
370
    35
390
0
 62
     7
 48
0.003661
100
AcDbLine
 10
182.825592
 20
373.253571
 30
0.0
 11
182.825592
 21
373.400024
 31
0.0
210
0.0
220
0.0
230
1.0
  0
LINE
  5
2AE
100
AcDbEntity
  8
0
370
    35
390
0
 62
     7
 48
0.067678
100
AcDbLine
 10
182.825592
 20
370.546448
 30
0.0
 11
182.825592
 21
373.253571
 31
0.0
210
0.0
220
0.0
230
1.0
  0
LINE
  5
2AF
100
AcDbEntity
  8
0
370
    35
390
0
 62
     7
 48
0.008839
100
AcDbLine
 10
182.825592
 20
370.192902
 30
0.0
 11
182.825592
 21
370.546448
 31
0.0
210
0.0
220
0.0
230
1.0
  0
LINE
  5
2B0
100
AcDbEntity
  8
0
370
    35
390
0
 62
     7
100
AcDbLine
 10
182.825592
 20
327.607117
 30
0.0
 11
182.825592
 21
370.192902
 31
0.0
210
0.0
220
0.0
230
1.0
  0
LINE
  5
2B1
100
AcDbEntity
  8
0
370
    35
390
0
 62
     7
 48
0.008839
100
AcDbLine
 10
182.825592
 20
327.253571
 30
0.0
 11
182.825592
 21
327.607117
 31
0.0
210
0.0
220
0.0
230
1.0
  0
LINE
  5
2B2
100
AcDbEntity
  8
0
370
    35
390
0
 62
     7
 48
0.067678
100
AcDbLine
 10
182.825592
 20
324.546448
 30
0.0
 11
182.825592
 21
327.253571
 31
0.0
210
0.0
220
0.0
230
1.0
  0
LINE
  5
2B3
100
AcDbEntity
  8
0
370
    35
390
0
 62
     7
 48
0.003661
100
AcDbLine
 10
182.825592
 20
324.400024
 30
0.0
 11
182.825592
 21
324.546448
 31
0.0
210
0.0
220
0.0
230
1.0
  0
CIRCLE
  5
2B4
100
AcDbEntity
  8
0
370
    35
390
0
 62
     7
100
AcDbCircle
 10
614.825562
 20
336.100006
 30
0.0
 40
3.0
210
0.0
220
0.0
230
1.0
  0
CIRCLE
  5
2B5
100
AcDbEntity
  8
0
370
    35
390
0
 62
     7
100
AcDbCircle
 10
564.825562
 20
358.400024
 30
0.0
 40
3.0
210
0.0
220
0.0
230
1.0
  0
CIRCLE
  5
2B6
100
AcDbEntity
  8
0
370
    35
390
0
 62
     7
100
AcDbCircle
 10
664.825562
 20
358.400024
 30
0.0
 40
3.0
210
0.0
220
0.0
230
1.0
  0
CIRCLE
  5
2B7
100
AcDbEntity
  8
0
370
    35
390
0
 62
     7
100
AcDbCircle
 10
195.825592
 20
358.400024
 30
0.0
 40
3.0
210
0.0
220
0.0
230
1.0
  0
CIRCLE
  5
2B8
100
AcDbEntity
  8
0
370
    35
390
0
 62
     7
100
AcDbCircle
 10
733.825562
 20
358.400024
 30
0.0
 40
3.0
210
0.0
220
0.0
230
1.0
  0
CIRCLE
  5
2B9
100
AcDbEntity
  8
0
370
    35
390
0
 62
     7
100
AcDbCircle
 10
214.825592
 20
336.100006
 30
0.0
 40
3.0
210
0.0
220
0.0
230
1.0
  0
CIRCLE
  5
2BA
100
AcDbEntity
  8
0
370
    35
390
0
 62
     7
100
AcDbCircle
 10
314.825592
 20
336.100006
 30
0.0
 40
3.0
210
0.0
220
0.0
230
1.0
  0
CIRCLE
  5
2BB
100
AcDbEntity
  8
0
370
    35
390
0
 62
     7
100
AcDbCircle
 10
414.825592
 20
336.100006
 30
0.0
 40
3.0
210
0.0
220
0.0
230
1.0
  0
CIRCLE
  5
2BC
100
AcDbEntity
  8
0
370
    35
390
0
 62
     7
100
AcDbCircle
 10
514.825562
 20
336.100006
 30
0.0
 40
3.0
210
0.0
220
0.0
230
1.0
  0
CIRCLE
  5
2BD
100
AcDbEntity
  8
0
370
    35
390
0
 62
     7
100
AcDbCircle
 10
714.825562
 20
336.100006
 30
0.0
 40
3.0
210
0.0
220
0.0
230
1.0
  0
CIRCLE
  5
2BE
100
AcDbEntity
  8
0
370
    35
390
0
 62
     7
100
AcDbCircle
 10
464.825592
 20
358.400024
 30
0.0
 40
3.0
210
0.0
220
0.0
230
1.0
  0
CIRCLE
  5
2BF
100
AcDbEntity
  8
0
370
    35
390
0
 62
     7
100
AcDbCircle
 10
364.825592
 20
358.400024
 30
0.0
 40
3.0
210
0.0
220
0.0
230
1.0
  0
CIRCLE
  5
2C0
100
AcDbEntity
  8
0
370
    35
390
0
 62
     7
100
AcDbCircle
 10
264.825592
 20
358.400024
 30
0.0
 40
3.0
210
0.0
220
0.0
230
1.0
  0
ARC
  5
2C1
100
AcDbEntity
  8
0
370
    35
390
0
 62
     7
100
AcDbCircle
 10
753.325562
 20
372.900024
 30
0.0
 40
0.5
210
0.0
220
0.0
230
1.0
100
AcDbArc
 50
0.0
 51
90.000003
  0
ARC
  5
2C2
100
AcDbEntity
  8
0
370
    35
390
0
 62
     7
100
AcDbCircle
 10
753.325562
 20
324.900024
 30
0.0
 40
0.5
210
0.0
220
0.0
230
1.0
100
AcDbArc
 50
269.999997
 51
360.0
  0
ARC
  5
2C3
100
AcDbEntity
  8
0
370
    35
390
0
 62
     7
100
AcDbCircle
 10
176.325592
 20
324.900024
 30
0.0
 40
0.5
210
0.0
220
0.0
230
1.0
100
AcDbArc
 50
180.000009
 51
269.999997
  0
ARC
  5
2C4
100
AcDbEntity
  8
0
370
    35
390
0
 62
     7
100
AcDbCircle
 10
176.325592
 20
372.900024
 30
0.0
 40
0.5
210
0.0
220
0.0
230
1.0
100
AcDbArc
 50
90.000003
 51
180.000009
  0
LINE
  5
2C5
100
AcDbEntity
  8
0
370
    35
390
0
 62
     7
 48
0.119998
100
AcDbLine
 10
742.025635
 20
327.08374
 30
0.0
 11
746.825562
 21
327.08374
 31
0.0
210
0.0
220
0.0
230
1.0
  0
LINE
  5
2C6
100
AcDbEntity
  8
0
370
    35
390
0
 62
     7
 48
0.02
100
AcDbLine
 10
565.225586
 20
360.150024
 30
0.0
 11
564.425598
 21
360.150024
 31
0.0
210
0.0
220
0.0
230
1.0
  0
LINE
  5
2C7
100
AcDbEntity
  8
0
370
    35
390
0
 62
     7
 48
0.016251
100
AcDbLine
 10
564.425598
 20
360.150024
 30
0.0
 11
564.425598
 21
359.5
 31
0.0
210
0.0
220
0.0
230
1.0
  0
ARC
  5
2C8
100
AcDbEntity
  8
0
370
    35
390
0
 62
     7
100
AcDbCircle
 10
563.725586
 20
359.5
 30
0.0
 40
0.7
210
0.0
220
0.0
230
1.0
100
AcDbArc
 50
269.999997
 51
360.0
  0
LINE
  5
2C9
100
AcDbEntity
  8
0
370
    35
390
0
 62
     7
 48
0.016251
100
AcDbLine
 10
563.725586
 20
358.799988
 30
0.0
 11
563.075562
 21
358.799988
 31
0.0
210
0.0
220
0.0
230
1.0
  0
LINE
  5
2CA
100
AcDbEntity
  8
0
370
    35
390
0
 62
     7
 48
0.02
100
AcDbLine
 10
563.075562
 20
358.799988
 30
0.0
 11
563.075562
 21
358.0
 31
0.0
210
0.0
220
0.0
230
1.0
  0
LINE
  5
2CB
100
AcDbEntity
  8
0
370
    35
390
0
 62
     7
 48
0.016251
100
AcDbLine
 10
563.075562
 20
358.0
 30
0.0
 11
563.725586
 21
358.0
 31
0.0
210
0.0
220
0.0
230
1.0
  0
ARC
  5
2CC
100
AcDbEntity
  8
0
370
    35
390
0
 62
     7
100
AcDbCircle
 10
563.725586
 20
357.299988
 30
0.0
 40
0.7
210
0.0
220
0.0
230
1.0
100
AcDbArc
 50
0.0
 51
90.000003
  0
LINE
  5
2CD
100
AcDbEntity
  8
0
370
    35
390
0
 62
     7
 48
0.016249
100
AcDbLine
 10
564.425598
 20
357.299988
 30
0.0
 11
564.425598
 21
356.650024
 31
0.0
210
0.0
220
0.0
230
1.0
  0
LINE
  5
2CE
100
AcDbEntity
  8
0
370
    35
390
0
 62
     7
 48
0.02
100
AcDbLine
 10
564.425598
 20
356.650024
 30
0.0
 11
565.225586
 21
356.650024
 31
0.0
210
0.0
220
0.0
230
1.0
  0
LINE
  5
2CF
100
AcDbEntity
  8
0
370
    35
390
0
 62
     7
 48
0.016249
100
AcDbLine
 10
565.225586
 20
356.650024
 30
0.0
 11
565.225586
 21
357.299988
 31
0.0
210
0.0
220
0.0
230
1.0
  0
ARC
  5
2D0
100
AcDbEntity
  8
0
370
    35
390
0
 62
     7
100
AcDbCircle
 10
565.925598
 20
357.299988
 30
0.0
 40
0.7
210
0.0
220
0.0
230
1.0
100
AcDbArc
 50
90.000003
 51
180.000009
  0
LINE
  5
2D1
100
AcDbEntity
  8
0
370
    35
390
0
 62
     7
 48
0.016249
100
AcDbLine
 10
565.925598
 20
358.0
 30
0.0
 11
566.575562
 21
358.0
 31
0.0
210
0.0
220
0.0
230
1.0
  0
LINE
  5
2D2
100
AcDbEntity
  8
0
370
    35
390
0
 62
     7
 48
0.02
100
AcDbLine
 10
566.575562
 20
358.0
 30
0.0
 11
566.575562
 21
358.799988
 31
0.0
210
0.0
220
0.0
230
1.0
  0
LINE
  5
2D3
100
AcDbEntity
  8
0
370
    35
390
0
 62
     7
 48
0.016249
100
AcDbLine
 10
566.575562
 20
358.799988
 30
0.0
 11
565.925598
 21
358.799988
 31
0.0
210
0.0
220
0.0
230
1.0
  0
ARC
  5
2D4
100
AcDbEntity
  8
0
370
    35
390
0
 62
     7
100
AcDbCircle
 10
565.925598
 20
359.5
 30
0.0
 40
0.7
210
0.0
220
0.0
230
1.0
100
AcDbArc
 50
180.000009
 51
269.999997
  0
LINE
  5
2D5
100
AcDbEntity
  8
0
370
    35
390
0
 62
     7
 48
0.016251
100
AcDbLine
 10
565.225586
 20
359.5
 30
0.0
 11
565.225586
 21
360.150024
 31
0.0
210
0.0
220
0.0
230
1.0
  0
LINE
  5
2D6
100
AcDbEntity
  8
0
370
    35
390
0
 62
     7
 48
0.02
100
AcDbLine
 10
665.225586
 20
360.150024
 30
0.0
 11
664.425598
 21
360.150024
 31
0.0
210
0.0
220
0.0
230
1.0
  0
LINE
  5
2D7
100
AcDbEntity
  8
0
370
    35
390
0
 62
     7
 48
0.016251
100
AcDbLine
 10
664.425598
 20
360.150024
 30
0.0
 11
664.425598
 21
359.5
 31
0.0
210
0.0
220
0.0
230
1.0
  0
ARC
  5
2D8
100
AcDbEntity
  8
0
370
    35
390
0
 62
     7
100
AcDbCircle
 10
663.725586
 20
359.5
 30
0.0
 40
0.7
210
0.0
220
0.0
230
1.0
100
AcDbArc
 50
269.999997
 51
360.0
  0
LINE
  5
2D9
100
AcDbEntity
  8
0
370
    35
390
0
 62
     7
 48
0.016251
100
AcDbLine
 10
663.725586
 20
358.799988
 30
0.0
 11
663.075562
 21
358.799988
 31
0.0
210
0.0
220
0.0
230
1.0
  0
LINE
  5
2DA
100
AcDbEntity
  8
0
370
    35
390
0
 62
     7
 48
0.02
100
AcDbLine
 10
663.075562
 20
358.799988
 30
0.0
 11
663.075562
 21
358.0
 31
0.0
210
0.0
220
0.0
230
1.0
  0
LINE
  5
2DB
100
AcDbEntity
  8
0
370
    35
390
0
 62
     7
 48
0.016251
100
AcDbLine
 10
663.075562
 20
358.0
 30
0.0
 11
663.725586
 21
358.0
 31
0.0
210
0.0
220
0.0
230
1.0
  0
ARC
  5
2DC
100
AcDbEntity
  8
0
370
    35
390
0
 62
     7
100
AcDbCircle
 10
663.725586
 20
357.299988
 30
0.0
 40
0.7
210
0.0
220
0.0
230
1.0
100
AcDbArc
 50
0.0
 51
90.000003
  0
LINE
  5
2DD
100
AcDbEntity
  8
0
370
    35
390
0
 62
     7
 48
0.016249
100
AcDbLine
 10
664.425598
 20
357.299988
 30
0.0
 11
664.425598
 21
356.650024
 31
0.0
210
0.0
220
0.0
230
1.0
  0
LINE
  5
2DE
100
AcDbEntity
  8
0
370
    35
390
0
 62
     7
 48
0.02
100
AcDbLine
 10
664.425598
 20
356.650024
 30
0.0
 11
665.225586
 21
356.650024
 31
0.0
210
0.0
220
0.0
230
1.0
  0
LINE
  5
2DF
100
AcDbEntity
  8
0
370
    35
390
0
 62
     7
 48
0.016249
100
AcDbLine
 10
665.225586
 20
356.650024
 30
0.0
 11
665.225586
 21
357.299988
 31
0.0
210
0.0
220
0.0
230
1.0
  0
ARC
  5
2E0
100
AcDbEntity
  8
0
370
    35
390
0
 62
     7
100
AcDbCircle
 10
665.925598
 20
357.299988
 30
0.0
 40
0.7
210
0.0
220
0.0
230
1.0
100
AcDbArc
 50
90.000003
 51
180.000009
  0
LINE
  5
2E1
100
AcDbEntity
  8
0
370
    35
390
0
 62
     7
 48
0.016249
100
AcDbLine
 10
665.925598
 20
358.0
 30
0.0
 11
666.575562
 21
358.0
 31
0.0
210
0.0
220
0.0
230
1.0
  0
LINE
  5
2E2
100
AcDbEntity
  8
0
370
    35
390
0
 62
     7
 48
0.02
100
AcDbLine
 10
666.575562
 20
358.0
 30
0.0
 11
666.575562
 21
358.799988
 31
0.0
210
0.0
220
0.0
230
1.0
  0
LINE
  5
2E3
100
AcDbEntity
  8
0
370
    35
390
0
 62
     7
 48
0.016249
100
AcDbLine
 10
666.575562
 20
358.799988
 30
0.0
 11
665.925598
 21
358.799988
 31
0.0
210
0.0
220
0.0
230
1.0
  0
ARC
  5
2E4
100
AcDbEntity
  8
0
370
    35
390
0
 62
     7
100
AcDbCircle
 10
665.925598
 20
359.5
 30
0.0
 40
0.7
210
0.0
220
0.0
230
1.0
100
AcDbArc
 50
180.000009
 51
269.999997
  0
LINE
  5
2E5
100
AcDbEntity
  8
0
370
    35
390
0
 62
     7
 48
0.016251
100
AcDbLine
 10
665.225586
 20
359.5
 30
0.0
 11
665.225586
 21
360.150024
 31
0.0
210
0.0
220
0.0
230
1.0
  0
LINE
  5
2E6
100
AcDbEntity
  8
0
370
    35
390
0
 62
     7
 48
0.02
100
AcDbLine
 10
196.225586
 20
360.150024
 30
0.0
 11
195.425598
 21
360.150024
 31
0.0
210
0.0
220
0.0
230
1.0
  0
LINE
  5
2E7
100
AcDbEntity
  8
0
370
    35
390
0
 62
     7
 48
0.016251
100
AcDbLine
 10
195.425598
 20
360.150024
 30
0.0
 11
195.425598
 21
359.5
 31
0.0
210
0.0
220
0.0
230
1.0
  0
ARC
  5
2E8
100
AcDbEntity
  8
0
370
    35
390
0
 62
     7
100
AcDbCircle
 10
194.725586
 20
359.5
 30
0.0
 40
0.7
210
0.0
220
0.0
230
1.0
100
AcDbArc
 50
269.999997
 51
360.0
  0
LINE
  5
2E9
100
AcDbEntity
  8
0
370
    35
390
0
 62
     7
 48
0.01625
100
AcDbLine
 10
194.725586
 20
358.799988
 30
0.0
 11
194.075592
 21
358.799988
 31
0.0
210
0.0
220
0.0
230
1.0
  0
LINE
  5
2EA
100
AcDbEntity
  8
0
370
    35
390
0
 62
     7
 48
0.02
100
AcDbLine
 10
194.075592
 20
358.799988
 30
0.0
 11
194.075592
 21
358.0
 31
0.0
210
0.0
220
0.0
230
1.0
  0
LINE
  5
2EB
100
AcDbEntity
  8
0
370
    35
390
0
 62
     7
 48
0.01625
100
AcDbLine
 10
194.075592
 20
358.0
 30
0.0
 11
194.725586
 21
358.0
 31
0.0
210
0.0
220
0.0
230
1.0
  0
ARC
  5
2EC
100
AcDbEntity
  8
0
370
    35
390
0
 62
     7
100
AcDbCircle
 10
194.725586
 20
357.299988
 30
0.0
 40
0.7
210
0.0
220
0.0
230
1.0
100
AcDbArc
 50
0.0
 51
90.000003
  0
LINE
  5
2ED
100
AcDbEntity
  8
0
370
    35
390
0
 62
     7
 48
0.016249
100
AcDbLine
 10
195.425598
 20
357.299988
 30
0.0
 11
195.425598
 21
356.650024
 31
0.0
210
0.0
220
0.0
230
1.0
  0
LINE
  5
2EE
100
AcDbEntity
  8
0
370
    35
390
0
 62
     7
 48
0.02
100
AcDbLine
 10
195.425598
 20
356.650024
 30
0.0
 11
196.225586
 21
356.650024
 31
0.0
210
0.0
220
0.0
230
1.0
  0
LINE
  5
2EF
100
AcDbEntity
  8
0
370
    35
390
0
 62
     7
 48
0.016249
100
AcDbLine
 10
196.225586
 20
356.650024
 30
0.0
 11
196.225586
 21
357.299988
 31
0.0
210
0.0
220
0.0
230
1.0
  0
ARC
  5
2F0
100
AcDbEntity
  8
0
370
    35
390
0
 62
     7
100
AcDbCircle
 10
196.925598
 20
357.299988
 30
0.0
 40
0.7
210
0.0
220
0.0
230
1.0
100
AcDbArc
 50
90.000003
 51
180.000009
  0
LINE
  5
2F1
100
AcDbEntity
  8
0
370
    35
390
0
 62
     7
 48
0.01625
100
AcDbLine
 10
196.925598
 20
358.0
 30
0.0
 11
197.575592
 21
358.0
 31
0.0
210
0.0
220
0.0
230
1.0
  0
LINE
  5
2F2
100
AcDbEntity
  8
0
370
    35
390
0
 62
     7
 48
0.02
100
AcDbLine
 10
197.575592
 20
358.0
 30
0.0
 11
197.575592
 21
358.799988
 31
0.0
210
0.0
220
0.0
230
1.0
  0
LINE
  5
2F3
100
AcDbEntity
  8
0
370
    35
390
0
 62
     7
 48
0.01625
100
AcDbLine
 10
197.575592
 20
358.799988
 30
0.0
 11
196.925598
 21
358.799988
 31
0.0
210
0.0
220
0.0
230
1.0
  0
ARC
  5
2F4
100
AcDbEntity
  8
0
370
    35
390
0
 62
     7
100
AcDbCircle
 10
196.925598
 20
359.5
 30
0.0
 40
0.7
210
0.0
220
0.0
230
1.0
100
AcDbArc
 50
180.000009
 51
269.999997
  0
LINE
  5
2F5
100
AcDbEntity
  8
0
370
    35
390
0
 62
     7
 48
0.016251
100
AcDbLine
 10
196.225586
 20
359.5
 30
0.0
 11
196.225586
 21
360.150024
 31
0.0
210
0.0
220
0.0
230
1.0
  0
LINE
  5
2F6
100
AcDbEntity
  8
0
370
    35
390
0
 62
     7
 48
0.020001
100
AcDbLine
 10
734.225586
 20
360.150024
 30
0.0
 11
733.425537
 21
360.150024
 31
0.0
210
0.0
220
0.0
230
1.0
  0
LINE
  5
2F7
100
AcDbEntity
  8
0
370
    35
390
0
 62
     7
 48
0.016251
100
AcDbLine
 10
733.425537
 20
360.150024
 30
0.0
 11
733.425537
 21
359.5
 31
0.0
210
0.0
220
0.0
230
1.0
  0
ARC
  5
2F8
100
AcDbEntity
  8
0
370
    35
390
0
 62
     7
100
AcDbCircle
 10
732.725586
 20
359.5
 30
0.0
 40
0.7
210
0.0
220
0.0
230
1.0
100
AcDbArc
 50
269.999997
 51
360.0
  0
LINE
  5
2F9
100
AcDbEntity
  8
0
370
    35
390
0
 62
     7
 48
0.016251
100
AcDbLine
 10
732.725586
 20
358.799988
 30
0.0
 11
732.075562
 21
358.799988
 31
0.0
210
0.0
220
0.0
230
1.0
  0
LINE
  5
2FA
100
AcDbEntity
  8
0
370
    35
390
0
 62
     7
 48
0.02
100
AcDbLine
 10
732.075562
 20
358.799988
 30
0.0
 11
732.075562
 21
358.0
 31
0.0
210
0.0
220
0.0
230
1.0
  0
LINE
  5
2FB
100
AcDbEntity
  8
0
370
    35
390
0
 62
     7
 48
0.016251
100
AcDbLine
 10
732.075562
 20
358.0
 30
0.0
 11
732.725586
 21
358.0
 31
0.0
210
0.0
220
0.0
230
1.0
  0
ARC
  5
2FC
100
AcDbEntity
  8
0
370
    35
390
0
 62
     7
100
AcDbCircle
 10
732.725586
 20
357.299988
 30
0.0
 40
0.7
210
0.0
220
0.0
230
1.0
100
AcDbArc
 50
0.0
 51
90.000003
  0
LINE
  5
2FD
100
AcDbEntity
  8
0
370
    35
390
0
 62
     7
 48
0.016249
100
AcDbLine
 10
733.425537
 20
357.299988
 30
0.0
 11
733.425537
 21
356.650024
 31
0.0
210
0.0
220
0.0
230
1.0
  0
LINE
  5
2FE
100
AcDbEntity
  8
0
370
    35
390
0
 62
     7
 48
0.020001
100
AcDbLine
 10
733.425537
 20
356.650024
 30
0.0
 11
734.225586
 21
356.650024
 31
0.0
210
0.0
220
0.0
230
1.0
  0
LINE
  5
2FF
100
AcDbEntity
  8
0
370
    35
390
0
 62
     7
 48
0.016249
100
AcDbLine
 10
734.225586
 20
356.650024
 30
0.0
 11
734.225586
 21
357.299988
 31
0.0
210
0.0
220
0.0
230
1.0
  0
ARC
  5
300
100
AcDbEntity
  8
0
370
    35
390
0
 62
     7
100
AcDbCircle
 10
734.925537
 20
357.299988
 30
0.0
 40
0.7
210
0.0
220
0.0
230
1.0
100
AcDbArc
 50
90.000003
 51
180.000009
  0
LINE
  5
301
100
AcDbEntity
  8
0
370
    35
390
0
 62
     7
 48
0.016251
100
AcDbLine
 10
734.925537
 20
358.0
 30
0.0
 11
735.575562
 21
358.0
 31
0.0
210
0.0
220
0.0
230
1.0
  0
LINE
  5
302
100
AcDbEntity
  8
0
370
    35
390
0
 62
     7
 48
0.02
100
AcDbLine
 10
735.575562
 20
358.0
 30
0.0
 11
735.575562
 21
358.799988
 31
0.0
210
0.0
220
0.0
230
1.0
  0
LINE
  5
303
100
AcDbEntity
  8
0
370
    35
390
0
 62
     7
 48
0.016251
100
AcDbLine
 10
735.575562
 20
358.799988
 30
0.0
 11
734.925537
 21
358.799988
 31
0.0
210
0.0
220
0.0
230
1.0
  0
ARC
  5
304
100
AcDbEntity
  8
0
370
    35
390
0
 62
     7
100
AcDbCircle
 10
734.925537
 20
359.5
 30
0.0
 40
0.7
210
0.0
220
0.0
230
1.0
100
AcDbArc
 50
180.000009
 51
269.999997
  0
LINE
  5
305
100
AcDbEntity
  8
0
370
    35
390
0
 62
     7
 48
0.016251
100
AcDbLine
 10
734.225586
 20
359.5
 30
0.0
 11
734.225586
 21
360.150024
 31
0.0
210
0.0
220
0.0
230
1.0
  0
LINE
  5
306
100
AcDbEntity
  8
0
370
    35
390
0
 62
     7
 48
0.02
100
AcDbLine
 10
465.225586
 20
360.150024
 30
0.0
 11
464.425598
 21
360.150024
 31
0.0
210
0.0
220
0.0
230
1.0
  0
LINE
  5
307
100
AcDbEntity
  8
0
370
    35
390
0
 62
     7
 48
0.016251
100
AcDbLine
 10
464.425598
 20
360.150024
 30
0.0
 11
464.425598
 21
359.5
 31
0.0
210
0.0
220
0.0
230
1.0
  0
ARC
  5
308
100
AcDbEntity
  8
0
370
    35
390
0
 62
     7
100
AcDbCircle
 10
463.725586
 20
359.5
 30
0.0
 40
0.7
210
0.0
220
0.0
230
1.0
100
AcDbArc
 50
269.999997
 51
360.0
  0
LINE
  5
309
100
AcDbEntity
  8
0
370
    35
390
0
 62
     7
 48
0.01625
100
AcDbLine
 10
463.725586
 20
358.799988
 30
0.0
 11
463.075592
 21
358.799988
 31
0.0
210
0.0
220
0.0
230
1.0
  0
LINE
  5
30A
100
AcDbEntity
  8
0
370
    35
390
0
 62
     7
 48
0.02
100
AcDbLine
 10
463.075592
 20
358.799988
 30
0.0
 11
463.075592
 21
358.0
 31
0.0
210
0.0
220
0.0
230
1.0
  0
LINE
  5
30B
100
AcDbEntity
  8
0
370
    35
390
0
 62
     7
 48
0.01625
100
AcDbLine
 10
463.075592
 20
358.0
 30
0.0
 11
463.725586
 21
358.0
 31
0.0
210
0.0
220
0.0
230
1.0
  0
ARC
  5
30C
100
AcDbEntity
  8
0
370
    35
390
0
 62
     7
100
AcDbCircle
 10
463.725586
 20
357.299988
 30
0.0
 40
0.7
210
0.0
220
0.0
230
1.0
100
AcDbArc
 50
0.0
 51
90.000003
  0
LINE
  5
30D
100
AcDbEntity
  8
0
370
    35
390
0
 62
     7
 48
0.016249
100
AcDbLine
 10
464.425598
 20
357.299988
 30
0.0
 11
464.425598
 21
356.650024
 31
0.0
210
0.0
220
0.0
230
1.0
  0
LINE
  5
30E
100
AcDbEntity
  8
0
370
    35
390
0
 62
     7
 48
0.02
100
AcDbLine
 10
464.425598
 20
356.650024
 30
0.0
 11
465.225586
 21
356.650024
 31
0.0
210
0.0
220
0.0
230
1.0
  0
LINE
  5
30F
100
AcDbEntity
  8
0
370
    35
390
0
 62
     7
 48
0.016249
100
AcDbLine
 10
465.225586
 20
356.650024
 30
0.0
 11
465.225586
 21
357.299988
 31
0.0
210
0.0
220
0.0
230
1.0
  0
ARC
  5
310
100
AcDbEntity
  8
0
370
    35
390
0
 62
     7
100
AcDbCircle
 10
465.925598
 20
357.299988
 30
0.0
 40
0.7
210
0.0
220
0.0
230
1.0
100
AcDbArc
 50
90.000003
 51
180.000009
  0
LINE
  5
311
100
AcDbEntity
  8
0
370
    35
390
0
 62
     7
 48
0.01625
100
AcDbLine
 10
465.925598
 20
358.0
 30
0.0
 11
466.575592
 21
358.0
 31
0.0
210
0.0
220
0.0
230
1.0
  0
LINE
  5
312
100
AcDbEntity
  8
0
370
    35
390
0
 62
     7
 48
0.02
100
AcDbLine
 10
466.575592
 20
358.0
 30
0.0
 11
466.575592
 21
358.799988
 31
0.0
210
0.0
220
0.0
230
1.0
  0
LINE
  5
313
100
AcDbEntity
  8
0
370
    35
390
0
 62
     7
 48
0.01625
100
AcDbLine
 10
466.575592
 20
358.799988
 30
0.0
 11
465.925598
 21
358.799988
 31
0.0
210
0.0
220
0.0
230
1.0
  0
ARC
  5
314
100
AcDbEntity
  8
0
370
    35
390
0
 62
     7
100
AcDbCircle
 10
465.925598
 20
359.5
 30
0.0
 40
0.7
210
0.0
220
0.0
230
1.0
100
AcDbArc
 50
180.000009
 51
269.999997
  0
LINE
  5
315
100
AcDbEntity
  8
0
370
    35
390
0
 62
     7
 48
0.016251
100
AcDbLine
 10
465.225586
 20
359.5
 30
0.0
 11
465.225586
 21
360.150024
 31
0.0
210
0.0
220
0.0
230
1.0
  0
LINE
  5
316
100
AcDbEntity
  8
0
370
    35
390
0
 62
     7
 48
0.02
100
AcDbLine
 10
365.225586
 20
360.150024
 30
0.0
 11
364.425598
 21
360.150024
 31
0.0
210
0.0
220
0.0
230
1.0
  0
LINE
  5
317
100
AcDbEntity
  8
0
370
    35
390
0
 62
     7
 48
0.016251
100
AcDbLine
 10
364.425598
 20
360.150024
 30
0.0
 11
364.425598
 21
359.5
 31
0.0
210
0.0
220
0.0
230
1.0
  0
ARC
  5
318
100
AcDbEntity
  8
0
370
    35
390
0
 62
     7
100
AcDbCircle
 10
363.725586
 20
359.5
 30
0.0
 40
0.7
210
0.0
220
0.0
230
1.0
100
AcDbArc
 50
269.999997
 51
360.0
  0
LINE
  5
319
100
AcDbEntity
  8
0
370
    35
390
0
 62
     7
 48
0.01625
100
AcDbLine
 10
363.725586
 20
358.799988
 30
0.0
 11
363.075592
 21
358.799988
 31
0.0
210
0.0
220
0.0
230
1.0
  0
LINE
  5
31A
100
AcDbEntity
  8
0
370
    35
390
0
 62
     7
 48
0.02
100
AcDbLine
 10
363.075592
 20
358.799988
 30
0.0
 11
363.075592
 21
358.0
 31
0.0
210
0.0
220
0.0
230
1.0
  0
LINE
  5
31B
100
AcDbEntity
  8
0
370
    35
390
0
 62
     7
 48
0.01625
100
AcDbLine
 10
363.075592
 20
358.0
 30
0.0
 11
363.725586
 21
358.0
 31
0.0
210
0.0
220
0.0
230
1.0
  0
ARC
  5
31C
100
AcDbEntity
  8
0
370
    35
390
0
 62
     7
100
AcDbCircle
 10
363.725586
 20
357.299988
 30
0.0
 40
0.7
210
0.0
220
0.0
230
1.0
100
AcDbArc
 50
0.0
 51
90.000003
  0
LINE
  5
31D
100
AcDbEntity
  8
0
370
    35
390
0
 62
     7
 48
0.016249
100
AcDbLine
 10
364.425598
 20
357.299988
 30
0.0
 11
364.425598
 21
356.650024
 31
0.0
210
0.0
220
0.0
230
1.0
  0
LINE
  5
31E
100
AcDbEntity
  8
0
370
    35
390
0
 62
     7
 48
0.02
100
AcDbLine
 10
364.425598
 20
356.650024
 30
0.0
 11
365.225586
 21
356.650024
 31
0.0
210
0.0
220
0.0
230
1.0
  0
LINE
  5
31F
100
AcDbEntity
  8
0
370
    35
390
0
 62
     7
 48
0.016249
100
AcDbLine
 10
365.225586
 20
356.650024
 30
0.0
 11
365.225586
 21
357.299988
 31
0.0
210
0.0
220
0.0
230
1.0
  0
ARC
  5
320
100
AcDbEntity
  8
0
370
    35
390
0
 62
     7
100
AcDbCircle
 10
365.925598
 20
357.299988
 30
0.0
 40
0.7
210
0.0
220
0.0
230
1.0
100
AcDbArc
 50
90.000003
 51
180.000009
  0
LINE
  5
321
100
AcDbEntity
  8
0
370
    35
390
0
 62
     7
 48
0.01625
100
AcDbLine
 10
365.925598
 20
358.0
 30
0.0
 11
366.575592
 21
358.0
 31
0.0
210
0.0
220
0.0
230
1.0
  0
LINE
  5
322
100
AcDbEntity
  8
0
370
    35
390
0
 62
     7
 48
0.02
100
AcDbLine
 10
366.575592
 20
358.0
 30
0.0
 11
366.575592
 21
358.799988
 31
0.0
210
0.0
220
0.0
230
1.0
  0
LINE
  5
323
100
AcDbEntity
  8
0
370
    35
390
0
 62
     7
 48
0.01625
100
AcDbLine
 10
366.575592
 20
358.799988
 30
0.0
 11
365.925598
 21
358.799988
 31
0.0
210
0.0
220
0.0
230
1.0
  0
ARC
  5
324
100
AcDbEntity
  8
0
370
    35
390
0
 62
     7
100
AcDbCircle
 10
365.925598
 20
359.5
 30
0.0
 40
0.7
210
0.0
220
0.0
230
1.0
100
AcDbArc
 50
180.000009
 51
269.999997
  0
LINE
  5
325
100
AcDbEntity
  8
0
370
    35
390
0
 62
     7
 48
0.016251
100
AcDbLine
 10
365.225586
 20
359.5
 30
0.0
 11
365.225586
 21
360.150024
 31
0.0
210
0.0
220
0.0
230
1.0
  0
LINE
  5
326
100
AcDbEntity
  8
0
370
    35
390
0
 62
     7
 48
0.02
100
AcDbLine
 10
265.225586
 20
360.150024
 30
0.0
 11
264.425598
 21
360.150024
 31
0.0
210
0.0
220
0.0
230
1.0
  0
LINE
  5
327
100
AcDbEntity
  8
0
370
    35
390
0
 62
     7
 48
0.016251
100
AcDbLine
 10
264.425598
 20
360.150024
 30
0.0
 11
264.425598
 21
359.5
 31
0.0
210
0.0
220
0.0
230
1.0
  0
ARC
  5
328
100
AcDbEntity
  8
0
370
    35
390
0
 62
     7
100
AcDbCircle
 10
263.725586
 20
359.5
 30
0.0
 40
0.7
210
0.0
220
0.0
230
1.0
100
AcDbArc
 50
269.999997
 51
360.0
  0
LINE
  5
329
100
AcDbEntity
  8
0
370
    35
390
0
 62
     7
 48
0.01625
100
AcDbLine
 10
263.725586
 20
358.799988
 30
0.0
 11
263.075592
 21
358.799988
 31
0.0
210
0.0
220
0.0
230
1.0
  0
LINE
  5
32A
100
AcDbEntity
  8
0
370
    35
390
0
 62
     7
 48
0.02
100
AcDbLine
 10
263.075592
 20
358.799988
 30
0.0
 11
263.075592
 21
358.0
 31
0.0
210
0.0
220
0.0
230
1.0
  0
LINE
  5
32B
100
AcDbEntity
  8
0
370
    35
390
0
 62
     7
 48
0.01625
100
AcDbLine
 10
263.075592
 20
358.0
 30
0.0
 11
263.725586
 21
358.0
 31
0.0
210
0.0
220
0.0
230
1.0
  0
ARC
  5
32C
100
AcDbEntity
  8
0
370
    35
390
0
 62
     7
100
AcDbCircle
 10
263.725586
 20
357.299988
 30
0.0
 40
0.7
210
0.0
220
0.0
230
1.0
100
AcDbArc
 50
0.0
 51
90.000003
  0
LINE
  5
32D
100
AcDbEntity
  8
0
370
    35
390
0
 62
     7
 48
0.016249
100
AcDbLine
 10
264.425598
 20
357.299988
 30
0.0
 11
264.425598
 21
356.650024
 31
0.0
210
0.0
220
0.0
230
1.0
  0
LINE
  5
32E
100
AcDbEntity
  8
0
370
    35
390
0
 62
     7
 48
0.02
100
AcDbLine
 10
264.425598
 20
356.650024
 30
0.0
 11
265.225586
 21
356.650024
 31
0.0
210
0.0
220
0.0
230
1.0
  0
LINE
  5
32F
100
AcDbEntity
  8
0
370
    35
390
0
 62
     7
 48
0.016249
100
AcDbLine
 10
265.225586
 20
356.650024
 30
0.0
 11
265.225586
 21
357.299988
 31
0.0
210
0.0
220
0.0
230
1.0
  0
ARC
  5
330
100
AcDbEntity
  8
0
370
    35
390
0
 62
     7
100
AcDbCircle
 10
265.925598
 20
357.299988
 30
0.0
 40
0.7
210
0.0
220
0.0
230
1.0
100
AcDbArc
 50
90.000003
 51
180.000009
  0
LINE
  5
331
100
AcDbEntity
  8
0
370
    35
390
0
 62
     7
 48
0.01625
100
AcDbLine
 10
265.925598
 20
358.0
 30
0.0
 11
266.575592
 21
358.0
 31
0.0
210
0.0
220
0.0
230
1.0
  0
LINE
  5
332
100
AcDbEntity
  8
0
370
    35
390
0
 62
     7
 48
0.02
100
AcDbLine
 10
266.575592
 20
358.0
 30
0.0
 11
266.575592
 21
358.799988
 31
0.0
210
0.0
220
0.0
230
1.0
  0
LINE
  5
333
100
AcDbEntity
  8
0
370
    35
390
0
 62
     7
 48
0.01625
100
AcDbLine
 10
266.575592
 20
358.799988
 30
0.0
 11
265.925598
 21
358.799988
 31
0.0
210
0.0
220
0.0
230
1.0
  0
ARC
  5
334
100
AcDbEntity
  8
0
370
    35
390
0
 62
     7
100
AcDbCircle
 10
265.925598
 20
359.5
 30
0.0
 40
0.7
210
0.0
220
0.0
230
1.0
100
AcDbArc
 50
180.000009
 51
269.999997
  0
LINE
  5
335
100
AcDbEntity
  8
0
370
    35
390
0
 62
     7
 48
0.016251
100
AcDbLine
 10
265.225586
 20
359.5
 30
0.0
 11
265.225586
 21
360.150024
 31
0.0
210
0.0
220
0.0
230
1.0
  0
LINE
  5
336
100
AcDbEntity
  8
0
370
    35
390
0
 62
     7
 48
0.077499
100
AcDbLine
 10
754.12561
 20
332.650024
 30
0.0
 11
754.12561
 21
335.75
 31
0.0
210
0.0
220
0.0
230
1.0
  0
LINE
  5
337
100
AcDbEntity
  8
0
370
    35
390
0
 62
     7
 48
0.007501
100
AcDbLine
 10
754.12561
 20
335.75
 30
0.0
 11
753.825562
 21
335.75
 31
0.0
210
0.0
220
0.0
230
1.0
  0
LINE
  5
338
100
AcDbEntity
  8
0
370
    35
390
0
 62
     7
 48
0.007501
100
AcDbLine
 10
754.12561
 20
337.049988
 30
0.0
 11
753.825562
 21
337.049988
 31
0.0
210
0.0
220
0.0
230
1.0
  0
LINE
  5
339
100
AcDbEntity
  8
0
370
    35
390
0
 62
     7
 48
0.077501
100
AcDbLine
 10
754.12561
 20
337.049988
 30
0.0
 11
754.12561
 21
340.150024
 31
0.0
210
0.0
220
0.0
230
1.0
  0
LINE
  5
33A
100
AcDbEntity
  8
0
370
    35
390
0
 62
     7
 48
0.024689
100
AcDbLine
 10
564.331787
 20
359.150024
 30
0.0
 11
565.319336
 21
359.150024
 31
0.0
210
0.0
220
0.0
230
1.0
  0
LINE
  5
33B
100
AcDbEntity
  8
0
370
    35
390
0
 62
     7
 48
0.024689
100
AcDbLine
 10
564.075562
 20
357.906219
 30
0.0
 11
564.075562
 21
358.893799
 31
0.0
210
0.0
220
0.0
230
1.0
  0
LINE
  5
33C
100
AcDbEntity
  8
0
370
    35
390
0
 62
     7
 48
0.024689
100
AcDbLine
 10
565.575562
 20
358.893799
 30
0.0
 11
565.575562
 21
357.906219
 31
0.0
210
0.0
220
0.0
230
1.0
  0
LINE
  5
33D
100
AcDbEntity
  8
0
370
    35
390
0
 62
     7
 48
0.024689
100
AcDbLine
 10
565.319336
 20
357.650024
 30
0.0
 11
564.331787
 21
357.650024
 31
0.0
210
0.0
220
0.0
230
1.0
  0
LINE
  5
33E
100
AcDbEntity
  8
0
370
    35
390
0
 62
     7
 48
0.024689
100
AcDbLine
 10
664.331787
 20
359.150024
 30
0.0
 11
665.319336
 21
359.150024
 31
0.0
210
0.0
220
0.0
230
1.0
  0
LINE
  5
33F
100
AcDbEntity
  8
0
370
    35
390
0
 62
     7
 48
0.024689
100
AcDbLine
 10
664.075562
 20
357.906219
 30
0.0
 11
664.075562
 21
358.893799
 31
0.0
210
0.0
220
0.0
230
1.0
  0
LINE
  5
340
100
AcDbEntity
  8
0
370
    35
390
0
 62
     7
 48
0.024689
100
AcDbLine
 10
665.575562
 20
358.893799
 30
0.0
 11
665.575562
 21
357.906219
 31
0.0
210
0.0
220
0.0
230
1.0
  0
LINE
  5
341
100
AcDbEntity
  8
0
370
    35
390
0
 62
     7
 48
0.024689
100
AcDbLine
 10
665.319336
 20
357.650024
 30
0.0
 11
664.331787
 21
357.650024
 31
0.0
210
0.0
220
0.0
230
1.0
  0
LINE
  5
342
100
AcDbEntity
  8
0
370
    35
390
0
 62
     7
 48
0.024689
100
AcDbLine
 10
195.331818
 20
359.150024
 30
0.0
 11
196.319366
 21
359.150024
 31
0.0
210
0.0
220
0.0
230
1.0
  0
LINE
  5
343
100
AcDbEntity
  8
0
370
    35
390
0
 62
     7
 48
0.024689
100
AcDbLine
 10
195.075592
 20
357.906219
 30
0.0
 11
195.075592
 21
358.893799
 31
0.0
210
0.0
220
0.0
230
1.0
  0
LINE
  5
344
100
AcDbEntity
  8
0
370
    35
390
0
 62
     7
 48
0.024689
100
AcDbLine
 10
196.575592
 20
358.893799
 30
0.0
 11
196.575592
 21
357.906219
 31
0.0
210
0.0
220
0.0
230
1.0
  0
LINE
  5
345
100
AcDbEntity
  8
0
370
    35
390
0
 62
     7
 48
0.024689
100
AcDbLine
 10
196.319366
 20
357.650024
 30
0.0
 11
195.331818
 21
357.650024
 31
0.0
210
0.0
220
0.0
230
1.0
  0
LINE
  5
346
100
AcDbEntity
  8
0
370
    35
390
0
 62
     7
 48
0.024689
100
AcDbLine
 10
733.331787
 20
359.150024
 30
0.0
 11
734.319336
 21
359.150024
 31
0.0
210
0.0
220
0.0
230
1.0
  0
LINE
  5
347
100
AcDbEntity
  8
0
370
    35
390
0
 62
     7
 48
0.024689
100
AcDbLine
 10
733.075562
 20
357.906219
 30
0.0
 11
733.075562
 21
358.893799
 31
0.0
210
0.0
220
0.0
230
1.0
  0
LINE
  5
348
100
AcDbEntity
  8
0
370
    35
390
0
 62
     7
 48
0.024689
100
AcDbLine
 10
734.575562
 20
358.893799
 30
0.0
 11
734.575562
 21
357.906219
 31
0.0
210
0.0
220
0.0
230
1.0
  0
LINE
  5
349
100
AcDbEntity
  8
0
370
    35
390
0
 62
     7
 48
0.024689
100
AcDbLine
 10
734.319336
 20
357.650024
 30
0.0
 11
733.331787
 21
357.650024
 31
0.0
210
0.0
220
0.0
230
1.0
  0
LINE
  5
34A
100
AcDbEntity
  8
0
370
    35
390
0
 62
     7
 48
0.024689
100
AcDbLine
 10
464.331818
 20
359.150024
 30
0.0
 11
465.319366
 21
359.150024
 31
0.0
210
0.0
220
0.0
230
1.0
  0
LINE
  5
34B
100
AcDbEntity
  8
0
370
    35
390
0
 62
     7
 48
0.024689
100
AcDbLine
 10
464.075592
 20
357.906219
 30
0.0
 11
464.075592
 21
358.893799
 31
0.0
210
0.0
220
0.0
230
1.0
  0
LINE
  5
34C
100
AcDbEntity
  8
0
370
    35
390
0
 62
     7
 48
0.024689
100
AcDbLine
 10
465.575592
 20
358.893799
 30
0.0
 11
465.575592
 21
357.906219
 31
0.0
210
0.0
220
0.0
230
1.0
  0
LINE
  5
34D
100
AcDbEntity
  8
0
370
    35
390
0
 62
     7
 48
0.024689
100
AcDbLine
 10
465.319366
 20
357.650024
 30
0.0
 11
464.331818
 21
357.650024
 31
0.0
210
0.0
220
0.0
230
1.0
  0
LINE
  5
34E
100
AcDbEntity
  8
0
370
    35
390
0
 62
     7
 48
0.02469
100
AcDbLine
 10
364.331787
 20
359.150024
 30
0.0
 11
365.319397
 21
359.150024
 31
0.0
210
0.0
220
0.0
230
1.0
  0
LINE
  5
34F
100
AcDbEntity
  8
0
370
    35
390
0
 62
     7
 48
0.024689
100
AcDbLine
 10
364.075592
 20
357.906219
 30
0.0
 11
364.075592
 21
358.893799
 31
0.0
210
0.0
220
0.0
230
1.0
  0
LINE
  5
350
100
AcDbEntity
  8
0
370
    35
390
0
 62
     7
 48
0.024689
100
AcDbLine
 10
365.575592
 20
358.893799
 30
0.0
 11
365.575592
 21
357.906219
 31
0.0
210
0.0
220
0.0
230
1.0
  0
LINE
  5
351
100
AcDbEntity
  8
0
370
    35
390
0
 62
     7
 48
0.02469
100
AcDbLine
 10
365.319397
 20
357.650024
 30
0.0
 11
364.331787
 21
357.650024
 31
0.0
210
0.0
220
0.0
230
1.0
  0
LINE
  5
352
100
AcDbEntity
  8
0
370
    35
390
0
 62
     7
 48
0.024689
100
AcDbLine
 10
264.331818
 20
359.150024
 30
0.0
 11
265.319366
 21
359.150024
 31
0.0
210
0.0
220
0.0
230
1.0
  0
LINE
  5
353
100
AcDbEntity
  8
0
370
    35
390
0
 62
     7
 48
0.024689
100
AcDbLine
 10
264.075592
 20
357.906219
 30
0.0
 11
264.075592
 21
358.893799
 31
0.0
210
0.0
220
0.0
230
1.0
  0
LINE
  5
354
100
AcDbEntity
  8
0
370
    35
390
0
 62
     7
 48
0.024689
100
AcDbLine
 10
265.575592
 20
358.893799
 30
0.0
 11
265.575592
 21
357.906219
 31
0.0
210
0.0
220
0.0
230
1.0
  0
LINE
  5
355
100
AcDbEntity
  8
0
370
    35
390
0
 62
     7
 48
0.024689
100
AcDbLine
 10
265.319366
 20
357.650024
 30
0.0
 11
264.331818
 21
357.650024
 31
0.0
210
0.0
220
0.0
230
1.0
  0
LINE
  5
356
100
AcDbEntity
  8
0
370
    35
390
0
 62
     7
 48
0.004999
100
AcDbLine
 10
754.325562
 20
335.75
 30
0.0
 11
754.12561
 21
335.75
 31
0.0
210
0.0
220
0.0
230
1.0
  0
LINE
  5
357
100
AcDbEntity
  8
0
370
    35
390
0
 62
     7
 48
0.0725
100
AcDbLine
 10
754.325562
 20
332.850006
 30
0.0
 11
754.325562
 21
335.75
 31
0.0
210
0.0
220
0.0
230
1.0
  0
LINE
  5
358
100
AcDbEntity
  8
0
370
    35
390
0
 62
     7
 48
0.004999
100
AcDbLine
 10
754.325562
 20
337.049988
 30
0.0
 11
754.12561
 21
337.049988
 31
0.0
210
0.0
220
0.0
230
1.0
  0
LINE
  5
359
100
AcDbEntity
  8
0
370
    35
390
0
 62
     7
 48
0.072501
100
AcDbLine
 10
754.325562
 20
337.049988
 30
0.0
 11
754.325562
 21
339.950012
 31
0.0
210
0.0
220
0.0
230
1.0
  0
LINE
  5
35A
100
AcDbEntity
  8
0
370
    35
390
0
 62
     7
 48
0.005272
100
AcDbLine
 10
614.285767
 20
336.522308
 30
0.0
 11
614.490967
 21
336.473663
 31
0.0
210
0.0
220
0.0
230
1.0
  0
ARC
  5
35B
100
AcDbEntity
  8
0
370
    35
390
0
 62
     7
100
AcDbCircle
 10
614.525635
 20
336.619629
 30
0.0
 40
0.15
210
0.0
220
0.0
230
1.0
100
AcDbArc
 50
256.667229
 51
343.332764
  0
LINE
  5
35C
100
AcDbEntity
  8
0
370
    35
390
0
 62
     7
 48
0.005274
100
AcDbLine
 10
614.729797
 20
336.778687
 30
0.0
 11
614.669312
 21
336.576599
 31
0.0
210
0.0
220
0.0
230
1.0
  0
ARC
  5
35D
100
AcDbEntity
  8
0
370
    35
390
0
 62
     7
100
AcDbCircle
 10
614.825562
 20
336.75
 30
0.0
 40
0.1
210
0.0
220
0.0
230
1.0
100
AcDbArc
 50
16.667233
 51
163.332772
  0
LINE
  5
35E
100
AcDbEntity
  8
0
370
    35
390
0
 62
     7
 48
0.005274
100
AcDbLine
 10
614.921387
 20
336.778687
 30
0.0
 11
614.981934
 21
336.576599
 31
0.0
210
0.0
220
0.0
230
1.0
  0
ARC
  5
35F
100
AcDbEntity
  8
0
370
    35
390
0
 62
     7
100
AcDbCircle
 10
615.12561
 20
336.619629
 30
0.0
 40
0.15
210
0.0
220
0.0
230
1.0
100
AcDbArc
 50
196.667228
 51
283.332773
  0
LINE
  5
360
100
AcDbEntity
  8
0
370
    35
390
0
 62
     7
 48
0.005275
100
AcDbLine
 10
615.365479
 20
336.522308
 30
0.0
 11
615.160156
 21
336.473663
 31
0.0
210
0.0
220
0.0
230
1.0
  0
ARC
  5
361
100
AcDbEntity
  8
0
370
    35
390
0
 62
     7
100
AcDbCircle
 10
615.38855
 20
336.424988
 30
0.0
 40
0.1
210
0.0
220
0.0
230
1.0
100
AcDbArc
 50
316.667241
 51
103.332771
  0
LINE
  5
362
100
AcDbEntity
  8
0
370
    35
390
0
 62
     7
 48
0.005273
100
AcDbLine
 10
615.461243
 20
336.356384
 30
0.0
 11
615.316528
 21
336.202942
 31
0.0
210
0.0
220
0.0
230
1.0
  0
ARC
  5
363
100
AcDbEntity
  8
0
370
    35
390
0
 62
     7
100
AcDbCircle
 10
615.425598
 20
336.100006
 30
0.0
 40
0.15
210
0.0
220
0.0
230
1.0
100
AcDbArc
 50
136.667236
 51
223.332764
  0
LINE
  5
364
100
AcDbEntity
  8
0
370
    35
390
0
 62
     7
 48
0.005273
100
AcDbLine
 10
615.461243
 20
335.843628
 30
0.0
 11
615.316528
 21
335.99707
 31
0.0
210
0.0
220
0.0
230
1.0
  0
ARC
  5
365
100
AcDbEntity
  8
0
370
    35
390
0
 62
     7
100
AcDbCircle
 10
615.38855
 20
335.775024
 30
0.0
 40
0.1
210
0.0
220
0.0
230
1.0
100
AcDbArc
 50
256.667229
 51
43.332769
  0
LINE
  5
366
100
AcDbEntity
  8
0
370
    35
390
0
 62
     7
 48
0.005275
100
AcDbLine
 10
615.365479
 20
335.677704
 30
0.0
 11
615.160156
 21
335.726349
 31
0.0
210
0.0
220
0.0
230
1.0
  0
ARC
  5
367
100
AcDbEntity
  8
0
370
    35
390
0
 62
     7
100
AcDbCircle
 10
615.12561
 20
335.580383
 30
0.0
 40
0.15
210
0.0
220
0.0
230
1.0
100
AcDbArc
 50
76.667234
 51
163.332772
  0
LINE
  5
368
100
AcDbEntity
  8
0
370
    35
390
0
 62
     7
 48
0.005274
100
AcDbLine
 10
614.921387
 20
335.421326
 30
0.0
 11
614.981934
 21
335.623413
 31
0.0
210
0.0
220
0.0
230
1.0
  0
ARC
  5
369
100
AcDbEntity
  8
0
370
    35
390
0
 62
     7
100
AcDbCircle
 10
614.825562
 20
335.450012
 30
0.0
 40
0.1
210
0.0
220
0.0
230
1.0
100
AcDbArc
 50
196.667228
 51
343.332764
  0
LINE
  5
36A
100
AcDbEntity
  8
0
370
    35
390
0
 62
     7
 48
0.005274
100
AcDbLine
 10
614.729797
 20
335.421326
 30
0.0
 11
614.669312
 21
335.623413
 31
0.0
210
0.0
220
0.0
230
1.0
  0
ARC
  5
36B
100
AcDbEntity
  8
0
370
    35
390
0
 62
     7
100
AcDbCircle
 10
614.525635
 20
335.580383
 30
0.0
 40
0.15
210
0.0
220
0.0
230
1.0
100
AcDbArc
 50
16.667233
 51
103.332771
  0
LINE
  5
36C
100
AcDbEntity
  8
0
370
    35
390
0
 62
     7
 48
0.005272
100
AcDbLine
 10
614.285767
 20
335.677704
 30
0.0
 11
614.490967
 21
335.726349
 31
0.0
210
0.0
220
0.0
230
1.0
  0
ARC
  5
36D
100
AcDbEntity
  8
0
370
    35
390
0
 62
     7
100
AcDbCircle
 10
614.262695
 20
335.775024
 30
0.0
 40
0.1
210
0.0
220
0.0
230
1.0
100
AcDbArc
 50
136.667236
 51
283.332773
  0
LINE
  5
36E
100
AcDbEntity
  8
0
370
    35
390
0
 62
     7
 48
0.005274
100
AcDbLine
 10
614.189941
 20
335.843628
 30
0.0
 11
614.334717
 21
335.99707
 31
0.0
210
0.0
220
0.0
230
1.0
  0
ARC
  5
36F
100
AcDbEntity
  8
0
370
    35
390
0
 62
     7
100
AcDbCircle
 10
614.225586
 20
336.100006
 30
0.0
 40
0.15
210
0.0
220
0.0
230
1.0
100
AcDbArc
 50
316.667241
 51
43.332769
  0
LINE
  5
370
100
AcDbEntity
  8
0
370
    35
390
0
 62
     7
 48
0.005274
100
AcDbLine
 10
614.189941
 20
336.356384
 30
0.0
 11
614.334717
 21
336.202942
 31
0.0
210
0.0
220
0.0
230
1.0
  0
ARC
  5
371
100
AcDbEntity
  8
0
370
    35
390
0
 62
     7
100
AcDbCircle
 10
614.262695
 20
336.424988
 30
0.0
 40
0.1
210
0.0
220
0.0
230
1.0
100
AcDbArc
 50
76.667234
 51
223.332764
  0
LINE
  5
372
100
AcDbEntity
  8
0
370
    35
390
0
 62
     7
 48
0.005274
100
AcDbLine
 10
214.285736
 20
336.522308
 30
0.0
 11
214.490997
 21
336.473663
 31
0.0
210
0.0
220
0.0
230
1.0
  0
ARC
  5
373
100
AcDbEntity
  8
0
370
    35
390
0
 62
     7
100
AcDbCircle
 10
214.525589
 20
336.619629
 30
0.0
 40
0.15
210
0.0
220
0.0
230
1.0
100
AcDbArc
 50
256.667229
 51
343.332764
  0
LINE
  5
374
100
AcDbEntity
  8
0
370
    35
390
0
 62
     7
 48
0.005274
100
AcDbLine
 10
214.729797
 20
336.778687
 30
0.0
 11
214.669281
 21
336.576599
 31
0.0
210
0.0
220
0.0
230
1.0
  0
ARC
  5
375
100
AcDbEntity
  8
0
370
    35
390
0
 62
     7
100
AcDbCircle
 10
214.825592
 20
336.75
 30
0.0
 40
0.1
210
0.0
220
0.0
230
1.0
100
AcDbArc
 50
16.667233
 51
163.332772
  0
LINE
  5
376
100
AcDbEntity
  8
0
370
    35
390
0
 62
     7
 48
0.005274
100
AcDbLine
 10
214.921387
 20
336.778687
 30
0.0
 11
214.981903
 21
336.576599
 31
0.0
210
0.0
220
0.0
230
1.0
  0
ARC
  5
377
100
AcDbEntity
  8
0
370
    35
390
0
 62
     7
100
AcDbCircle
 10
215.125595
 20
336.619629
 30
0.0
 40
0.15
210
0.0
220
0.0
230
1.0
100
AcDbArc
 50
196.667228
 51
283.332773
  0
LINE
  5
378
100
AcDbEntity
  8
0
370
    35
390
0
 62
     7
 48
0.005274
100
AcDbLine
 10
215.365448
 20
336.522308
 30
0.0
 11
215.160187
 21
336.473663
 31
0.0
210
0.0
220
0.0
230
1.0
  0
ARC
  5
379
100
AcDbEntity
  8
0
370
    35
390
0
 62
     7
100
AcDbCircle
 10
215.388504
 20
336.424988
 30
0.0
 40
0.1
210
0.0
220
0.0
230
1.0
100
AcDbArc
 50
316.667241
 51
103.332771
  0
LINE
  5
37A
100
AcDbEntity
  8
0
370
    35
390
0
 62
     7
 48
0.005274
100
AcDbLine
 10
215.461243
 20
336.356384
 30
0.0
 11
215.316483
 21
336.202942
 31
0.0
210
0.0
220
0.0
230
1.0
  0
ARC
  5
37B
100
AcDbEntity
  8
0
370
    35
390
0
 62
     7
100
AcDbCircle
 10
215.425598
 20
336.100006
 30
0.0
 40
0.15
210
0.0
220
0.0
230
1.0
100
AcDbArc
 50
136.667236
 51
223.332764
  0
LINE
  5
37C
100
AcDbEntity
  8
0
370
    35
390
0
 62
     7
 48
0.005274
100
AcDbLine
 10
215.461243
 20
335.843628
 30
0.0
 11
215.316483
 21
335.99707
 31
0.0
210
0.0
220
0.0
230
1.0
  0
ARC
  5
37D
100
AcDbEntity
  8
0
370
    35
390
0
 62
     7
100
AcDbCircle
 10
215.388504
 20
335.775024
 30
0.0
 40
0.1
210
0.0
220
0.0
230
1.0
100
AcDbArc
 50
256.667229
 51
43.332769
  0
LINE
  5
37E
100
AcDbEntity
  8
0
370
    35
390
0
 62
     7
 48
0.005274
100
AcDbLine
 10
215.365448
 20
335.677704
 30
0.0
 11
215.160187
 21
335.726349
 31
0.0
210
0.0
220
0.0
230
1.0
  0
ARC
  5
37F
100
AcDbEntity
  8
0
370
    35
390
0
 62
     7
100
AcDbCircle
 10
215.125595
 20
335.580383
 30
0.0
 40
0.15
210
0.0
220
0.0
230
1.0
100
AcDbArc
 50
76.667234
 51
163.332772
  0
LINE
  5
380
100
AcDbEntity
  8
0
370
    35
390
0
 62
     7
 48
0.005274
100
AcDbLine
 10
214.921387
 20
335.421326
 30
0.0
 11
214.981903
 21
335.623413
 31
0.0
210
0.0
220
0.0
230
1.0
  0
ARC
  5
381
100
AcDbEntity
  8
0
370
    35
390
0
 62
     7
100
AcDbCircle
 10
214.825592
 20
335.450012
 30
0.0
 40
0.1
210
0.0
220
0.0
230
1.0
100
AcDbArc
 50
196.667228
 51
343.332764
  0
LINE
  5
382
100
AcDbEntity
  8
0
370
    35
390
0
 62
     7
 48
0.005274
100
AcDbLine
 10
214.729797
 20
335.421326
 30
0.0
 11
214.669281
 21
335.623413
 31
0.0
210
0.0
220
0.0
230
1.0
  0
ARC
  5
383
100
AcDbEntity
  8
0
370
    35
390
0
 62
     7
100
AcDbCircle
 10
214.525589
 20
335.580383
 30
0.0
 40
0.15
210
0.0
220
0.0
230
1.0
100
AcDbArc
 50
16.667233
 51
103.332771
  0
LINE
  5
384
100
AcDbEntity
  8
0
370
    35
390
0
 62
     7
 48
0.005274
100
AcDbLine
 10
214.285736
 20
335.677704
 30
0.0
 11
214.490997
 21
335.726349
 31
0.0
210
0.0
220
0.0
230
1.0
  0
ARC
  5
385
100
AcDbEntity
  8
0
370
    35
390
0
 62
     7
100
AcDbCircle
 10
214.26268
 20
335.775024
 30
0.0
 40
0.1
210
0.0
220
0.0
230
1.0
100
AcDbArc
 50
136.667236
 51
283.332773
  0
LINE
  5
386
100
AcDbEntity
  8
0
370
    35
390
0
 62
     7
 48
0.005274
100
AcDbLine
 10
214.189941
 20
335.843628
 30
0.0
 11
214.334702
 21
335.99707
 31
0.0
210
0.0
220
0.0
230
1.0
  0
ARC
  5
387
100
AcDbEntity
  8
0
370
    35
390
0
 62
     7
100
AcDbCircle
 10
214.225586
 20
336.100006
 30
0.0
 40
0.15
210
0.0
220
0.0
230
1.0
100
AcDbArc
 50
316.667241
 51
43.332769
  0
LINE
  5
388
100
AcDbEntity
  8
0
370
    35
390
0
 62
     7
 48
0.005274
100
AcDbLine
 10
214.189941
 20
336.356384
 30
0.0
 11
214.334702
 21
336.202942
 31
0.0
210
0.0
220
0.0
230
1.0
  0
ARC
  5
389
100
AcDbEntity
  8
0
370
    35
390
0
 62
     7
100
AcDbCircle
 10
214.26268
 20
336.424988
 30
0.0
 40
0.1
210
0.0
220
0.0
230
1.0
100
AcDbArc
 50
76.667234
 51
223.332764
  0
LINE
  5
38A
100
AcDbEntity
  8
0
370
    35
390
0
 62
     7
 48
0.005274
100
AcDbLine
 10
314.285736
 20
336.522308
 30
0.0
 11
314.490997
 21
336.473663
 31
0.0
210
0.0
220
0.0
230
1.0
  0
ARC
  5
38B
100
AcDbEntity
  8
0
370
    35
390
0
 62
     7
100
AcDbCircle
 10
314.525574
 20
336.619629
 30
0.0
 40
0.15
210
0.0
220
0.0
230
1.0
100
AcDbArc
 50
256.667229
 51
343.332764
  0
LINE
  5
38C
100
AcDbEntity
  8
0
370
    35
390
0
 62
     7
 48
0.005274
100
AcDbLine
 10
314.729797
 20
336.778687
 30
0.0
 11
314.669312
 21
336.576599
 31
0.0
210
0.0
220
0.0
230
1.0
  0
ARC
  5
38D
100
AcDbEntity
  8
0
370
    35
390
0
 62
     7
100
AcDbCircle
 10
314.825592
 20
336.75
 30
0.0
 40
0.1
210
0.0
220
0.0
230
1.0
100
AcDbArc
 50
16.667233
 51
163.332772
  0
LINE
  5
38E
100
AcDbEntity
  8
0
370
    35
390
0
 62
     7
 48
0.005274
100
AcDbLine
 10
314.921387
 20
336.778687
 30
0.0
 11
314.981873
 21
336.576599
 31
0.0
210
0.0
220
0.0
230
1.0
  0
ARC
  5
38F
100
AcDbEntity
  8
0
370
    35
390
0
 62
     7
100
AcDbCircle
 10
315.12561
 20
336.619629
 30
0.0
 40
0.15
210
0.0
220
0.0
230
1.0
100
AcDbArc
 50
196.667228
 51
283.332773
  0
LINE
  5
390
100
AcDbEntity
  8
0
370
    35
390
0
 62
     7
 48
0.005274
100
AcDbLine
 10
315.365448
 20
336.522308
 30
0.0
 11
315.160187
 21
336.473663
 31
0.0
210
0.0
220
0.0
230
1.0
  0
ARC
  5
391
100
AcDbEntity
  8
0
370
    35
390
0
 62
     7
100
AcDbCircle
 10
315.388489
 20
336.424988
 30
0.0
 40
0.1
210
0.0
220
0.0
230
1.0
100
AcDbArc
 50
316.667241
 51
103.332771
  0
LINE
  5
392
100
AcDbEntity
  8
0
370
    35
390
0
 62
     7
 48
0.005274
100
AcDbLine
 10
315.461243
 20
336.356384
 30
0.0
 11
315.316467
 21
336.202942
 31
0.0
210
0.0
220
0.0
230
1.0
  0
ARC
  5
393
100
AcDbEntity
  8
0
370
    35
390
0
 62
     7
100
AcDbCircle
 10
315.425598
 20
336.100006
 30
0.0
 40
0.15
210
0.0
220
0.0
230
1.0
100
AcDbArc
 50
136.667236
 51
223.332764
  0
LINE
  5
394
100
AcDbEntity
  8
0
370
    35
390
0
 62
     7
 48
0.005274
100
AcDbLine
 10
315.461243
 20
335.843628
 30
0.0
 11
315.316467
 21
335.99707
 31
0.0
210
0.0
220
0.0
230
1.0
  0
ARC
  5
395
100
AcDbEntity
  8
0
370
    35
390
0
 62
     7
100
AcDbCircle
 10
315.388489
 20
335.775024
 30
0.0
 40
0.1
210
0.0
220
0.0
230
1.0
100
AcDbArc
 50
256.667229
 51
43.332769
  0
LINE
  5
396
100
AcDbEntity
  8
0
370
    35
390
0
 62
     7
 48
0.005274
100
AcDbLine
 10
315.365448
 20
335.677704
 30
0.0
 11
315.160187
 21
335.726349
 31
0.0
210
0.0
220
0.0
230
1.0
  0
ARC
  5
397
100
AcDbEntity
  8
0
370
    35
390
0
 62
     7
100
AcDbCircle
 10
315.12561
 20
335.580383
 30
0.0
 40
0.15
210
0.0
220
0.0
230
1.0
100
AcDbArc
 50
76.667234
 51
163.332772
  0
LINE
  5
398
100
AcDbEntity
  8
0
370
    35
390
0
 62
     7
 48
0.005274
100
AcDbLine
 10
314.921387
 20
335.421326
 30
0.0
 11
314.981873
 21
335.623413
 31
0.0
210
0.0
220
0.0
230
1.0
  0
ARC
  5
399
100
AcDbEntity
  8
0
370
    35
390
0
 62
     7
100
AcDbCircle
 10
314.825592
 20
335.450012
 30
0.0
 40
0.1
210
0.0
220
0.0
230
1.0
100
AcDbArc
 50
196.667228
 51
343.332764
  0
LINE
  5
39A
100
AcDbEntity
  8
0
370
    35
390
0
 62
     7
 48
0.005274
100
AcDbLine
 10
314.729797
 20
335.421326
 30
0.0
 11
314.669312
 21
335.623413
 31
0.0
210
0.0
220
0.0
230
1.0
  0
ARC
  5
39B
100
AcDbEntity
  8
0
370
    35
390
0
 62
     7
100
AcDbCircle
 10
314.525574
 20
335.580383
 30
0.0
 40
0.15
210
0.0
220
0.0
230
1.0
100
AcDbArc
 50
16.667233
 51
103.332771
  0
LINE
  5
39C
100
AcDbEntity
  8
0
370
    35
390
0
 62
     7
 48
0.005274
100
AcDbLine
 10
314.285736
 20
335.677704
 30
0.0
 11
314.490997
 21
335.726349
 31
0.0
210
0.0
220
0.0
230
1.0
  0
ARC
  5
39D
100
AcDbEntity
  8
0
370
    35
390
0
 62
     7
100
AcDbCircle
 10
314.262695
 20
335.775024
 30
0.0
 40
0.1
210
0.0
220
0.0
230
1.0
100
AcDbArc
 50
136.667236
 51
283.332773
  0
LINE
  5
39E
100
AcDbEntity
  8
0
370
    35
390
0
 62
     7
 48
0.005274
100
AcDbLine
 10
314.189941
 20
335.843628
 30
0.0
 11
314.334717
 21
335.99707
 31
0.0
210
0.0
220
0.0
230
1.0
  0
ARC
  5
39F
100
AcDbEntity
  8
0
370
    35
390
0
 62
     7
100
AcDbCircle
 10
314.225586
 20
336.100006
 30
0.0
 40
0.15
210
0.0
220
0.0
230
1.0
100
AcDbArc
 50
316.667241
 51
43.332769
  0
LINE
  5
3A0
100
AcDbEntity
  8
0
370
    35
390
0
 62
     7
 48
0.005274
100
AcDbLine
 10
314.189941
 20
336.356384
 30
0.0
 11
314.334717
 21
336.202942
 31
0.0
210
0.0
220
0.0
230
1.0
  0
ARC
  5
3A1
100
AcDbEntity
  8
0
370
    35
390
0
 62
     7
100
AcDbCircle
 10
314.262695
 20
336.424988
 30
0.0
 40
0.1
210
0.0
220
0.0
230
1.0
100
AcDbArc
 50
76.667234
 51
223.332764
  0
LINE
  5
3A2
100
AcDbEntity
  8
0
370
    35
390
0
 62
     7
 48
0.005274
100
AcDbLine
 10
414.285736
 20
336.522308
 30
0.0
 11
414.490997
 21
336.473663
 31
0.0
210
0.0
220
0.0
230
1.0
  0
ARC
  5
3A3
100
AcDbEntity
  8
0
370
    35
390
0
 62
     7
100
AcDbCircle
 10
414.525574
 20
336.619629
 30
0.0
 40
0.15
210
0.0
220
0.0
230
1.0
100
AcDbArc
 50
256.667229
 51
343.332764
  0
LINE
  5
3A4
100
AcDbEntity
  8
0
370
    35
390
0
 62
     7
 48
0.005274
100
AcDbLine
 10
414.729797
 20
336.778687
 30
0.0
 11
414.669312
 21
336.576599
 31
0.0
210
0.0
220
0.0
230
1.0
  0
ARC
  5
3A5
100
AcDbEntity
  8
0
370
    35
390
0
 62
     7
100
AcDbCircle
 10
414.825592
 20
336.75
 30
0.0
 40
0.1
210
0.0
220
0.0
230
1.0
100
AcDbArc
 50
16.667233
 51
163.332772
  0
LINE
  5
3A6
100
AcDbEntity
  8
0
370
    35
390
0
 62
     7
 48
0.005274
100
AcDbLine
 10
414.921387
 20
336.778687
 30
0.0
 11
414.981873
 21
336.576599
 31
0.0
210
0.0
220
0.0
230
1.0
  0
ARC
  5
3A7
100
AcDbEntity
  8
0
370
    35
390
0
 62
     7
100
AcDbCircle
 10
415.12561
 20
336.619629
 30
0.0
 40
0.15
210
0.0
220
0.0
230
1.0
100
AcDbArc
 50
196.667228
 51
283.332773
  0
LINE
  5
3A8
100
AcDbEntity
  8
0
370
    35
390
0
 62
     7
 48
0.005274
100
AcDbLine
 10
415.365448
 20
336.522308
 30
0.0
 11
415.160187
 21
336.473663
 31
0.0
210
0.0
220
0.0
230
1.0
  0
ARC
  5
3A9
100
AcDbEntity
  8
0
370
    35
390
0
 62
     7
100
AcDbCircle
 10
415.388489
 20
336.424988
 30
0.0
 40
0.1
210
0.0
220
0.0
230
1.0
100
AcDbArc
 50
316.667241
 51
103.332771
  0
LINE
  5
3AA
100
AcDbEntity
  8
0
370
    35
390
0
 62
     7
 48
0.005274
100
AcDbLine
 10
415.461243
 20
336.356384
 30
0.0
 11
415.316467
 21
336.202942
 31
0.0
210
0.0
220
0.0
230
1.0
  0
ARC
  5
3AB
100
AcDbEntity
  8
0
370
    35
390
0
 62
     7
100
AcDbCircle
 10
415.425598
 20
336.100006
 30
0.0
 40
0.15
210
0.0
220
0.0
230
1.0
100
AcDbArc
 50
136.667236
 51
223.332764
  0
LINE
  5
3AC
100
AcDbEntity
  8
0
370
    35
390
0
 62
     7
 48
0.005274
100
AcDbLine
 10
415.461243
 20
335.843628
 30
0.0
 11
415.316467
 21
335.99707
 31
0.0
210
0.0
220
0.0
230
1.0
  0
ARC
  5
3AD
100
AcDbEntity
  8
0
370
    35
390
0
 62
     7
100
AcDbCircle
 10
415.388489
 20
335.775024
 30
0.0
 40
0.1
210
0.0
220
0.0
230
1.0
100
AcDbArc
 50
256.667229
 51
43.332769
  0
LINE
  5
3AE
100
AcDbEntity
  8
0
370
    35
390
0
 62
     7
 48
0.005274
100
AcDbLine
 10
415.365448
 20
335.677704
 30
0.0
 11
415.160187
 21
335.726349
 31
0.0
210
0.0
220
0.0
230
1.0
  0
ARC
  5
3AF
100
AcDbEntity
  8
0
370
    35
390
0
 62
     7
100
AcDbCircle
 10
415.12561
 20
335.580383
 30
0.0
 40
0.15
210
0.0
220
0.0
230
1.0
100
AcDbArc
 50
76.667234
 51
163.332772
  0
LINE
  5
3B0
100
AcDbEntity
  8
0
370
    35
390
0
 62
     7
 48
0.005274
100
AcDbLine
 10
414.921387
 20
335.421326
 30
0.0
 11
414.981873
 21
335.623413
 31
0.0
210
0.0
220
0.0
230
1.0
  0
ARC
  5
3B1
100
AcDbEntity
  8
0
370
    35
390
0
 62
     7
100
AcDbCircle
 10
414.825592
 20
335.450012
 30
0.0
 40
0.1
210
0.0
220
0.0
230
1.0
100
AcDbArc
 50
196.667228
 51
343.332764
  0
LINE
  5
3B2
100
AcDbEntity
  8
0
370
    35
390
0
 62
     7
 48
0.005274
100
AcDbLine
 10
414.729797
 20
335.421326
 30
0.0
 11
414.669312
 21
335.623413
 31
0.0
210
0.0
220
0.0
230
1.0
  0
ARC
  5
3B3
100
AcDbEntity
  8
0
370
    35
390
0
 62
     7
100
AcDbCircle
 10
414.525574
 20
335.580383
 30
0.0
 40
0.15
210
0.0
220
0.0
230
1.0
100
AcDbArc
 50
16.667233
 51
103.332771
  0
LINE
  5
3B4
100
AcDbEntity
  8
0
370
    35
390
0
 62
     7
 48
0.005274
100
AcDbLine
 10
414.285736
 20
335.677704
 30
0.0
 11
414.490997
 21
335.726349
 31
0.0
210
0.0
220
0.0
230
1.0
  0
ARC
  5
3B5
100
AcDbEntity
  8
0
370
    35
390
0
 62
     7
100
AcDbCircle
 10
414.262695
 20
335.775024
 30
0.0
 40
0.1
210
0.0
220
0.0
230
1.0
100
AcDbArc
 50
136.667236
 51
283.332773
  0
LINE
  5
3B6
100
AcDbEntity
  8
0
370
    35
390
0
 62
     7
 48
0.005274
100
AcDbLine
 10
414.189941
 20
335.843628
 30
0.0
 11
414.334717
 21
335.99707
 31
0.0
210
0.0
220
0.0
230
1.0
  0
ARC
  5
3B7
100
AcDbEntity
  8
0
370
    35
390
0
 62
     7
100
AcDbCircle
 10
414.225586
 20
336.100006
 30
0.0
 40
0.15
210
0.0
220
0.0
230
1.0
100
AcDbArc
 50
316.667241
 51
43.332769
  0
LINE
  5
3B8
100
AcDbEntity
  8
0
370
    35
390
0
 62
     7
 48
0.005274
100
AcDbLine
 10
414.189941
 20
336.356384
 30
0.0
 11
414.334717
 21
336.202942
 31
0.0
210
0.0
220
0.0
230
1.0
  0
ARC
  5
3B9
100
AcDbEntity
  8
0
370
    35
390
0
 62
     7
100
AcDbCircle
 10
414.262695
 20
336.424988
 30
0.0
 40
0.1
210
0.0
220
0.0
230
1.0
100
AcDbArc
 50
76.667234
 51
223.332764
  0
LINE
  5
3BA
100
AcDbEntity
  8
0
370
    35
390
0
 62
     7
 48
0.005272
100
AcDbLine
 10
514.285767
 20
336.522308
 30
0.0
 11
514.490967
 21
336.473663
 31
0.0
210
0.0
220
0.0
230
1.0
  0
ARC
  5
3BB
100
AcDbEntity
  8
0
370
    35
390
0
 62
     7
100
AcDbCircle
 10
514.525635
 20
336.619629
 30
0.0
 40
0.15
210
0.0
220
0.0
230
1.0
100
AcDbArc
 50
256.667229
 51
343.332764
  0
LINE
  5
3BC
100
AcDbEntity
  8
0
370
    35
390
0
 62
     7
 48
0.005274
100
AcDbLine
 10
514.729797
 20
336.778687
 30
0.0
 11
514.669312
 21
336.576599
 31
0.0
210
0.0
220
0.0
230
1.0
  0
ARC
  5
3BD
100
AcDbEntity
  8
0
370
    35
390
0
 62
     7
100
AcDbCircle
 10
514.825562
 20
336.75
 30
0.0
 40
0.1
210
0.0
220
0.0
230
1.0
100
AcDbArc
 50
16.667233
 51
163.332772
  0
LINE
  5
3BE
100
AcDbEntity
  8
0
370
    35
390
0
 62
     7
 48
0.005274
100
AcDbLine
 10
514.921387
 20
336.778687
 30
0.0
 11
514.981934
 21
336.576599
 31
0.0
210
0.0
220
0.0
230
1.0
  0
ARC
  5
3BF
100
AcDbEntity
  8
0
370
    35
390
0
 62
     7
100
AcDbCircle
 10
515.12561
 20
336.619629
 30
0.0
 40
0.15
210
0.0
220
0.0
230
1.0
100
AcDbArc
 50
196.667228
 51
283.332773
  0
LINE
  5
3C0
100
AcDbEntity
  8
0
370
    35
390
0
 62
     7
 48
0.005275
100
AcDbLine
 10
515.365479
 20
336.522308
 30
0.0
 11
515.160156
 21
336.473663
 31
0.0
210
0.0
220
0.0
230
1.0
  0
ARC
  5
3C1
100
AcDbEntity
  8
0
370
    35
390
0
 62
     7
100
AcDbCircle
 10
515.38855
 20
336.424988
 30
0.0
 40
0.1
210
0.0
220
0.0
230
1.0
100
AcDbArc
 50
316.667241
 51
103.332771
  0
LINE
  5
3C2
100
AcDbEntity
  8
0
370
    35
390
0
 62
     7
 48
0.005273
100
AcDbLine
 10
515.461243
 20
336.356384
 30
0.0
 11
515.316528
 21
336.202942
 31
0.0
210
0.0
220
0.0
230
1.0
  0
ARC
  5
3C3
100
AcDbEntity
  8
0
370
    35
390
0
 62
     7
100
AcDbCircle
 10
515.425598
 20
336.100006
 30
0.0
 40
0.15
210
0.0
220
0.0
230
1.0
100
AcDbArc
 50
136.667236
 51
223.332764
  0
LINE
  5
3C4
100
AcDbEntity
  8
0
370
    35
390
0
 62
     7
 48
0.005273
100
AcDbLine
 10
515.461243
 20
335.843628
 30
0.0
 11
515.316528
 21
335.99707
 31
0.0
210
0.0
220
0.0
230
1.0
  0
ARC
  5
3C5
100
AcDbEntity
  8
0
370
    35
390
0
 62
     7
100
AcDbCircle
 10
515.38855
 20
335.775024
 30
0.0
 40
0.1
210
0.0
220
0.0
230
1.0
100
AcDbArc
 50
256.667229
 51
43.332769
  0
LINE
  5
3C6
100
AcDbEntity
  8
0
370
    35
390
0
 62
     7
 48
0.005275
100
AcDbLine
 10
515.365479
 20
335.677704
 30
0.0
 11
515.160156
 21
335.726349
 31
0.0
210
0.0
220
0.0
230
1.0
  0
ARC
  5
3C7
100
AcDbEntity
  8
0
370
    35
390
0
 62
     7
100
AcDbCircle
 10
515.12561
 20
335.580383
 30
0.0
 40
0.15
210
0.0
220
0.0
230
1.0
100
AcDbArc
 50
76.667234
 51
163.332772
  0
LINE
  5
3C8
100
AcDbEntity
  8
0
370
    35
390
0
 62
     7
 48
0.005274
100
AcDbLine
 10
514.921387
 20
335.421326
 30
0.0
 11
514.981934
 21
335.623413
 31
0.0
210
0.0
220
0.0
230
1.0
  0
ARC
  5
3C9
100
AcDbEntity
  8
0
370
    35
390
0
 62
     7
100
AcDbCircle
 10
514.825562
 20
335.450012
 30
0.0
 40
0.1
210
0.0
220
0.0
230
1.0
100
AcDbArc
 50
196.667228
 51
343.332764
  0
LINE
  5
3CA
100
AcDbEntity
  8
0
370
    35
390
0
 62
     7
 48
0.005274
100
AcDbLine
 10
514.729797
 20
335.421326
 30
0.0
 11
514.669312
 21
335.623413
 31
0.0
210
0.0
220
0.0
230
1.0
  0
ARC
  5
3CB
100
AcDbEntity
  8
0
370
    35
390
0
 62
     7
100
AcDbCircle
 10
514.525635
 20
335.580383
 30
0.0
 40
0.15
210
0.0
220
0.0
230
1.0
100
AcDbArc
 50
16.667233
 51
103.332771
  0
LINE
  5
3CC
100
AcDbEntity
  8
0
370
    35
390
0
 62
     7
 48
0.005272
100
AcDbLine
 10
514.285767
 20
335.677704
 30
0.0
 11
514.490967
 21
335.726349
 31
0.0
210
0.0
220
0.0
230
1.0
  0
ARC
  5
3CD
100
AcDbEntity
  8
0
370
    35
390
0
 62
     7
100
AcDbCircle
 10
514.262695
 20
335.775024
 30
0.0
 40
0.1
210
0.0
220
0.0
230
1.0
100
AcDbArc
 50
136.667236
 51
283.332773
  0
LINE
  5
3CE
100
AcDbEntity
  8
0
370
    35
390
0
 62
     7
 48
0.005274
100
AcDbLine
 10
514.189941
 20
335.843628
 30
0.0
 11
514.334717
 21
335.99707
 31
0.0
210
0.0
220
0.0
230
1.0
  0
ARC
  5
3CF
100
AcDbEntity
  8
0
370
    35
390
0
 62
     7
100
AcDbCircle
 10
514.225586
 20
336.100006
 30
0.0
 40
0.15
210
0.0
220
0.0
230
1.0
100
AcDbArc
 50
316.667241
 51
43.332769
  0
LINE
  5
3D0
100
AcDbEntity
  8
0
370
    35
390
0
 62
     7
 48
0.005274
100
AcDbLine
 10
514.189941
 20
336.356384
 30
0.0
 11
514.334717
 21
336.202942
 31
0.0
210
0.0
220
0.0
230
1.0
  0
ARC
  5
3D1
100
AcDbEntity
  8
0
370
    35
390
0
 62
     7
100
AcDbCircle
 10
514.262695
 20
336.424988
 30
0.0
 40
0.1
210
0.0
220
0.0
230
1.0
100
AcDbArc
 50
76.667234
 51
223.332764
  0
LINE
  5
3D2
100
AcDbEntity
  8
0
370
    35
390
0
 62
     7
 48
0.005272
100
AcDbLine
 10
714.285767
 20
336.522308
 30
0.0
 11
714.490967
 21
336.473663
 31
0.0
210
0.0
220
0.0
230
1.0
  0
ARC
  5
3D3
100
AcDbEntity
  8
0
370
    35
390
0
 62
     7
100
AcDbCircle
 10
714.525635
 20
336.619629
 30
0.0
 40
0.15
210
0.0
220
0.0
230
1.0
100
AcDbArc
 50
256.667229
 51
343.332764
  0
LINE
  5
3D4
100
AcDbEntity
  8
0
370
    35
390
0
 62
     7
 48
0.005273
100
AcDbLine
 10
714.729736
 20
336.778687
 30
0.0
 11
714.669312
 21
336.576599
 31
0.0
210
0.0
220
0.0
230
1.0
  0
ARC
  5
3D5
100
AcDbEntity
  8
0
370
    35
390
0
 62
     7
100
AcDbCircle
 10
714.825562
 20
336.75
 30
0.0
 40
0.1
210
0.0
220
0.0
230
1.0
100
AcDbArc
 50
16.667233
 51
163.332772
  0
LINE
  5
3D6
100
AcDbEntity
  8
0
370
    35
390
0
 62
     7
 48
0.005274
100
AcDbLine
 10
714.921387
 20
336.778687
 30
0.0
 11
714.981934
 21
336.576599
 31
0.0
210
0.0
220
0.0
230
1.0
  0
ARC
  5
3D7
100
AcDbEntity
  8
0
370
    35
390
0
 62
     7
100
AcDbCircle
 10
715.12561
 20
336.619629
 30
0.0
 40
0.15
210
0.0
220
0.0
230
1.0
100
AcDbArc
 50
196.667228
 51
283.332773
  0
LINE
  5
3D8
100
AcDbEntity
  8
0
370
    35
390
0
 62
     7
 48
0.005275
100
AcDbLine
 10
715.365479
 20
336.522308
 30
0.0
 11
715.160156
 21
336.473663
 31
0.0
210
0.0
220
0.0
230
1.0
  0
ARC
  5
3D9
100
AcDbEntity
  8
0
370
    35
390
0
 62
     7
100
AcDbCircle
 10
715.38855
 20
336.424988
 30
0.0
 40
0.1
210
0.0
220
0.0
230
1.0
100
AcDbArc
 50
316.667241
 51
103.332771
  0
LINE
  5
3DA
100
AcDbEntity
  8
0
370
    35
390
0
 62
     7
 48
0.005274
100
AcDbLine
 10
715.461304
 20
336.356384
 30
0.0
 11
715.316528
 21
336.202942
 31
0.0
210
0.0
220
0.0
230
1.0
  0
ARC
  5
3DB
100
AcDbEntity
  8
0
370
    35
390
0
 62
     7
100
AcDbCircle
 10
715.425537
 20
336.100006
 30
0.0
 40
0.15
210
0.0
220
0.0
230
1.0
100
AcDbArc
 50
136.667236
 51
223.332764
  0
LINE
  5
3DC
100
AcDbEntity
  8
0
370
    35
390
0
 62
     7
 48
0.005274
100
AcDbLine
 10
715.461304
 20
335.843628
 30
0.0
 11
715.316528
 21
335.99707
 31
0.0
210
0.0
220
0.0
230
1.0
  0
ARC
  5
3DD
100
AcDbEntity
  8
0
370
    35
390
0
 62
     7
100
AcDbCircle
 10
715.38855
 20
335.775024
 30
0.0
 40
0.1
210
0.0
220
0.0
230
1.0
100
AcDbArc
 50
256.667229
 51
43.332769
  0
LINE
  5
3DE
100
AcDbEntity
  8
0
370
    35
390
0
 62
     7
 48
0.005275
100
AcDbLine
 10
715.365479
 20
335.677704
 30
0.0
 11
715.160156
 21
335.726349
 31
0.0
210
0.0
220
0.0
230
1.0
  0
ARC
  5
3DF
100
AcDbEntity
  8
0
370
    35
390
0
 62
     7
100
AcDbCircle
 10
715.12561
 20
335.580383
 30
0.0
 40
0.15
210
0.0
220
0.0
230
1.0
100
AcDbArc
 50
76.667234
 51
163.332772
  0
LINE
  5
3E0
100
AcDbEntity
  8
0
370
    35
390
0
 62
     7
 48
0.005274
100
AcDbLine
 10
714.921387
 20
335.421326
 30
0.0
 11
714.981934
 21
335.623413
 31
0.0
210
0.0
220
0.0
230
1.0
  0
ARC
  5
3E1
100
AcDbEntity
  8
0
370
    35
390
0
 62
     7
100
AcDbCircle
 10
714.825562
 20
335.450012
 30
0.0
 40
0.1
210
0.0
220
0.0
230
1.0
100
AcDbArc
 50
196.667228
 51
343.332764
  0
LINE
  5
3E2
100
AcDbEntity
  8
0
370
    35
390
0
 62
     7
 48
0.005273
100
AcDbLine
 10
714.729736
 20
335.421326
 30
0.0
 11
714.669312
 21
335.623413
 31
0.0
210
0.0
220
0.0
230
1.0
  0
ARC
  5
3E3
100
AcDbEntity
  8
0
370
    35
390
0
 62
     7
100
AcDbCircle
 10
714.525635
 20
335.580383
 30
0.0
 40
0.15
210
0.0
220
0.0
230
1.0
100
AcDbArc
 50
16.667233
 51
103.332771
  0
LINE
  5
3E4
100
AcDbEntity
  8
0
370
    35
390
0
 62
     7
 48
0.005272
100
AcDbLine
 10
714.285767
 20
335.677704
 30
0.0
 11
714.490967
 21
335.726349
 31
0.0
210
0.0
220
0.0
230
1.0
  0
ARC
  5
3E5
100
AcDbEntity
  8
0
370
    35
390
0
 62
     7
100
AcDbCircle
 10
714.262695
 20
335.775024
 30
0.0
 40
0.1
210
0.0
220
0.0
230
1.0
100
AcDbArc
 50
136.667236
 51
283.332773
  0
LINE
  5
3E6
100
AcDbEntity
  8
0
370
    35
390
0
 62
     7
 48
0.005274
100
AcDbLine
 10
714.189941
 20
335.843628
 30
0.0
 11
714.334717
 21
335.99707
 31
0.0
210
0.0
220
0.0
230
1.0
  0
ARC
  5
3E7
100
AcDbEntity
  8
0
370
    35
390
0
 62
     7
100
AcDbCircle
 10
714.225586
 20
336.100006
 30
0.0
 40
0.15
210
0.0
220
0.0
230
1.0
100
AcDbArc
 50
316.667241
 51
43.332769
  0
LINE
  5
3E8
100
AcDbEntity
  8
0
370
    35
390
0
 62
     7
 48
0.005274
100
AcDbLine
 10
714.189941
 20
336.356384
 30
0.0
 11
714.334717
 21
336.202942
 31
0.0
210
0.0
220
0.0
230
1.0
  0
ARC
  5
3E9
100
AcDbEntity
  8
0
370
    35
390
0
 62
     7
100
AcDbCircle
 10
714.262695
 20
336.424988
 30
0.0
 40
0.1
210
0.0
220
0.0
230
1.0
100
AcDbArc
 50
76.667234
 51
223.332764
  0
LINE
  5
3EA
100
AcDbEntity
  8
0
370
    35
390
0
 62
     7
 48
0.02
100
AcDbLine
 10
175.025589
 20
335.75
 30
0.0
 11
175.825592
 21
335.75
 31
0.0
210
0.0
220
0.0
230
1.0
  0
LINE
  5
3EB
100
AcDbEntity
  8
0
370
    35
390
0
 62
     7
 48
0.077499
100
AcDbLine
 10
175.025589
 20
335.75
 30
0.0
 11
175.025589
 21
332.650024
 31
0.0
210
0.0
220
0.0
230
1.0
  0
LINE
  5
3EC
100
AcDbEntity
  8
0
370
    35
390
0
 62
     7
 48
0.077501
100
AcDbLine
 10
175.025589
 20
340.150024
 30
0.0
 11
175.025589
 21
337.049988
 31
0.0
210
0.0
220
0.0
230
1.0
  0
LINE
  5
3ED
100
AcDbEntity
  8
0
370
    35
390
0
 62
     7
 48
0.02
100
AcDbLine
 10
175.025589
 20
337.049988
 30
0.0
 11
175.825592
 21
337.049988
 31
0.0
210
0.0
220
0.0
230
1.0
  0
LINE
  5
3EE
100
AcDbEntity
  8
0
370
    35
390
0
 62
     7
 48
0.005
100
AcDbLine
 10
174.825592
 20
335.75
 30
0.0
 11
175.025589
 21
335.75
 31
0.0
210
0.0
220
0.0
230
1.0
  0
LINE
  5
3EF
100
AcDbEntity
  8
0
370
    35
390
0
 62
     7
 48
0.0725
100
AcDbLine
 10
174.825592
 20
335.75
 30
0.0
 11
174.825592
 21
332.850006
 31
0.0
210
0.0
220
0.0
230
1.0
  0
LINE
  5
3F0
100
AcDbEntity
  8
0
370
    35
390
0
 62
     7
 48
0.005
100
AcDbLine
 10
174.825592
 20
337.049988
 30
0.0
 11
175.025589
 21
337.049988
 31
0.0
210
0.0
220
0.0
230
1.0
  0
LINE
  5
3F1
100
AcDbEntity
  8
0
370
    35
390
0
 62
     7
 48
0.072501
100
AcDbLine
 10
174.825592
 20
339.950012
 30
0.0
 11
174.825592
 21
337.049988
 31
0.0
210
0.0
220
0.0
230
1.0
  0
LINE
  5
3F2
100
AcDbEntity
  8
0
370
    35
390
0
 62
     7
100
AcDbLine
 10
742.025635
 20
327.143158
 30
0.0
 11
187.625595
 21
327.143158
 31
0.0
210
0.0
220
0.0
230
1.0
  0
LINE
  5
3F3
100
AcDbEntity
  8
0
370
    35
390
0
 62
     7
 48
0.007501
100
AcDbLine
 10
753.825562
 20
332.650024
 30
0.0
 11
754.12561
 21
332.650024
 31
0.0
210
0.0
220
0.0
230
1.0
  0
LINE
  5
3F4
100
AcDbEntity
  8
0
370
    35
390
0
 62
     7
 48
0.007501
100
AcDbLine
 10
753.825562
 20
340.150024
 30
0.0
 11
754.12561
 21
340.150024
 31
0.0
210
0.0
220
0.0
230
1.0
  0
LINE
  5
3F5
100
AcDbEntity
  8
0
370
    35
390
0
 62
     7
 48
0.00707
100
AcDbLine
 10
754.325562
 20
332.850006
 30
0.0
 11
754.12561
 21
332.650024
 31
0.0
210
0.0
220
0.0
230
1.0
  0
LINE
  5
3F6
100
AcDbEntity
  8
0
370
    35
390
0
 62
     7
 48
0.00707
100
AcDbLine
 10
754.325562
 20
339.950012
 30
0.0
 11
754.12561
 21
340.150024
 31
0.0
210
0.0
220
0.0
230
1.0
  0
LINE
  5
3F7
100
AcDbEntity
  8
0
370
    35
390
0
 62
     7
 48
0.02
100
AcDbLine
 10
175.825592
 20
332.650024
 30
0.0
 11
175.025589
 21
332.650024
 31
0.0
210
0.0
220
0.0
230
1.0
  0
LINE
  5
3F8
100
AcDbEntity
  8
0
370
    35
390
0
 62
     7
 48
0.02
100
AcDbLine
 10
175.825592
 20
340.150024
 30
0.0
 11
175.025589
 21
340.150024
 31
0.0
210
0.0
220
0.0
230
1.0
  0
LINE
  5
3F9
100
AcDbEntity
  8
0
370
    35
390
0
 62
     7
 48
0.007071
100
AcDbLine
 10
174.825592
 20
332.850006
 30
0.0
 11
175.025589
 21
332.650024
 31
0.0
210
0.0
220
0.0
230
1.0
  0
LINE
  5
3FA
100
AcDbEntity
  8
0
370
    35
390
0
 62
     7
 48
0.007071
100
AcDbLine
 10
174.825592
 20
339.950012
 30
0.0
 11
175.025589
 21
340.150024
 31
0.0
210
0.0
220
0.0
230
1.0
  0
LINE
  5
3FB
100
AcDbEntity
  8
0
370
    35
390
0
 62
     7
 48
0.007071
100
AcDbLine
 10
91.874435
 20
307.700012
 30
0.0
 11
91.674438
 21
307.900024
 31
0.0
210
0.0
220
0.0
230
1.0
  0
LINE
  5
3FC
100
AcDbEntity
  8
0
370
    35
390
0
 62
     7
 48
0.05
100
AcDbLine
 10
91.674438
 20
309.900024
 30
0.0
 11
91.674438
 21
307.900024
 31
0.0
210
0.0
220
0.0
230
1.0
  0
LINE
  5
3FD
100
AcDbEntity
  8
0
370
    35
390
0
 62
     7
 48
0.2
100
AcDbLine
 10
91.674438
 20
317.900024
 30
0.0
 11
91.674438
 21
309.900024
 31
0.0
210
0.0
220
0.0
230
1.0
  0
LINE
  5
3FE
100
AcDbEntity
  8
0
370
    35
390
0
 62
     7
 48
0.05
100
AcDbLine
 10
91.674438
 20
319.900024
 30
0.0
 11
91.674438
 21
317.900024
 31
0.0
210
0.0
220
0.0
230
1.0
  0
LINE
  5
3FF
100
AcDbEntity
  8
0
370
    35
390
0
 62
     7
 48
0.007071
100
AcDbLine
 10
91.874435
 20
319.700012
 30
0.0
 11
91.674438
 21
319.900024
 31
0.0
210
0.0
220
0.0
230
1.0
  0
LINE
  5
400
100
AcDbEntity
  8
0
370
    35
390
0
 62
     7
 48
0.025
100
AcDbLine
 10
91.674438
 20
320.900024
 30
0.0
 11
91.674438
 21
319.900024
 31
0.0
210
0.0
220
0.0
230
1.0
  0
LINE
  5
401
100
AcDbEntity
  8
0
370
    35
390
0
 62
     7
 48
0.0325
100
AcDbLine
 10
91.874435
 20
320.900024
 30
0.0
 11
91.874435
 21
322.200012
 31
0.0
210
0.0
220
0.0
230
1.0
  0
LINE
  5
402
100
AcDbEntity
  8
0
370
    35
390
0
 62
     7
 48
0.0325
100
AcDbLine
 10
91.674438
 20
322.200012
 30
0.0
 11
91.674438
 21
320.900024
 31
0.0
210
0.0
220
0.0
230
1.0
  0
LINE
  5
403
100
AcDbEntity
  8
0
370
    35
390
0
 62
     7
 48
0.012426
100
AcDbLine
 10
91.874435
 20
323.400024
 30
0.0
 11
92.37149
 21
323.400024
 31
0.0
210
0.0
220
0.0
230
1.0
  0
LINE
  5
404
100
AcDbEntity
  8
0
370
    35
390
0
 62
     7
 48
0.007071
100
AcDbLine
 10
91.874435
 20
323.400024
 30
0.0
 11
91.674438
 21
323.200012
 31
0.0
210
0.0
220
0.0
230
1.0
  0
LINE
  5
405
100
AcDbEntity
  8
0
370
    35
390
0
 62
     7
 48
0.025
100
AcDbLine
 10
91.674438
 20
323.200012
 30
0.0
 11
91.674438
 21
322.200012
 31
0.0
210
0.0
220
0.0
230
1.0
  0
LINE
  5
406
100
AcDbEntity
  8
0
370
    35
390
0
 62
     7
 48
0.426967
100
AcDbLine
 10
109.450172
 20
323.400024
 30
0.0
 11
92.37149
 21
323.400024
 31
0.0
210
0.0
220
0.0
230
1.0
  0
ARC
  5
407
100
AcDbEntity
  8
0
370
    35
390
0
 62
     7
100
AcDbCircle
 10
109.446037
 20
323.043884
 30
0.0
 40
0.356097
210
0.0
220
0.0
230
1.0
100
AcDbArc
 50
89.334769
 51
100.229112
  0
LINE
  5
408
100
AcDbEntity
  8
0
370
    35
390
0
 62
     7
 48
0.023107
100
AcDbLine
 10
110.374435
 20
323.400024
 30
0.0
 11
109.450172
 21
323.400024
 31
0.0
210
0.0
220
0.0
230
1.0
  0
ARC
  5
409
100
AcDbEntity
  8
0
370
    35
390
0
 62
     7
100
AcDbCircle
 10
109.420097
 20
323.173676
 30
0.0
 40
0.223809
210
0.0
220
0.0
230
1.0
100
AcDbArc
 50
80.181551
 51
99.595148
  0
LINE
  5
40A
100
AcDbEntity
  8
0
370
    35
390
0
 62
     7
 48
0.000986
100
AcDbLine
 10
109.839752
 20
323.100006
 30
0.0
 11
109.823669
 21
323.136017
 31
0.0
210
0.0
220
0.0
230
1.0
  0
LINE
  5
40B
100
AcDbEntity
  8
0
370
    35
390
0
 62
     7
 48
0.020867
100
AcDbLine
 10
110.674438
 20
323.100006
 30
0.0
 11
109.839752
 21
323.100006
 31
0.0
210
0.0
220
0.0
230
1.0
  0
LINE
  5
40C
100
AcDbEntity
  8
0
370
    35
390
0
 62
     7
 48
0.010607
100
AcDbLine
 10
110.674438
 20
323.100006
 30
0.0
 11
110.374435
 21
323.400024
 31
0.0
210
0.0
220
0.0
230
1.0
  0
LINE
  5
40D
100
AcDbEntity
  8
0
370
    35
390
0
 62
     7
 48
0.02
100
AcDbLine
 10
92.674438
 20
324.900024
 30
0.0
 11
91.874435
 21
324.900024
 31
0.0
210
0.0
220
0.0
230
1.0
  0
LINE
  5
40E
100
AcDbEntity
  8
0
370
    35
390
0
 62
     7
100
AcDbLine
 10
91.874435
 20
296.400024
 30
0.0
 11
91.874435
 21
320.900024
 31
0.0
210
0.0
220
0.0
230
1.0
  0
LINE
  5
40F
100
AcDbEntity
  8
0
370
    35
390
0
 62
     7
 48
0.0175
100
AcDbLine
 10
91.874435
 20
322.200012
 30
0.0
 11
91.874435
 21
322.900024
 31
0.0
210
0.0
220
0.0
230
1.0
  0
LINE
  5
410
100
AcDbEntity
  8
0
370
    35
390
0
 62
     7
 48
0.1975
100
AcDbLine
 10
100.274437
 20
296.400024
 30
0.0
 11
92.374435
 21
296.400024
 31
0.0
210
0.0
220
0.0
230
1.0
  0
LINE
  5
411
100
AcDbEntity
  8
0
370
    35
390
0
 62
     7
 48
0.0175
100
AcDbLine
 10
100.274437
 20
296.400024
 30
0.0
 11
100.274437
 21
297.100006
 31
0.0
210
0.0
220
0.0
230
1.0
  0
LINE
  5
412
100
AcDbEntity
  8
0
370
    35
390
0
 62
     7
 48
0.03
100
AcDbLine
 10
100.274437
 20
297.100006
 30
0.0
 11
101.474434
 21
297.100006
 31
0.0
210
0.0
220
0.0
230
1.0
  0
LINE
  5
413
100
AcDbEntity
  8
0
370
    35
390
0
 62
     7
 48
0.0175
100
AcDbLine
 10
101.474434
 20
296.400024
 30
0.0
 11
101.474434
 21
297.100006
 31
0.0
210
0.0
220
0.0
230
1.0
  0
LINE
  5
414
100
AcDbEntity
  8
0
370
    35
390
0
 62
     7
 48
0.1975
100
AcDbLine
 10
109.374435
 20
296.400024
 30
0.0
 11
101.474434
 21
296.400024
 31
0.0
210
0.0
220
0.0
230
1.0
  0
ARC
  5
415
100
AcDbEntity
  8
0
370
    35
390
0
 62
     7
100
AcDbCircle
 10
94.124435
 20
312.100006
 30
0.0
 40
1.75
210
0.0
220
0.0
230
1.0
100
AcDbArc
 50
90.000003
 51
269.999997
  0
LINE
  5
416
100
AcDbEntity
  8
0
370
    35
390
0
 62
     7
 48
0.0075
100
AcDbLine
 10
94.124435
 20
313.850006
 30
0.0
 11
94.424438
 21
313.850006
 31
0.0
210
0.0
220
0.0
230
1.0
  0
ARC
  5
417
100
AcDbEntity
  8
0
370
    35
390
0
 62
     7
100
AcDbCircle
 10
94.424438
 20
312.100006
 30
0.0
 40
1.75
210
0.0
220
0.0
230
1.0
100
AcDbArc
 50
269.999997
 51
90.000037
  0
LINE
  5
418
100
AcDbEntity
  8
0
370
    35
390
0
 62
     7
 48
0.0075
100
AcDbLine
 10
94.424438
 20
310.350006
 30
0.0
 11
94.124435
 21
310.350006
 31
0.0
210
0.0
220
0.0
230
1.0
  0
CIRCLE
  5
419
100
AcDbEntity
  8
0
370
    35
390
0
 62
     7
100
AcDbCircle
 10
97.274437
 20
318.400024
 30
0.0
 40
4.15
210
0.0
220
0.0
230
1.0
  0
CIRCLE
  5
41A
100
AcDbEntity
  8
0
370
    35
390
0
 62
     7
100
AcDbCircle
 10
105.874435
 20
317.900024
 30
0.0
 40
2.25
210
0.0
220
0.0
230
1.0
  0
CIRCLE
  5
41B
100
AcDbEntity
  8
0
370
    35
390
0
 62
     7
100
AcDbCircle
 10
100.874435
 20
305.100006
 30
0.0
 40
7.3
210
0.0
220
0.0
230
1.0
  0
ARC
  5
41C
100
AcDbEntity
  8
0
370
    35
390
0
 62
     7
100
AcDbCircle
 10
109.382805
 20
322.900024
 30
0.0
 40
0.5
210
0.0
220
0.0
230
1.0
100
AcDbArc
 50
6.77167
 51
10.499454
  0
ARC
  5
41D
100
AcDbEntity
  8
0
370
    35
390
0
 62
     7
100
AcDbCircle
 10
109.437477
 20
322.91214
 30
0.0
 40
0.44401
210
0.0
220
0.0
230
1.0
100
AcDbArc
 50
10.245349
 51
25.032961
  0
LINE
  5
41E
100
AcDbEntity
  8
0
370
    35
390
0
 62
     7
 48
0.055
100
AcDbLine
 10
110.674438
 20
320.900024
 30
0.0
 11
110.674438
 21
323.100006
 31
0.0
210
0.0
220
0.0
230
1.0
  0
LINE
  5
41F
100
AcDbEntity
  8
0
370
    35
390
0
 62
     7
 48
0.025
100
AcDbLine
 10
110.674438
 20
319.900024
 30
0.0
 11
110.674438
 21
320.900024
 31
0.0
210
0.0
220
0.0
230
1.0
  0
LINE
  5
420
100
AcDbEntity
  8
0
370
    35
390
0
 62
     7
 48
0.05
100
AcDbLine
 10
110.674438
 20
317.900024
 30
0.0
 11
110.674438
 21
319.900024
 31
0.0
210
0.0
220
0.0
230
1.0
  0
LINE
  5
421
100
AcDbEntity
  8
0
370
    35
390
0
 62
     7
100
AcDbLine
 10
110.674438
 20
317.900024
 30
0.0
 11
110.674438
 21
296.900024
 31
0.0
210
0.0
220
0.0
230
1.0
  0
LINE
  5
422
100
AcDbEntity
  8
0
370
    35
390
0
 62
     7
 48
0.025
100
AcDbLine
 10
110.674438
 20
295.900024
 30
0.0
 11
110.674438
 21
296.900024
 31
0.0
210
0.0
220
0.0
230
1.0
  0
ARC
  5
423
100
AcDbEntity
  8
0
370
    35
390
0
 62
     7
100
AcDbCircle
 10
92.202339
 20
325.700012
 30
0.0
 40
0.8
210
0.0
220
0.0
230
1.0
100
AcDbArc
 50
270.000134
 51
298.152043
  0
LINE
  5
424
100
AcDbEntity
  8
0
370
    35
390
0
 62
     7
 48
0.005178
100
AcDbLine
 10
92.020882
 20
296.253571
 30
0.0
 11
91.874435
 21
296.400024
 31
0.0
210
0.0
220
0.0
230
1.0
  0
LINE
  5
425
100
AcDbEntity
  8
0
370
    35
390
0
 62
     7
 48
0.0125
100
AcDbLine
 10
92.374435
 20
295.900024
 30
0.0
 11
92.020882
 21
296.253571
 31
0.0
210
0.0
220
0.0
230
1.0
  0
ARC
  5
426
100
AcDbEntity
  8
0
370
    35
390
0
 62
     7
100
AcDbCircle
 10
92.374245
 20
295.89978
 30
0.0
 40
0.500122
210
0.0
220
0.0
230
1.0
100
AcDbArc
 50
89.978446
 51
134.966191
  0
LINE
  5
427
100
AcDbEntity
  8
0
370
    35
390
0
 62
     7
 48
0.425
100
AcDbLine
 10
109.374435
 20
295.900024
 30
0.0
 11
92.374435
 21
295.900024
 31
0.0
210
0.0
220
0.0
230
1.0
  0
LINE
  5
428
100
AcDbEntity
  8
0
370
    35
390
0
 62
     7
 48
0.0125
100
AcDbLine
 10
109.374435
 20
295.900024
 30
0.0
 11
109.727989
 21
296.253571
 31
0.0
210
0.0
220
0.0
230
1.0
  0
ARC
  5
429
100
AcDbEntity
  8
0
370
    35
390
0
 62
     7
100
AcDbCircle
 10
109.37471
 20
295.89978
 30
0.0
 40
0.500082
210
0.0
220
0.0
230
1.0
100
AcDbArc
 50
45.0399
 51
90.032063
  0
LINE
  5
42A
100
AcDbEntity
  8
0
370
    35
390
0
 62
     7
 48
0.0075
100
AcDbLine
 10
101.474434
 20
296.100006
 30
0.0
 11
101.474434
 21
296.400024
 31
0.0
210
0.0
220
0.0
230
1.0
  0
LINE
  5
42B
100
AcDbEntity
  8
0
370
    35
390
0
 62
     7
 48
0.03
100
AcDbLine
 10
101.474434
 20
296.100006
 30
0.0
 11
100.274437
 21
296.100006
 31
0.0
210
0.0
220
0.0
230
1.0
  0
LINE
  5
42C
100
AcDbEntity
  8
0
370
    35
390
0
 62
     7
 48
0.0075
100
AcDbLine
 10
100.274437
 20
296.100006
 30
0.0
 11
100.274437
 21
296.400024
 31
0.0
210
0.0
220
0.0
230
1.0
  0
LINE
  5
42D
100
AcDbEntity
  8
0
370
    35
390
0
 62
     7
 48
0.159258
100
AcDbLine
 10
109.874435
 20
296.400024
 30
0.0
 11
109.874435
 21
302.770355
 31
0.0
210
0.0
220
0.0
230
1.0
  0
LINE
  5
42E
100
AcDbEntity
  8
0
370
    35
390
0
 62
     7
 48
0.005178
100
AcDbLine
 10
109.874435
 20
296.400024
 30
0.0
 11
109.727989
 21
296.253571
 31
0.0
210
0.0
220
0.0
230
1.0
  0
ARC
  5
42F
100
AcDbEntity
  8
0
370
    35
390
0
 62
     7
100
AcDbCircle
 10
110.374435
 20
302.770355
 30
0.0
 40
0.5
210
0.0
220
0.0
230
1.0
100
AcDbArc
 50
173.220428
 51
180.000009
  0
ARC
  5
430
100
AcDbEntity
  8
0
370
    35
390
0
 62
     7
100
AcDbCircle
 10
25.1661
 20
312.900024
 30
0.0
 40
85.308334
210
0.0
220
0.0
230
1.0
100
AcDbArc
 50
353.220446
 51
6.771668
  0
CIRCLE
  5
431
100
AcDbEntity
  8
0
370
    35
390
0
 62
     7
100
AcDbCircle
 10
100.874435
 20
305.100006
 30
0.0
 40
7.1
210
0.0
220
0.0
230
1.0
  0
LINE
  5
432
100
AcDbEntity
  8
0
370
    35
390
0
 62
     7
 48
0.01597
100
AcDbLine
 10
110.674438
 20
319.900024
 30
0.0
 11
110.22274
 21
319.448303
 31
0.0
210
0.0
220
0.0
230
1.0
  0
LINE
  5
433
100
AcDbEntity
  8
0
370
    35
390
0
 62
     7
 48
0.0125
100
AcDbLine
 10
110.374435
 20
299.200012
 30
0.0
 11
109.874435
 21
299.200012
 31
0.0
210
0.0
220
0.0
230
1.0
  0
LINE
  5
434
100
AcDbEntity
  8
0
370
    35
390
0
 62
     7
 48
0.05
100
AcDbLine
 10
110.374435
 20
299.200012
 30
0.0
 11
110.374435
 21
297.200012
 31
0.0
210
0.0
220
0.0
230
1.0
  0
LINE
  5
435
100
AcDbEntity
  8
0
370
    35
390
0
 62
     7
 48
0.010606
100
AcDbLine
 10
110.374435
 20
297.200012
 30
0.0
 11
110.674438
 21
296.900024
 31
0.0
210
0.0
220
0.0
230
1.0
  0
LINE
  5
436
100
AcDbEntity
  8
0
370
    35
390
0
 62
     7
 48
0.02
100
AcDbLine
 10
110.674438
 20
295.900024
 30
0.0
 11
109.874435
 21
295.900024
 31
0.0
210
0.0
220
0.0
230
1.0
  0
LINE
  5
437
100
AcDbEntity
  8
0
370
    35
390
0
 62
     7
 48
0.0125
100
AcDbLine
 10
110.374435
 20
297.200012
 30
0.0
 11
109.874435
 21
297.200012
 31
0.0
210
0.0
220
0.0
230
1.0
  0
CIRCLE
  5
438
100
AcDbEntity
  8
0
370
    35
390
0
 62
     7
100
AcDbCircle
 10
100.874435
 20
305.100006
 30
0.0
 40
7.0
210
0.0
220
0.0
230
1.0
  0
CIRCLE
  5
439
100
AcDbEntity
  8
0
370
    35
390
0
 62
     7
100
AcDbCircle
 10
100.874435
 20
305.100006
 30
0.0
 40
6.9
210
0.0
220
0.0
230
1.0
  0
LINE
  5
43A
100
AcDbEntity
  8
0
370
    35
390
0
 62
     7
 48
0.109697
100
AcDbLine
 10
96.974434
 20
302.73288
 30
0.0
 11
100.774429
 21
300.53894
 31
0.0
210
0.0
220
0.0
230
1.0
  0
ARC
  5
43B
100
AcDbEntity
  8
0
370
    35
390
0
 62
     7
100
AcDbCircle
 10
97.074432
 20
302.906067
 30
0.0
 40
0.2
210
0.0
220
0.0
230
1.0
100
AcDbArc
 50
179.999991
 51
239.999983
  0
LINE
  5
43C
100
AcDbEntity
  8
0
370
    35
390
0
 62
     7
 48
0.109697
100
AcDbLine
 10
96.874435
 20
307.293945
 30
0.0
 11
96.874435
 21
302.906067
 31
0.0
210
0.0
220
0.0
230
1.0
  0
ARC
  5
43D
100
AcDbEntity
  8
0
370
    35
390
0
 62
     7
100
AcDbCircle
 10
97.074432
 20
307.293945
 30
0.0
 40
0.2
210
0.0
220
0.0
230
1.0
100
AcDbArc
 50
119.99999
 51
179.999991
  0
LINE
  5
43E
100
AcDbEntity
  8
0
370
    35
390
0
 62
     7
 48
0.109696
100
AcDbLine
 10
100.774437
 20
309.661072
 30
0.0
 11
96.974434
 21
307.467163
 31
0.0
210
0.0
220
0.0
230
1.0
  0
ARC
  5
43F
100
AcDbEntity
  8
0
370
    35
390
0
 62
     7
100
AcDbCircle
 10
100.874435
 20
309.487854
 30
0.0
 40
0.2
210
0.0
220
0.0
230
1.0
100
AcDbArc
 50
59.999988
 51
119.99999
  0
LINE
  5
440
100
AcDbEntity
  8
0
370
    35
390
0
 62
     7
 48
0.109696
100
AcDbLine
 10
104.774437
 20
307.467163
 30
0.0
 11
100.974434
 21
309.661072
 31
0.0
210
0.0
220
0.0
230
1.0
  0
ARC
  5
441
100
AcDbEntity
  8
0
370
    35
390
0
 62
     7
100
AcDbCircle
 10
104.674438
 20
307.293945
 30
0.0
 40
0.2
210
0.0
220
0.0
230
1.0
100
AcDbArc
 50
359.999983
 51
59.999988
  0
LINE
  5
442
100
AcDbEntity
  8
0
370
    35
390
0
 62
     7
 48
0.109697
100
AcDbLine
 10
104.874435
 20
302.906067
 30
0.0
 11
104.874435
 21
307.293945
 31
0.0
210
0.0
220
0.0
230
1.0
  0
ARC
  5
443
100
AcDbEntity
  8
0
370
    35
390
0
 62
     7
100
AcDbCircle
 10
104.674438
 20
302.906067
 30
0.0
 40
0.2
210
0.0
220
0.0
230
1.0
100
AcDbArc
 50
299.999992
 51
359.999983
  0
LINE
  5
444
100
AcDbEntity
  8
0
370
    35
390
0
 62
     7
 48
0.109697
100
AcDbLine
 10
100.974434
 20
300.53894
 30
0.0
 11
104.774437
 21
302.73288
 31
0.0
210
0.0
220
0.0
230
1.0
  0
ARC
  5
445
100
AcDbEntity
  8
0
370
    35
390
0
 62
     7
100
AcDbCircle
 10
100.874435
 20
300.712158
 30
0.0
 40
0.2
210
0.0
220
0.0
230
1.0
100
AcDbArc
 50
239.999983
 51
299.999992
  0
ARC
  5
446
100
AcDbEntity
  8
0
370
    35
390
0
 62
     7
100
AcDbCircle
 10
98.218628
 20
305.100006
 30
0.0
 40
0.2
210
0.0
220
0.0
230
1.0
100
AcDbArc
 50
149.999984
 51
209.999989
  0
ARC
  5
447
100
AcDbEntity
  8
0
370
    35
390
0
 62
     7
100
AcDbCircle
 10
99.546532
 20
307.400024
 30
0.0
 40
0.2
210
0.0
220
0.0
230
1.0
100
AcDbArc
 50
89.999989
 51
149.999984
  0
ARC
  5
448
100
AcDbEntity
  8
0
370
    35
390
0
 62
     7
100
AcDbCircle
 10
102.202339
 20
307.400024
 30
0.0
 40
0.2
210
0.0
220
0.0
230
1.0
100
AcDbArc
 50
29.999987
 51
89.999989
  0
ARC
  5
449
100
AcDbEntity
  8
0
370
    35
390
0
 62
     7
100
AcDbCircle
 10
103.530243
 20
305.100006
 30
0.0
 40
0.2
210
0.0
220
0.0
230
1.0
100
AcDbArc
 50
329.999989
 51
29.999987
  0
ARC
  5
44A
100
AcDbEntity
  8
0
370
    35
390
0
 62
     7
100
AcDbCircle
 10
102.202339
 20
302.800018
 30
0.0
 40
0.2
210
0.0
220
0.0
230
1.0
100
AcDbArc
 50
269.999997
 51
329.999989
  0
ARC
  5
44B
100
AcDbEntity
  8
0
370
    35
390
0
 62
     7
100
AcDbCircle
 10
99.546524
 20
302.800018
 30
0.0
 40
0.2
210
0.0
220
0.0
230
1.0
100
AcDbArc
 50
209.999989
 51
269.999997
  0
ARC
  5
44C
100
AcDbEntity
  8
0
370
    35
390
0
 62
     7
100
AcDbCircle
 10
97.274437
 20
318.400024
 30
0.0
 40
3.75
210
0.0
220
0.0
230
1.0
100
AcDbArc
 50
170.018312
 51
189.981688
  0
ARC
  5
44D
100
AcDbEntity
  8
0
370
    35
390
0
 62
     7
100
AcDbCircle
 10
97.274437
 20
318.400024
 30
0.0
 40
3.75
210
0.0
220
0.0
230
1.0
100
AcDbArc
 50
350.018317
 51
9.981683
  0
ARC
  5
44E
100
AcDbEntity
  8
0
370
    35
390
0
 62
     7
100
AcDbCircle
 10
97.274437
 20
318.400024
 30
0.0
 40
3.55
210
0.0
220
0.0
230
1.0
100
AcDbArc
 50
190.550301
 51
349.449717
  0
LINE
  5
44F
100
AcDbEntity
  8
0
370
    35
390
0
 62
     7
 48
0.174499
100
AcDbLine
 10
93.784454
 20
317.75
 30
0.0
 11
100.76442
 21
317.75
 31
0.0
210
0.0
220
0.0
230
1.0
  0
ARC
  5
450
100
AcDbEntity
  8
0
370
    35
390
0
 62
     7
100
AcDbCircle
 10
97.274437
 20
318.400024
 30
0.0
 40
3.55
210
0.0
220
0.0
230
1.0
100
AcDbArc
 50
10.550296
 51
169.449699
  0
LINE
  5
451
100
AcDbEntity
  8
0
370
    35
390
0
 62
     7
 48
0.174499
100
AcDbLine
 10
100.76442
 20
319.050018
 30
0.0
 11
93.784454
 21
319.050018
 31
0.0
210
0.0
220
0.0
230
1.0
  0
ARC
  5
452
100
AcDbEntity
  8
0
370
    35
390
0
 62
     7
100
AcDbCircle
 10
97.274437
 20
318.400024
 30
0.0
 40
3.75
210
0.0
220
0.0
230
1.0
100
AcDbArc
 50
189.981688
 51
350.018317
  0
LINE
  5
453
100
AcDbEntity
  8
0
370
    35
390
0
 62
     7
 48
0.005081
100
AcDbLine
 10
93.784454
 20
317.75
 30
0.0
 11
93.5812
 21
317.75
 31
0.0
210
0.0
220
0.0
230
1.0
  0
LINE
  5
454
100
AcDbEntity
  8
0
370
    35
390
0
 62
     7
 48
0.005081
100
AcDbLine
 10
100.76442
 20
317.75
 30
0.0
 11
100.967667
 21
317.75
 31
0.0
210
0.0
220
0.0
230
1.0
  0
LINE
  5
455
100
AcDbEntity
  8
0
370
    35
390
0
 62
     7
 48
0.005081
100
AcDbLine
 10
93.784454
 20
319.050018
 30
0.0
 11
93.5812
 21
319.050018
 31
0.0
210
0.0
220
0.0
230
1.0
  0
LINE
  5
456
100
AcDbEntity
  8
0
370
    35
390
0
 62
     7
 48
0.005081
100
AcDbLine
 10
100.76442
 20
319.050018
 30
0.0
 11
100.967667
 21
319.050018
 31
0.0
210
0.0
220
0.0
230
1.0
  0
ARC
  5
457
100
AcDbEntity
  8
0
370
    35
390
0
 62
     7
100
AcDbCircle
 10
97.274437
 20
318.400024
 30
0.0
 40
3.75
210
0.0
220
0.0
230
1.0
100
AcDbArc
 50
9.981683
 51
170.018312
  0
LINE
  5
458
100
AcDbEntity
  8
0
370
    35
390
0
 62
     7
 48
0.066395
100
AcDbLine
 10
98.045418
 20
305.0
 30
0.0
 11
99.373322
 21
302.700012
 31
0.0
210
0.0
220
0.0
230
1.0
  0
LINE
  5
459
100
AcDbEntity
  8
0
370
    35
390
0
 62
     7
 48
0.066395
100
AcDbLine
 10
99.546524
 20
302.600006
 30
0.0
 11
102.202339
 21
302.600006
 31
0.0
210
0.0
220
0.0
230
1.0
  0
LINE
  5
45A
100
AcDbEntity
  8
0
370
    35
390
0
 62
     7
 48
0.066395
100
AcDbLine
 10
102.375549
 20
302.700012
 30
0.0
 11
103.703453
 21
305.0
 31
0.0
210
0.0
220
0.0
230
1.0
  0
LINE
  5
45B
100
AcDbEntity
  8
0
370
    35
390
0
 62
     7
 48
0.066395
100
AcDbLine
 10
103.703453
 20
305.200012
 30
0.0
 11
102.375549
 21
307.5
 31
0.0
210
0.0
220
0.0
230
1.0
  0
LINE
  5
45C
100
AcDbEntity
  8
0
370
    35
390
0
 62
     7
 48
0.066395
100
AcDbLine
 10
102.202339
 20
307.600006
 30
0.0
 11
99.546532
 21
307.600006
 31
0.0
210
0.0
220
0.0
230
1.0
  0
LINE
  5
45D
100
AcDbEntity
  8
0
370
    35
390
0
 62
     7
 48
0.066395
100
AcDbLine
 10
99.373322
 20
307.5
 30
0.0
 11
98.045418
 21
305.200012
 31
0.0
210
0.0
220
0.0
230
1.0
  0
CIRCLE
  5
45E
100
AcDbEntity
  8
0
370
    35
390
0
 62
     7
100
AcDbCircle
 10
105.874435
 20
317.900024
 30
0.0
 40
2.05
210
0.0
220
0.0
230
1.0
  0
LINE
  5
45F
100
AcDbEntity
  8
0
370
    35
390
0
 62
     7
 48
0.0075
100
AcDbLine
 10
94.424438
 20
310.550018
 30
0.0
 11
94.124435
 21
310.550018
 31
0.0
210
0.0
220
0.0
230
1.0
  0
ARC
  5
460
100
AcDbEntity
  8
0
370
    35
390
0
 62
     7
100
AcDbCircle
 10
94.424438
 20
312.100006
 30
0.0
 40
1.55
210
0.0
220
0.0
230
1.0
100
AcDbArc
 50
269.999997
 51
90.000003
  0
LINE
  5
461
100
AcDbEntity
  8
0
370
    35
390
0
 62
     7
 48
0.0075
100
AcDbLine
 10
94.124435
 20
313.650024
 30
0.0
 11
94.424438
 21
313.650024
 31
0.0
210
0.0
220
0.0
230
1.0
  0
ARC
  5
462
100
AcDbEntity
  8
0
370
    35
390
0
 62
     7
100
AcDbCircle
 10
94.124435
 20
312.100006
 30
0.0
 40
1.55
210
0.0
220
0.0
230
1.0
100
AcDbArc
 50
90.000003
 51
269.999997
  0
LINE
  5
463
100
AcDbEntity
  8
0
370
    35
390
0
 62
     7
 48
0.0125
100
AcDbLine
 10
109.874435
 20
295.900024
 30
0.0
 11
109.874435
 21
296.400024
 31
0.0
210
0.0
220
0.0
230
1.0
  0
ARC
  5
464
100
AcDbEntity
  8
0
370
    35
390
0
 62
     7
100
AcDbCircle
 10
92.374435
 20
322.900024
 30
0.0
 40
0.5
210
0.0
220
0.0
230
1.0
100
AcDbArc
 50
90.337325
 51
180.000009
  0
LINE
  5
465
100
AcDbEntity
  8
0
370
    35
390
0
 62
     7
 48
0.0175
100
AcDbLine
 10
91.674438
 20
323.900024
 30
0.0
 11
91.674438
 21
323.200012
 31
0.0
210
0.0
220
0.0
230
1.0
  0
LINE
  5
466
100
AcDbEntity
  8
0
370
    35
390
0
 62
     7
 48
0.0125
100
AcDbLine
 10
91.674438
 20
323.900024
 30
0.0
 11
91.674438
 21
324.400024
 31
0.0
210
0.0
220
0.0
230
1.0
  0
LINE
  5
467
100
AcDbEntity
  8
0
370
    35
390
0
 62
     7
 48
0.0075
100
AcDbLine
 10
91.674438
 20
324.700012
 30
0.0
 11
91.674438
 21
324.400024
 31
0.0
210
0.0
220
0.0
230
1.0
  0
LINE
  5
468
100
AcDbEntity
  8
0
370
    35
390
0
 62
     7
 48
0.007071
100
AcDbLine
 10
91.874435
 20
324.900024
 30
0.0
 11
91.674438
 21
324.700012
 31
0.0
210
0.0
220
0.0
230
1.0
  0
LINE
  5
469
100
AcDbEntity
  8
0
370
    35
390
0
 62
     7
 48
0.0125
100
AcDbLine
 10
91.874435
 20
323.900024
 30
0.0
 11
91.874435
 21
324.400024
 31
0.0
210
0.0
220
0.0
230
1.0
  0
LINE
  5
46A
100
AcDbEntity
  8
0
370
    35
390
0
 62
     7
 48
0.0125
100
AcDbLine
 10
91.874435
 20
323.900024
 30
0.0
 11
91.874435
 21
323.400024
 31
0.0
210
0.0
220
0.0
230
1.0
  0
LINE
  5
46B
100
AcDbEntity
  8
0
370
    35
390
0
 62
     7
 48
0.0125
100
AcDbLine
 10
91.874435
 20
324.900024
 30
0.0
 11
91.874435
 21
324.400024
 31
0.0
210
0.0
220
0.0
230
1.0
  0
ARC
  5
46C
100
AcDbEntity
  8
0
370
    35
390
0
 62
     7
100
AcDbCircle
 10
96.994347
 20
324.400024
 30
0.0
 40
1.0
210
0.0
220
0.0
230
1.0
100
AcDbArc
 50
189.594075
 51
269.999997
  0
ARC
  5
46D
100
AcDbEntity
  8
0
370
    35
390
0
 62
     7
100
AcDbCircle
 10
95.219528
 20
324.100006
 30
0.0
 40
0.8
210
0.0
220
0.0
230
1.0
100
AcDbArc
 50
9.594069
 51
22.024812
  0
LINE
  5
46E
100
AcDbEntity
  8
0
370
    35
390
0
 62
     7
 48
0.000238
100
AcDbLine
 10
109.458237
 20
323.394287
 30
0.0
 11
109.467636
 21
323.392761
 31
0.0
210
0.0
220
0.0
230
1.0
  0
ARC
  5
46F
100
AcDbEntity
  8
0
370
    35
390
0
 62
     7
100
AcDbCircle
 10
109.382805
 20
322.900024
 30
0.0
 40
0.5
210
0.0
220
0.0
230
1.0
100
AcDbArc
 50
28.136435
 51
81.320137
  0
ARC
  5
470
100
AcDbEntity
  8
0
370
    35
390
0
 62
     7
100
AcDbCircle
 10
97.005516
 20
324.403778
 30
0.0
 40
1.011549
210
0.0
220
0.0
230
1.0
100
AcDbArc
 50
189.900832
 51
214.219379
  0
LINE
  5
471
100
AcDbEntity
  8
0
370
    35
390
0
 62
     7
100
AcDbLine
 10
104.274437
 20
295.899994
 30
0.0
 11
104.274437
 21
230.100006
 31
0.0
210
0.0
220
0.0
230
1.0
  0
LINE
  5
472
100
AcDbEntity
  8
0
370
    35
390
0
 62
     7
100
AcDbLine
 10
97.474434
 20
295.899994
 30
0.0
 11
97.474434
 21
230.100006
 31
0.0
210
0.0
220
0.0
230
1.0
  0
LINE
  5
473
100
AcDbEntity
  8
0
370
    35
390
0
 62
     7
 48
0.25
100
AcDbLine
 10
104.274437
 20
230.100006
 30
0.0
 11
104.274437
 21
220.100006
 31
0.0
210
0.0
220
0.0
230
1.0
  0
LINE
  5
474
100
AcDbEntity
  8
0
370
    35
390
0
 62
     7
 48
0.25
100
AcDbLine
 10
97.474434
 20
230.100006
 30
0.0
 11
97.474434
 21
220.100006
 31
0.0
210
0.0
220
0.0
230
1.0
  0
LINE
  5
475
100
AcDbEntity
  8
0
370
    35
390
0
 62
     7
 48
0.17
100
AcDbLine
 10
104.274437
 20
220.100006
 30
0.0
 11
97.474434
 21
220.100006
 31
0.0
210
0.0
220
0.0
230
1.0
  0
LINE
  5
476
100
AcDbEntity
  8
0
370
    35
390
0
 62
     7
100
AcDbLine
 10
86.674438
 20
369.400024
 30
0.0
 11
86.674438
 21
335.600006
 31
0.0
210
0.0
220
0.0
230
1.0
  0
LINE
  5
477
100
AcDbEntity
  8
0
370
    35
390
0
 62
     7
 48
0.0125
100
AcDbLine
 10
86.674438
 20
335.600006
 30
0.0
 11
87.174438
 21
335.600006
 31
0.0
210
0.0
220
0.0
230
1.0
  0
LINE
  5
478
100
AcDbEntity
  8
0
370
    35
390
0
 62
     7
 48
0.0125
100
AcDbLine
 10
86.674438
 20
369.400024
 30
0.0
 11
87.174431
 21
369.400024
 31
0.0
210
0.0
220
0.0
230
1.0
  0
LINE
  5
479
100
AcDbEntity
  8
0
370
    35
390
0
 62
     7
 48
0.1675
100
AcDbLine
 10
89.674438
 20
370.400024
 30
0.0
 11
96.374435
 21
370.400024
 31
0.0
210
0.0
220
0.0
230
1.0
  0
LINE
  5
47A
100
AcDbEntity
  8
0
370
    35
390
0
 62
     7
 48
0.017678
100
AcDbLine
 10
89.174438
 20
369.900024
 30
0.0
 11
89.674438
 21
370.400024
 31
0.0
210
0.0
220
0.0
230
1.0
  0
ARC
  5
47B
100
AcDbEntity
  8
0
370
    35
390
0
 62
     7
100
AcDbCircle
 10
87.324432
 20
335.350006
 30
0.0
 40
0.25
210
0.0
220
0.0
230
1.0
100
AcDbArc
 50
126.869903
 51
180.000009
  0
LINE
  5
47C
100
AcDbEntity
  8
0
370
    35
390
0
 62
     7
100
AcDbLine
 10
87.174438
 20
330.607117
 30
0.0
 11
87.174438
 21
369.400024
 31
0.0
210
0.0
220
0.0
230
1.0
  0
LINE
  5
47D
100
AcDbEntity
  8
0
370
    35
390
0
 62
     7
 48
0.03375
100
AcDbLine
 10
87.074432
 20
335.350006
 30
0.0
 11
87.074432
 21
334.0
 31
0.0
210
0.0
220
0.0
230
1.0
  0
ARC
  5
47E
100
AcDbEntity
  8
0
370
    35
390
0
 62
     7
100
AcDbCircle
 10
87.374435
 20
334.0
 30
0.0
 40
0.3
210
0.0
220
0.0
230
1.0
100
AcDbArc
 50
180.000009
 51
228.188837
  0
ARC
  5
47F
100
AcDbEntity
  8
0
370
    35
390
0
 62
     7
100
AcDbCircle
 10
96.174438
 20
370.700012
 30
0.0
 40
0.3
210
0.0
220
0.0
230
1.0
100
AcDbArc
 50
180.000009
 51
269.999997
  0
LINE
  5
480
100
AcDbEntity
  8
0
370
    35
390
0
 62
     7
 48
0.005
100
AcDbLine
 10
111.174438
 20
373.600006
 30
0.0
 11
111.174438
 21
373.400024
 31
0.0
210
0.0
220
0.0
230
1.0
  0
ARC
  5
481
100
AcDbEntity
  8
0
370
    35
390
0
 62
     7
100
AcDbCircle
 10
110.874435
 20
373.600006
 30
0.0
 40
0.3
210
0.0
220
0.0
230
1.0
100
AcDbArc
 50
0.0
 51
90.000003
  0
LINE
  5
482
100
AcDbEntity
  8
0
370
    35
390
0
 62
     7
 48
0.3675
100
AcDbLine
 10
96.174438
 20
373.900024
 30
0.0
 11
110.874435
 21
373.900024
 31
0.0
210
0.0
220
0.0
230
1.0
  0
ARC
  5
483
100
AcDbEntity
  8
0
370
    35
390
0
 62
     7
100
AcDbCircle
 10
96.174438
 20
373.600006
 30
0.0
 40
0.3
210
0.0
220
0.0
230
1.0
100
AcDbArc
 50
90.000003
 51
180.000009
  0
LINE
  5
484
100
AcDbEntity
  8
0
370
    35
390
0
 62
     7
 48
0.0725
100
AcDbLine
 10
95.874435
 20
370.700012
 30
0.0
 11
95.874435
 21
373.600006
 31
0.0
210
0.0
220
0.0
230
1.0
  0
ARC
  5
485
100
AcDbEntity
  8
0
370
    35
390
0
 62
     7
100
AcDbCircle
 10
87.674438
 20
369.400024
 30
0.0
 40
0.5
210
0.0
220
0.0
230
1.0
100
AcDbArc
 50
90.000003
 51
180.000009
  0
CIRCLE
  5
486
100
AcDbEntity
  8
0
370
    35
390
0
 62
     7
100
AcDbCircle
 10
90.074432
 20
344.700012
 30
0.0
 40
2.5
210
0.0
220
0.0
230
1.0
  0
ARC
  5
487
100
AcDbEntity
  8
0
370
    35
390
0
 62
     7
100
AcDbCircle
 10
87.674438
 20
330.607117
 30
0.0
 40
0.5
210
0.0
220
0.0
230
1.0
100
AcDbArc
 50
180.000009
 51
225.0
  0
LINE
  5
488
100
AcDbEntity
  8
0
370
    35
390
0
 62
     7
100
AcDbLine
 10
114.967331
 20
324.400024
 30
0.0
 11
93.381546
 21
324.400024
 31
0.0
210
0.0
220
0.0
230
1.0
  0
LINE
  5
489
100
AcDbEntity
  8
0
370
    35
390
0
 62
     7
 48
0.205
100
AcDbLine
 10
87.674438
 20
369.900024
 30
0.0
 11
95.874435
 21
369.900024
 31
0.0
210
0.0
220
0.0
230
1.0
  0
ARC
  5
48A
100
AcDbEntity
  8
0
370
    35
390
0
 62
     7
100
AcDbCircle
 10
95.874435
 20
370.400024
 30
0.0
 40
0.5
210
0.0
220
0.0
230
1.0
100
AcDbArc
 50
269.999997
 51
360.0
  0
LINE
  5
48B
100
AcDbEntity
  8
0
370
    35
390
0
 62
     7
 48
0.0625
100
AcDbLine
 10
96.374435
 20
370.400024
 30
0.0
 11
96.374435
 21
372.900024
 31
0.0
210
0.0
220
0.0
230
1.0
  0
ARC
  5
48C
100
AcDbEntity
  8
0
370
    35
390
0
 62
     7
100
AcDbCircle
 10
96.874435
 20
372.900024
 30
0.0
 40
0.5
210
0.0
220
0.0
230
1.0
100
AcDbArc
 50
90.000003
 51
180.000009
  0
LINE
  5
48D
100
AcDbEntity
  8
0
370
    35
390
0
 62
     7
 48
0.452322
100
AcDbLine
 10
96.874435
 20
373.400024
 30
0.0
 11
114.967331
 21
373.400024
 31
0.0
210
0.0
220
0.0
230
1.0
  0
CIRCLE
  5
48E
100
AcDbEntity
  8
0
370
    35
390
0
 62
     7
100
AcDbCircle
 10
93.674438
 20
358.400024
 30
0.0
 40
2.5
210
0.0
220
0.0
230
1.0
  0
CIRCLE
  5
48F
100
AcDbEntity
  8
0
370
    35
390
0
 62
     7
100
AcDbCircle
 10
103.474434
 20
336.400024
 30
0.0
 40
4.15
210
0.0
220
0.0
230
1.0
  0
CIRCLE
  5
490
100
AcDbEntity
  8
0
370
    35
390
0
 62
     7
100
AcDbCircle
 10
109.674438
 20
358.400024
 30
0.0
 40
2.5
210
0.0
220
0.0
230
1.0
  0
CIRCLE
  5
491
100
AcDbEntity
  8
0
370
    35
390
0
 62
     7
100
AcDbCircle
 10
109.574432
 20
327.900024
 30
0.0
 40
2.5
210
0.0
220
0.0
230
1.0
  0
LINE
  5
492
100
AcDbEntity
  8
0
370
    35
390
0
 62
     7
 48
0.201777
100
AcDbLine
 10
93.027985
 20
324.546448
 30
0.0
 11
87.320877
 21
330.253571
 31
0.0
210
0.0
220
0.0
230
1.0
  0
ARC
  5
493
100
AcDbEntity
  8
0
370
    35
390
0
 62
     7
100
AcDbCircle
 10
93.381546
 20
324.900024
 30
0.0
 40
0.5
210
0.0
220
0.0
230
1.0
100
AcDbArc
 50
225.0
 51
269.999997
  0
ARC
  5
494
100
AcDbEntity
  8
0
370
    35
390
0
 62
     7
100
AcDbCircle
 10
114.967331
 20
324.900024
 30
0.0
 40
0.5
210
0.0
220
0.0
230
1.0
100
AcDbArc
 50
269.999997
 51
314.999992
  0
ARC
  5
495
100
AcDbEntity
  8
0
370
    35
390
0
 62
     7
100
AcDbCircle
 10
114.967331
 20
372.900024
 30
0.0
 40
0.5
210
0.0
220
0.0
230
1.0
100
AcDbArc
 50
45.000001
 51
90.000003
  0
LINE
  5
496
100
AcDbEntity
  8
0
370
    35
390
0
 62
     7
 48
0.095711
100
AcDbLine
 10
118.027985
 20
327.253571
 30
0.0
 11
115.320877
 21
324.546448
 31
0.0
210
0.0
220
0.0
230
1.0
  0
LINE
  5
497
100
AcDbEntity
  8
0
370
    35
390
0
 62
     7
100
AcDbLine
 10
118.174438
 20
370.192902
 30
0.0
 11
118.174438
 21
327.607117
 31
0.0
210
0.0
220
0.0
230
1.0
  0
LINE
  5
498
100
AcDbEntity
  8
0
370
    35
390
0
 62
     7
 48
0.095711
100
AcDbLine
 10
118.027985
 20
370.546448
 30
0.0
 11
115.320877
 21
373.253571
 31
0.0
210
0.0
220
0.0
230
1.0
  0
ARC
  5
499
100
AcDbEntity
  8
0
370
    35
390
0
 62
     7
100
AcDbCircle
 10
117.674438
 20
370.192902
 30
0.0
 40
0.5
210
0.0
220
0.0
230
1.0
100
AcDbArc
 50
0.0
 51
45.000001
  0
ARC
  5
49A
100
AcDbEntity
  8
0
370
    35
390
0
 62
     7
100
AcDbCircle
 10
117.674438
 20
327.607117
 30
0.0
 40
0.5
210
0.0
220
0.0
230
1.0
100
AcDbArc
 50
314.999992
 51
360.0
  0
ARC
  5
49B
100
AcDbEntity
  8
0
370
    35
390
0
 62
     7
100
AcDbCircle
 10
105.407402
 20
328.782166
 30
0.0
 40
2.00035
210
0.0
220
0.0
230
1.0
100
AcDbArc
 50
354.993727
 51
9.186304
  0
LINE
  5
49C
100
AcDbEntity
  8
0
370
    35
390
0
 62
     7
 48
0.014217
100
AcDbLine
 10
107.278107
 20
327.212952
 30
0.0
 11
107.327667
 21
327.779449
 31
0.0
210
0.0
220
0.0
230
1.0
  0
ARC
  5
49D
100
AcDbEntity
  8
0
370
    35
390
0
 62
     7
100
AcDbCircle
 10
105.282883
 20
327.387451
 30
0.0
 40
2.002837
210
0.0
220
0.0
230
1.0
100
AcDbArc
 50
348.556628
 51
355.001677
  0
LINE
  5
49E
100
AcDbEntity
  8
0
370
    35
390
0
 62
     7
 48
0.004987
100
AcDbLine
 10
107.382736
 20
328.408875
 30
0.0
 11
107.400124
 21
328.607605
 31
0.0
210
0.0
220
0.0
230
1.0
  0
CIRCLE
  5
49F
100
AcDbEntity
  8
0
370
    35
390
0
 62
     7
100
AcDbCircle
 10
90.074432
 20
344.700012
 30
0.0
 40
2.25
210
0.0
220
0.0
230
1.0
  0
CIRCLE
  5
4A0
100
AcDbEntity
  8
0
370
    35
390
0
 62
     7
100
AcDbCircle
 10
93.674438
 20
358.400024
 30
0.0
 40
2.25
210
0.0
220
0.0
230
1.0
  0
CIRCLE
  5
4A1
100
AcDbEntity
  8
0
370
    35
390
0
 62
     7
100
AcDbCircle
 10
109.674438
 20
358.400024
 30
0.0
 40
2.25
210
0.0
220
0.0
230
1.0
  0
CIRCLE
  5
4A2
100
AcDbEntity
  8
0
370
    35
390
0
 62
     7
100
AcDbCircle
 10
109.574432
 20
327.900024
 30
0.0
 40
2.25
210
0.0
220
0.0
230
1.0
  0
ARC
  5
4A3
100
AcDbEntity
  8
0
370
    35
390
0
 62
     7
100
AcDbCircle
 10
89.074432
 20
343.700012
 30
0.0
 40
0.7
210
0.0
220
0.0
230
1.0
100
AcDbArc
 50
0.0
 51
90.000003
  0
LINE
  5
4A4
100
AcDbEntity
  8
0
370
    35
390
0
 62
     7
 48
0.0075
100
AcDbLine
 10
89.774429
 20
343.700012
 30
0.0
 11
89.774429
 21
343.400024
 31
0.0
210
0.0
220
0.0
230
1.0
  0
LINE
  5
4A5
100
AcDbEntity
  8
0
370
    35
390
0
 62
     7
 48
0.015
100
AcDbLine
 10
89.774429
 20
343.400024
 30
0.0
 11
90.374435
 21
343.400024
 31
0.0
210
0.0
220
0.0
230
1.0
  0
LINE
  5
4A6
100
AcDbEntity
  8
0
370
    35
390
0
 62
     7
 48
0.0075
100
AcDbLine
 10
90.374435
 20
343.400024
 30
0.0
 11
90.374435
 21
343.700012
 31
0.0
210
0.0
220
0.0
230
1.0
  0
ARC
  5
4A7
100
AcDbEntity
  8
0
370
    35
390
0
 62
     7
100
AcDbCircle
 10
91.074432
 20
343.700012
 30
0.0
 40
0.7
210
0.0
220
0.0
230
1.0
100
AcDbArc
 50
90.000003
 51
179.999991
  0
LINE
  5
4A8
100
AcDbEntity
  8
0
370
    35
390
0
 62
     7
 48
0.0075
100
AcDbLine
 10
91.074432
 20
344.400024
 30
0.0
 11
91.374435
 21
344.400024
 31
0.0
210
0.0
220
0.0
230
1.0
  0
LINE
  5
4A9
100
AcDbEntity
  8
0
370
    35
390
0
 62
     7
 48
0.014999
100
AcDbLine
 10
91.374435
 20
344.400024
 30
0.0
 11
91.374435
 21
345.0
 31
0.0
210
0.0
220
0.0
230
1.0
  0
LINE
  5
4AA
100
AcDbEntity
  8
0
370
    35
390
0
 62
     7
 48
0.0075
100
AcDbLine
 10
91.374435
 20
345.0
 30
0.0
 11
91.074432
 21
345.0
 31
0.0
210
0.0
220
0.0
230
1.0
  0
ARC
  5
4AB
100
AcDbEntity
  8
0
370
    35
390
0
 62
     7
100
AcDbCircle
 10
91.074432
 20
345.700012
 30
0.0
 40
0.7
210
0.0
220
0.0
230
1.0
100
AcDbArc
 50
180.000009
 51
269.999997
  0
LINE
  5
4AC
100
AcDbEntity
  8
0
370
    35
390
0
 62
     7
 48
0.0075
100
AcDbLine
 10
90.374435
 20
345.700012
 30
0.0
 11
90.374435
 21
346.0
 31
0.0
210
0.0
220
0.0
230
1.0
  0
LINE
  5
4AD
100
AcDbEntity
  8
0
370
    35
390
0
 62
     7
 48
0.015
100
AcDbLine
 10
90.374435
 20
346.0
 30
0.0
 11
89.774429
 21
346.0
 31
0.0
210
0.0
220
0.0
230
1.0
  0
LINE
  5
4AE
100
AcDbEntity
  8
0
370
    35
390
0
 62
     7
 48
0.0075
100
AcDbLine
 10
89.774429
 20
346.0
 30
0.0
 11
89.774429
 21
345.700012
 31
0.0
210
0.0
220
0.0
230
1.0
  0
ARC
  5
4AF
100
AcDbEntity
  8
0
370
    35
390
0
 62
     7
100
AcDbCircle
 10
89.074432
 20
345.700012
 30
0.0
 40
0.7
210
0.0
220
0.0
230
1.0
100
AcDbArc
 50
269.999997
 51
360.0
  0
LINE
  5
4B0
100
AcDbEntity
  8
0
370
    35
390
0
 62
     7
 48
0.0075
100
AcDbLine
 10
89.074432
 20
345.0
 30
0.0
 11
88.774429
 21
345.0
 31
0.0
210
0.0
220
0.0
230
1.0
  0
LINE
  5
4B1
100
AcDbEntity
  8
0
370
    35
390
0
 62
     7
 48
0.014999
100
AcDbLine
 10
88.774429
 20
345.0
 30
0.0
 11
88.774429
 21
344.400024
 31
0.0
210
0.0
220
0.0
230
1.0
  0
LINE
  5
4B2
100
AcDbEntity
  8
0
370
    35
390
0
 62
     7
 48
0.0075
100
AcDbLine
 10
88.774429
 20
344.400024
 30
0.0
 11
89.074432
 21
344.400024
 31
0.0
210
0.0
220
0.0
230
1.0
  0
ARC
  5
4B3
100
AcDbEntity
  8
0
370
    35
390
0
 62
     7
100
AcDbCircle
 10
92.674438
 20
357.400024
 30
0.0
 40
0.7
210
0.0
220
0.0
230
1.0
100
AcDbArc
 50
0.0
 51
90.000003
  0
LINE
  5
4B4
100
AcDbEntity
  8
0
370
    35
390
0
 62
     7
 48
0.0075
100
AcDbLine
 10
93.374435
 20
357.400024
 30
0.0
 11
93.374435
 21
357.100006
 31
0.0
210
0.0
220
0.0
230
1.0
  0
LINE
  5
4B5
100
AcDbEntity
  8
0
370
    35
390
0
 62
     7
 48
0.015
100
AcDbLine
 10
93.374435
 20
357.100006
 30
0.0
 11
93.974434
 21
357.100006
 31
0.0
210
0.0
220
0.0
230
1.0
  0
LINE
  5
4B6
100
AcDbEntity
  8
0
370
    35
390
0
 62
     7
 48
0.0075
100
AcDbLine
 10
93.974434
 20
357.100006
 30
0.0
 11
93.974434
 21
357.400024
 31
0.0
210
0.0
220
0.0
230
1.0
  0
ARC
  5
4B7
100
AcDbEntity
  8
0
370
    35
390
0
 62
     7
100
AcDbCircle
 10
94.674438
 20
357.400024
 30
0.0
 40
0.7
210
0.0
220
0.0
230
1.0
100
AcDbArc
 50
90.000003
 51
179.999991
  0
LINE
  5
4B8
100
AcDbEntity
  8
0
370
    35
390
0
 62
     7
 48
0.0075
100
AcDbLine
 10
94.674438
 20
358.100006
 30
0.0
 11
94.974434
 21
358.100006
 31
0.0
210
0.0
220
0.0
230
1.0
  0
LINE
  5
4B9
100
AcDbEntity
  8
0
370
    35
390
0
 62
     7
 48
0.015
100
AcDbLine
 10
94.974434
 20
358.100006
 30
0.0
 11
94.974434
 21
358.700012
 31
0.0
210
0.0
220
0.0
230
1.0
  0
LINE
  5
4BA
100
AcDbEntity
  8
0
370
    35
390
0
 62
     7
 48
0.0075
100
AcDbLine
 10
94.974434
 20
358.700012
 30
0.0
 11
94.674438
 21
358.700012
 31
0.0
210
0.0
220
0.0
230
1.0
  0
ARC
  5
4BB
100
AcDbEntity
  8
0
370
    35
390
0
 62
     7
100
AcDbCircle
 10
94.674438
 20
359.400024
 30
0.0
 40
0.7
210
0.0
220
0.0
230
1.0
100
AcDbArc
 50
180.000009
 51
269.999997
  0
LINE
  5
4BC
100
AcDbEntity
  8
0
370
    35
390
0
 62
     7
 48
0.0075
100
AcDbLine
 10
93.974434
 20
359.400024
 30
0.0
 11
93.974434
 21
359.700012
 31
0.0
210
0.0
220
0.0
230
1.0
  0
LINE
  5
4BD
100
AcDbEntity
  8
0
370
    35
390
0
 62
     7
 48
0.015
100
AcDbLine
 10
93.974434
 20
359.700012
 30
0.0
 11
93.374435
 21
359.700012
 31
0.0
210
0.0
220
0.0
230
1.0
  0
LINE
  5
4BE
100
AcDbEntity
  8
0
370
    35
390
0
 62
     7
 48
0.0075
100
AcDbLine
 10
93.374435
 20
359.700012
 30
0.0
 11
93.374435
 21
359.400024
 31
0.0
210
0.0
220
0.0
230
1.0
  0
ARC
  5
4BF
100
AcDbEntity
  8
0
370
    35
390
0
 62
     7
100
AcDbCircle
 10
92.674438
 20
359.400024
 30
0.0
 40
0.7
210
0.0
220
0.0
230
1.0
100
AcDbArc
 50
269.999997
 51
360.0
  0
LINE
  5
4C0
100
AcDbEntity
  8
0
370
    35
390
0
 62
     7
 48
0.0075
100
AcDbLine
 10
92.674438
 20
358.700012
 30
0.0
 11
92.374435
 21
358.700012
 31
0.0
210
0.0
220
0.0
230
1.0
  0
LINE
  5
4C1
100
AcDbEntity
  8
0
370
    35
390
0
 62
     7
 48
0.015
100
AcDbLine
 10
92.374435
 20
358.700012
 30
0.0
 11
92.374435
 21
358.100006
 31
0.0
210
0.0
220
0.0
230
1.0
  0
LINE
  5
4C2
100
AcDbEntity
  8
0
370
    35
390
0
 62
     7
 48
0.0075
100
AcDbLine
 10
92.374435
 20
358.100006
 30
0.0
 11
92.674438
 21
358.100006
 31
0.0
210
0.0
220
0.0
230
1.0
  0
ARC
  5
4C3
100
AcDbEntity
  8
0
370
    35
390
0
 62
     7
100
AcDbCircle
 10
103.474434
 20
336.400024
 30
0.0
 40
3.75
210
0.0
220
0.0
230
1.0
100
AcDbArc
 50
350.018317
 51
9.981683
  0
ARC
  5
4C4
100
AcDbEntity
  8
0
370
    35
390
0
 62
     7
100
AcDbCircle
 10
103.474434
 20
336.400024
 30
0.0
 40
3.75
210
0.0
220
0.0
230
1.0
100
AcDbArc
 50
189.981688
 51
350.018317
  0
ARC
  5
4C5
100
AcDbEntity
  8
0
370
    35
390
0
 62
     7
100
AcDbCircle
 10
103.474434
 20
336.400024
 30
0.0
 40
3.75
210
0.0
220
0.0
230
1.0
100
AcDbArc
 50
170.018312
 51
189.981688
  0
ARC
  5
4C6
100
AcDbEntity
  8
0
370
    35
390
0
 62
     7
100
AcDbCircle
 10
103.474434
 20
336.400024
 30
0.0
 40
3.75
210
0.0
220
0.0
230
1.0
100
AcDbArc
 50
9.981683
 51
170.018312
  0
ARC
  5
4C7
100
AcDbEntity
  8
0
370
    35
390
0
 62
     7
100
AcDbCircle
 10
108.674438
 20
357.400024
 30
0.0
 40
0.7
210
0.0
220
0.0
230
1.0
100
AcDbArc
 50
0.0
 51
90.000003
  0
LINE
  5
4C8
100
AcDbEntity
  8
0
370
    35
390
0
 62
     7
 48
0.0075
100
AcDbLine
 10
109.374435
 20
357.400024
 30
0.0
 11
109.374435
 21
357.100006
 31
0.0
210
0.0
220
0.0
230
1.0
  0
LINE
  5
4C9
100
AcDbEntity
  8
0
370
    35
390
0
 62
     7
 48
0.015
100
AcDbLine
 10
109.374435
 20
357.100006
 30
0.0
 11
109.974434
 21
357.100006
 31
0.0
210
0.0
220
0.0
230
1.0
  0
LINE
  5
4CA
100
AcDbEntity
  8
0
370
    35
390
0
 62
     7
 48
0.0075
100
AcDbLine
 10
109.974434
 20
357.100006
 30
0.0
 11
109.974434
 21
357.400024
 31
0.0
210
0.0
220
0.0
230
1.0
  0
ARC
  5
4CB
100
AcDbEntity
  8
0
370
    35
390
0
 62
     7
100
AcDbCircle
 10
110.674438
 20
357.400024
 30
0.0
 40
0.7
210
0.0
220
0.0
230
1.0
100
AcDbArc
 50
90.000003
 51
179.999991
  0
LINE
  5
4CC
100
AcDbEntity
  8
0
370
    35
390
0
 62
     7
 48
0.0075
100
AcDbLine
 10
110.674438
 20
358.100006
 30
0.0
 11
110.974434
 21
358.100006
 31
0.0
210
0.0
220
0.0
230
1.0
  0
LINE
  5
4CD
100
AcDbEntity
  8
0
370
    35
390
0
 62
     7
 48
0.015
100
AcDbLine
 10
110.974434
 20
358.100006
 30
0.0
 11
110.974434
 21
358.700012
 31
0.0
210
0.0
220
0.0
230
1.0
  0
LINE
  5
4CE
100
AcDbEntity
  8
0
370
    35
390
0
 62
     7
 48
0.0075
100
AcDbLine
 10
110.974434
 20
358.700012
 30
0.0
 11
110.674438
 21
358.700012
 31
0.0
210
0.0
220
0.0
230
1.0
  0
ARC
  5
4CF
100
AcDbEntity
  8
0
370
    35
390
0
 62
     7
100
AcDbCircle
 10
110.674438
 20
359.400024
 30
0.0
 40
0.7
210
0.0
220
0.0
230
1.0
100
AcDbArc
 50
180.000009
 51
269.999997
  0
LINE
  5
4D0
100
AcDbEntity
  8
0
370
    35
390
0
 62
     7
 48
0.0075
100
AcDbLine
 10
109.974434
 20
359.400024
 30
0.0
 11
109.974434
 21
359.700012
 31
0.0
210
0.0
220
0.0
230
1.0
  0
LINE
  5
4D1
100
AcDbEntity
  8
0
370
    35
390
0
 62
     7
 48
0.015
100
AcDbLine
 10
109.974434
 20
359.700012
 30
0.0
 11
109.374435
 21
359.700012
 31
0.0
210
0.0
220
0.0
230
1.0
  0
LINE
  5
4D2
100
AcDbEntity
  8
0
370
    35
390
0
 62
     7
 48
0.0075
100
AcDbLine
 10
109.374435
 20
359.700012
 30
0.0
 11
109.374435
 21
359.400024
 31
0.0
210
0.0
220
0.0
230
1.0
  0
ARC
  5
4D3
100
AcDbEntity
  8
0
370
    35
390
0
 62
     7
100
AcDbCircle
 10
108.674438
 20
359.400024
 30
0.0
 40
0.7
210
0.0
220
0.0
230
1.0
100
AcDbArc
 50
269.999997
 51
360.0
  0
LINE
  5
4D4
100
AcDbEntity
  8
0
370
    35
390
0
 62
     7
 48
0.0075
100
AcDbLine
 10
108.674438
 20
358.700012
 30
0.0
 11
108.374435
 21
358.700012
 31
0.0
210
0.0
220
0.0
230
1.0
  0
LINE
  5
4D5
100
AcDbEntity
  8
0
370
    35
390
0
 62
     7
 48
0.015
100
AcDbLine
 10
108.374435
 20
358.700012
 30
0.0
 11
108.374435
 21
358.100006
 31
0.0
210
0.0
220
0.0
230
1.0
  0
LINE
  5
4D6
100
AcDbEntity
  8
0
370
    35
390
0
 62
     7
 48
0.0075
100
AcDbLine
 10
108.374435
 20
358.100006
 30
0.0
 11
108.674438
 21
358.100006
 31
0.0
210
0.0
220
0.0
230
1.0
  0
ARC
  5
4D7
100
AcDbEntity
  8
0
370
    35
390
0
 62
     7
100
AcDbCircle
 10
110.574432
 20
328.900024
 30
0.0
 40
0.7
210
0.0
220
0.0
230
1.0
100
AcDbArc
 50
180.000009
 51
269.999997
  0
LINE
  5
4D8
100
AcDbEntity
  8
0
370
    35
390
0
 62
     7
 48
0.0075
100
AcDbLine
 10
109.874435
 20
328.900024
 30
0.0
 11
109.874435
 21
329.200012
 31
0.0
210
0.0
220
0.0
230
1.0
  0
LINE
  5
4D9
100
AcDbEntity
  8
0
370
    35
390
0
 62
     7
 48
0.015
100
AcDbLine
 10
109.874435
 20
329.200012
 30
0.0
 11
109.274437
 21
329.200012
 31
0.0
210
0.0
220
0.0
230
1.0
  0
LINE
  5
4DA
100
AcDbEntity
  8
0
370
    35
390
0
 62
     7
 48
0.0075
100
AcDbLine
 10
109.274437
 20
329.200012
 30
0.0
 11
109.274437
 21
328.900024
 31
0.0
210
0.0
220
0.0
230
1.0
  0
ARC
  5
4DB
100
AcDbEntity
  8
0
370
    35
390
0
 62
     7
100
AcDbCircle
 10
108.574432
 20
328.900024
 30
0.0
 40
0.7
210
0.0
220
0.0
230
1.0
100
AcDbArc
 50
269.999997
 51
360.0
  0
LINE
  5
4DC
100
AcDbEntity
  8
0
370
    35
390
0
 62
     7
 48
0.0075
100
AcDbLine
 10
108.574432
 20
328.200012
 30
0.0
 11
108.274437
 21
328.200012
 31
0.0
210
0.0
220
0.0
230
1.0
  0
LINE
  5
4DD
100
AcDbEntity
  8
0
370
    35
390
0
 62
     7
 48
0.015
100
AcDbLine
 10
108.274437
 20
328.200012
 30
0.0
 11
108.274437
 21
327.600006
 31
0.0
210
0.0
220
0.0
230
1.0
  0
LINE
  5
4DE
100
AcDbEntity
  8
0
370
    35
390
0
 62
     7
 48
0.0075
100
AcDbLine
 10
108.274437
 20
327.600006
 30
0.0
 11
108.574432
 21
327.600006
 31
0.0
210
0.0
220
0.0
230
1.0
  0
ARC
  5
4DF
100
AcDbEntity
  8
0
370
    35
390
0
 62
     7
100
AcDbCircle
 10
108.574432
 20
326.900024
 30
0.0
 40
0.7
210
0.0
220
0.0
230
1.0
100
AcDbArc
 50
0.0
 51
90.000003
  0
LINE
  5
4E0
100
AcDbEntity
  8
0
370
    35
390
0
 62
     7
 48
0.0075
100
AcDbLine
 10
109.274437
 20
326.900024
 30
0.0
 11
109.274437
 21
326.600006
 31
0.0
210
0.0
220
0.0
230
1.0
  0
LINE
  5
4E1
100
AcDbEntity
  8
0
370
    35
390
0
 62
     7
 48
0.015
100
AcDbLine
 10
109.274437
 20
326.600006
 30
0.0
 11
109.874435
 21
326.600006
 31
0.0
210
0.0
220
0.0
230
1.0
  0
LINE
  5
4E2
100
AcDbEntity
  8
0
370
    35
390
0
 62
     7
 48
0.0075
100
AcDbLine
 10
109.874435
 20
326.600006
 30
0.0
 11
109.874435
 21
326.900024
 31
0.0
210
0.0
220
0.0
230
1.0
  0
ARC
  5
4E3
100
AcDbEntity
  8
0
370
    35
390
0
 62
     7
100
AcDbCircle
 10
110.574432
 20
326.900024
 30
0.0
 40
0.7
210
0.0
220
0.0
230
1.0
100
AcDbArc
 50
90.000003
 51
179.999991
  0
LINE
  5
4E4
100
AcDbEntity
  8
0
370
    35
390
0
 62
     7
 48
0.0075
100
AcDbLine
 10
110.574432
 20
327.600006
 30
0.0
 11
110.874435
 21
327.600006
 31
0.0
210
0.0
220
0.0
230
1.0
  0
LINE
  5
4E5
100
AcDbEntity
  8
0
370
    35
390
0
 62
     7
 48
0.015
100
AcDbLine
 10
110.874435
 20
327.600006
 30
0.0
 11
110.874435
 21
328.200012
 31
0.0
210
0.0
220
0.0
230
1.0
  0
LINE
  5
4E6
100
AcDbEntity
  8
0
370
    35
390
0
 62
     7
 48
0.0075
100
AcDbLine
 10
110.874435
 20
328.200012
 30
0.0
 11
110.574432
 21
328.200012
 31
0.0
210
0.0
220
0.0
230
1.0
  0
LINE
  5
4E7
100
AcDbEntity
  8
0
370
    35
390
0
 62
     7
 48
0.005081
100
AcDbLine
 10
106.964417
 20
335.75
 30
0.0
 11
107.167671
 21
335.75
 31
0.0
210
0.0
220
0.0
230
1.0
  0
LINE
  5
4E8
100
AcDbEntity
  8
0
370
    35
390
0
 62
     7
 48
0.005081
100
AcDbLine
 10
99.984451
 20
335.75
 30
0.0
 11
99.781197
 21
335.75
 31
0.0
210
0.0
220
0.0
230
1.0
  0
LINE
  5
4E9
100
AcDbEntity
  8
0
370
    35
390
0
 62
     7
 48
0.174499
100
AcDbLine
 10
106.964417
 20
335.75
 30
0.0
 11
99.984451
 21
335.75
 31
0.0
210
0.0
220
0.0
230
1.0
  0
ARC
  5
4EA
100
AcDbEntity
  8
0
370
    35
390
0
 62
     7
100
AcDbCircle
 10
103.474434
 20
336.400024
 30
0.0
 40
3.55
210
0.0
220
0.0
230
1.0
100
AcDbArc
 50
190.550301
 51
349.44969
  0
LINE
  5
4EB
100
AcDbEntity
  8
0
370
    35
390
0
 62
     7
 48
0.005081
100
AcDbLine
 10
99.984451
 20
337.049988
 30
0.0
 11
99.781197
 21
337.049988
 31
0.0
210
0.0
220
0.0
230
1.0
  0
LINE
  5
4EC
100
AcDbEntity
  8
0
370
    35
390
0
 62
     7
 48
0.005081
100
AcDbLine
 10
106.964417
 20
337.049988
 30
0.0
 11
107.167671
 21
337.049988
 31
0.0
210
0.0
220
0.0
230
1.0
  0
LINE
  5
4ED
100
AcDbEntity
  8
0
370
    35
390
0
 62
     7
 48
0.174499
100
AcDbLine
 10
99.984451
 20
337.049988
 30
0.0
 11
106.964417
 21
337.049988
 31
0.0
210
0.0
220
0.0
230
1.0
  0
ARC
  5
4EE
100
AcDbEntity
  8
0
370
    35
390
0
 62
     7
100
AcDbCircle
 10
103.474434
 20
336.400024
 30
0.0
 40
3.55
210
0.0
220
0.0
230
1.0
100
AcDbArc
 50
10.550303
 51
169.449699
  0
LINE
  5
4EF
100
AcDbEntity
  8
0
370
    35
390
0
 62
     7
 48
0.021277
100
AcDbLine
 10
90.499977
 20
344.100006
 30
0.0
 11
89.648895
 21
344.100006
 31
0.0
210
0.0
220
0.0
230
1.0
  0
LINE
  5
4F0
100
AcDbEntity
  8
0
370
    35
390
0
 62
     7
 48
0.021277
100
AcDbLine
 10
90.674438
 20
345.125549
 30
0.0
 11
90.674438
 21
344.274475
 31
0.0
210
0.0
220
0.0
230
1.0
  0
LINE
  5
4F1
100
AcDbEntity
  8
0
370
    35
390
0
 62
     7
 48
0.021277
100
AcDbLine
 10
89.648895
 20
345.299988
 30
0.0
 11
90.499977
 21
345.299988
 31
0.0
210
0.0
220
0.0
230
1.0
  0
LINE
  5
4F2
100
AcDbEntity
  8
0
370
    35
390
0
 62
     7
 48
0.021277
100
AcDbLine
 10
89.474434
 20
344.274475
 30
0.0
 11
89.474434
 21
345.125549
 31
0.0
210
0.0
220
0.0
230
1.0
  0
LINE
  5
4F3
100
AcDbEntity
  8
0
370
    35
390
0
 62
     7
 48
0.021277
100
AcDbLine
 10
94.099976
 20
357.799988
 30
0.0
 11
93.248886
 21
357.799988
 31
0.0
210
0.0
220
0.0
230
1.0
  0
LINE
  5
4F4
100
AcDbEntity
  8
0
370
    35
390
0
 62
     7
 48
0.021277
100
AcDbLine
 10
94.274429
 20
358.825562
 30
0.0
 11
94.274429
 21
357.974487
 31
0.0
210
0.0
220
0.0
230
1.0
  0
LINE
  5
4F5
100
AcDbEntity
  8
0
370
    35
390
0
 62
     7
 48
0.021277
100
AcDbLine
 10
93.248886
 20
359.0
 30
0.0
 11
94.099976
 21
359.0
 31
0.0
210
0.0
220
0.0
230
1.0
  0
LINE
  5
4F6
100
AcDbEntity
  8
0
370
    35
390
0
 62
     7
 48
0.021277
100
AcDbLine
 10
93.074432
 20
357.974487
 30
0.0
 11
93.074432
 21
358.825562
 31
0.0
210
0.0
220
0.0
230
1.0
  0
LINE
  5
4F7
100
AcDbEntity
  8
0
370
    35
390
0
 62
     7
 48
0.021277
100
AcDbLine
 10
110.099976
 20
357.799988
 30
0.0
 11
109.248894
 21
357.799988
 31
0.0
210
0.0
220
0.0
230
1.0
  0
LINE
  5
4F8
100
AcDbEntity
  8
0
370
    35
390
0
 62
     7
 48
0.021277
100
AcDbLine
 10
110.274437
 20
358.825562
 30
0.0
 11
110.274437
 21
357.974487
 31
0.0
210
0.0
220
0.0
230
1.0
  0
LINE
  5
4F9
100
AcDbEntity
  8
0
370
    35
390
0
 62
     7
 48
0.021277
100
AcDbLine
 10
109.248894
 20
359.0
 30
0.0
 11
110.099976
 21
359.0
 31
0.0
210
0.0
220
0.0
230
1.0
  0
LINE
  5
4FA
100
AcDbEntity
  8
0
370
    35
390
0
 62
     7
 48
0.021277
100
AcDbLine
 10
109.074432
 20
357.974487
 30
0.0
 11
109.074432
 21
358.825562
 31
0.0
210
0.0
220
0.0
230
1.0
  0
LINE
  5
4FB
100
AcDbEntity
  8
0
370
    35
390
0
 62
     7
 48
0.021277
100
AcDbLine
 10
109.148895
 20
328.5
 30
0.0
 11
109.999977
 21
328.5
 31
0.0
210
0.0
220
0.0
230
1.0
  0
LINE
  5
4FC
100
AcDbEntity
  8
0
370
    35
390
0
 62
     7
 48
0.021277
100
AcDbLine
 10
109.999977
 20
327.300018
 30
0.0
 11
109.148895
 21
327.300018
 31
0.0
210
0.0
220
0.0
230
1.0
  0
LINE
  5
4FD
100
AcDbEntity
  8
0
370
    35
390
0
 62
     7
 48
0.021278
100
AcDbLine
 10
110.174438
 20
328.325562
 30
0.0
 11
110.174438
 21
327.474457
 31
0.0
210
0.0
220
0.0
230
1.0
  0
LINE
  5
4FE
100
AcDbEntity
  8
0
370
    35
390
0
 62
     7
 48
0.021278
100
AcDbLine
 10
108.974434
 20
327.474457
 30
0.0
 11
108.974434
 21
328.325562
 31
0.0
210
0.0
220
0.0
230
1.0
  0
ENDSEC
  0
SECTION
  2
OBJECTS
  0
DICTIONARY
  5
19
100
AcDbDictionary
280
     0
281
     1
  3
ACAD_GROUP
350
1A
  3
ACAD_MLINESTYLE
350
1B
  3
ACAD_LAYOUT
350
1E
  3
ACAD_PLOTSETTINGS
350
22
  3
ACAD_PLOTSTYLENAME
350
1F
  3
ACAD_WIPEOUT_VARS
350
23
  0
DICTIONARY
  5
1A
102
{ACAD_REACTORS
330
19
102
}
100
AcDbDictionary
280
     0
281
     1
  0
DICTIONARY
  5
1B
102
{ACAD_REACTORS
330
19
102
}
100
AcDbDictionary
280
     0
281
     1
  3
Standard
350
1C
  0
MLINESTYLE
  5
1C
102
{ACAD_REACTORS
330
1B
102
}
100
AcDbMlineStyle
  2
Standard
 70
     0
  3

 62
     0
 51
90.0
 52
90.0
 71
     2
 49
0.5
 62
   256
  6
ByLayer
 49
-0.5
 62
   256
  6
ByLayer
  0
ACDBDICTIONARYWDFLT
  5
1F
102
{ACAD_REACTORS
330
19
102
}
100
AcDbDictionary
281
     1
  3
Normal
350
1D
100
AcDbDictionaryWithDefault
340
1D
  0
ACDBPLACEHOLDER
  5
1D
102
{ACAD_REACTORS
330
1F
102
}
  0
LAYOUT
  5
20
102
{ACAD_REACTORS
330
1E
102
}
100
AcDbPlotSettings
  1

  2

  4

  6

 40
0.0
 41
0.0
 42
0.0
 43
0.0
 44
0.0
 45
0.0
 46
0.0
 47
0.0
 48
0.0
 49
0.0
140
0.0
141
0.0
142
1.0
143
1.0
 70
  1024
 72
     0
 73
     0
 74
     0
  7

 75
     0
147
1.0
148
0.0
149
0.0
100
AcDbLayout
  1
Model
 70
     0
 71
     0
 10
0.0
 20
0.0
 11
0.0
 21
0.0
 12
0.0
 22
0.0
 32
0.0
 14
0.0
 24
0.0
 34
0.0
 15
0.0
 25
0.0
 35
0.0
146
0.0
 13
0.0
 23
0.0
 33
0.0
 16
0.0
 26
0.0
 36
0.0
 17
0.0
 27
0.0
 37
0.0
 76
     0
330
A
331
0
345
0
346
0
  0
LAYOUT
  5
21
102
{ACAD_REACTORS
330
1E
102
}
100
AcDbPlotSettings
  1

  2

  4

  6

 40
0.0
 41
0.0
 42
0.0
 43
0.0
 44
0.0
 45
0.0
 46
0.0
 47
0.0
 48
0.0
 49
0.0
140
0.0
141
0.0
142
1.0
143
1.0
 70
     0
 72
     0
 73
     0
 74
     0
  7

 75
     0
147
1.0
148
0.0
149
0.0
100
AcDbLayout
  1
Layout1
 70
     0
 71
     0
 10
0.0
 20
0.0
 11
0.0
 21
0.0
 12
0.0
 22
0.0
 32
0.0
 14
0.0
 24
0.0
 34
0.0
 15
0.0
 25
0.0
 35
0.0
146
0.0
 13
0.0
 23
0.0
 33
0.0
 16
0.0
 26
0.0
 36
0.0
 17
0.0
 27
0.0
 37
0.0
 76
     0
330
B
331
0
345
0
346
0
  0
DICTIONARY
  5
1E
102
{ACAD_REACTORS
330
19
102
}
100
AcDbDictionary
280
     0
281
     1
  3
Layout1
350
21
  3
Model
350
20
  0
DICTIONARY
  5
22
102
{ACAD_REACTORS
330
19
102
}
100
AcDbDictionary
280
     0
281
     1
  0
WIPEOUTVARIABLES
  5
23
100
AcDbWipeoutVariables
 70
     1
  0
ENDSEC
  0
EOF
