  0
SECTION
  2
HEADER
  9
$ACADVER
  1
AC1009
  9
$INSBASE
 10
0
 20
0
 30
0
  9
$EXTMIN
 10
0
 20
0
  9
$EXTMAX
 10
168.20000000000002
 20
118.80000000000001
  9
$LIMMIN
 10
0
 20
0
  9
$LIMMAX
 10
168.20000000000002
 20
118.80000000000001
  9
$LTSCALE
 40
0.2
  0
ENDSEC
  0
SECTION
  2
TABLES
  0
TABLE
  2
LTYPE
 70
     9
  0
LTYPE
  2
CONTINUOUS
 70
    64
  3
実線
 72
    65
 73
     0
 40
0.0
  0
LTYPE
  2
DASHED1
 70
    64
  3
--  --  --  --  --  --  --  --  
 72
    65
 73
     2
 40
2.5
 49
1.25
 49
-1.25
  0
LTYPE
  2
DASHED2
 70
    64
  3
----    ----    ----    ----    
 72
    65
 73
     2
 40
5.0
 49
2.5
 49
-2.5
  0
LTYPE
  2
DASHED3
 70
    64
  3
------  ------  ------  ------  
 72
    65
 73
     2
 40
5.0
 49
3.75
 49
-1.25
  0
LTYPE
  2
CENTER1
 70
    64
  3
----- - ----- - ----- - ----- - 
 72
    65
 73
     4
 40
10.0
 49
6.25
 49
-1.25
 49
1.25
 49
-1.25
  0
LTYPE
  2
CENTER2
 70
    64
  3
----------  --  ----------  --  
 72
    65
 73
     4
 40
20.0
 49
12.5
 49
-2.5
 49
2.5
 49
-2.5
  0
LTYPE
  2
PHANTOM1
 70
    64
  3
--- - - --- - - --- - - --- - - 
 72
    65
 73
     6
 40
10.0
 49
3.25
 49
-1.25
 49
1.25
 49
-1.25
 49
1.25
 49
-1.25
  0
LTYPE
  2
PHANTOM2
 70
    64
  3
--------  -  -  --------  -  -  
 72
    65
 73
     6
 40
20.0
 49
10.0
 49
-2.5
 49
1.25
 49
-2.5
 49
1.25
 49
-2.5
  0
LTYPE
  2
DOT
 70
    64
  3
-   -   -   -   -   -   -   -   
 72
    65
 73
     2
 40
2.5
 49
0.625
 49
-1.875
  0
LTYPE
  2
DUMMY
 70
    64
  3
ダミー
 72
    65
 73
     0
 40
0.0
  0
LTYPE
  2
RAND1
 70
    64
  3
ランダム線1
 72
    65
 73
     4
 40
10.0
 49
1.0
 49
-2.0
 49
3.0
 49
-4.0
  0
LTYPE
  2
RAND2
 70
    64
  3
ランダム線2
 72
    65
 73
     4
 40
14.0
 49
2.0
 49
-3.0
 49
4.0
 49
-5.0
  0
LTYPE
  2
RAND3
 70
    64
  3
ランダム線3
 72
    65
 73
     4
 40
18.0
 49
3.0
 49
-4.0
 49
5.0
 49
-6.0
  0
LTYPE
  2
RAND4
 70
    64
  3
ランダム線4
 72
    65
 73
     4
 40
22.0
 49
4.0
 49
-5.0
 49
6.0
 49
-7.0
  0
LTYPE
  2
RAND5
 70
    64
  3
ランダム線5
 72
    65
 73
     4
 40
26.0
 49
5.0
 49
-6.0
 49
7.0
 49
-8.0
  0
LTYPE
  2
LONG1
 70
    64
  3
----------  --  ----------  --  
 72
    65
 73
     4
 40
40.0
 49
32.5
 49
-2.5
 49
2.5
 49
-2.5
  0
LTYPE
  2
LONG2
 70
    64
  3
--------  -  -  --------  -  -  
 72
    65
 73
     6
 40
40.0
 49
30.0
 49
-2.5
 49
1.25
 49
-2.5
 49
1.25
 49
-2.5
  0
LTYPE
  2
LONG3
 70
    64
  3
+++++++++++++++..+++++++++++++++
 72
    65
 73
     2
 40
40.0
 49
37.5
 49
-2.5
  0
LTYPE
  2
LONG4
 70
    64
  3
+++++++++++++++..+++++++++++++++
 72
    65
 73
     2
 40
80.0
 49
75.0
 49
-5.0
  0
LTYPE
  2
LONG5
 70
    64
  3
----------  --  ----------  --  
 72
    65
 73
     4
 40
60.0
 49
37.5
 49
-7.5
 49
7.5
 49
-7.5
  0
LTYPE
  2
dashed
 70
   64
  3
-------   -------------   ------
 72
   65
 73
    2
 40
7.5
 49
6
 49
-1.5
  0
LTYPE
  2
dashed_spaced
 70
   64
  3
----        --------        ----
 72
   65
 73
    2
 40
12
 49
6
 49
-6
  0
LTYPE
  2
long_dashed_dotted
 70
   64
  3
------------- --- --------------
 72
   65
 73
    4
 40
15.25
 49
12
 49
-1.5
 49
0.25
 49
-1.5
  0
LTYPE
  2
long_dashed_double-dotted
 70
   64
  3
----------- --- --- ------------
 72
   65
 73
    6
 40
17
 49
12
 49
-1.5
 49
0.25
 49
-1.5
 49
0.25
 49
-1.5
  0
LTYPE
  2
long_dashed_triplicate-dotted
 70
   64
  3
--------- --- --- --- ----------
 72
   65
 73
    8
 40
18.75
 49
12
 49
-1.5
 49
0.25
 49
-1.5
 49
0.25
 49
-1.5
 49
0.25
 49
-1.5
  0
LTYPE
  2
dotted
 70
   64
  3
   -       -       -       -    
 72
   65
 73
    2
 40
1.75
 49
0.25
 49
-1.5
  0
LTYPE
  2
chain
 70
   64
  3
-------------- -- --------------
 72
   65
 73
    4
 40
18.5
 49
12
 49
-1.5
 49
3.5
 49
-1.5
  0
LTYPE
  2
chain_double_dash
 70
   64
  3
------------ -- -- -------------
 72
   65
 73
    6
 40
23.5
 49
12
 49
-1.5
 49
3.5
 49
-1.5
 49
3.5
 49
-1.5
  0
LTYPE
  2
dashed_dotted
 70
   64
  3
-----------     -     ----------
 72
   65
 73
    4
 40
9.25
 49
6
 49
-1.5
 49
0.25
 49
-1.5
  0
LTYPE
  2
double-dashed_dotted
 70
   64
  3
------   -----------   -   -----
 72
   65
 73
    6
 40
16.75
 49
6
 49
-1.5
 49
6
 49
-1.5
 49
0.25
 49
-1.5
  0
LTYPE
  2
dashed_double-dotted
 70
   64
  3
---------    -    -    ---------
 72
   65
 73
    6
 40
11
 49
6
 49
-1.5
 49
0.25
 49
-1.5
 49
0.25
 49
-1.5
  0
LTYPE
  2
double-dashed_double-dotted
 70
   64
  3
-----   ---------   -   -   ----
 72
   65
 73
    8
 40
18.5
 49
6
 49
-1.5
 49
6
 49
-1.5
 49
0.25
 49
-1.5
 49
0.25
 49
-1.5
  0
LTYPE
  2
dashed_triplicate-dotted
 70
   64
  3
-------    -    -    -    ------
 72
   65
 73
    8
 40
12.75
 49
6
 49
-1.5
 49
0.25
 49
-1.5
 49
0.25
 49
-1.5
 49
0.25
 49
-1.5
  0
LTYPE
  2
double-dashed_triplicate-dotted
 70
   64
  3
-----  ---------  -  -  -  -----
 72
   65
 73
   10
 40
20.25
 49
6
 49
-1.5
 49
6
 49
-1.5
 49
0.25
 49
-1.5
 49
0.25
 49
-1.5
 49
0.25
 49
-1.5
  0
LTYPE
  2
undefined
 70
   64
  3
--------------------------------
 72
   65
 73
    0
 40
0
  0
LTYPE
  2
DASHED
 70
   64
  3
-----       ---------       ----
 72
   65
 73
    2
 40
3.5
 49
2
 49
-1.5
  0
LTYPE
  2
CENTER
 70
   64
  3
------------   ---   -----------
 72
   65
 73
    4
 40
17.5
 49
13
 49
-1.5
 49
1.5
 49
-1.5
  0
LTYPE
  2
PHANTOM
 70
   64
  3
---------   ---   ---   --------
 72
   65
 73
    6
 40
15.5
 49
8
 49
-1.5
 49
1.5
 49
-1.5
 49
1.5
 49
-1.5
  0
LTYPE
  2
DOT_20
 70
   64
  3
-               -               
 72
   65
 73
    2
 40
0.26
 49
0.01
 49
-0.25
  0
ENDTAB
  0
TABLE
  2
STYLE
  5
3
100
AcDbSymbolTable
 70
     1
  0
STYLE
  5
10
100
AcDbSymbolTableRecord
100
AcDbTextStyleTableRecord
  2
STANDARD
 70
     0
 40
0.0
 41
1.0
 50
0.0
 71
     0
 42
0.2
  3
txt
  4
bigfont.shx
  0
STYLE
  5
26
100
AcDbSymbolTableRecord
100
AcDbTextStyleTableRecord
  2
TATEGAKI
 70
    68
 40
0.0
 41
1.0
 50
0.0
 71
     0
 42
1.0
  3
txt
  4
bigfont.shx
  0
ENDTAB
  0
TABLE
  2
LAYER
 70
    2
  0
LAYER
  2
_0-0_0
 70
   64
 62
    7
  6
CONTINUOUS
  0
LAYER
  2
ADD_LINE
 70
   64
 62
    7
  6
CONTINUOUS
  0
ENDTAB
  0
ENDSEC
  0
SECTION
  2
BLOCKS
  0
BLOCK
  2
-000-KOZU0003
 70
   64
 10
0
 20
0
 30
0
  0
ENDBLK
  0
ENDSEC
  0
SECTION
  2
ENTITIES
  0
POINT
  8
_0-0_0
 62
    7
 10
-46.002886199951178
 20
-2.9954286575317384
  0
POINT
  8
_0-0_0
 62
    7
 10
53.99711380004883
 20
-2.9954286575317384
  0
LINE
  8
_0-0_0
  6
CONTINUOUS
 62
    7
 10
-66.002882385253912
 20
-21.995427703857423
 11
-66.002882385253912
 21
-28.995427703857423
  0
LINE
  8
_0-0_0
  6
CONTINUOUS
 62
    7
 10
73.997117614746102
 20
-21.995427703857423
 11
73.997117614746102
 21
-28.995427703857423
  0
LINE
  8
_0-0_0
  6
CONTINUOUS
 62
    7
 10
-65.002882385253912
 20
-20.995427703857423
 11
0.8525377273559571
 21
-20.995427703857423
  0
LINE
  8
_0-0_0
  6
CONTINUOUS
 62
    7
 10
-65.002882385253912
 20
-29.995427703857423
 11
1.1874071121215821
 21
-29.995427703857423
  0
LINE
  8
_0-0_0
  6
CONTINUOUS
 62
    7
 10
-65.002882385253912
 20
-20.995427703857423
 11
-66.002882385253912
 21
-21.995427703857423
  0
LINE
  8
_0-0_0
  6
CONTINUOUS
 62
    7
 10
-66.002882385253912
 20
-28.995427703857423
 11
-65.002882385253912
 21
-29.995427703857423
  0
LINE
  8
_0-0_0
  6
CONTINUOUS
 62
    7
 10
72.997113800048837
 20
-20.995427703857423
 11
73.997117614746102
 21
-21.995427703857423
  0
LINE
  8
_0-0_0
  6
CONTINUOUS
 62
    7
 10
73.997117614746102
 20
-28.995427703857423
 11
72.997113800048837
 21
-29.995427703857423
  0
LINE
  8
_0-0_0
  6
CONTINUOUS
 62
    7
 10
1.9089704513549806
 20
-20.995427703857423
 11
72.997113800048837
 21
-20.995427703857423
  0
LINE
  8
_0-0_0
  6
CONTINUOUS
 62
    7
 10
2.3924294471740724
 20
-29.995427703857423
 11
72.997113800048837
 21
-29.995427703857423
  0
LINE
  8
_0-0_0
  6
CONTINUOUS
 62
    7
 10
89.847116088867196
 20
-20.995427703857423
 11
89.997117614746102
 21
-20.995427703857423
  0
LINE
  8
_0-0_0
  6
CONTINUOUS
 62
    7
 10
89.847116088867196
 20
-29.995427703857423
 11
89.997117614746102
 21
-29.995427703857423
  0
LINE
  8
_0-0_0
  6
CONTINUOUS
 62
    7
 10
-46.002886199951178
 20
-2.9954286575317384
 11
53.99711380004883
 21
-2.9954286575317384
  0
LINE
  8
_0-0_0
  6
CONTINUOUS
 62
    7
 10
-46.002886199951178
 20
-2.9954286575317384
 11
-42.802885437011724
 21
-2.4311824798583985
  0
LINE
  8
_0-0_0
  6
CONTINUOUS
 62
    7
 10
-46.002886199951178
 20
-2.9954286575317384
 11
-42.802885437011724
 21
-3.5596748352050782
  0
LINE
  8
_0-0_0
  6
CONTINUOUS
 62
    7
 10
73.997117614746102
 20
6.7035900294780735
 11
73.997117614746102
 21
-20.512845611572267
  0
LINE
  8
_0-0_0
  6
CONTINUOUS
 62
    7
 10
-66.002882385253912
 20
5.0134825944900516
 11
73.997117614746102
 21
5.0134825944900516
  0
LINE
  8
_0-0_0
  6
CONTINUOUS
 62
    7
 10
73.997117614746102
 20
5.0134715080261234
 11
70.797113037109384
 21
4.4492250919342045
  0
LINE
  8
_0-0_0
  6
CONTINUOUS
 62
    7
 10
73.997117614746102
 20
5.0134715080261234
 11
70.797113037109384
 21
5.5777179241180423
  0
LINE
  8
_0-0_0
  6
CONTINUOUS
 62
    7
 10
-66.002882385253912
 20
5.0134715080261234
 11
-62.802885437011724
 21
5.5777179241180423
  0
LINE
  8
_0-0_0
  6
CONTINUOUS
 62
    7
 10
-66.002882385253912
 20
5.0134715080261234
 11
-62.802885437011724
 21
4.4492250919342045
  0
LINE
  8
_0-0_0
  6
CONTINUOUS
 62
    7
 10
89.847116088867196
 20
-20.995427703857423
 11
89.847116088867196
 21
-29.995427703857423
  0
LINE
  8
_0-0_0
  6
CONTINUOUS
 62
    7
 10
53.99711380004883
 20
-2.9954286575317384
 11
50.797113037109391
 21
-2.4311824798583985
  0
LINE
  8
_0-0_0
  6
CONTINUOUS
 62
    7
 10
53.99711380004883
 20
-2.9954286575317384
 11
50.797113037109391
 21
-3.5596748352050782
  0
LINE
  8
_0-0_0
  6
CONTINUOUS
 62
    7
 10
-46.002886199951178
 20
-0.82627592086792
 11
-46.002886199951178
 21
-29.995427703857423
  0
LINE
  8
_0-0_0
  6
CONTINUOUS
 62
    7
 10
53.99711380004883
 20
-1.2872882843017579
 11
53.99711380004883
 21
-29.995427703857423
  0
LINE
  8
_0-0_0
  6
CONTINUOUS
 62
    7
 10
-66.002882385253912
 20
6.8572607651352886
 11
-66.002882385253912
 21
-20.995427703857423
  0
LINE
  8
_0-0_0
  6
CONTINUOUS
 62
    7
 10
89.997117614746102
 20
-20.995427703857423
 11
89.997117614746102
 21
-29.995427703857423
  0
ARC
  8
_0-0_0
  6
CONTINUOUS
 62
    7
 10
6.0198297338519868
 20
-22.750391808463291
 40
5.4571793753478746
 50
161.24110707005588
 51
170.22456241120699
  0
ARC
  8
_0-0_0
  6
CONTINUOUS
 62
    7
 10
3.9896629638443302
 20
-22.357935126773715
 40
3.3901159447480307
 50
170.93547189409992
 51
185.38403997187842
  0
ARC
  8
_0-0_0
  6
CONTINUOUS
 62
    7
 10
5.2962899143220517
 20
-22.235405902355605
 40
4.7024753190223061
 50
185.37656548301371
 51
195.79364985628155
  0
ARC
  8
_0-0_0
  6
CONTINUOUS
 62
    7
 10
7.3001337545493925
 20
-21.672774636284874
 40
6.7838049355626273
 50
195.75984494331931
 51
202.98372172269296
  0
ARC
  8
_0-0_0
  6
CONTINUOUS
 62
    7
 10
-2058.3321427516653
 20
-908.95178816854661
 40
2241.3489912392529
 50
23.224559912436323
 51
23.246422064942823
  0
ARC
  8
_0-0_0
  6
CONTINUOUS
 62
    7
 10
-5.324746453455635
 20
-27.930051996080568
 40
7.2859346435290027
 50
16.06955465107178
 51
22.79263882703588
  0
ARC
  8
_0-0_0
  6
CONTINUOUS
 62
    7
 10
-4.6798408093399644
 20
-27.739904470436013
 40
6.6135955257051364
 50
8.6265326763660664
 51
16.033123108021201
  0
ARC
  8
_0-0_0
  6
CONTINUOUS
 62
    7
 10
-4.3057641723653663
 20
-27.683088888012549
 40
6.2352288564429346
 50
0.7748922393439535
 51
8.6259457144923264
  0
ARC
  8
_0-0_0
  6
CONTINUOUS
 62
    7
 10
-2.9623459108767976
 20
-27.677435683739532
 40
4.8918730119568457
 50
350.90739873018629
 51
0.9214819622489479
  0
ARC
  8
_0-0_0
  6
CONTINUOUS
 62
    7
 10
-1.6239109583783149
 20
-27.896976222261834
 40
3.5355663471434853
 50
337.12530571478158
 51
350.99277309041179
  0
ARC
  8
_0-0_0
  6
CONTINUOUS
 62
    7
 10
-1.0481694941606976
 20
-28.11855620937105
 40
2.9190370097698817
 50
319.98192952131808
 51
336.73968071685567
  0
ARC
  8
_0-0_0
  6
CONTINUOUS
 62
    7
 10
8.5246398830596046
 20
-23.44883004001937
 40
7.0556243647850243
 50
159.66633072783745
 51
166.5592041380294
  0
ARC
  8
_0-0_0
  6
CONTINUOUS
 62
    7
 10
4.0410044767646127
 20
-22.35937648940201
 40
2.4416220896825314
 50
166.96835899245815
 51
186.87580538842002
  0
ARC
  8
_0-0_0
  6
CONTINUOUS
 62
    7
 10
5.6715939949822429
 20
-22.163647131349922
 40
4.0839167302490234
 50
186.86333850336263
 51
198.76053518097908
  0
ARC
  8
_0-0_0
  6
CONTINUOUS
 62
    7
 10
10.349315306242545
 20
-20.530192593062054
 40
9.0385553407812811
 50
199.02837380418916
 51
204.40495633222008
  0
ARC
  8
_0-0_0
  6
CONTINUOUS
 62
    7
 10
-11.551845000071047
 20
-30.40169492982924
 40
14.984548810059929
 50
20.93334533878183
 51
24.176574231470564
  0
ARC
  8
_0-0_0
  6
CONTINUOUS
 62
    7
 10
-5.0304467001573814
 20
-27.83434827927222
 40
7.9766076674892732
 50
14.351446451277015
 51
20.445489932305787
  0
ARC
  8
_0-0_0
  6
CONTINUOUS
 62
    7
 10
-4.6104336275974447
 20
-27.726162788511182
 40
7.5428859115205986
 50
7.9006043836055886
 51
14.346120245101554
  0
ARC
  8
_0-0_0
  6
CONTINUOUS
 62
    7
 10
-4.3068950607450347
 20
-27.684058948822894
 40
7.2364411456674933
 50
1.1871231858210705
 51
7.9007524552160993
  0
ARC
  8
_0-0_0
  6
CONTINUOUS
 62
    7
 10
-3.1774360148257643
 20
-27.668475435326627
 40
6.1069066727435048
 50
353.31403074069391
 51
1.2604882011491023
  0
ARC
  8
_0-0_0
  6
CONTINUOUS
 62
    7
 10
-2.0144710695007464
 20
-27.806900325293714
 40
4.9357348027453192
 50
343.49492524781493
 51
353.3382035264267
  0
ARC
  8
_0-0_0
  6
CONTINUOUS
 62
    7
 10
-1.2037970796677655
 20
-28.046454234652344
 40
4.0904076975367465
 50
331.60056958220815
 51
343.48610470078683
  0
TEXT
  8
_0-0_0
 62
    7
 10
61.85550720095636
 20
-28.962861633300783
 40
1
 41
1.0181818279353061
 50
0
  1
MADE IN JAPAN
  0
TEXT
  8
_0-0_0
 62
    7
 10
64.036569988727578
 20
-27.557729339599611
 40
1.5
 41
1.3057031214237209
 50
0
  1
100001
  0
TEXT
  8
_0-0_0
 62
    7
 10
-65.105086857080465
 20
-28.945870971679689
 40
1.5
 41
1.4930228250367299
 50
0
  1
@@@@*
  0
TEXT
  8
_0-0_0
 62
    7
 10
-65.105086857080465
 20
-26.945870971679689
 40
1.5
 41
0.8661750328691701
 50
0
  1
SL700
  0
TEXT
  8
_0-0_0
 62
    7
 10
-18.023399853706362
 20
-1.6764085054397584
 40
3.2000000476837158
 41
0.9495633798458195
 50
0
  1
有効長：５０～３０００
  0
TEXT
  8
_0-0_0
 62
    7
 10
-14.385235333442688
 20
6.3972119331359867
 40
3.2000000476837158
 41
0.950529210857323
 50
0
  1
全長＝有効長＋４０
  0
TEXT
  8
_0-0_0
 62
    7
 10
-60.890020751953131
 20
34.241972351074217
 40
10
 41
0.9549444777911165
 50
0
  1
ＳＬ７００
  0
INSERT
  2
-000-KOZU0003
  8
_0-0_0
 10
9.8500000000000014
 20
6.9000000000000004
 41
1
 42
1
 50
0
  0
ENDSEC
  0
EOF
