  0
SECTION
  2
HEADER
  9
$EXTMAX
 10
245.4973601362945
 20
211.3070089714947
 30
0
  9
$EXTMIN
 10
-250.0944957844157
 20
-176.0718709102919
 30
0
  9
$LIMMAX
 10
245.4973601362945
 20
211.3070089714947
  9
$LIMMIN
 10
-250.0944957844157
 20
-176.0718709102919
  9
$PLIMMAX
 10
245.4973601362945
 20
211.3070089714947
  9
$PLIMMIN
 10
-250.0944957844157
 20
-176.0718709102919
  9
$TEXTSIZE
 40
3.2
  9
$DIMSHO
 70
     0
  9
$DIMASZ
 40
1.0
  9
$DIMTAD
 70
     1
  9
$DIMTIH
 70
     0
  9
$DIMTOH
 70
     0
  9
$DIMEXE
 40
2.54
  9
$DIMEXO
 40
2.54
  9
$DIMTVP
 40
1.0
  9
$DIMSAH
 70
     1
  9
$DIMDLE
 40
0.0
  9
$DIMTXT
 40
3.200000047683716
  9
$DIMGAP
 40
1.600000023841858
  0
ENDSEC
  0
SECTION
  2
TABLES
  0
TABLE
  2
LTYPE
 70
     6
  0
LTYPE
  2
CONTINUOUS
 70
    64
  3
Solid line
 72
    65
 73
     0
 40
0.0
  0
LTYPE
  2
DASHED
 70
    64
  3
__ __ __ __ __ __ __ __ __ __ __ __ __ __ __
 72
    65
 73
     2
 40
3.5
 49
2.0
 49
-1.5
  0
LTYPE
  2
CENTER
 70
    64
  3
____ _ ____ _ ____ _ ____ _ ____ _ ____ _ ____
 72
    65
 73
     4
 40
17.5
 49
13.0
 49
-1.5
 49
1.5
 49
-1.5
  0
LTYPE
  2
PHANTOM
 70
    64
  3
_____ _ _ _____ _ _ _____ _ _ _____ _ _ ____  
 72
    65
 73
     6
 40
15.5
 49
8.0
 49
-1.5
 49
1.5
 49
-1.5
 49
1.5
 49
-1.5
  0
LTYPE
  2
DOT
 70
    64
  3
. . . . . . . . . . . . . . . . . . . . . . . .
 72
    65
 73
     2
 40
0.25
 49
0.0
 49
-0.25
  0
LTYPE
  2
HIDDEN
 70
    64
  3
__ __ __ __ __ __ __ __ __ __ __ __ __ __ __
 72
    65
 73
     2
 40
3.5
 49
2.0
 49
-1.5
  0
ENDTAB
  0
TABLE
  2
LAYER
 70
     1
  0
LAYER
  2
0
 70
     0
 62
     7
  6
CONTINUOUS
  0
ENDTAB
  0
TABLE
  2
STYLE
 70
     1
  0
STYLE
  2
STANDARD
 70
     0
 40
0.0
 41
1.0
 50
0.0
 71
     0
 42
0.2
  3
txt
  4
BIGFONT
  0
ENDTAB
  0
TABLE
  2
DIMSTYLE
 70
     0
  0
ENDTAB
  0
ENDSEC
  0
SECTION
  2
BLOCKS
  0
BLOCK
  8
0
  2
KOZU0001
 70
    64
 10
0
 20
0
  0
LINE
  8
0
  6
CONTINUOUS
 62
     7
 10
0
 20
0
 11
39.51947748371964
 21
34.17900755348728
  0
LINE
  8
0
  6
CONTINUOUS
 62
     7
 10
39.51947748371964
 20
34.17900755348728
 11
77.07359388875625
 21
34.17900755348728
  0
LINE
  8
0
  6
CONTINUOUS
 62
     7
 10
0
 20
0
 11
1.614937560170919
 21
2.718818930414333
  0
LINE
  8
0
  6
CONTINUOUS
 62
     7
 10
0
 20
0
 11
2.923241406385335
 21
1.206092608228916
  0
TEXT
  8
0
  6
CONTINUOUS
 62
     7
 10
43.21645263242385
 20
34.92900755348734
 40
3
 41
0.844087642656655
  1
６－%%C６キリ通し、等分
  0
ENDBLK
  8
0
  0
BLOCK
  8
0
  2
KOZU0002
 70
    64
 10
0
 20
0
  0
LINE
  8
0
  6
CONTINUOUS
 62
     7
 10
0
 20
0
 11
30.45806462492462
 21
25.617277570825
  0
LINE
  8
0
  6
CONTINUOUS
 62
     7
 10
30.45806462492462
 20
25.617277570825
 11
61.30220679499195
 21
25.617277570825
  0
LINE
  8
0
  6
CONTINUOUS
 62
     7
 10
0
 20
0
 11
1.652236679868835
 21
2.69631482830291
  0
LINE
  8
0
  6
CONTINUOUS
 62
     7
 10
0
 20
0
 11
2.939578240876813
 21
1.165709854721027
  0
TEXT
  8
0
  6
CONTINUOUS
 62
     7
 10
33.44506541945026
 20
26.36727757082495
 40
3
 41
0.8449533791717749
  1
６－Ｍ５通し、等分
  0
ENDBLK
  8
0
  0
BLOCK
  8
0
  2
KOZU0003
 70
    64
 10
0
 20
0
  0
LINE
  8
0
  6
CONTINUOUS
 62
     7
 10
0
 20
0
 11
27.77544220889865
 21
-37.41198284714113
  0
LINE
  8
0
  6
CONTINUOUS
 62
     7
 10
27.77544220889865
 20
-37.41198284714113
 11
55.22301794648539
 21
-37.41198284714113
  0
LINE
  8
0
  6
CONTINUOUS
 62
     7
 10
0
 20
0
 11
2.591206384069191
 21
-1.812635974151789
  0
LINE
  8
0
  6
CONTINUOUS
 62
     7
 10
0
 20
0
 11
0.9853835227642801
 21
-3.004832609762946
  0
TEXT
  8
0
  6
CONTINUOUS
 62
     7
 10
33.36587645173441
 20
-36.6619828471411
 40
3
 41
0.8463385575959663
  1
４－Ｍ４深さ８
  0
ENDBLK
  8
0
  0
BLOCK
  8
0
  2
KOZU0004
 70
    64
 10
0
 20
0
  0
LINE
  8
0
  6
CONTINUOUS
 62
     7
 10
0
 20
0
 11
21.82769616563294
 21
25.62063861127726
  0
LINE
  8
0
  6
CONTINUOUS
 62
     7
 10
21.82769616563294
 20
25.62063861127726
 11
48.60367017083362
 21
25.62063861127726
  0
LINE
  8
0
  6
CONTINUOUS
 62
     7
 10
0
 20
0
 11
1.600752492551917
 21
2.745508906233672
  0
LINE
  8
0
  6
CONTINUOUS
 62
     7
 10
0
 20
0
 11
2.45634523250417
 21
2.01658022289559
  0
TEXT
  8
0
  6
CONTINUOUS
 62
     7
 10
23.74677019410328
 20
26.37063861127729
 40
3
 41
1.10205238206046
  1
4-M4 HSB
  0
ENDBLK
  8
0
  0
BLOCK
  8
0
  2
KOZU0005
 70
    64
 10
0
 20
0
  0
LINE
  8
0
  6
CONTINUOUS
 62
     7
 10
0
 20
0
 11
25.2952751612066
 21
34.73398711516916
  0
LINE
  8
0
  6
CONTINUOUS
 62
     7
 10
25.2952751612066
 20
34.73398711516916
 11
51.01017511466733
 21
34.73398711516916
  0
LINE
  8
0
  6
CONTINUOUS
 62
     7
 10
0
 20
0
 11
1.387131893807154
 21
2.859386788422051
  0
LINE
  8
0
  6
CONTINUOUS
 62
     7
 10
0
 20
0
 11
2.295725578508901
 21
2.19769692287166
  0
TEXT
  8
0
  6
CONTINUOUS
 62
     7
 10
26.15417513793693
 20
35.48398711516927
 40
3
 41
1.10205238206046
  1
4-M3 HSB
  0
ENDBLK
  8
0
  0
BLOCK
  8
0
  2
KOZU0006
 70
    64
 10
0
 20
0
  0
LINE
  8
0
  6
CONTINUOUS
 62
     7
 10
0
 20
0
 11
-10.65073650188037
 21
-16.91587562063354
  0
LINE
  8
0
  6
CONTINUOUS
 62
     7
 10
-10.65073650188037
 20
-16.91587562063354
 11
-85.75013383846833
 21
-16.91587562063354
  0
LINE
  8
0
  6
CONTINUOUS
 62
     7
 10
0
 20
0
 11
-1.191057033559886
 21
-2.946457337113015
  0
LINE
  8
0
  6
CONTINUOUS
 62
     7
 10
0
 20
0
 11
-2.142222731535697
 21
-2.347575230980112
  0
TEXT
  8
0
  6
CONTINUOUS
 62
     7
 10
-84.03633388500764
 20
-16.16587562063351
 40
3
 41
0.842104547988997
  1
ガイドプレート（ヘッドアッセンブリ取付後撤去）
  0
ENDBLK
  8
0
  0
BLOCK
  8
0
  2
KOZU0007
 70
    64
 10
0
 20
0
  0
LINE
  8
0
  6
CONTINUOUS
 62
     7
 10
0
 20
0
 11
-29.51811804987211
 21
28.36806150247453
  0
LINE
  8
0
  6
CONTINUOUS
 62
     7
 10
-29.51811804987211
 20
28.36806150247453
 11
-56.06543982799133
 21
28.36806150247453
  0
LINE
  8
0
  6
CONTINUOUS
 62
     7
 10
0
 20
0
 11
-2.644750464379355
 21
1.762249323388941
  0
LINE
  8
0
  6
CONTINUOUS
 62
     7
 10
0
 20
0
 11
-1.865906641797825
 21
2.572667895534586
  0
TEXT
  8
0
  6
CONTINUOUS
 62
     7
 10
-54.35163987453063
 20
29.11806150247445
 40
3
 41
0.8463487404735149
  1
スケールドラム
  0
ENDBLK
  8
0
  0
BLOCK
  8
0
  2
KOZU0008
 70
    64
 10
0
 20
0
  0
LINE
  8
0
  6
CONTINUOUS
 62
     7
 10
0
 20
0
 11
18.73120003972073
 21
-12.63974333465809
  0
LINE
  8
0
  6
CONTINUOUS
 62
     7
 10
18.73120003972073
 20
-12.63974333465809
 11
48.51139820772175
 21
-12.63974333465809
  0
LINE
  8
0
  6
CONTINUOUS
 62
     7
 10
0
 20
0
 11
3.046137737313424
 21
-0.8491434419137853
  0
LINE
  8
0
  6
CONTINUOUS
 62
     7
 10
0
 20
0
 11
1.927424124702469
 21
-2.506997395919083
  0
TEXT
  8
0
  6
CONTINUOUS
 62
     7
 10
20.65425683218007
 20
-11.88974333465814
 40
3
 41
0.8449533791717749
  1
磁気コーティング面
  0
ENDBLK
  8
0
  0
BLOCK
  8
0
  2
KOZU0009
 70
    64
 10
0
 20
0
  0
LINE
  8
0
  6
CONTINUOUS
 62
     7
 10
0
 20
0
 11
19.16881867298781
 21
-9.584409336493877
  0
LINE
  8
0
  6
CONTINUOUS
 62
     7
 10
19.16881867298781
 20
-9.584409336493877
 11
51.47677212763335
 21
-9.584409336493877
  0
LINE
  8
0
  6
CONTINUOUS
 62
     7
 10
0
 20
0
 11
3.049102248325803
 21
-0.8962160319220621
  0
LINE
  8
0
  6
CONTINUOUS
 62
     7
 10
0
 20
0
 11
2.546434174533181
 21
-1.901552179507339
  0
TEXT
  8
0
  6
CONTINUOUS
 62
     7
 10
23.61987215090301
 20
-8.834409336493749
 40
3
 41
0.8449612160074228
  1
ヘッドアッセンブリ
  0
ENDBLK
  8
0
  0
BLOCK
  8
0
  2
KOZU0010
 70
    64
 10
0
 20
0
  0
LINE
  8
0
  6
CONTINUOUS
 62
     7
 10
0
 20
0
 11
128.8331432342529
 21
0
  0
LINE
  8
0
  6
CONTINUOUS
 62
     7
 10
0
 20
0
 11
3.127999953022153
 21
0.5619999915596069
  0
LINE
  8
0
  6
CONTINUOUS
 62
     7
 10
0
 20
0
 11
3.127999953022153
 21
-0.5619999915596069
  0
ENDBLK
  8
0
  0
BLOCK
  8
0
  2
KOZU0011
 70
    64
 10
0
 20
0
  0
LINE
  8
0
  6
CONTINUOUS
 62
     7
 10
0
 20
0
 11
0
 21
-99.06293548773793
  0
LINE
  8
0
  6
CONTINUOUS
 62
     7
 10
0
 20
0
 11
0.5619999915596333
 21
-3.127999953022149
  0
LINE
  8
0
  6
CONTINUOUS
 62
     7
 10
0
 20
0
 11
-0.5619999915595788
 21
-3.127999953022159
  0
ENDBLK
  8
0
  0
BLOCK
  8
0
  2
KOZU0012
 70
    64
 10
0
 20
0
  0
LINE
  8
0
  6
CONTINUOUS
 62
     7
 10
0
 20
0
 11
0
 21
-79.46293548773794
  0
LINE
  8
0
  6
CONTINUOUS
 62
     7
 10
0
 20
0
 11
0.5619999915596333
 21
-3.127999953022149
  0
LINE
  8
0
  6
CONTINUOUS
 62
     7
 10
0
 20
0
 11
-0.5619999915595788
 21
-3.127999953022159
  0
ENDBLK
  8
0
  0
BLOCK
  8
0
  2
KOZU0013
 70
    64
 10
0
 20
0
  0
LINE
  8
0
  6
CONTINUOUS
 62
     7
 10
0
 20
0
 11
0
 21
-67.96293548773794
  0
LINE
  8
0
  6
CONTINUOUS
 62
     7
 10
0
 20
0
 11
0.5619999915596333
 21
-3.127999953022149
  0
LINE
  8
0
  6
CONTINUOUS
 62
     7
 10
0
 20
0
 11
-0.5619999915595788
 21
-3.127999953022159
  0
ENDBLK
  8
0
  0
BLOCK
  8
0
  2
KOZU0014
 70
    64
 10
0
 20
0
  0
LINE
  8
0
  6
CONTINUOUS
 62
     7
 10
-183.6624524747493
 20
93.88747229673177
 11
-187.1751867100649
 21
97.40019950658592
  0
LINE
  8
0
  6
CONTINUOUS
 62
     7
 10
-183.6624524747493
 20
90.29537344040116
 11
-190.7672927506005
 21
97.40019950658592
  0
LINE
  8
0
  6
CONTINUOUS
 62
     7
 10
-184.7743805366459
 20
87.81520042211324
 11
-194.3593987911359
 21
97.40019950658589
  0
LINE
  8
0
  6
CONTINUOUS
 62
     7
 10
-183.6624524747493
 20
83.11117572773993
 11
-197.9515048316715
 21
97.40019950658591
  0
LINE
  8
0
  6
CONTINUOUS
 62
     7
 10
-183.6624524747493
 20
79.51907687140934
 11
-199.6624524747493
 21
95.51904487144131
  0
LINE
  8
0
  6
CONTINUOUS
 62
     7
 10
-185.5506786582325
 20
77.81520042211326
 11
-199.6624524747493
 21
91.9269460151107
  0
LINE
  8
0
  6
CONTINUOUS
 62
     7
 10
-189.142784698768
 20
77.81520042211329
 11
-199.6624524747493
 21
88.33484715878009
  0
LINE
  8
0
  6
CONTINUOUS
 62
     7
 10
-191.1624524747493
 20
76.24276530243247
 11
-199.6624524747493
 21
84.74274830244949
  0
LINE
  8
0
  6
CONTINUOUS
 62
     7
 10
-193.326990779833
 20
74.81520042211325
 11
-199.6624524747493
 21
81.15064944611886
  0
LINE
  8
0
  6
CONTINUOUS
 62
     7
 10
-196.9190968203685
 20
74.81520042211326
 11
-199.6624524747493
 21
77.55855058978827
  0
ENDBLK
  8
0
  0
BLOCK
  8
0
  2
KOZU0015
 70
    64
 10
0
 20
0
  0
LINE
  8
0
  6
CONTINUOUS
 62
     7
 10
-192.0868184756887
 20
66.39083288564993
 11
-194.511190860892
 21
68.81520042211329
  0
LINE
  8
0
  6
CONTINUOUS
 62
     7
 10
-195.6032919014225
 20
66.31520042211326
 11
-198.1032969014275
 21
68.81520042211326
  0
ENDBLK
  8
0
  0
ENDSEC
  0
SECTION
  2
ENTITIES
  0
POINT
  8
0
  6
CONTINUOUS
 62
     7
 10
91.42284390132693
 20
5.815200422113264
  0
LINE
  8
0
  6
CENTER
 62
     7
 10
91.42284390132693
 20
101.8901973703555
 11
91.42284390132693
 21
-90.95979347437111
  0
LINE
  8
0
  6
CENTER
 62
     7
 10
205.9277656324862
 20
5.815200422113264
 11
-13.26458743412229
 21
5.815200422113264
  0
LINE
  8
0
  6
CENTER
 62
     7
 10
65.58935925166873
 20
-93.18479957788674
 11
77.15377136867312
 21
-93.18479957788674
  0
LINE
  8
0
  6
CENTER
 62
     7
 10
111.4228439013269
 20
-99.05770149439064
 11
111.4228439013269
 21
-87.2826923391172
  0
LINE
  8
0
  6
CENTER
 62
     7
 10
71.42284390132693
 20
-98.84745063989845
 11
71.42284390132693
 21
-87.38737526148049
  0
LINE
  8
0
  6
CENTER
 62
     7
 10
90.42284390132693
 20
-106.1631549856016
 11
90.42284390132693
 21
-84.0368656179258
  0
LINE
  8
0
  6
CONTINUOUS
 62
     7
 10
77.92283531825808
 20
-99.68479957788674
 11
102.9228353182581
 21
-99.68479957788674
  0
LINE
  8
0
  6
CENTER
 62
     7
 10
105.9206962267664
 20
-93.18479957788674
 11
116.7981910387781
 21
-93.18479957788674
  0
LINE
  8
0
  6
CENTER
 62
     7
 10
69.10646816890505
 20
-101.6847995778867
 11
75.79730126064089
 21
-101.6847995778867
  0
LINE
  8
0
  6
CENTER
 62
     7
 10
108.4228439013269
 20
-105.1582874318906
 11
108.4228439013269
 21
-98.25392189233986
  0
LINE
  8
0
  6
CENTER
 62
     7
 10
72.42284390132693
 20
-105.0159305593321
 11
72.42284390132693
 21
-98.39627876489845
  0
LINE
  8
0
  6
CENTER
 62
     7
 10
105.1230706850794
 20
-101.6847995778867
 11
111.7427215258387
 21
-101.6847995778867
  0
LINE
  8
0
  6
CENTER
 62
     7
 10
118.2774314562586
 20
104.8152004221133
 11
105.6919011751917
 21
104.8152004221133
  0
LINE
  8
0
  6
CENTER
 62
     7
 10
71.42284390132693
 20
110.6881023386172
 11
71.42284390132693
 21
98.61149558812889
  0
LINE
  8
0
  6
CENTER
 62
     7
 10
111.4228439013269
 20
110.477851484125
 11
111.4228439013269
 21
97.98221549779686
  0
LINE
  8
0
  6
CENTER
 62
     7
 10
92.42284390132693
 20
117.4516368845156
 11
92.42284390132693
 21
95.66726646215233
  0
LINE
  8
0
  6
CONTINUOUS
 62
     7
 10
104.9228439013269
 20
112.9197917917422
 11
104.9228439013269
 21
96.57675132543358
  0
LINE
  8
0
  6
CONTINUOUS
 62
     7
 10
79.92284390132693
 20
112.9197917917422
 11
79.92284390132693
 21
97.00186118871483
  0
LINE
  8
0
  6
CONTINUOUS
 62
     7
 10
104.9228362719324
 20
111.3152004221133
 11
79.9228362719324
 21
111.3152004221133
  0
LINE
  8
0
  6
CENTER
 62
     7
 10
76.92497631709841
 20
104.8152004221133
 11
66.04748150508669
 21
104.8152004221133
  0
LINE
  8
0
  6
CENTER
 62
     7
 10
113.7018432299402
 20
113.3152004221133
 11
106.936793295553
 21
113.3152004221133
  0
LINE
  8
0
  6
CENTER
 62
     7
 10
74.42284390132693
 20
116.5259548166445
 11
74.42284390132693
 21
109.7609096506289
  0
LINE
  8
0
  6
CENTER
 62
     7
 10
110.4228439013269
 20
116.5259548166445
 11
110.4228439013269
 21
109.7609096506289
  0
LINE
  8
0
  6
CENTER
 62
     7
 10
78.30333038966921
 20
113.3152004221133
 11
70.75164791744021
 21
113.3152004221133
  0
LINE
  8
0
  6
CONTINUOUS
 62
     7
 10
63.42284390132693
 20
-103.8298419973203
 11
63.42284390132693
 21
-82.28939094751564
  0
LINE
  8
0
  6
CONTINUOUS
 62
     7
 10
119.4228439013269
 20
-103.8298419973203
 11
119.4228439013269
 21
-82.28939094751564
  0
LINE
  8
0
  6
CONTINUOUS
 62
     7
 10
77.92284390132693
 20
-101.2893909475156
 11
77.92284390132693
 21
-84.94635048120705
  0
LINE
  8
0
  6
CONTINUOUS
 62
     7
 10
102.9228439013269
 20
-101.2893909475156
 11
102.9228439013269
 21
-85.3714603444883
  0
LINE
  8
0
  6
CONTINUOUS
 62
     7
 10
103.7228364626673
 20
104.5151973703555
 11
81.12283608119753
 21
104.5151973703555
  0
LINE
  8
0
  6
CONTINUOUS
 62
     7
 10
100.4228372256067
 20
98.11519584447655
 11
84.42283674876956
 21
98.11519584447655
  0
LINE
  8
0
  6
CONTINUOUS
 62
     7
 10
103.2228440920618
 20
104.5151973703555
 11
103.2228440920618
 21
100.9151988962344
  0
LINE
  8
0
  6
CONTINUOUS
 62
     7
 10
81.62284371059207
 20
104.5151973703555
 11
81.62284371059207
 21
100.9151988962344
  0
LINE
  8
0
  6
CONTINUOUS
 62
     7
 10
81.12284371059207
 20
109.8152004221133
 11
81.12284371059207
 21
104.5151973703555
  0
LINE
  8
0
  6
CONTINUOUS
 62
     7
 10
103.7228440920618
 20
109.8152004221133
 11
103.7228440920618
 21
104.5151973703555
  0
LINE
  8
0
  6
CONTINUOUS
 62
     7
 10
119.4228439013269
 20
115.4602428415469
 11
119.4228439013269
 21
93.91979179174217
  0
LINE
  8
0
  6
CONTINUOUS
 62
     7
 10
63.42284390132693
 20
115.4602428415469
 11
63.42284390132693
 21
93.91979179174217
  0
LINE
  8
0
  6
CONTINUOUS
 62
     7
 10
104.9228321860883
 20
96.57672839667865
 11
117.4228381042604
 21
93.91977006880539
  0
LINE
  8
0
  6
CONTINUOUS
 62
     7
 10
79.92283576149242
 20
97.00184635395249
 11
65.42283091368397
 21
93.9197727256541
  0
LINE
  8
0
  6
CONTINUOUS
 62
     7
 10
65.42283245723513
 20
93.91979179174217
 11
63.42283817928103
 21
93.91979179174217
  0
LINE
  8
0
  6
CONTINUOUS
 62
     7
 10
119.422838179281
 20
93.91979179174217
 11
117.4228439013269
 21
93.91979179174217
  0
LINE
  8
0
  6
CONTINUOUS
 62
     7
 10
110.8002918751702
 20
120.9197917917422
 11
104.9530864101803
 21
120.9197917917422
  0
LINE
  8
0
  6
CONTINUOUS
 62
     7
 10
102.9228353182581
 20
114.9197917917422
 11
81.92283531825808
 21
114.9197917917422
  0
LINE
  8
0
  6
CONTINUOUS
 62
     7
 10
79.1228513399866
 20
-92.88479652612892
 11
101.7228517214563
 21
-92.88479652612892
  0
LINE
  8
0
  6
CONTINUOUS
 62
     7
 10
82.42285057704714
 20
-86.48479500025002
 11
98.4228510538843
 21
-86.48479500025002
  0
LINE
  8
0
  6
CONTINUOUS
 62
     7
 10
79.62284371059207
 20
-92.88479652612892
 11
79.62284371059207
 21
-89.28479805200783
  0
LINE
  8
0
  6
CONTINUOUS
 62
     7
 10
101.2228440920618
 20
-92.88479652612892
 11
101.2228440920618
 21
-89.28479805200783
  0
LINE
  8
0
  6
CONTINUOUS
 62
     7
 10
101.7228440920618
 20
-98.18479957788674
 11
101.7228440920618
 21
-92.88479652612892
  0
LINE
  8
0
  6
CONTINUOUS
 62
     7
 10
79.12284371059207
 20
-98.18479957788674
 11
79.12284371059207
 21
-92.88479652612892
  0
LINE
  8
0
  6
CONTINUOUS
 62
     7
 10
65.42284969839353
 20
-82.28936922457876
 11
77.9228556165657
 21
-84.94632755245202
  0
LINE
  8
0
  6
CONTINUOUS
 62
     7
 10
65.42284390132693
 20
-82.28939094751564
 11
63.42284962337283
 21
-82.28939094751564
  0
LINE
  8
0
  6
CONTINUOUS
 62
     7
 10
104.4228439013269
 20
-109.2893909475156
 11
78.42283436458376
 21
-109.2893909475156
  0
LINE
  8
0
  6
CONTINUOUS
 62
     7
 10
117.4228568889698
 20
-82.28937188142734
 11
102.9228520411615
 21
-85.3714455097257
  0
LINE
  8
0
  6
CONTINUOUS
 62
     7
 10
119.4228496233728
 20
-82.28939094751564
 11
117.4228553454187
 21
-82.28939094751564
  0
LINE
  8
0
  6
CONTINUOUS
 62
     7
 10
100.9228524843958
 20
-103.2893909475156
 11
79.92285248439578
 21
-103.2893909475156
  0
LINE
  8
0
  6
CONTINUOUS
 62
     7
 10
55.42285534541873
 20
-141.1847995778867
 11
32.87823864619998
 21
-141.1847995778867
  0
LINE
  8
0
  6
CONTINUOUS
 62
     7
 10
55.42285534541873
 20
-138.1847995778867
 11
32.87823864619998
 21
-138.1847995778867
  0
LINE
  8
0
  6
CONTINUOUS
 62
     7
 10
67.42283245723513
 20
149.4197841623476
 11
-7.121784081468491
 21
149.4197841623476
  0
LINE
  8
0
  6
CONTINUOUS
 62
     7
 10
67.42283245723513
 20
152.4197841623476
 11
-7.121784081468491
 21
152.4197841623476
  0
LINE
  8
0
  6
CENTER
 62
     7
 10
67.42283245723513
 20
150.9197841623476
 11
-49.10640719730588
 21
150.9197841623476
  0
LINE
  8
0
  6
CENTER
 62
     7
 10
55.42285534541873
 20
-139.6847995778867
 11
-54.47267916996213
 21
-139.6847995778867
  0
LINE
  8
0
  6
CENTER
 62
     7
 10
97.42284390132693
 20
120.9197917917422
 11
97.42284390132693
 21
107.1940761545351
  0
LINE
  8
0
  6
CENTER
 62
     7
 10
85.42284390132693
 20
-96.58943214624611
 11
85.42284390132693
 21
-109.6847995778867
  0
LINE
  8
0
  6
CONTINUOUS
 62
     7
 10
-24.4102936108801
 20
-147.1847995778867
 11
-36.91030124027463
 21
-147.1847995778867
  0
LINE
  8
0
  6
CONTINUOUS
 62
     7
 10
-24.41030124027463
 20
-132.1847995778867
 11
-36.91030124027463
 21
-132.1847995778867
  0
LINE
  8
0
  6
CONTINUOUS
 62
     7
 10
-37.91030124027463
 20
-152.6847995778867
 11
-46.41030124027463
 21
-152.6847995778867
  0
LINE
  8
0
  6
CONTINUOUS
 62
     7
 10
-37.91030124027463
 20
-126.6847995778867
 11
-46.41030124027463
 21
-126.6847995778867
  0
LINE
  8
0
  6
CONTINUOUS
 62
     7
 10
-21.41030886966917
 20
-136.1848148366758
 11
-21.41030886966917
 21
-143.1848148366758
  0
LINE
  8
0
  6
CONTINUOUS
 62
     7
 10
-46.4103164990637
 20
-126.6848148366758
 11
-46.4103164990637
 21
-131.1848148366758
  0
LINE
  8
0
  6
CONTINUOUS
 62
     7
 10
-37.4103164990637
 20
-127.1848148366758
 11
-37.4103164990637
 21
-131.6848148366758
  0
LINE
  8
0
  6
CONTINUOUS
 62
     7
 10
-37.4103164990637
 20
-147.6848148366758
 11
-37.4103164990637
 21
-152.1848148366758
  0
LINE
  8
0
  6
CONTINUOUS
 62
     7
 10
-21.91030886966917
 20
-134.6848148366758
 11
-21.91030886966917
 21
-144.6848148366758
  0
LINE
  8
0
  6
CONTINUOUS
 62
     7
 10
-21.41030124027463
 20
-143.1847995778867
 11
-21.91030124027463
 21
-143.1847995778867
  0
LINE
  8
0
  6
CONTINUOUS
 62
     7
 10
-21.41030124027463
 20
-136.1847995778867
 11
-21.91030124027463
 21
-136.1847995778867
  0
LINE
  8
0
  6
CONTINUOUS
 62
     7
 10
-45.9103164990637
 20
-131.1848148366758
 11
-45.9103164990637
 21
-148.1848148366758
  0
LINE
  8
0
  6
CONTINUOUS
 62
     7
 10
-39.41030124027463
 20
-131.1847995778867
 11
-46.9103164990637
 21
-131.1847995778867
  0
LINE
  8
0
  6
CONTINUOUS
 62
     7
 10
-39.41030124027463
 20
-148.1847995778867
 11
-46.9103164990637
 21
-148.1847995778867
  0
LINE
  8
0
  6
CONTINUOUS
 62
     7
 10
-46.4103164990637
 20
-148.1848148366758
 11
-46.4103164990637
 21
-152.6848148366758
  0
LINE
  8
0
  6
CONTINUOUS
 62
     7
 10
-47.4103164990637
 20
-133.6848148366758
 11
-47.4103164990637
 21
-145.6848148366758
  0
LINE
  8
0
  6
CONTINUOUS
 62
     7
 10
-46.9103164990637
 20
-133.6847995778867
 11
-47.41030124027463
 21
-133.6847995778867
  0
LINE
  8
0
  6
CONTINUOUS
 62
     7
 10
-46.9103164990637
 20
-145.6847995778867
 11
-47.41030124027463
 21
-145.6847995778867
  0
LINE
  8
0
  6
CENTER
 62
     7
 10
-46.55922702152463
 20
-140.9347995778867
 11
-52.43032077152463
 21
-140.9347995778867
  0
LINE
  8
0
  6
CENTER
 62
     7
 10
-46.61333468754026
 20
-138.4347995778867
 11
-52.37621310550901
 21
-138.4347995778867
  0
LINE
  8
0
  6
CENTER
 62
     7
 10
-46.58626559574338
 20
-143.4347995778867
 11
-52.26796725589963
 21
-143.4347995778867
  0
LINE
  8
0
  6
CENTER
 62
     7
 10
-46.55922702152463
 20
-135.9347995778867
 11
-52.34914401371213
 21
-135.9347995778867
  0
LINE
  8
0
  6
CONTINUOUS
 62
     7
 10
-47.41030124027463
 20
-136.4347995778867
 11
-51.91030124027463
 21
-136.4347995778867
  0
LINE
  8
0
  6
CONTINUOUS
 62
     7
 10
-47.41030124027463
 20
-135.4347995778867
 11
-51.91030124027463
 21
-135.4347995778867
  0
LINE
  8
0
  6
CONTINUOUS
 62
     7
 10
-47.41030124027463
 20
-138.9347995778867
 11
-51.91030124027463
 21
-138.9347995778867
  0
LINE
  8
0
  6
CONTINUOUS
 62
     7
 10
-47.41030124027463
 20
-137.9347995778867
 11
-51.91030124027463
 21
-137.9347995778867
  0
LINE
  8
0
  6
CONTINUOUS
 62
     7
 10
-47.41030124027463
 20
-140.4347995778867
 11
-51.91030124027463
 21
-140.4347995778867
  0
LINE
  8
0
  6
CONTINUOUS
 62
     7
 10
-47.41030124027463
 20
-141.4347995778867
 11
-51.91030124027463
 21
-141.4347995778867
  0
LINE
  8
0
  6
CONTINUOUS
 62
     7
 10
-47.41030124027463
 20
-142.9347995778867
 11
-51.91030124027463
 21
-142.9347995778867
  0
LINE
  8
0
  6
CONTINUOUS
 62
     7
 10
-47.41030124027463
 20
-143.9347995778867
 11
-51.91030124027463
 21
-143.9347995778867
  0
LINE
  8
0
  6
CONTINUOUS
 62
     7
 10
-51.9103164990637
 20
-135.4348148366758
 11
-51.9103164990637
 21
-136.4348148366758
  0
LINE
  8
0
  6
CONTINUOUS
 62
     7
 10
-51.9103164990637
 20
-137.9348148366758
 11
-51.9103164990637
 21
-138.9348148366758
  0
LINE
  8
0
  6
CONTINUOUS
 62
     7
 10
-51.9103164990637
 20
-140.4348148366758
 11
-51.9103164990637
 21
-141.4348148366758
  0
LINE
  8
0
  6
CONTINUOUS
 62
     7
 10
-51.9103164990637
 20
-142.9348148366758
 11
-51.9103164990637
 21
-143.9348148366758
  0
LINE
  8
0
  6
CONTINUOUS
 62
     7
 10
-13.41030124027463
 20
-137.6847995778867
 11
-21.41030124027463
 21
-137.6847995778867
  0
LINE
  8
0
  6
CONTINUOUS
 62
     7
 10
-13.41030124027463
 20
-141.6847995778867
 11
-21.41030124027463
 21
-141.6847995778867
  0
LINE
  8
0
  6
CONTINUOUS
 62
     7
 10
-53.41030886966917
 20
152.9197689035586
 11
-53.41030886966917
 21
148.9197689035586
  0
LINE
  8
0
  6
CONTINUOUS
 62
     7
 10
-9.121784241983619
 20
152.4197841623476
 11
-53.4103164990637
 21
152.4197841623476
  0
LINE
  8
0
  6
CONTINUOUS
 62
     7
 10
-9.121784241983619
 20
149.4197841623476
 11
-53.4103164990637
 21
149.4197841623476
  0
LINE
  8
0
  6
CONTINUOUS
 62
     7
 10
-38.9103164990637
 20
-131.6848148366758
 11
-38.9103164990637
 21
-132.6848148366758
  0
LINE
  8
0
  6
CONTINUOUS
 62
     7
 10
-27.9102936108801
 20
-146.1847995778867
 11
-38.41030124027463
 21
-146.1847995778867
  0
LINE
  8
0
  6
CONTINUOUS
 62
     7
 10
-27.91030124027463
 20
-133.1847995778867
 11
-38.41030124027463
 21
-133.1847995778867
  0
LINE
  8
0
  6
CONTINUOUS
 62
     7
 10
-25.4103164990637
 20
-136.9761051198789
 11
-25.4103164990637
 21
-142.3935245534727
  0
LINE
  8
0
  6
CONTINUOUS
 62
     7
 10
-38.9103164990637
 20
-146.6848148366758
 11
-38.9103164990637
 21
-147.6848148366758
  0
LINE
  8
0
  6
CONTINUOUS
 62
     7
 10
-28.41030886966917
 20
-133.6848148366758
 11
-28.41030886966917
 21
-145.6848148366758
  0
LINE
  8
0
  6
CENTER
 62
     7
 10
-24.4103164990637
 20
-132.3212436696836
 11
-24.4103164990637
 21
-137.1715091726133
  0
LINE
  8
0
  6
CENTER
 62
     7
 10
-22.06504062015745
 20
-134.6847995778867
 11
-26.7744293530676
 21
-134.6847995778867
  0
LINE
  8
0
  6
CENTER
 62
     7
 10
-22.15378573734495
 20
-144.6847995778867
 11
-26.75688174564573
 21
-144.6847995778867
  0
LINE
  8
0
  6
CONTINUOUS
 62
     7
 10
-26.91030886966917
 20
-133.1848148366758
 11
-26.91030886966917
 21
-134.6848148366758
  0
LINE
  8
0
  6
CONTINUOUS
 62
     7
 10
-26.91030886966917
 20
-144.6848148366758
 11
-26.91030886966917
 21
-146.1848148366758
  0
LINE
  8
0
  6
CONTINUOUS
 62
     7
 10
-64.4103164990637
 20
143.4197841623476
 11
-76.91033175785276
 21
143.4197841623476
  0
LINE
  8
0
  6
CONTINUOUS
 62
     7
 10
-64.41032412845823
 20
158.4197841623476
 11
-76.91033175785276
 21
158.4197841623476
  0
LINE
  8
0
  6
CONTINUOUS
 62
     7
 10
-77.91033175785276
 20
137.9197841623476
 11
-86.41033175785276
 21
137.9197841623476
  0
LINE
  8
0
  6
CONTINUOUS
 62
     7
 10
-77.91033175785276
 20
163.9197841623476
 11
-86.41033175785276
 21
163.9197841623476
  0
LINE
  8
0
  6
CONTINUOUS
 62
     7
 10
-61.41030886966917
 20
154.4197689035586
 11
-61.41030886966917
 21
147.4197689035586
  0
LINE
  8
0
  6
CONTINUOUS
 62
     7
 10
-86.4103164990637
 20
163.9197689035586
 11
-86.4103164990637
 21
159.4197689035586
  0
LINE
  8
0
  6
CONTINUOUS
 62
     7
 10
-77.4103164990637
 20
163.4197689035586
 11
-77.4103164990637
 21
158.9197689035586
  0
LINE
  8
0
  6
CONTINUOUS
 62
     7
 10
-77.4103164990637
 20
142.9197689035586
 11
-77.4103164990637
 21
138.4197689035586
  0
LINE
  8
0
  6
CONTINUOUS
 62
     7
 10
-61.91030886966917
 20
155.9197689035586
 11
-61.91030886966917
 21
145.9197689035586
  0
LINE
  8
0
  6
CONTINUOUS
 62
     7
 10
-61.4103164990637
 20
147.4197841623476
 11
-61.9103164990637
 21
147.4197841623476
  0
LINE
  8
0
  6
CONTINUOUS
 62
     7
 10
-61.4103164990637
 20
154.4197841623476
 11
-61.9103164990637
 21
154.4197841623476
  0
LINE
  8
0
  6
CONTINUOUS
 62
     7
 10
-85.9103164990637
 20
159.4197689035586
 11
-85.9103164990637
 21
142.4197689035586
  0
LINE
  8
0
  6
CONTINUOUS
 62
     7
 10
-79.41033175785276
 20
159.4197841623476
 11
-86.9103164990637
 21
159.4197841623476
  0
LINE
  8
0
  6
CONTINUOUS
 62
     7
 10
-79.41033175785276
 20
142.4197841623476
 11
-86.9103164990637
 21
142.4197841623476
  0
LINE
  8
0
  6
CONTINUOUS
 62
     7
 10
-86.4103164990637
 20
142.4197689035586
 11
-86.4103164990637
 21
137.9197689035586
  0
LINE
  8
0
  6
CONTINUOUS
 62
     7
 10
-87.4103164990637
 20
156.9197689035586
 11
-87.4103164990637
 21
144.9197689035586
  0
LINE
  8
0
  6
CONTINUOUS
 62
     7
 10
-86.9103164990637
 20
156.9197841623476
 11
-87.41033175785276
 21
156.9197841623476
  0
LINE
  8
0
  6
CONTINUOUS
 62
     7
 10
-86.9103164990637
 20
144.9197841623476
 11
-87.41033175785276
 21
144.9197841623476
  0
LINE
  8
0
  6
CENTER
 62
     7
 10
-86.5592422803137
 20
149.6697841623476
 11
-92.4303360303137
 21
149.6697841623476
  0
LINE
  8
0
  6
CENTER
 62
     7
 10
-86.61336520511838
 20
152.1697841623476
 11
-92.37622836429807
 21
152.1697841623476
  0
LINE
  8
0
  6
CENTER
 62
     7
 10
-86.58629611332151
 20
147.1697841623476
 11
-92.26799777347776
 21
147.1697841623476
  0
LINE
  8
0
  6
CENTER
 62
     7
 10
-86.5592422803137
 20
154.6697841623476
 11
-92.34917453129026
 21
154.6697841623476
  0
LINE
  8
0
  6
CONTINUOUS
 62
     7
 10
-87.41033175785276
 20
154.1697841623476
 11
-91.91033175785276
 21
154.1697841623476
  0
LINE
  8
0
  6
CONTINUOUS
 62
     7
 10
-87.41033175785276
 20
155.1697841623476
 11
-91.91033175785276
 21
155.1697841623476
  0
LINE
  8
0
  6
CONTINUOUS
 62
     7
 10
-87.41033175785276
 20
151.6697841623476
 11
-91.91033175785276
 21
151.6697841623476
  0
LINE
  8
0
  6
CONTINUOUS
 62
     7
 10
-87.41033175785276
 20
152.6697841623476
 11
-91.91033175785276
 21
152.6697841623476
  0
LINE
  8
0
  6
CONTINUOUS
 62
     7
 10
-87.41033175785276
 20
150.1697841623476
 11
-91.91033175785276
 21
150.1697841623476
  0
LINE
  8
0
  6
CONTINUOUS
 62
     7
 10
-87.41033175785276
 20
149.1697841623476
 11
-91.91033175785276
 21
149.1697841623476
  0
LINE
  8
0
  6
CONTINUOUS
 62
     7
 10
-87.41033175785276
 20
147.6697841623476
 11
-91.91033175785276
 21
147.6697841623476
  0
LINE
  8
0
  6
CONTINUOUS
 62
     7
 10
-87.41033175785276
 20
146.6697841623476
 11
-91.91033175785276
 21
146.6697841623476
  0
LINE
  8
0
  6
CONTINUOUS
 62
     7
 10
-91.9103164990637
 20
155.1697689035586
 11
-91.9103164990637
 21
154.1697689035586
  0
LINE
  8
0
  6
CONTINUOUS
 62
     7
 10
-91.9103164990637
 20
152.6697689035586
 11
-91.9103164990637
 21
151.6697689035586
  0
LINE
  8
0
  6
CONTINUOUS
 62
     7
 10
-91.9103164990637
 20
150.1697689035586
 11
-91.9103164990637
 21
149.1697689035586
  0
LINE
  8
0
  6
CONTINUOUS
 62
     7
 10
-91.9103164990637
 20
147.6697689035586
 11
-91.9103164990637
 21
146.6697689035586
  0
LINE
  8
0
  6
CONTINUOUS
 62
     7
 10
-53.4103164990637
 20
152.9197841623476
 11
-61.4103164990637
 21
152.9197841623476
  0
LINE
  8
0
  6
CONTINUOUS
 62
     7
 10
-53.4103164990637
 20
148.9197841623476
 11
-61.4103164990637
 21
148.9197841623476
  0
LINE
  8
0
  6
CONTINUOUS
 62
     7
 10
-78.9103164990637
 20
158.9197689035586
 11
-78.9103164990637
 21
157.9197689035586
  0
LINE
  8
0
  6
CONTINUOUS
 62
     7
 10
-67.91032412845823
 20
144.4197841623476
 11
-78.41033175785276
 21
144.4197841623476
  0
LINE
  8
0
  6
CONTINUOUS
 62
     7
 10
-67.91033175785276
 20
157.4197841623476
 11
-78.41033175785276
 21
157.4197841623476
  0
LINE
  8
0
  6
CONTINUOUS
 62
     7
 10
-65.4103164990637
 20
153.6284786203555
 11
-65.4103164990637
 21
148.2110591867617
  0
LINE
  8
0
  6
CONTINUOUS
 62
     7
 10
-78.9103164990637
 20
143.9197689035586
 11
-78.9103164990637
 21
142.9197689035586
  0
LINE
  8
0
  6
CONTINUOUS
 62
     7
 10
-68.4103164990637
 20
156.9197689035586
 11
-68.4103164990637
 21
144.9197689035586
  0
LINE
  8
0
  6
CENTER
 62
     7
 10
-64.4103164990637
 20
158.1393123605898
 11
-64.4103164990637
 21
153.7006526926211
  0
LINE
  8
0
  6
CENTER
 62
     7
 10
-62.12705996830198
 20
155.9197841623476
 11
-66.69920352298948
 21
155.9197841623476
  0
LINE
  8
0
  6
CENTER
 62
     7
 10
-62.1604385693762
 20
145.9197841623476
 11
-66.69920352298948
 21
145.9197841623476
  0
LINE
  8
0
  6
CONTINUOUS
 62
     7
 10
-66.9103164990637
 20
157.4197689035586
 11
-66.9103164990637
 21
155.9197689035586
  0
LINE
  8
0
  6
CONTINUOUS
 62
     7
 10
-66.9103164990637
 20
145.9197689035586
 11
-66.9103164990637
 21
144.4197689035586
  0
LINE
  8
0
  6
CONTINUOUS
 62
     7
 10
-13.41030886966917
 20
-137.6848148366758
 11
-13.41030886966917
 21
-141.6848148366758
  0
LINE
  8
0
  6
CONTINUOUS
 62
     7
 10
30.87823864619998
 20
-138.1847995778867
 11
-13.41030124027463
 21
-138.1847995778867
  0
LINE
  8
0
  6
CONTINUOUS
 62
     7
 10
30.87823864619998
 20
-141.1847995778867
 11
-13.41030124027463
 21
-141.1847995778867
  0
LINE
  8
0
  6
CONTINUOUS
 62
     7
 10
-77.4103164990637
 20
115.4197917917422
 11
-77.4103164990637
 21
110.9197917917422
  0
LINE
  8
0
  6
CONTINUOUS
 62
     7
 10
-86.4103164990637
 20
119.4197917917422
 11
-86.4103164990637
 21
107.9197917917422
  0
LINE
  8
0
  6
CONTINUOUS
 62
     7
 10
-61.9103164990637
 20
114.4197917917422
 11
-61.9103164990637
 21
106.9197917917422
  0
LINE
  8
0
  6
CONTINUOUS
 62
     7
 10
-53.41030886966917
 20
112.9197917917422
 11
-53.41030886966917
 21
108.9197917917422
  0
LINE
  8
0
  6
CONTINUOUS
 62
     7
 10
-86.4103164990637
 20
110.9197917917422
 11
-61.9103164990637
 21
110.9197917917422
  0
LINE
  8
0
  6
CONTINUOUS
 62
     7
 10
-66.9103164990637
 20
115.4197917917422
 11
-62.41032412845823
 21
115.4197917917422
  0
LINE
  8
0
  6
CONTINUOUS
 62
     7
 10
-86.4103164990637
 20
119.4197917917422
 11
-68.82451632816526
 21
119.4197917917422
  0
LINE
  8
0
  6
CONTINUOUS
 62
     7
 10
-68.11738458210381
 20
119.1268821214691
 11
-65.70319762525894
 21
116.7126829545485
  0
LINE
  8
0
  6
CONTINUOUS
 62
     7
 10
-66.9103164990637
 20
115.4197917917422
 11
-66.9103164990637
 21
115.4197917917422
  0
LINE
  8
0
  6
CONTINUOUS
 62
     7
 10
-86.4103164990637
 20
116.4197917917422
 11
-67.9103164990637
 21
116.4197917917422
  0
LINE
  8
0
  6
CONTINUOUS
 62
     7
 10
-78.9103164990637
 20
118.4197917917422
 11
-78.9103164990637
 21
116.4197917917422
  0
LINE
  8
0
  6
CONTINUOUS
 62
     7
 10
-66.9103164990637
 20
117.9197994211367
 11
-66.9103164990637
 21
115.4197917917422
  0
LINE
  8
0
  6
CONTINUOUS
 62
     7
 10
-85.9103164990637
 20
107.4197917917422
 11
-62.4103164990637
 21
107.4197917917422
  0
LINE
  8
0
  6
CONTINUOUS
 62
     7
 10
-83.9103164990637
 20
106.4197917917422
 11
-79.9103164990637
 21
106.4197917917422
  0
LINE
  8
0
  6
CONTINUOUS
 62
     7
 10
-61.9103164990637
 20
112.9197917917422
 11
-53.41030886966917
 21
112.9197917917422
  0
LINE
  8
0
  6
CONTINUOUS
 62
     7
 10
-61.9103164990637
 20
108.9197917917422
 11
-53.41030886966917
 21
108.9197917917422
  0
LINE
  8
0
  6
CENTER
 62
     7
 10
-61.9103164990637
 20
110.9197917917422
 11
-39.66279605228635
 21
110.9197917917422
  0
LINE
  8
0
  6
CONTINUOUS
 62
     7
 10
-53.41030886966917
 20
109.4197917917422
 11
-41.05598452884885
 21
109.4197917917422
  0
LINE
  8
0
  6
CONTINUOUS
 62
     7
 10
-53.41030886966917
 20
112.4197917917422
 11
-41.05598452884885
 21
112.4197917917422
  0
LINE
  8
0
  6
CENTER
 62
     7
 10
-36.17324832279417
 20
-150.1847995778867
 11
-48.22498324711057
 21
-150.1847995778867
  0
LINE
  8
0
  6
CENTER
 62
     7
 10
-35.49618533451292
 20
-129.1847995778867
 11
-48.08957675296995
 21
-129.1847995778867
  0
LINE
  8
0
  6
CONTINUOUS
 62
     7
 10
-46.9103164990637
 20
-131.1848148366758
 11
-46.9103164990637
 21
-148.1848148366758
  0
LINE
  8
0
  6
CONTINUOUS
 62
     7
 10
-87.4103164990637
 20
117.4197917917422
 11
-87.4103164990637
 21
109.6197887399844
  0
LINE
  8
0
  6
CONTINUOUS
 62
     7
 10
-86.9103164990637
 20
117.4197917917422
 11
-86.9103164990637
 21
109.6197887399844
  0
LINE
  8
0
  6
CONTINUOUS
 62
     7
 10
-93.2753067334387
 20
111.5197902658633
 11
-85.61289218265745
 21
111.5197902658633
  0
LINE
  8
0
  6
CONTINUOUS
 62
     7
 10
-92.96466830570432
 20
115.5197902658633
 11
-85.61289218265745
 21
115.5197902658633
  0
LINE
  8
0
  6
CONTINUOUS
 62
     7
 10
-87.4103164990637
 20
117.4197917917422
 11
-86.4103164990637
 21
117.4197917917422
  0
LINE
  8
0
  6
CONTINUOUS
 62
     7
 10
-87.4103164990637
 20
109.6197887399844
 11
-86.4103164990637
 21
109.6197887399844
  0
LINE
  8
0
  6
CONTINUOUS
 62
     7
 10
-91.9103164990637
 20
116.0197902658633
 11
-91.9103164990637
 21
115.0197902658633
  0
LINE
  8
0
  6
CONTINUOUS
 62
     7
 10
-91.9103164990637
 20
115.0197902658633
 11
-87.4103164990637
 21
115.0197902658633
  0
LINE
  8
0
  6
CONTINUOUS
 62
     7
 10
-91.9103164990637
 20
116.0197902658633
 11
-87.4103164990637
 21
116.0197902658633
  0
LINE
  8
0
  6
CONTINUOUS
 62
     7
 10
-91.9103164990637
 20
111.0197902658633
 11
-87.4103164990637
 21
111.0197902658633
  0
LINE
  8
0
  6
CONTINUOUS
 62
     7
 10
-91.9103164990637
 20
112.0197902658633
 11
-87.4103164990637
 21
112.0197902658633
  0
LINE
  8
0
  6
CONTINUOUS
 62
     7
 10
-91.9103164990637
 20
112.0197902658633
 11
-91.9103164990637
 21
111.0197902658633
  0
LINE
  8
0
  6
CONTINUOUS
 62
     7
 10
-67.4103164990637
 20
106.9197917917422
 11
-61.9103164990637
 21
106.9197917917422
  0
LINE
  8
0
  6
CENTER
 62
     7
 10
-76.41445163089963
 20
140.4197841623476
 11
-87.61139682132932
 21
140.4197841623476
  0
LINE
  8
0
  6
CENTER
 62
     7
 10
-76.13799289066526
 20
161.4197841623476
 11
-87.47316745121213
 21
161.4197841623476
  0
LINE
  8
0
  6
CONTINUOUS
 62
     7
 10
-86.9103164990637
 20
159.4197689035586
 11
-86.9103164990637
 21
142.4197689035586
  0
LINE
  8
0
  6
CONTINUOUS
 62
     7
 10
-64.21033480961057
 20
147.0522457101992
 11
-64.21033480961057
 21
146.6197811105898
  0
LINE
  8
0
  6
CONTINUOUS
 62
     7
 10
-64.61032870609495
 20
147.0522457101992
 11
-64.61032870609495
 21
146.6197811105898
  0
LINE
  8
0
  6
CONTINUOUS
 62
     7
 10
-63.2778473218176
 20
145.7197872141055
 11
-63.71033480961057
 21
145.7197872141055
  0
LINE
  8
0
  6
CONTINUOUS
 62
     7
 10
-63.27785495121213
 20
146.1197811105898
 11
-63.71033480961057
 21
146.1197811105898
  0
LINE
  8
0
  6
CENTER
 62
     7
 10
-24.4103164990637
 20
-142.2400821706602
 11
-24.4103164990637
 21
-146.998337175543
  0
LINE
  8
0
  6
CONTINUOUS
 62
     7
 10
-64.61032870609495
 20
145.2197872141055
 11
-64.61032870609495
 21
144.787292096918
  0
LINE
  8
0
  6
CONTINUOUS
 62
     7
 10
-64.21033480961057
 20
145.2197872141055
 11
-64.21033480961057
 21
144.787292096918
  0
LINE
  8
0
  6
CONTINUOUS
 62
     7
 10
-65.11032870609495
 20
145.7197872141055
 11
-65.54280093509885
 21
145.7197872141055
  0
LINE
  8
0
  6
CONTINUOUS
 62
     7
 10
-65.11032870609495
 20
146.1197811105898
 11
-65.54279330570432
 21
146.1197811105898
  0
LINE
  8
0
  6
CONTINUOUS
 62
     7
 10
-24.21031955082151
 20
-133.5523380300352
 11
-24.21031955082151
 21
-133.9848026296446
  0
LINE
  8
0
  6
CONTINUOUS
 62
     7
 10
-24.61031344730588
 20
-133.5523380300352
 11
-24.61031344730588
 21
-133.9848026296446
  0
LINE
  8
0
  6
CONTINUOUS
 62
     7
 10
-23.27783206302854
 20
-134.8847965261289
 11
-23.71031955082151
 21
-134.8847965261289
  0
LINE
  8
0
  6
CONTINUOUS
 62
     7
 10
-23.27783969242307
 20
-134.4848026296446
 11
-23.71031955082151
 21
-134.4848026296446
  0
LINE
  8
0
  6
CONTINUOUS
 62
     7
 10
-24.61031344730588
 20
-135.3847965261289
 11
-24.61031344730588
 21
-135.8172916433164
  0
LINE
  8
0
  6
CONTINUOUS
 62
     7
 10
-24.21031955082151
 20
-135.3847965261289
 11
-24.21031955082151
 21
-135.8172916433164
  0
LINE
  8
0
  6
CONTINUOUS
 62
     7
 10
-25.11031344730588
 20
-134.8847965261289
 11
-25.54278567630979
 21
-134.8847965261289
  0
LINE
  8
0
  6
CONTINUOUS
 62
     7
 10
-25.11031344730588
 20
-134.4848026296446
 11
-25.54277804691526
 21
-134.4848026296446
  0
LINE
  8
0
  6
CONTINUOUS
 62
     7
 10
-24.21031955082151
 20
-143.5523380300352
 11
-24.21031955082151
 21
-143.9848026296446
  0
LINE
  8
0
  6
CONTINUOUS
 62
     7
 10
-24.61031344730588
 20
-143.5523380300352
 11
-24.61031344730588
 21
-143.9848026296446
  0
LINE
  8
0
  6
CONTINUOUS
 62
     7
 10
-23.27783206302854
 20
-144.8847965261289
 11
-23.71031955082151
 21
-144.8847965261289
  0
LINE
  8
0
  6
CONTINUOUS
 62
     7
 10
-23.27783969242307
 20
-144.4848026296446
 11
-23.71031955082151
 21
-144.4848026296446
  0
LINE
  8
0
  6
CONTINUOUS
 62
     7
 10
-24.61031344730588
 20
-145.3847965261289
 11
-24.61031344730588
 21
-145.8172916433164
  0
LINE
  8
0
  6
CONTINUOUS
 62
     7
 10
-24.21031955082151
 20
-145.3847965261289
 11
-24.21031955082151
 21
-145.8172916433164
  0
LINE
  8
0
  6
CONTINUOUS
 62
     7
 10
-25.11031344730588
 20
-144.8847965261289
 11
-25.54278567630979
 21
-144.8847965261289
  0
LINE
  8
0
  6
CONTINUOUS
 62
     7
 10
-25.11031344730588
 20
-144.4848026296446
 11
-25.54277804691526
 21
-144.4848026296446
  0
LINE
  8
0
  6
CONTINUOUS
 62
     7
 10
-64.21033480961057
 20
157.0522457101992
 11
-64.21033480961057
 21
156.6197811105898
  0
LINE
  8
0
  6
CONTINUOUS
 62
     7
 10
-64.61032870609495
 20
157.0522457101992
 11
-64.61032870609495
 21
156.6197811105898
  0
LINE
  8
0
  6
CONTINUOUS
 62
     7
 10
-63.2778473218176
 20
155.7197872141055
 11
-63.71033480961057
 21
155.7197872141055
  0
LINE
  8
0
  6
CONTINUOUS
 62
     7
 10
-63.27785495121213
 20
156.1197811105898
 11
-63.71033480961057
 21
156.1197811105898
  0
LINE
  8
0
  6
CONTINUOUS
 62
     7
 10
-64.61032870609495
 20
155.2197872141055
 11
-64.61032870609495
 21
154.787292096918
  0
LINE
  8
0
  6
CONTINUOUS
 62
     7
 10
-64.21033480961057
 20
155.2197872141055
 11
-64.21033480961057
 21
154.787292096918
  0
LINE
  8
0
  6
CONTINUOUS
 62
     7
 10
-65.11032870609495
 20
155.7197872141055
 11
-65.54280093509885
 21
155.7197872141055
  0
LINE
  8
0
  6
CONTINUOUS
 62
     7
 10
-65.11032870609495
 20
156.1197811105898
 11
-65.54279330570432
 21
156.1197811105898
  0
LINE
  8
0
  6
CENTER
 62
     7
 10
-64.4103164990637
 20
148.093932721918
 11
-64.4103164990637
 21
143.6552883127383
  0
LINE
  8
0
  6
CONTINUOUS
 62
     7
 10
-66.41032412845823
 20
115.9197917917422
 11
-66.41032412845823
 21
115.4197917917422
  0
LINE
  8
0
  6
CONTINUOUS
 62
     7
 10
-62.41032412845823
 20
115.9197917917422
 11
-62.41032412845823
 21
115.4197917917422
  0
LINE
  8
0
  6
CONTINUOUS
 62
     7
 10
-66.41032412845823
 20
115.9197917917422
 11
-62.41032412845823
 21
115.9197917917422
  0
LINE
  8
0
  6
CENTER
 62
     7
 10
56.4227739437945
 20
-54.8065462624152
 11
60.42278157797158
 21
-47.87834743973949
  0
LINE
  8
0
  6
CENTER
 62
     7
 10
126.4227669348169
 20
-54.80662227936762
 11
122.422775768333
 21
-47.87841394906671
  0
LINE
  8
0
  6
CENTER
 62
     7
 10
152.0446339775318
 20
40.81517996434381
 11
145.1164293883333
 21
36.81518231806833
  0
LINE
  8
0
  6
CENTER
 62
     7
 10
126.4228722069526
 20
66.43696234475459
 11
122.422868823807
 21
59.50876106774017
  0
LINE
  8
0
  6
CENTER
 62
     7
 10
56.42288703572012
 20
66.43699478099447
 11
60.42288263205403
 21
59.50878900826302
  0
LINE
  8
0
  6
CENTER
 62
     7
 10
30.8010872163451
 20
40.81525305838979
 11
37.7292871033473
 21
36.81524726767614
  0
LINE
  8
0
  6
CENTER
 62
     7
 10
30.80103877045195
 20
-29.18473778581847
 11
37.72924581398309
 21
-25.18474439057825
  0
LINE
  8
0
  6
CENTER
 62
     7
 10
152.0445733098184
 20
-29.18488419955101
 11
145.1163755514696
 21
-25.18487472191082
  0
LINE
  8
0
  6
CONTINUOUS
 62
     7
 10
63.42284273104229
 20
-103.8298395057194
 11
78.4228319961332
 21
-109.2893888322983
  0
LINE
  8
0
  6
CONTINUOUS
 62
     7
 10
104.4228558065207
 20
-109.2893888322982
 11
119.4228450716116
 21
-103.8298395057193
  0
LINE
  8
0
  6
CONTINUOUS
 62
     7
 10
63.42284273104221
 20
115.4602403499462
 11
78.42283199613311
 21
120.9197896765251
  0
LINE
  8
0
  6
CONTINUOUS
 62
     7
 10
104.4228558065206
 20
120.9197896765249
 11
119.4228450716115
 21
115.460240349946
  0
LINE
  8
0
  6
CENTER
 62
     7
 10
166.8564492457351
 20
-69.61840492229487
 11
158.8247975670082
 21
-61.58675324356799
  0
LINE
  8
0
  6
CENTER
 62
     7
 10
15.98923855691876
 20
-69.61840492229486
 11
24.02089023564564
 21
-61.58675324356798
  0
LINE
  8
0
  6
CENTER
 62
     7
 10
166.856449245735
 20
81.24880576652139
 11
158.8247975670082
 21
73.21715408779448
  0
LINE
  8
0
  6
CENTER
 62
     7
 10
15.98923855691879
 20
81.24880576652139
 11
24.02089023564566
 21
73.21715408779451
  0
LINE
  8
0
  6
CONTINUOUS
 62
     7
 10
106.9760234116834
 20
-101.6847996605674
 11
107.6994286753877
 21
-100.4318245577921
  0
LINE
  8
0
  6
CONTINUOUS
 62
     7
 10
109.1462398099762
 20
-100.4318245908567
 11
107.6994287299973
 21
-100.4318245908567
  0
LINE
  8
0
  6
CONTINUOUS
 62
     7
 10
109.8696453174843
 20
-101.6847994421049
 11
109.146239864586
 21
-100.4318244485608
  0
LINE
  8
0
  6
CONTINUOUS
 62
     7
 10
109.8696453174844
 20
-101.6847994952063
 11
109.1462400537801
 21
-102.9377745979816
  0
LINE
  8
0
  6
CONTINUOUS
 62
     7
 10
109.1462399991702
 20
-102.9377745649168
 11
107.6994289191913
 21
-102.9377745649168
  0
LINE
  8
0
  6
CONTINUOUS
 62
     7
 10
106.9760234116832
 20
-101.6847997136686
 11
107.6994288645815
 21
-102.9377747072128
  0
LINE
  8
0
  6
CONTINUOUS
 62
     7
 10
112.2874643546309
 20
-91.6872197648832
 11
110.5582079631056
 21
-91.6872197648832
  0
LINE
  8
0
  6
CONTINUOUS
 62
     7
 10
109.6935800873711
 20
-93.18479954233865
 11
110.5582079703664
 21
-91.68721960352143
  0
LINE
  8
0
  6
CONTINUOUS
 62
     7
 10
113.1520924564939
 20
-93.18479928122814
 11
112.2874643473703
 21
-91.68721947296612
  0
LINE
  8
0
  6
CONTINUOUS
 62
     7
 10
113.152092456494
 20
-93.18479961343496
 11
112.2874645734987
 21
-94.68237955225219
  0
LINE
  8
0
  6
CONTINUOUS
 62
     7
 10
112.2874645807592
 20
-94.68237939089028
 11
110.5582081892339
 21
-94.68237939089028
  0
LINE
  8
0
  6
CONTINUOUS
 62
     7
 10
109.6935800873709
 20
-93.18479987454532
 11
110.5582081964945
 21
-94.68237968280735
  0
LINE
  8
0
  6
CONTINUOUS
 62
     7
 10
70.97602341168344
 20
-101.6847996605674
 11
71.69942867538779
 21
-100.4318245577921
  0
LINE
  8
0
  6
CONTINUOUS
 62
     7
 10
73.14623980997624
 20
-100.4318245908567
 11
71.69942872999729
 21
-100.4318245908567
  0
LINE
  8
0
  6
CONTINUOUS
 62
     7
 10
73.86964531748433
 20
-101.6847994421049
 11
73.14623986458601
 21
-100.4318244485608
  0
LINE
  8
0
  6
CONTINUOUS
 62
     7
 10
73.86964531748444
 20
-101.6847994952063
 11
73.14624005378009
 21
-102.9377745979816
  0
LINE
  8
0
  6
CONTINUOUS
 62
     7
 10
73.14623999917023
 20
-102.9377745649168
 11
71.69942891919129
 21
-102.9377745649168
  0
LINE
  8
0
  6
CONTINUOUS
 62
     7
 10
70.97602341168319
 20
-101.6847997136686
 11
71.69942886458151
 21
-102.9377747072127
  0
LINE
  8
0
  6
CONTINUOUS
 62
     7
 10
72.28746435463091
 20
-91.6872197648832
 11
70.55820796310564
 21
-91.6872197648832
  0
LINE
  8
0
  6
CONTINUOUS
 62
     7
 10
69.6935800873711
 20
-93.18479954233868
 11
70.55820797036641
 21
-91.68721960352146
  0
LINE
  8
0
  6
CONTINUOUS
 62
     7
 10
73.1520924564939
 20
-93.18479928122819
 11
72.28746434737033
 21
-91.68721947296616
  0
LINE
  8
0
  6
CONTINUOUS
 62
     7
 10
73.15209245649407
 20
-93.184799613435
 11
72.28746457349877
 21
-94.68237955225223
  0
LINE
  8
0
  6
CONTINUOUS
 62
     7
 10
72.28746458075915
 20
-94.68237939089028
 11
70.55820818923388
 21
-94.68237939089028
  0
LINE
  8
0
  6
CONTINUOUS
 62
     7
 10
69.6935800873709
 20
-93.18479987454532
 11
70.55820819649448
 21
-94.68237968280735
  0
LINE
  8
0
  6
CONTINUOUS
 62
     7
 10
108.9760253190321
 20
113.3152003394326
 11
109.6994305827364
 21
114.5681754422079
  0
LINE
  8
0
  6
CONTINUOUS
 62
     7
 10
111.1462417173249
 20
114.5681754091433
 11
109.6994306373459
 21
114.5681754091433
  0
LINE
  8
0
  6
CONTINUOUS
 62
     7
 10
111.869647224833
 20
113.3152005578951
 11
111.1462417719347
 21
114.5681755514392
  0
LINE
  8
0
  6
CONTINUOUS
 62
     7
 10
111.8696472248331
 20
113.3152005047936
 11
111.1462419611288
 21
112.0622254020183
  0
LINE
  8
0
  6
CONTINUOUS
 62
     7
 10
111.1462419065189
 20
112.0622254350832
 11
109.6994308265399
 21
112.0622254350832
  0
LINE
  8
0
  6
CONTINUOUS
 62
     7
 10
108.9760253190318
 20
113.3152002863314
 11
109.6994307719301
 21
112.0622252927873
  0
LINE
  8
0
  6
CONTINUOUS
 62
     7
 10
72.97602531903213
 20
113.3152003394325
 11
73.69943058273647
 21
114.5681754422078
  0
LINE
  8
0
  6
CONTINUOUS
 62
     7
 10
75.14624171732487
 20
114.5681754091433
 11
73.69943063734593
 21
114.5681754091433
  0
LINE
  8
0
  6
CONTINUOUS
 62
     7
 10
75.86964722483288
 20
113.3152005578952
 11
75.14624177193456
 21
114.5681755514393
  0
LINE
  8
0
  6
CONTINUOUS
 62
     7
 10
75.86964722483315
 20
113.3152005047936
 11
75.14624196112879
 21
112.0622254020183
  0
LINE
  8
0
  6
CONTINUOUS
 62
     7
 10
75.14624190651887
 20
112.0622254350832
 11
73.69943082653992
 21
112.0622254350832
  0
LINE
  8
0
  6
CONTINUOUS
 62
     7
 10
72.97602531903181
 20
113.3152002863315
 11
73.69943077193013
 21
112.0622252927873
  0
LINE
  8
0
  6
CONTINUOUS
 62
     7
 10
72.28746435463091
 20
106.3127802351168
 11
70.55820796310564
 21
106.3127802351168
  0
LINE
  8
0
  6
CONTINUOUS
 62
     7
 10
69.6935800873711
 20
104.8152004576612
 11
70.55820797036641
 21
106.3127803964785
  0
LINE
  8
0
  6
CONTINUOUS
 62
     7
 10
73.15209245649392
 20
104.8152007187719
 11
72.28746434737035
 21
106.3127805270339
  0
LINE
  8
0
  6
CONTINUOUS
 62
     7
 10
73.15209245649419
 20
104.8152003865649
 11
72.2874645734989
 21
103.3176204477477
  0
LINE
  8
0
  6
CONTINUOUS
 62
     7
 10
72.28746458075915
 20
103.3176206091097
 11
70.55820818923388
 21
103.3176206091097
  0
LINE
  8
0
  6
CONTINUOUS
 62
     7
 10
69.69358008737092
 20
104.8152001254547
 11
70.55820819649449
 21
103.3176203171926
  0
LINE
  8
0
  6
CONTINUOUS
 62
     7
 10
112.2874643546309
 20
106.3127802351168
 11
110.5582079631056
 21
106.3127802351168
  0
LINE
  8
0
  6
CONTINUOUS
 62
     7
 10
109.6935800873711
 20
104.8152004576612
 11
110.5582079703664
 21
106.3127803964785
  0
LINE
  8
0
  6
CONTINUOUS
 62
     7
 10
113.1520924564939
 20
104.8152007187719
 11
112.2874643473704
 21
106.3127805270339
  0
LINE
  8
0
  6
CONTINUOUS
 62
     7
 10
113.1520924564941
 20
104.8152003865649
 11
112.2874645734987
 21
103.3176204477477
  0
LINE
  8
0
  6
CONTINUOUS
 62
     7
 10
112.2874645807592
 20
103.3176206091097
 11
110.5582081892339
 21
103.3176206091097
  0
LINE
  8
0
  6
CONTINUOUS
 62
     7
 10
109.693580087371
 20
104.8152001254547
 11
110.5582081964946
 21
103.3176203171926
  0
LINE
  8
0
  6
CENTER
 62
     7
 10
-203.6202161466243
 20
71.81520042211326
 11
-187.3075025235775
 21
71.81520042211326
  0
LINE
  8
0
  6
CENTER
 62
     7
 10
-223.9552381192806
 20
5.815200422113264
 11
-179.9332349454525
 21
5.815200422113264
  0
LINE
  8
0
  6
CONTINUOUS
 62
     7
 10
-199.6624524747493
 20
97.40019950658592
 11
-199.6624524747493
 21
-85.76979866235939
  0
LINE
  8
0
  6
CONTINUOUS
 62
     7
 10
-201.7851331388118
 20
-60.18479957788671
 11
-180.9880139981868
 21
-60.18479957788671
  0
LINE
  8
0
  6
CONTINUOUS
 62
     7
 10
-199.6624524747493
 20
-85.76979866235936
 11
-189.6624524747493
 21
-85.76979866235936
  0
LINE
  8
0
  6
CONTINUOUS
 62
     7
 10
-191.1624524747493
 20
77.81520042211326
 11
-191.1624524747493
 21
5.815200422113264
  0
LINE
  8
0
  6
CONTINUOUS
 62
     7
 10
-183.6624524747493
 20
85.21713218480858
 11
-183.6624524747493
 21
-85.76979866235939
  0
LINE
  8
0
  6
CONTINUOUS
 62
     7
 10
-188.6624524747493
 20
5.815200422113264
 11
-188.6624524747493
 21
-85.76979866235939
  0
LINE
  8
0
  6
CONTINUOUS
 62
     7
 10
-189.6624524747493
 20
5.815200422113264
 11
-189.6624524747493
 21
-85.76979866235939
  0
LINE
  8
0
  6
CONTINUOUS
 62
     7
 10
-189.6624524747493
 20
-84.76979866235936
 11
-188.6624524747493
 21
-84.76979866235936
  0
LINE
  8
0
  6
CONTINUOUS
 62
     7
 10
-188.6624524747493
 20
-85.76979866235936
 11
-187.6624524747493
 21
-85.76979866235936
  0
LINE
  8
0
  6
CONTINUOUS
 62
     7
 10
-202.6624524747493
 20
5.815200422113264
 11
-202.6624524747493
 21
-119.1455234548399
  0
LINE
  8
0
  6
CONTINUOUS
 62
     7
 10
-221.5021131192806
 20
85.81520042211326
 11
-202.6624524747493
 21
85.81520042211326
  0
LINE
  8
0
  6
CONTINUOUS
 62
     7
 10
-207.662504399354
 20
5.81515955487474
 11
-202.6624992165695
 21
0.8151539506213368
  0
LINE
  8
0
  6
CONTINUOUS
 62
     7
 10
-187.6624524747493
 20
120.9197917917422
 11
-187.6624524747493
 21
111.3152004221133
  0
LINE
  8
0
  6
CENTER
 62
     7
 10
-211.9861219083431
 20
-93.18479957788671
 11
-182.2722547208431
 21
-93.18479957788671
  0
LINE
  8
0
  6
CONTINUOUS
 62
     7
 10
-187.6624524747493
 20
-82.28939094751561
 11
-186.0624463712337
 21
-82.28939094751561
  0
LINE
  8
0
  6
CENTER
 62
     7
 10
-210.9229810392025
 20
104.8152004221133
 11
-182.6078565274837
 21
104.8152004221133
  0
LINE
  8
0
  6
CONTINUOUS
 62
     7
 10
-187.6624524747493
 20
-82.28939094751564
 11
-187.6624524747493
 21
-109.2893909475156
  0
LINE
  8
0
  6
CONTINUOUS
 62
     7
 10
-186.0624463712337
 20
120.9197917917422
 11
-186.0624463712337
 21
97.41520042211326
  0
LINE
  8
0
  6
CONTINUOUS
 62
     7
 10
-186.0624463712337
 20
-82.28939094751564
 11
-186.0624463712337
 21
-109.2893909475156
  0
LINE
  8
0
  6
CONTINUOUS
 62
     7
 10
-187.6624524747493
 20
-109.2893909475156
 11
-186.0624463712337
 21
-109.2893909475156
  0
LINE
  8
0
  6
CONTINUOUS
 62
     7
 10
-186.0624463712337
 20
-85.76979866235936
 11
-183.6624524747493
 21
-85.76979866235936
  0
LINE
  8
0
  6
CONTINUOUS
 62
     7
 10
-202.6624524747493
 20
-87.68479957788671
 11
-187.6624524747493
 21
-87.68479957788671
  0
LINE
  8
0
  6
CONTINUOUS
 62
     7
 10
-202.6624524747493
 20
-104.6847995778867
 11
-187.6624524747493
 21
-104.6847995778867
  0
LINE
  8
0
  6
CONTINUOUS
 62
     7
 10
-202.6624524747493
 20
99.31520042211326
 11
-200.9602735196712
 21
99.31520042211326
  0
LINE
  8
0
  6
CENTER
 62
     7
 10
-194.1624524747493
 20
118.5802150705508
 11
-194.1624524747493
 21
95.97608909398826
  0
LINE
  8
0
  6
CONTINUOUS
 62
     7
 10
-186.8624341642025
 20
104.5151973703555
 11
-186.8624341642025
 21
100.9151988962344
  0
LINE
  8
0
  6
CONTINUOUS
 62
     7
 10
-201.4624707852962
 20
104.5151973703555
 11
-201.4624707852962
 21
100.9151988962344
  0
LINE
  8
0
  6
CONTINUOUS
 62
     7
 10
-186.3624341642025
 20
109.8152004221133
 11
-186.3624341642025
 21
104.5151973703555
  0
LINE
  8
0
  6
CONTINUOUS
 62
     7
 10
-201.9624707852962
 20
109.8152004221133
 11
-201.9624707852962
 21
104.5151973703555
  0
LINE
  8
0
  6
CONTINUOUS
 62
     7
 10
-201.9624707852962
 20
104.5151973703555
 11
-186.3624341642025
 21
104.5151973703555
  0
LINE
  8
0
  6
CONTINUOUS
 62
     7
 10
-198.6624524747493
 20
98.11519584447655
 11
-189.6624524747493
 21
98.11519584447655
  0
LINE
  8
0
  6
CONTINUOUS
 62
     7
 10
-187.6624524747493
 20
98.95560416967186
 11
-187.6624524747493
 21
97.41520042211326
  0
LINE
  8
0
  6
CENTER
 62
     7
 10
-194.1624524747493
 20
-84.45210304468361
 11
-194.1624524747493
 21
-107.2376255056211
  0
LINE
  8
0
  6
CONTINUOUS
 62
     7
 10
-191.4124524747493
 20
-85.76979866235939
 11
-191.4124524747493
 21
-86.48479500025002
  0
LINE
  8
0
  6
CONTINUOUS
 62
     7
 10
-198.6624524747493
 20
-86.48479500024999
 11
-189.6624524747493
 21
-86.48479500024999
  0
LINE
  8
0
  6
CONTINUOUS
 62
     7
 10
-196.9124524747493
 20
-85.76979866235939
 11
-196.9124524747493
 21
-86.48479500025002
  0
LINE
  8
0
  6
CONTINUOUS
 62
     7
 10
-191.4124524747493
 20
98.11519584447655
 11
-191.4124524747493
 21
97.41520042211326
  0
LINE
  8
0
  6
CONTINUOUS
 62
     7
 10
-196.9124524747493
 20
98.11519584447655
 11
-196.9124524747493
 21
97.41520042211326
  0
LINE
  8
0
  6
CONTINUOUS
 62
     7
 10
-209.733841527874
 20
-112.1140260694588
 11
-202.6627686192354
 21
-119.1850995741444
  0
LINE
  8
0
  6
CONTINUOUS
 62
     7
 10
-209.7336424682988
 20
2.886205877401011
 11
-202.6625749544565
 21
-4.184862232487674
  0
LINE
  8
0
  6
CONTINUOUS
 62
     7
 10
-209.7336966269998
 20
-2.113810305709066
 11
-202.6626399027503
 21
-9.184867626004078
  0
LINE
  8
0
  6
CONTINUOUS
 62
     7
 10
-209.7336321001757
 20
-7.113837278417364
 11
-202.662586165519
 21
-14.1848838091187
  0
LINE
  8
0
  6
CONTINUOUS
 62
     7
 10
-209.7336107317222
 20
-12.11379951356425
 11
-202.6625432178799
 21
-19.18486762345293
  0
LINE
  8
0
  6
CONTINUOUS
 62
     7
 10
-209.7336325216429
 20
-17.11380490708206
 11
-202.6625650078006
 21
-24.18487301697074
  0
LINE
  8
0
  6
CONTINUOUS
 62
     7
 10
-209.7336327323804
 20
-22.11387503816037
 11
-202.6625652185382
 21
-29.18494314804906
  0
LINE
  8
0
  6
CONTINUOUS
 62
     7
 10
-209.733654522301
 20
-27.11388043167864
 11
-202.6625870084587
 21
-34.18494854156732
  0
LINE
  8
0
  6
CONTINUOUS
 62
     7
 10
-209.7336547330363
 20
-32.11390740438425
 11
-202.6625872191941
 21
-39.18497551427286
  0
LINE
  8
0
  6
CONTINUOUS
 62
     7
 10
-209.7337196813287
 20
-37.11386963952731
 11
-202.6626521674864
 21
-44.18493774941599
  0
LINE
  8
0
  6
CONTINUOUS
 62
     7
 10
-209.7336551545056
 20
-42.11391819142196
 11
-202.6625876406633
 21
-49.18498630131064
  0
LINE
  8
0
  6
CONTINUOUS
 62
     7
 10
-209.7336553652407
 20
-47.11394516412716
 11
-202.662609430584
 21
-54.18499169482851
  0
LINE
  8
0
  6
CONTINUOUS
 62
     7
 10
-209.7336771551617
 20
-52.11395055764479
 11
-202.6626096413194
 21
-59.18501866753347
  0
LINE
  8
0
  6
CONTINUOUS
 62
     7
 10
-209.733698945083
 20
-57.11395595116326
 11
-202.6626314312408
 21
-64.18502406105188
  0
LINE
  8
0
  6
CONTINUOUS
 62
     7
 10
-209.733677576631
 20
-62.11396134468326
 11
-202.6626100627888
 21
-69.18502945457186
  0
LINE
  8
0
  6
CONTINUOUS
 62
     7
 10
-209.7337425249245
 20
-67.11396673819954
 11
-202.6626750110822
 21
-74.18503484808822
  0
LINE
  8
0
  6
CONTINUOUS
 62
     7
 10
-209.7336995772866
 20
-72.11399371090663
 11
-202.6626320634443
 21
-79.18506182079531
  0
LINE
  8
0
  6
CONTINUOUS
 62
     7
 10
-209.7337429463934
 20
-77.11397752523742
 11
-202.6626646429583
 21
-84.18505642471979
  0
LINE
  8
0
  6
CONTINUOUS
 62
     7
 10
-209.7337755259088
 20
-82.11401528753422
 11
-202.6626972224738
 21
-89.18509418701657
  0
LINE
  8
0
  6
CONTINUOUS
 62
     7
 10
-209.7337649470497
 20
-87.11400989146068
 11
-202.6626974332074
 21
-94.18507800134935
  0
LINE
  8
0
  6
CONTINUOUS
 62
     7
 10
-209.7337435785958
 20
-92.11397212660768
 11
-202.6626760647535
 21
-99.18504023649635
  0
LINE
  8
0
  6
CONTINUOUS
 62
     7
 10
-209.733819316486
 20
-97.11405304727624
 11
-202.6627518026439
 21
-104.1851211571648
  0
LINE
  8
0
  6
CONTINUOUS
 62
     7
 10
-209.7337763688467
 20
-102.1140368616101
 11
-202.6627088550044
 21
-109.1851049714988
  0
LINE
  8
0
  6
CONTINUOUS
 62
     7
 10
-209.7337981587676
 20
-107.1140422551283
 11
-202.6627306449254
 21
-114.1851103650169
  0
LINE
  8
0
  6
CONTINUOUS
 62
     7
 10
-208.5391422836627
 20
142.8390336897297
 11
-202.6624611096143
 21
136.9623520203141
  0
LINE
  8
0
  6
CONTINUOUS
 62
     7
 10
-208.5391694683788
 20
137.839066059788
 11
-202.6624667151447
 21
131.9623628111849
  0
LINE
  8
0
  6
CONTINUOUS
 62
     7
 10
-208.5392290218755
 20
132.8390660610677
 11
-202.6625262686416
 21
126.9623628124648
  0
LINE
  8
0
  6
CONTINUOUS
 62
     7
 10
-208.5391968638319
 20
127.8390282987679
 11
-202.662494110598
 21
121.962325050165
  0
LINE
  8
0
  6
CONTINUOUS
 62
     7
 10
-208.5391107578215
 20
122.8390013260588
 11
-202.6624511629587
 21
116.9623412358306
  0
LINE
  8
0
  6
CONTINUOUS
 62
     7
 10
-208.5391649165213
 20
117.8390067221355
 11
-202.6624837424729
 21
111.9623250527199
  0
LINE
  8
0
  6
CONTINUOUS
 62
     7
 10
-208.5391003896963
 20
112.8390013286138
 11
-202.6624192156479
 21
106.9623196591982
  0
LINE
  8
0
  6
CONTINUOUS
 62
     7
 10
-208.5391221796195
 20
107.838952776723
 11
-202.6624625847568
 21
101.9622926864948
  0
LINE
  8
0
  6
CONTINUOUS
 62
     7
 10
-208.5391008111657
 20
102.8389905415763
 11
-202.6624412163029
 21
96.96233045134807
  0
LINE
  8
0
  6
CONTINUOUS
 62
     7
 10
-208.5391333906802
 20
97.83897435846532
 11
-202.662452216632
 21
91.96229268904992
  0
LINE
  8
0
  6
CONTINUOUS
 62
     7
 10
-208.5391228118199
 20
92.83900133372538
 11
-202.6624416377715
 21
86.9623196643098
  0
LINE
  8
0
  6
CONTINUOUS
 62
     7
 10
-212.5578039538587
 20
91.85763405188565
 11
-206.515286739027
 21
85.81511632770783
  0
LINE
  8
0
  6
CONTINUOUS
 62
     7
 10
-217.5578417161556
 20
91.85766663140078
 11
-211.5153245013239
 21
85.81514890722295
  0
LINE
  8
0
  6
CONTINUOUS
 62
     7
 10
-222.5578578992671
 20
91.85767763172883
 11
-216.5153406844354
 21
85.81515990755101
  0
LINE
  8
0
  6
CONTINUOUS
 62
     7
 10
-198.6624524747493
 20
66.31520042211326
 11
-198.6624524747493
 21
5.815200422113264
  0
LINE
  8
0
  6
CONTINUOUS
 62
     7
 10
-192.1624524747493
 20
66.31520042211326
 11
-192.1624524747493
 21
5.815200422113264
  0
LINE
  8
0
  6
CONTINUOUS
 62
     7
 10
-202.6624524747493
 20
139.4845882394961
 11
-202.6624524747493
 21
5.815200422113264
  0
LINE
  8
0
  6
CONTINUOUS
 62
     7
 10
-185.1624665665764
 20
87.81519584183197
 11
-183.6624666908686
 21
85.21711955871855
  0
LINE
  8
0
  6
CONTINUOUS
 62
     7
 10
-199.6624524747493
 20
97.40019950658592
 11
-199.6624524747493
 21
74.81520042211326
  0
LINE
  8
0
  6
CONTINUOUS
 62
     7
 10
-199.6624524747493
 20
74.81520042211326
 11
-191.1624524747493
 21
74.81520042211326
  0
LINE
  8
0
  6
CONTINUOUS
 62
     7
 10
-183.6624524747493
 20
85.21713218480858
 11
-183.6624524747493
 21
77.81520042211326
  0
LINE
  8
0
  6
CONTINUOUS
 62
     7
 10
-191.1624524747493
 20
77.81520042211326
 11
-183.6624524747493
 21
77.81520042211326
  0
LINE
  8
0
  6
CONTINUOUS
 62
     7
 10
-191.1624524747493
 20
77.81520042211326
 11
-191.1624524747493
 21
74.81520042211326
  0
LINE
  8
0
  6
CONTINUOUS
 62
     7
 10
-185.1624524747493
 20
87.81520042211326
 11
-183.6624524747493
 21
87.81520042211326
  0
LINE
  8
0
  6
CONTINUOUS
 62
     7
 10
-183.6624524747493
 20
97.41520042211326
 11
-183.6624524747493
 21
87.81520042211326
  0
LINE
  8
0
  6
CONTINUOUS
 62
     7
 10
-188.6624524747493
 20
97.41520042211326
 11
-188.6624524747493
 21
96.41519950658592
  0
LINE
  8
0
  6
CONTINUOUS
 62
     7
 10
-189.6624524747493
 20
97.41520042211326
 11
-189.6624524747493
 21
96.41519950658592
  0
LINE
  8
0
  6
CONTINUOUS
 62
     7
 10
-189.6624524747493
 20
96.41519950658592
 11
-188.6624524747493
 21
96.41519950658592
  0
LINE
  8
0
  6
CONTINUOUS
 62
     7
 10
-187.6624524747493
 20
120.9197917917422
 11
-186.0624463712337
 21
120.9197917917422
  0
LINE
  8
0
  6
CONTINUOUS
 62
     7
 10
-187.6624524747493
 20
120.9197917917422
 11
-187.6624524747493
 21
114.9197917917422
  0
LINE
  8
0
  6
CONTINUOUS
 62
     7
 10
-187.6624524747493
 20
114.9197917917422
 11
-186.0624463712337
 21
114.9197917917422
  0
LINE
  8
0
  6
CONTINUOUS
 62
     7
 10
-186.0624463712337
 20
120.9197917917422
 11
-186.0624463712337
 21
114.9197917917422
  0
LINE
  8
0
  6
CONTINUOUS
 62
     7
 10
-199.6624524747493
 20
68.81520042211326
 11
-191.1624524747493
 21
68.81520042211326
  0
LINE
  8
0
  6
CONTINUOUS
 62
     7
 10
-199.6624524747493
 20
68.81520042211326
 11
-199.6624524747493
 21
67.3152091243914
  0
LINE
  8
0
  6
CONTINUOUS
 62
     7
 10
-198.6624515877551
 20
66.31520451099027
 11
-199.6624507276999
 21
67.31520752844935
  0
LINE
  8
0
  6
CONTINUOUS
 62
     7
 10
-198.6624524747493
 20
66.31520042211326
 11
-192.1624524747493
 21
66.31520042211326
  0
LINE
  8
0
  6
CONTINUOUS
 62
     7
 10
-192.1624607605464
 20
66.31519030748763
 11
-191.1624562258155
 21
67.31519871975377
  0
LINE
  8
0
  6
CONTINUOUS
 62
     7
 10
-191.1624524747493
 20
68.81520042211326
 11
-191.1624524747493
 21
67.31520244867119
  0
LINE
  8
0
  6
CONTINUOUS
 62
     7
 10
-202.6624524747493
 20
111.3152004221133
 11
-187.6624524747493
 21
111.3152004221133
  0
LINE
  8
0
  6
CONTINUOUS
 62
     7
 10
-202.6624524747493
 20
116.3152004221133
 11
-187.6624524747493
 21
116.3152004221133
  0
LINE
  8
0
  6
CONTINUOUS
 62
     7
 10
-187.6624524747493
 20
116.3152004221133
 11
-187.6624524747493
 21
111.3152004221133
  0
LINE
  8
0
  6
CONTINUOUS
 62
     7
 10
-202.6624524747493
 20
116.3152004221133
 11
-202.6624524747493
 21
111.3152004221133
  0
LINE
  8
0
  6
CONTINUOUS
 62
     7
 10
104.4228499950085
 20
120.9197917917422
 11
78.42283436458376
 21
120.9197917917422
  0
LINE
  8
0
  6
CONTINUOUS
 62
     7
 10
107.4228343645827
 20
120.919782254999
 11
108.1340846164231
 21
123.7332368948445
  0
LINE
  8
0
  6
CONTINUOUS
 62
     7
 10
107.4228343645826
 20
120.919782254999
 11
106.6118139305871
 21
123.6746880223123
  0
LINE
  8
0
  6
CONTINUOUS
 62
     7
 10
-61.41030886966917
 20
162.5475486306251
 11
-61.41030886966917
 21
154.4197841623476
  0
LINE
  8
0
  6
CENTER
 62
     7
 10
-223.9552381192806
 20
-85.78479957788673
 11
-179.9332349454525
 21
-85.78479957788673
  0
LINE
  8
0
  6
CONTINUOUS
 62
     7
 10
-199.6624524747493
 20
97.41520042211326
 11
-183.6624524747493
 21
97.41520042211326
  0
LINE
  8
0
  6
CONTINUOUS
 62
     7
 10
-182.3299029796905
 20
97.41520042211326
 11
-146.959120908142
 21
97.41520042211326
  0
LINE
  8
0
  6
CONTINUOUS
 62
     7
 10
-182.3299029796905
 20
77.81520042211326
 11
-157.978440715932
 21
77.81520042211326
  0
LINE
  8
0
  6
CONTINUOUS
 62
     7
 10
-191.1194330456857
 20
66.31520042211326
 11
-170.3751754996957
 21
66.31520042211326
  0
CIRCLE
  8
0
  6
CONTINUOUS
 62
     7
 10
91.42284390132693
 20
5.815200422113264
 40
82
  0
CIRCLE
  8
0
  6
CONTINUOUS
 62
     7
 10
91.42284390132693
 20
5.815200422113264
 40
72
  0
CIRCLE
  8
0
  6
CENTER
 62
     7
 10
91.42284390132693
 20
5.815200422113264
 40
66
  0
CIRCLE
  8
0
  6
CONTINUOUS
 62
     7
 10
91.42284390132693
 20
5.815200422113264
 40
60.5
  0
CIRCLE
  8
0
  6
CONTINUOUS
 62
     7
 10
124.4228706042078
 20
62.97286186010155
 40
3
  0
CIRCLE
  8
0
  6
CONTINUOUS
 62
     7
 10
157.4228439013269
 20
5.815205404975075
 40
3
  0
CIRCLE
  8
0
  6
CONTINUOUS
 62
     7
 10
124.4227714220789
 20
-51.342518236334
 40
3
  0
CIRCLE
  8
0
  6
CONTINUOUS
 62
     7
 10
58.42278286617068
 20
-51.34244194238869
 40
3
  0
CIRCLE
  8
0
  6
CONTINUOUS
 62
     7
 10
25.42284390132693
 20
5.815257594714637
 40
3
  0
CIRCLE
  8
0
  6
CONTINUOUS
 62
     7
 10
58.42288204829958
 20
62.97289619237694
 40
3
  0
CIRCLE
  8
0
  6
CONTINUOUS
 62
     7
 10
148.5805320421961
 20
38.81518134862694
 40
2.5
  0
CIRCLE
  8
0
  6
CONTINUOUS
 62
     7
 10
148.5804748217371
 20
-27.18487968652931
 40
2.5
  0
CIRCLE
  8
0
  6
CONTINUOUS
 62
     7
 10
91.42276601023616
 20
-60.18479957788674
 40
2.5
  0
CIRCLE
  8
0
  6
CONTINUOUS
 62
     7
 10
34.26513668697146
 20
-27.18474235742775
 40
2.5
  0
CIRCLE
  8
0
  6
CONTINUOUS
 62
     7
 10
34.26519009273318
 20
38.81524619848045
 40
2.5
  0
CIRCLE
  8
0
  6
CONTINUOUS
 62
     7
 10
91.42288035543891
 20
71.81520042211326
 40
2.5
  0
CIRCLE
  8
0
  6
CONTINUOUS
 62
     7
 10
148.5805320421961
 20
38.81518134862694
 40
2
  0
CIRCLE
  8
0
  6
CONTINUOUS
 62
     7
 10
148.5804748217371
 20
-27.18487968652931
 40
2
  0
CIRCLE
  8
0
  6
CONTINUOUS
 62
     7
 10
91.42276601023616
 20
-60.18479957788674
 40
2
  0
CIRCLE
  8
0
  6
CONTINUOUS
 62
     7
 10
34.26513668697146
 20
-27.18474235742775
 40
2
  0
CIRCLE
  8
0
  6
CONTINUOUS
 62
     7
 10
34.26519009273318
 20
38.81524619848045
 40
2
  0
CIRCLE
  8
0
  6
CONTINUOUS
 62
     7
 10
91.42288035543891
 20
71.81520042211326
 40
2
  0
CIRCLE
  8
0
  6
CONTINUOUS
 62
     7
 10
91.42284390132693
 20
5.815200422113264
 40
79.40193176269531
  0
CIRCLE
  8
0
  6
CONTINUOUS
 62
     7
 10
71.4228362719324
 20
-93.18479957788674
 40
4.5
  0
CIRCLE
  8
0
  6
CONTINUOUS
 62
     7
 10
111.4228362719324
 20
-93.18479957788674
 40
4.5
  0
CIRCLE
  8
0
  6
CONTINUOUS
 62
     7
 10
111.4228362719324
 20
104.8152004221133
 40
4.5
  0
CIRCLE
  8
0
  6
CONTINUOUS
 62
     7
 10
71.4228362719324
 20
104.8152004221133
 40
4.5
  0
ARC
  8
0
  6
CENTER
 62
     7
 10
55.42285153072146
 20
-109.6847995778867
 40
30
 50
270.0000043257117
 51
359.9999863396224
  0
ARC
  8
0
  6
CONTINUOUS
 62
     7
 10
55.42285153072146
 20
-109.6847995778867
 40
31.5
 50
270.0000043257117
 51
0.7192330383107354
  0
ARC
  8
0
  6
CONTINUOUS
 62
     7
 10
55.42285153072146
 20
-109.6847995778867
 40
28.5
 50
270.0000043257117
 51
0.7949464061381434
  0
CIRCLE
  8
0
  6
CONTINUOUS
 62
     7
 10
71.4228362719324
 20
-93.18479957788674
 40
5
  0
CIRCLE
  8
0
  6
CONTINUOUS
 62
     7
 10
111.4228362719324
 20
-93.18479957788674
 40
5
  0
ARC
  8
0
  6
CONTINUOUS
 62
     7
 10
82.62283608119753
 20
109.8152004221133
 40
1.5
 50
89.99998201391043
 51
180.0000050089571
  0
ARC
  8
0
  6
CONTINUOUS
 62
     7
 10
102.2228364626673
 20
109.8152004221133
 40
1.5
 50
359.9999863396224
 51
89.99995469315375
  0
ARC
  8
0
  6
CONTINUOUS
 62
     7
 10
100.4228362719324
 20
100.9151988962344
 40
2.799999952316284
 50
270.0000043257116
 51
359.9999863396224
  0
ARC
  8
0
  6
CONTINUOUS
 62
     7
 10
84.42283674876956
 20
100.9151988962344
 40
2.799999952316284
 50
180.0000223118011
 51
270.0000043257116
  0
ARC
  8
0
  6
CONTINUOUS
 62
     7
 10
102.9228362719324
 20
112.9197917917422
 40
2
 50
359.9999863396224
 51
89.99995469315388
  0
ARC
  8
0
  6
CONTINUOUS
 62
     7
 10
81.9228362719324
 20
112.9197917917422
 40
2
 50
89.99998201391055
 51
180.0000050089568
  0
ARC
  8
0
  6
CONTINUOUS
 62
     7
 10
98.4228510538843
 20
-89.28479805200783
 40
2.799999952316284
 50
359.9999863396224
 51
89.9999546931541
  0
ARC
  8
0
  6
CONTINUOUS
 62
     7
 10
82.42285153072146
 20
-89.28479805200783
 40
2.799999952316284
 50
89.99998201391077
 51
180.000005008957
  0
ARC
  8
0
  6
CONTINUOUS
 62
     7
 10
100.2228517214563
 20
-98.18479957788674
 40
1.5
 50
270.000004325712
 51
359.9999863396224
  0
ARC
  8
0
  6
CONTINUOUS
 62
     7
 10
80.6228513399866
 20
-98.18479957788674
 40
1.5
 50
180.000022311801
 51
270.000004325712
  0
ARC
  8
0
  6
CONTINUOUS
 62
     7
 10
100.9228515307215
 20
-101.2893909475156
 40
2
 50
270.0000043257118
 51
359.9999863396224
  0
ARC
  8
0
  6
CONTINUOUS
 62
     7
 10
79.92285153072146
 20
-101.2893909475156
 40
2
 50
180.0000223118013
 51
270.0000043257118
  0
ARC
  8
0
  6
CENTER
 62
     7
 10
67.42283436458376
 20
120.9197917917422
 40
30
 50
359.9999863396224
 51
89.999954693154
  0
ARC
  8
0
  6
CONTINUOUS
 62
     7
 10
67.42283436458376
 20
120.9197917917422
 40
31.5
 50
359.9999863396224
 51
89.99995469315398
  0
ARC
  8
0
  6
CONTINUOUS
 62
     7
 10
67.42283436458376
 20
120.9197917917422
 40
28.5
 50
359.9999863396224
 51
89.99995469315398
  0
ARC
  8
0
  6
CONTINUOUS
 62
     7
 10
-24.41030124027463
 20
-134.6848148366758
 40
2.5
 50
359.9999863396224
 51
89.99995469315397
  0
ARC
  8
0
  6
CONTINUOUS
 62
     7
 10
-24.41030124027463
 20
-144.6848148366758
 40
2.5
 50
270.0000043257117
 51
359.9999863396224
  0
ARC
  8
0
  6
CONTINUOUS
 62
     7
 10
-37.91030124027463
 20
-127.1848148366758
 40
0.5
 50
359.9999863396224
 51
89.99995469315428
  0
ARC
  8
0
  6
CONTINUOUS
 62
     7
 10
-36.91030124027463
 20
-131.6848148366758
 40
0.5
 50
180.0000223118005
 51
270.0000043257114
  0
ARC
  8
0
  6
CONTINUOUS
 62
     7
 10
-36.91030124027463
 20
-147.6848148366758
 40
0.5
 50
89.99998201391097
 51
180.0000050089577
  0
ARC
  8
0
  6
CONTINUOUS
 62
     7
 10
-37.91030124027463
 20
-152.1848148366758
 40
0.5
 50
270.0000043257114
 51
359.9999863396224
  0
ARC
  8
0
  6
CONTINUOUS
 62
     7
 10
30.21680097894893
 20
-138.9347995778867
 40
1
 50
311.4096467449805
 51
48.59039787862147
  0
ARC
  8
0
  6
CONTINUOUS
 62
     7
 10
30.21680097894893
 20
-140.4347995778867
 40
1
 50
311.4096467449805
 51
48.59039787862147
  0
ARC
  8
0
  6
CONTINUOUS
 62
     7
 10
33.53967663448123
 20
-138.9347995778867
 40
1
 50
131.4096021213784
 51
228.5903532550209
  0
ARC
  8
0
  6
CONTINUOUS
 62
     7
 10
32.21680065791873
 20
-140.4347995778867
 40
1
 50
311.4096380935587
 51
48.5903892271992
  0
ARC
  8
0
  6
CONTINUOUS
 62
     7
 10
33.53967663448123
 20
-140.4347995778867
 40
1
 50
131.4096021213784
 51
228.5903532550209
  0
ARC
  8
0
  6
CONTINUOUS
 62
     7
 10
-39.41030124027463
 20
-131.6848148366758
 40
0.5
 50
359.9999863396224
 51
89.99995469315428
  0
ARC
  8
0
  6
CONTINUOUS
 62
     7
 10
-39.41030124027463
 20
-147.6848148366758
 40
0.5
 50
270.0000043257114
 51
359.9999863396224
  0
ARC
  8
0
  6
CONTINUOUS
 62
     7
 10
-38.41030124027463
 20
-132.6848148366758
 40
0.5
 50
180.0000223118005
 51
270.0000043257114
  0
ARC
  8
0
  6
CONTINUOUS
 62
     7
 10
-38.41030124027463
 20
-146.6848148366758
 40
0.5
 50
89.99998201391097
 51
180.0000050089577
  0
ARC
  8
0
  6
CONTINUOUS
 62
     7
 10
-24.41030886966917
 20
-144.6848148366758
 40
2.5
 50
113.578122877875
 51
180.000005008957
  0
ARC
  8
0
  6
CONTINUOUS
 62
     7
 10
-24.41030886966917
 20
-134.6848148366758
 40
2.5
 50
180.0000223118011
 51
246.4218498013693
  0
ARC
  8
0
  6
CONTINUOUS
 62
     7
 10
-27.91030124027463
 20
-134.1848148366758
 40
1
 50
359.9999863396224
 51
89.99995469315388
  0
ARC
  8
0
  6
CONTINUOUS
 62
     7
 10
-27.91030124027463
 20
-145.1848148366758
 40
1
 50
270.0000043257118
 51
359.9999863396224
  0
ARC
  8
0
  6
CONTINUOUS
 62
     7
 10
-27.9102936108801
 20
-146.1848148366758
 40
1
 50
270.0000043257118
 51
359.9999863396224
  0
ARC
  8
0
  6
CONTINUOUS
 62
     7
 10
-27.91030124027463
 20
-133.1848148366758
 40
1
 50
359.9999863396224
 51
89.99995469315388
  0
ARC
  8
0
  6
CONTINUOUS
 62
     7
 10
-28.91030124027463
 20
-133.6848148366758
 40
0.5
 50
359.9999863396224
 51
89.99995469315388
  0
ARC
  8
0
  6
CONTINUOUS
 62
     7
 10
-28.91030124027463
 20
-145.6848148366758
 40
0.5
 50
270.0000043257118
 51
359.9999863396224
  0
ARC
  8
0
  6
CONTINUOUS
 62
     7
 10
-68.91032412845823
 20
144.9197689035586
 40
0.5
 50
270.0000043257114
 51
359.9999863396224
  0
ARC
  8
0
  6
CONTINUOUS
 62
     7
 10
-64.4103164990637
 20
155.9197689035586
 40
2.5
 50
359.9999863396224
 51
89.99995469315397
  0
ARC
  8
0
  6
CONTINUOUS
 62
     7
 10
-64.4103164990637
 20
145.9197689035586
 40
2.5
 50
270.0000043257117
 51
359.9999863396224
  0
ARC
  8
0
  6
CONTINUOUS
 62
     7
 10
-77.91033175785276
 20
163.4197689035586
 40
0.5
 50
359.9999863396224
 51
89.99995469315428
  0
ARC
  8
0
  6
CONTINUOUS
 62
     7
 10
-76.91033175785276
 20
158.9197689035586
 40
0.5
 50
180.0000223118005
 51
270.0000043257114
  0
ARC
  8
0
  6
CONTINUOUS
 62
     7
 10
-76.91033175785276
 20
142.9197689035586
 40
0.5
 50
89.99998201391097
 51
180.0000050089577
  0
ARC
  8
0
  6
CONTINUOUS
 62
     7
 10
-77.91033175785276
 20
138.4197689035586
 40
0.5
 50
270.0000043257114
 51
359.9999863396224
  0
ARC
  8
0
  6
CONTINUOUS
 62
     7
 10
-79.41033175785276
 20
158.9197689035586
 40
0.5
 50
359.9999863396224
 51
89.99995469315428
  0
ARC
  8
0
  6
CONTINUOUS
 62
     7
 10
-79.41033175785276
 20
142.9197689035586
 40
0.5
 50
270.0000043257114
 51
359.9999863396224
  0
ARC
  8
0
  6
CONTINUOUS
 62
     7
 10
-78.41033175785276
 20
157.9197689035586
 40
0.5
 50
180.0000223118005
 51
270.0000043257114
  0
ARC
  8
0
  6
CONTINUOUS
 62
     7
 10
-78.41033175785276
 20
143.9197689035586
 40
0.5
 50
89.99998201391097
 51
180.0000050089577
  0
ARC
  8
0
  6
CONTINUOUS
 62
     7
 10
-64.41032412845823
 20
145.9197689035586
 40
2.5
 50
113.578122877875
 51
180.000005008957
  0
ARC
  8
0
  6
CONTINUOUS
 62
     7
 10
-64.41032412845823
 20
155.9197689035586
 40
2.5
 50
180.0000223118011
 51
246.4218498013692
  0
ARC
  8
0
  6
CONTINUOUS
 62
     7
 10
-67.91032412845823
 20
156.4197689035586
 40
1
 50
359.9999863396224
 51
89.99995469315428
  0
ARC
  8
0
  6
CONTINUOUS
 62
     7
 10
-67.91032412845823
 20
145.4197689035586
 40
1
 50
270.0000043257114
 51
359.9999863396224
  0
ARC
  8
0
  6
CONTINUOUS
 62
     7
 10
-67.91032412845823
 20
144.4197689035586
 40
1
 50
270.0000043257114
 51
359.9999863396224
  0
ARC
  8
0
  6
CONTINUOUS
 62
     7
 10
-67.91033175785276
 20
157.4197689035586
 40
1
 50
359.9999863396224
 51
89.99995469315428
  0
ARC
  8
0
  6
CONTINUOUS
 62
     7
 10
-68.91032412845823
 20
156.9197689035586
 40
0.5
 50
359.9999863396224
 51
89.99995469315428
  0
ARC
  8
0
  6
CONTINUOUS
 62
     7
 10
-6.460346253702369
 20
151.6697841623476
 40
1
 50
131.4096021213785
 51
228.590353255021
  0
ARC
  8
0
  6
CONTINUOUS
 62
     7
 10
-7.783222230264869
 20
150.1697841623476
 40
1
 50
311.4096380935585
 51
48.59038922719908
  0
ARC
  8
0
  6
CONTINUOUS
 62
     7
 10
-6.460346253702369
 20
150.1697841623476
 40
1
 50
131.4096021213785
 51
228.590353255021
  0
ARC
  8
0
  6
CONTINUOUS
 62
     7
 10
-41.7174225171301
 20
110.1697917917422
 40
1
 50
311.4096107728015
 51
48.59036190644262
  0
ARC
  8
0
  6
CONTINUOUS
 62
     7
 10
-40.3945465405676
 20
111.6697917917422
 40
1
 50
131.4096021213784
 51
228.5903532550209
  0
CIRCLE
  8
0
  6
CENTER
 62
     7
 10
91.4228362719324
 20
5.815200422113264
 40
101
  0
ARC
  8
0
  6
CONTINUOUS
 62
     7
 10
-68.82451632816526
 20
118.4197917917422
 40
1
 50
44.99969047863181
 51
89.99998201391097
  0
ARC
  8
0
  6
CONTINUOUS
 62
     7
 10
-66.41032412845823
 20
116.0055843332461
 40
1
 50
16.5380463203785
 51
45.0000012522392
  0
ARC
  8
0
  6
CONTINUOUS
 62
     7
 10
-62.9103164990637
 20
114.4197917917422
 40
1
 50
0
 51
89.99998201391055
  0
ARC
  8
0
  6
CONTINUOUS
 62
     7
 10
-67.9103164990637
 20
115.4197917917422
 40
1
 50
0
 51
89.99998201391097
  0
ARC
  8
0
  6
CONTINUOUS
 62
     7
 10
-79.9103164990637
 20
118.4197917917422
 40
1
 50
0
 51
89.99998201391097
  0
ARC
  8
0
  6
CONTINUOUS
 62
     7
 10
-78.4103164990637
 20
115.4197917917422
 40
1
 50
0
 51
89.99998201391097
  0
ARC
  8
0
  6
CONTINUOUS
 62
     7
 10
-85.9103164990637
 20
107.9197917917422
 40
0.5
 50
179.9999813306647
 51
270.0000179860897
  0
ARC
  8
0
  6
CONTINUOUS
 62
     7
 10
-62.4103164990637
 20
107.9197917917422
 40
0.5
 50
270.0000179860897
 51
360
  0
ARC
  8
0
  6
CONTINUOUS
 62
     7
 10
-83.9103164990637
 20
107.4197917917422
 40
1
 50
179.9999813306655
 51
270.0000179860897
  0
ARC
  8
0
  6
CONTINUOUS
 62
     7
 10
-79.9103164990637
 20
107.4197917917422
 40
1
 50
270.0000179860897
 51
360
  0
ARC
  8
0
  6
CONTINUOUS
 62
     7
 10
-9.783221909234666
 20
150.1697841623476
 40
1
 50
311.4096467449804
 51
48.59039787862155
  0
ARC
  8
0
  6
CONTINUOUS
 62
     7
 10
-9.783221909234666
 20
151.6697841623476
 40
1
 50
311.4096467449804
 51
48.59039787862155
  0
ARC
  8
0
  6
CONTINUOUS
 62
     7
 10
-41.7174225171301
 20
111.6697917917422
 40
1
 50
311.4096107728015
 51
48.59036190644262
  0
ARC
  8
0
  6
CONTINUOUS
 62
     7
 10
-8.460345932672166
 20
151.6697841623476
 40
1
 50
131.4096380935579
 51
228.5903892271998
  0
ARC
  8
0
  6
CONTINUOUS
 62
     7
 10
31.53967695551143
 20
-138.9347995778867
 40
1
 50
131.4096380935578
 51
228.5903892271998
  0
ARC
  8
0
  6
CONTINUOUS
 62
     7
 10
-67.4103164990637
 20
107.4197917917422
 40
0.5
 50
179.9999813306647
 51
270.0000179860897
  0
CIRCLE
  8
0
  6
CONTINUOUS
 62
     7
 10
-24.41030886966917
 20
-134.6848148366758
 40
2
  0
CIRCLE
  8
0
  6
CONTINUOUS
 62
     7
 10
-24.41030886966917
 20
-144.6848148366758
 40
2
  0
ARC
  8
0
  6
CONTINUOUS
 62
     7
 10
-64.41032412845823
 20
145.9197689035586
 40
1.149999976158142
 50
349.9855023606203
 51
10.0160608989261
  0
ARC
  8
0
  6
CONTINUOUS
 62
     7
 10
-65.11032870609495
 20
146.6197811105898
 40
0.5
 50
270.0000179860897
 51
360
  0
ARC
  8
0
  6
CONTINUOUS
 62
     7
 10
-63.71033480961057
 20
146.6197811105898
 40
0.5
 50
179.9999640278219
 51
270.0000006832461
  0
ARC
  8
0
  6
CONTINUOUS
 62
     7
 10
-63.71033480961057
 20
145.2197872141055
 40
0.5
 50
89.99998201391097
 51
179.9999640278219
  0
ARC
  8
0
  6
CONTINUOUS
 62
     7
 10
-65.11032870609495
 20
145.2197872141055
 40
0.5
 50
0
 51
89.99998201391097
  0
ARC
  8
0
  6
CONTINUOUS
 62
     7
 10
-64.41032412845823
 20
145.9197689035586
 40
1.149999976158142
 50
169.9839560628607
 51
190.0144556907868
  0
ARC
  8
0
  6
CONTINUOUS
 62
     7
 10
-64.41032412845823
 20
145.9197689035586
 40
1.149999976158142
 50
259.9843583607778
 51
280.0148716490807
  0
ARC
  8
0
  6
CONTINUOUS
 62
     7
 10
-64.41032412845823
 20
145.9197689035586
 40
1.149999976158142
 50
79.98512835092006
 51
100.0156416392229
  0
ARC
  8
0
  6
CONTINUOUS
 62
     7
 10
-24.41030886966917
 20
-134.6848148366758
 40
1.149999976158142
 50
259.9843583607774
 51
280.0148716490805
  0
ARC
  8
0
  6
CONTINUOUS
 62
     7
 10
-24.41030886966917
 20
-134.6848148366758
 40
1.149999976158142
 50
79.98512835092024
 51
100.0156416392233
  0
ARC
  8
0
  6
CONTINUOUS
 62
     7
 10
-24.41030886966917
 20
-134.6848148366758
 40
1.149999976158142
 50
349.9855023606203
 51
10.0160608989261
  0
ARC
  8
0
  6
CONTINUOUS
 62
     7
 10
-25.11031344730588
 20
-133.9848026296446
 40
0.5
 50
270.0000179860901
 51
360
  0
ARC
  8
0
  6
CONTINUOUS
 62
     7
 10
-23.71031955082151
 20
-133.9848026296446
 40
0.5
 50
179.9999640278219
 51
270.0000006832461
  0
ARC
  8
0
  6
CONTINUOUS
 62
     7
 10
-23.71031955082151
 20
-135.3847965261289
 40
0.5
 50
89.99998201391055
 51
179.9999640278219
  0
ARC
  8
0
  6
CONTINUOUS
 62
     7
 10
-25.11031344730588
 20
-135.3847965261289
 40
0.5
 50
0
 51
89.99998201391055
  0
ARC
  8
0
  6
CONTINUOUS
 62
     7
 10
-24.41030886966917
 20
-134.6848148366758
 40
1.149999976158142
 50
169.9839560628607
 51
190.0144556907868
  0
ARC
  8
0
  6
CONTINUOUS
 62
     7
 10
-24.41030886966917
 20
-144.6848148366758
 40
1.149999976158142
 50
259.9843583607774
 51
280.0148716490805
  0
ARC
  8
0
  6
CONTINUOUS
 62
     7
 10
-24.41030886966917
 20
-144.6848148366758
 40
1.149999976158142
 50
79.98512835092024
 51
100.0156416392233
  0
ARC
  8
0
  6
CONTINUOUS
 62
     7
 10
-24.41030886966917
 20
-144.6848148366758
 40
1.149999976158142
 50
349.9855023606203
 51
10.0160608989261
  0
ARC
  8
0
  6
CONTINUOUS
 62
     7
 10
-25.11031344730588
 20
-143.9848026296446
 40
0.5
 50
270.0000179860901
 51
360
  0
ARC
  8
0
  6
CONTINUOUS
 62
     7
 10
-23.71031955082151
 20
-143.9848026296446
 40
0.5
 50
179.9999640278219
 51
270.0000006832461
  0
ARC
  8
0
  6
CONTINUOUS
 62
     7
 10
-23.71031955082151
 20
-145.3847965261289
 40
0.5
 50
89.99998201391055
 51
179.9999640278219
  0
ARC
  8
0
  6
CONTINUOUS
 62
     7
 10
-25.11031344730588
 20
-145.3847965261289
 40
0.5
 50
0
 51
89.99998201391055
  0
ARC
  8
0
  6
CONTINUOUS
 62
     7
 10
-24.41030886966917
 20
-144.6848148366758
 40
1.149999976158142
 50
169.9839560628607
 51
190.0144556907868
  0
ARC
  8
0
  6
CONTINUOUS
 62
     7
 10
-64.41032412845823
 20
155.9197689035586
 40
1.149999976158142
 50
259.9843583607778
 51
280.0148716490807
  0
ARC
  8
0
  6
CONTINUOUS
 62
     7
 10
-64.41032412845823
 20
155.9197689035586
 40
1.149999976158142
 50
79.98512835092006
 51
100.0156416392229
  0
ARC
  8
0
  6
CONTINUOUS
 62
     7
 10
-64.41032412845823
 20
155.9197689035586
 40
1.149999976158142
 50
349.9855023606203
 51
10.0160608989261
  0
ARC
  8
0
  6
CONTINUOUS
 62
     7
 10
-65.11032870609495
 20
156.6197811105898
 40
0.5
 50
270.0000179860897
 51
360
  0
ARC
  8
0
  6
CONTINUOUS
 62
     7
 10
-63.71033480961057
 20
156.6197811105898
 40
0.5
 50
179.9999640278219
 51
270.0000006832461
  0
ARC
  8
0
  6
CONTINUOUS
 62
     7
 10
-63.71033480961057
 20
155.2197872141055
 40
0.5
 50
89.99998201391097
 51
179.9999640278219
  0
ARC
  8
0
  6
CONTINUOUS
 62
     7
 10
-65.11032870609495
 20
155.2197872141055
 40
0.5
 50
0
 51
89.99998201391097
  0
ARC
  8
0
  6
CONTINUOUS
 62
     7
 10
-64.41032412845823
 20
155.9197689035586
 40
1.149999976158142
 50
169.9839560628607
 51
190.0144556907868
  0
CIRCLE
  8
0
  6
CONTINUOUS
 62
     7
 10
-64.41032412845823
 20
155.9197689035586
 40
2
  0
CIRCLE
  8
0
  6
CONTINUOUS
 62
     7
 10
-64.41032412845823
 20
145.9197689035586
 40
2
  0
ARC
  8
0
  6
CONTINUOUS
 62
     7
 10
-64.41032412845823
 20
112.1697917917422
 40
4.25
 50
61.9275152043756
 51
118.0724966347699
  0
ARC
  8
0
  6
CENTER
 62
     7
 10
91.42284390132693
 20
5.815200422113264
 40
117.5
 50
67.50435783150181
 51
118.7468391248103
  0
ARC
  8
0
  6
CENTER
 62
     7
 10
91.42284390132693
 20
5.815200422113264
 40
117.5
 50
249.7407616624835
 51
297.4113032408018
  0
CIRCLE
  8
0
  6
CONTINUOUS
 62
     7
 10
162.8406234063666
 20
-65.60257474134897
 40
2
  0
CIRCLE
  8
0
  6
CONTINUOUS
 62
     7
 10
162.8406234063666
 20
-65.60257474134897
 40
1.399999976158142
  0
CIRCLE
  8
0
  6
CONTINUOUS
 62
     7
 10
20.00506439628725
 20
-65.60257474134897
 40
1.399999976158142
  0
CIRCLE
  8
0
  6
CONTINUOUS
 62
     7
 10
20.00506439628725
 20
-65.60257474134897
 40
2
  0
CIRCLE
  8
0
  6
CONTINUOUS
 62
     7
 10
20.00506439628725
 20
77.2329755855755
 40
1.399999976158142
  0
CIRCLE
  8
0
  6
CONTINUOUS
 62
     7
 10
162.8406234063666
 20
77.2329755855755
 40
1.399999976158142
  0
CIRCLE
  8
0
  6
CONTINUOUS
 62
     7
 10
162.8406234063666
 20
77.2329755855755
 40
2
  0
CIRCLE
  8
0
  6
CONTINUOUS
 62
     7
 10
20.00506439628725
 20
77.2329755855755
 40
2
  0
CIRCLE
  8
0
  6
CONTINUOUS
 62
     7
 10
108.4228343645838
 20
-101.6847995778867
 40
2.75
  0
CIRCLE
  8
0
  6
CONTINUOUS
 62
     7
 10
108.4228343645838
 20
-101.6847995778867
 40
2.450000047683716
  0
CIRCLE
  8
0
  6
CONTINUOUS
 62
     7
 10
111.4228362719324
 20
-93.18479957788674
 40
3.5
  0
CIRCLE
  8
0
  6
CONTINUOUS
 62
     7
 10
111.4228362719324
 20
-93.18479957788674
 40
3.099999904632568
  0
CIRCLE
  8
0
  6
CONTINUOUS
 62
     7
 10
72.42283436458376
 20
-101.6847995778867
 40
2.75
  0
CIRCLE
  8
0
  6
CONTINUOUS
 62
     7
 10
72.42283436458376
 20
-101.6847995778867
 40
2.450000047683716
  0
CIRCLE
  8
0
  6
CONTINUOUS
 62
     7
 10
71.4228362719324
 20
-93.18479957788674
 40
3.5
  0
CIRCLE
  8
0
  6
CONTINUOUS
 62
     7
 10
71.4228362719324
 20
-93.18479957788674
 40
3.099999904632568
  0
CIRCLE
  8
0
  6
CONTINUOUS
 62
     7
 10
110.4228362719324
 20
113.3152004221133
 40
2.75
  0
CIRCLE
  8
0
  6
CONTINUOUS
 62
     7
 10
110.4228362719324
 20
113.3152004221133
 40
2.450000047683716
  0
CIRCLE
  8
0
  6
CONTINUOUS
 62
     7
 10
74.4228362719324
 20
113.3152004221133
 40
2.75
  0
CIRCLE
  8
0
  6
CONTINUOUS
 62
     7
 10
74.4228362719324
 20
113.3152004221133
 40
2.450000047683716
  0
CIRCLE
  8
0
  6
CONTINUOUS
 62
     7
 10
71.4228362719324
 20
104.8152004221133
 40
3.5
  0
CIRCLE
  8
0
  6
CONTINUOUS
 62
     7
 10
71.4228362719324
 20
104.8152004221133
 40
3.099999904632568
  0
CIRCLE
  8
0
  6
CONTINUOUS
 62
     7
 10
111.4228362719324
 20
104.8152004221133
 40
3.5
  0
CIRCLE
  8
0
  6
CONTINUOUS
 62
     7
 10
111.4228362719324
 20
104.8152004221133
 40
3.099999904632568
  0
ARC
  8
0
  6
CONTINUOUS
 62
     7
 10
-200.4624707852962
 20
109.8152004221133
 40
1.5
 50
89.99998201391097
 51
180.0000186693355
  0
ARC
  8
0
  6
CONTINUOUS
 62
     7
 10
-198.6624524747493
 20
100.9151988962344
 40
2.799999952316284
 50
180.0000359721795
 51
270.00001798609
  0
ARC
  8
0
  6
CONTINUOUS
 62
     7
 10
-189.6624524747493
 20
100.9151988962344
 40
2.799999952316284
 50
270.00001798609
 51
360
  0
ARC
  8
0
  6
CONTINUOUS
 62
     7
 10
-187.8624341642025
 20
109.8152004221133
 40
1.5
 50
0
 51
89.99998201391097
  0
ARC
  8
0
  6
CONTINUOUS
 62
     7
 10
-198.6624524747493
 20
-89.2847980520078
 40
2.799999952316284
 50
89.99998201391077
 51
145.1500575992337
  0
ARC
  8
0
  6
CONTINUOUS
 62
     7
 10
-189.6624524747493
 20
-89.2847980520078
 40
2.799999952316284
 50
34.84996107010146
 51
89.99998201391077
  0
ARC
  8
0
  6
CONTINUOUS
 62
     7
 10
67.42283436458376
 20
120.9197917917297
 40
40
 50
0
 51
90.00000000000003
  0
CIRCLE
  8
0
  6
CONTINUOUS
 62
     7
 10
91.42284390132693
 20
5.815200422113264
 40
91.59999999999999
  0
TEXT
  8
0
  6
CONTINUOUS
 62
     7
 10
195.5733226757239
 20
-109.1507693012459
 40
3
 41
0.6529642305177941
  1
（防塵カバー固定用）
  0
TEXT
  8
0
  6
CONTINUOUS
 62
     7
 10
-219.9768763864706
 20
-22.83166205925642
 40
3
 41
0.844094013216115
  1
（取り付け機械本体側）
 50
-89.9999999999999
  0
TEXT
  8
0
  6
CONTINUOUS
 62
     7
 10
-229.9954269092168
 20
184.6944460500332
 40
10
 41
1.328116485050746
  1
 RS310 
  0
LINE
  8
0
  6
CONTINUOUS
 62
     7
 10
-231.4241602580632
 20
182.1944460500332
 11
-231.4241602580632
 21
197.1944460500332
  0
LINE
  8
0
  6
CONTINUOUS
 62
     7
 10
-161.4162261645879
 20
182.1944460500332
 11
-161.4162261645879
 21
197.1944460500332
  0
LINE
  8
0
  6
CONTINUOUS
 62
     7
 10
-231.4241602580632
 20
182.1944460500332
 11
-161.4162261645879
 21
182.1944460500332
  0
LINE
  8
0
  6
CONTINUOUS
 62
     7
 10
-231.4241602580632
 20
197.1944460500332
 11
-161.4162261645879
 21
197.1944460500332
  0
TEXT
  8
0
  6
CONTINUOUS
 62
     7
 10
-8.976957687062928
 20
162.3200650179121
 40
3
 41
0.8437719093222007
  1
ヘッドケーブル長　３００
  0
TEXT
  8
0
  6
CONTINUOUS
 62
     7
 10
-149.8137469548233
 20
-0.1936021944916884
 40
3
 41
1.176602609695927
  1
%%C183.2
 50
90.00000000000003
  0
TEXT
  8
0
  6
CONTINUOUS
 62
     7
 10
-160.905037911931
 20
-0.8783160102199115
 40
3
 41
1.054219491321633
  1
%%C144
 50
90.00000000000003
  0
TEXT
  8
0
  6
CONTINUOUS
 62
     7
 10
-172.7458189821172
 20
-1.198337120224941
 40
3
 41
1.125186808138976
  1
%%C121
 50
90.00000000000003
  0
INSERT
  8
0
  6
CONTINUOUS
 62
     7
  2
KOZU0014
 10
0
 20
0
  0
INSERT
  8
0
  6
CONTINUOUS
 62
     7
  2
KOZU0015
 10
0
 20
0
  0
INSERT
  8
0
  6
CONTINUOUS
 62
     7
  2
KOZU0001
 10
127.2119974261502
 20
64.12950302219096
  0
INSERT
  8
0
  6
CONTINUOUS
 62
     7
  2
KOZU0002
 10
149.8601796240106
 20
40.96286389132085
  0
INSERT
  8
0
  6
CONTINUOUS
 62
     7
  2
KOZU0003
 10
163.3883490792192
 20
-67.52616585287362
  0
INSERT
  8
0
  6
CONTINUOUS
 62
     7
  2
KOZU0004
 10
114.4108791192168
 20
108.3525487515353
  0
INSERT
  8
0
  6
CONTINUOUS
 62
     7
  2
KOZU0005
 10
112.6405890329839
 20
115.7877671137141
  0
INSERT
  8
0
  6
CONTINUOUS
 62
     7
  2
KOZU0006
 10
66.09419399205788
 20
-100.1468686039547
  0
INSERT
  8
0
  6
CONTINUOUS
 62
     7
  2
KOZU0007
 10
10.6274092112555
 20
38.87187018555907
  0
INSERT
  8
0
  6
CONTINUOUS
 62
     7
  2
KOZU0008
 10
-194.4048493773678
 20
-40.23094776293611
  0
INSERT
  8
0
  6
CONTINUOUS
 62
     7
  2
KOZU0009
 10
-196.3129297958278
 20
-96.38530767812672
  0
INSERT
  8
0
  6
CONTINUOUS
 62
     7
  2
KOZU0010
 10
-61.41030886966917
 20
160.9197841623476
  0
INSERT
  8
0
  6
CONTINUOUS
 62
     7
  2
KOZU0011
 10
-148.2574536954525
 20
97.41520042211326
  0
INSERT
  8
0
  6
CONTINUOUS
 62
     7
  2
KOZU0012
 10
-159.1939293499627
 20
77.81520042211326
  0
INSERT
  8
0
  6
CONTINUOUS
 62
     7
  2
KOZU0013
 10
-171.3187047582377
 20
66.31520042211326
  0
ENDSEC
  0
EOF
