  0
SECTION
  2
HEADER
  9
$ACADVER
  1
AC1009
  9
$INSBASE
 10
0
 20
0
 30
0
  9
$EXTMIN
 10
0
 20
0
  9
$EXTMAX
 10
210.25
 20
148.5
  9
$LIMMIN
 10
0
 20
0
  9
$LIMMAX
 10
210.25
 20
148.5
  9
$LTSCALE
 40
0.25
  0
ENDSEC
  0
SECTION
  2
TABLES
  0
TABLE
  2
LTYPE
 70
     9
  0
LTYPE
  2
CONTINUOUS
 70
    64
  3
実線
 72
    65
 73
     0
 40
0.0
  0
LTYPE
  2
DASHED1
 70
    64
  3
--  --  --  --  --  --  --  --  
 72
    65
 73
     2
 40
2.5
 49
1.25
 49
-1.25
  0
LTYPE
  2
DASHED2
 70
    64
  3
----    ----    ----    ----    
 72
    65
 73
     2
 40
5.0
 49
2.5
 49
-2.5
  0
LTYPE
  2
DASHED3
 70
    64
  3
------  ------  ------  ------  
 72
    65
 73
     2
 40
5.0
 49
3.75
 49
-1.25
  0
LTYPE
  2
CENTER1
 70
    64
  3
----- - ----- - ----- - ----- - 
 72
    65
 73
     4
 40
10.0
 49
6.25
 49
-1.25
 49
1.25
 49
-1.25
  0
LTYPE
  2
CENTER2
 70
    64
  3
----------  --  ----------  --  
 72
    65
 73
     4
 40
20.0
 49
12.5
 49
-2.5
 49
2.5
 49
-2.5
  0
LTYPE
  2
PHANTOM1
 70
    64
  3
--- - - --- - - --- - - --- - - 
 72
    65
 73
     6
 40
10.0
 49
3.25
 49
-1.25
 49
1.25
 49
-1.25
 49
1.25
 49
-1.25
  0
LTYPE
  2
PHANTOM2
 70
    64
  3
--------  -  -  --------  -  -  
 72
    65
 73
     6
 40
20.0
 49
10.0
 49
-2.5
 49
1.25
 49
-2.5
 49
1.25
 49
-2.5
  0
LTYPE
  2
DOT
 70
    64
  3
-   -   -   -   -   -   -   -   
 72
    65
 73
     2
 40
2.5
 49
0.625
 49
-1.875
  0
LTYPE
  2
DUMMY
 70
    64
  3
ダミー
 72
    65
 73
     0
 40
0.0
  0
LTYPE
  2
RAND1
 70
    64
  3
ランダム線1
 72
    65
 73
     4
 40
10.0
 49
1.0
 49
-2.0
 49
3.0
 49
-4.0
  0
LTYPE
  2
RAND2
 70
    64
  3
ランダム線2
 72
    65
 73
     4
 40
14.0
 49
2.0
 49
-3.0
 49
4.0
 49
-5.0
  0
LTYPE
  2
RAND3
 70
    64
  3
ランダム線3
 72
    65
 73
     4
 40
18.0
 49
3.0
 49
-4.0
 49
5.0
 49
-6.0
  0
LTYPE
  2
RAND4
 70
    64
  3
ランダム線4
 72
    65
 73
     4
 40
22.0
 49
4.0
 49
-5.0
 49
6.0
 49
-7.0
  0
LTYPE
  2
RAND5
 70
    64
  3
ランダム線5
 72
    65
 73
     4
 40
26.0
 49
5.0
 49
-6.0
 49
7.0
 49
-8.0
  0
LTYPE
  2
LONG1
 70
    64
  3
----------  --  ----------  --  
 72
    65
 73
     4
 40
40.0
 49
32.5
 49
-2.5
 49
2.5
 49
-2.5
  0
LTYPE
  2
LONG2
 70
    64
  3
--------  -  -  --------  -  -  
 72
    65
 73
     6
 40
40.0
 49
30.0
 49
-2.5
 49
1.25
 49
-2.5
 49
1.25
 49
-2.5
  0
LTYPE
  2
LONG3
 70
    64
  3
+++++++++++++++..+++++++++++++++
 72
    65
 73
     2
 40
40.0
 49
37.5
 49
-2.5
  0
LTYPE
  2
LONG4
 70
    64
  3
+++++++++++++++..+++++++++++++++
 72
    65
 73
     2
 40
80.0
 49
75.0
 49
-5.0
  0
LTYPE
  2
LONG5
 70
    64
  3
----------  --  ----------  --  
 72
    65
 73
     4
 40
60.0
 49
37.5
 49
-7.5
 49
7.5
 49
-7.5
  0
LTYPE
  2
dashed
 70
   64
  3
-------   -------------   ------
 72
   65
 73
    2
 40
7.5
 49
6
 49
-1.5
  0
LTYPE
  2
dashed_spaced
 70
   64
  3
----        --------        ----
 72
   65
 73
    2
 40
12
 49
6
 49
-6
  0
LTYPE
  2
long_dashed_dotted
 70
   64
  3
------------- --- --------------
 72
   65
 73
    4
 40
15.25
 49
12
 49
-1.5
 49
0.25
 49
-1.5
  0
LTYPE
  2
long_dashed_double-dotted
 70
   64
  3
----------- --- --- ------------
 72
   65
 73
    6
 40
17
 49
12
 49
-1.5
 49
0.25
 49
-1.5
 49
0.25
 49
-1.5
  0
LTYPE
  2
long_dashed_triplicate-dotted
 70
   64
  3
--------- --- --- --- ----------
 72
   65
 73
    8
 40
18.75
 49
12
 49
-1.5
 49
0.25
 49
-1.5
 49
0.25
 49
-1.5
 49
0.25
 49
-1.5
  0
LTYPE
  2
dotted
 70
   64
  3
   -       -       -       -    
 72
   65
 73
    2
 40
1.75
 49
0.25
 49
-1.5
  0
LTYPE
  2
chain
 70
   64
  3
-------------- -- --------------
 72
   65
 73
    4
 40
18.5
 49
12
 49
-1.5
 49
3.5
 49
-1.5
  0
LTYPE
  2
chain_double_dash
 70
   64
  3
------------ -- -- -------------
 72
   65
 73
    6
 40
23.5
 49
12
 49
-1.5
 49
3.5
 49
-1.5
 49
3.5
 49
-1.5
  0
LTYPE
  2
dashed_dotted
 70
   64
  3
-----------     -     ----------
 72
   65
 73
    4
 40
9.25
 49
6
 49
-1.5
 49
0.25
 49
-1.5
  0
LTYPE
  2
double-dashed_dotted
 70
   64
  3
------   -----------   -   -----
 72
   65
 73
    6
 40
16.75
 49
6
 49
-1.5
 49
6
 49
-1.5
 49
0.25
 49
-1.5
  0
LTYPE
  2
dashed_double-dotted
 70
   64
  3
---------    -    -    ---------
 72
   65
 73
    6
 40
11
 49
6
 49
-1.5
 49
0.25
 49
-1.5
 49
0.25
 49
-1.5
  0
LTYPE
  2
double-dashed_double-dotted
 70
   64
  3
-----   ---------   -   -   ----
 72
   65
 73
    8
 40
18.5
 49
6
 49
-1.5
 49
6
 49
-1.5
 49
0.25
 49
-1.5
 49
0.25
 49
-1.5
  0
LTYPE
  2
dashed_triplicate-dotted
 70
   64
  3
-------    -    -    -    ------
 72
   65
 73
    8
 40
12.75
 49
6
 49
-1.5
 49
0.25
 49
-1.5
 49
0.25
 49
-1.5
 49
0.25
 49
-1.5
  0
LTYPE
  2
double-dashed_triplicate-dotted
 70
   64
  3
-----  ---------  -  -  -  -----
 72
   65
 73
   10
 40
20.25
 49
6
 49
-1.5
 49
6
 49
-1.5
 49
0.25
 49
-1.5
 49
0.25
 49
-1.5
 49
0.25
 49
-1.5
  0
LTYPE
  2
undefined
 70
   64
  3
--------------------------------
 72
   65
 73
    0
 40
0
  0
LTYPE
  2
DASHED
 70
   64
  3
-----       ---------       ----
 72
   65
 73
    2
 40
3.5
 49
2
 49
-1.5
  0
LTYPE
  2
CENTER
 70
   64
  3
------------   ---   -----------
 72
   65
 73
    4
 40
17.5
 49
13
 49
-1.5
 49
1.5
 49
-1.5
  0
LTYPE
  2
PHANTOM
 70
   64
  3
---------   ---   ---   --------
 72
   65
 73
    6
 40
15.5
 49
8
 49
-1.5
 49
1.5
 49
-1.5
 49
1.5
 49
-1.5
  0
LTYPE
  2
DOT_20
 70
   64
  3
-               -               
 72
   65
 73
    2
 40
0.26
 49
0.01
 49
-0.25
  0
ENDTAB
  0
TABLE
  2
STYLE
  5
3
100
AcDbSymbolTable
 70
     1
  0
STYLE
  5
10
100
AcDbSymbolTableRecord
100
AcDbTextStyleTableRecord
  2
STANDARD
 70
     0
 40
0.0
 41
1.0
 50
0.0
 71
     0
 42
0.2
  3
txt
  4
bigfont.shx
  0
STYLE
  5
26
100
AcDbSymbolTableRecord
100
AcDbTextStyleTableRecord
  2
TATEGAKI
 70
    68
 40
0.0
 41
1.0
 50
0.0
 71
     0
 42
1.0
  3
txt
  4
bigfont.shx
  0
ENDTAB
  0
TABLE
  2
LAYER
 70
    2
  0
LAYER
  2
_0-0_0
 70
   64
 62
    7
  6
CONTINUOUS
  0
LAYER
  2
ADD_LINE
 70
   64
 62
    7
  6
CONTINUOUS
  0
ENDTAB
  0
ENDSEC
  0
SECTION
  2
BLOCKS
  0
BLOCK
  2
-000-KOZU0002
 70
   64
 10
0
 20
0
 30
0
  0
LINE
  8
_0-0_0
  6
CONTINUOUS
 62
    7
 10
0
 20
0
 11
12.306640625
 21
17.648078918457031
  0
LINE
  8
_0-0_0
  6
CONTINUOUS
 62
    7
 10
12.306640625
 20
17.648078918457031
 11
68.841262817382813
 21
17.648078918457031
  0
LINE
  8
_0-0_0
  6
CONTINUOUS
 62
    7
 10
0
 20
0
 11
1.3282153798656371
 21
2.8872255889188798
  0
LINE
  8
_0-0_0
  6
CONTINUOUS
 62
    7
 10
0
 20
0
 11
2.250184457087145
 21
2.2443033675737829
  0
TEXT
  8
_0-0_0
 62
    7
 10
13.81125903129578
 20
18.44807893037796
 40
3.2000000476837158
 41
0.847216324793849
 50
0
  1
２－Ｍ５タップ（Ｍ４ボルト取付穴）
  0
ENDBLK
  0
BLOCK
  2
-001-KOZU0003
 70
   64
 10
0
 20
0
 30
0
  0
LINE
  8
_0-0_0
  6
CONTINUOUS
 62
    7
 10
0
 20
0
 11
10.961494445800779
 21
31.78330230712891
  0
LINE
  8
_0-0_0
  6
CONTINUOUS
 62
    7
 10
0
 20
0
 11
0.0327533386415402
 21
3.1621079865238579
  0
LINE
  8
_0-0_0
  6
CONTINUOUS
 62
    7
 10
0
 20
0
 11
1.923467462827547
 21
2.510034386034163
  0
ENDBLK
  0
BLOCK
  2
-002-KOZU0004
 70
   64
 10
0
 20
0
 30
0
  0
LINE
  8
_0-0_0
  6
CONTINUOUS
 62
    7
 10
-143.36154266979
 20
-94.194486543334875
 11
-143.27285525217201
 21
-94.105798948341786
  0
LINE
  8
_0-0_0
  6
CONTINUOUS
 62
    7
 10
-143.42145137172119
 20
-94.029888737550081
 11
-143.1443804106753
 21
-93.752817222361699
  0
LINE
  8
_0-0_0
  6
CONTINUOUS
 62
    7
 10
-143.48136007365241
 20
-93.865290931765344
 11
-143.01590556917861
 21
-93.399835496381627
  0
LINE
  8
_0-0_0
  6
CONTINUOUS
 62
    7
 10
-143.5412687755836
 20
-93.700693125980578
 11
-142.88743072768199
 21
-93.046853770401583
  0
LINE
  8
_0-0_0
  6
CONTINUOUS
 62
    7
 10
-143.60117747751471
 20
-93.536095320195827
 11
-142.7589558861853
 21
-92.693872044421497
  0
LINE
  8
_0-0_0
  6
CONTINUOUS
 62
    7
 10
-143.6610861794459
 20
-93.371497514411075
 11
-142.63048104468859
 21
-92.34089031844141
  0
LINE
  8
_0-0_0
  6
CONTINUOUS
 62
    7
 10
-143.72099488137709
 20
-93.20689970862631
 11
-142.7860731270822
 21
-92.271976084486056
  0
LINE
  8
_0-0_0
  6
CONTINUOUS
 62
    7
 10
-143.78090358330829
 20
-93.042301902841558
 11
-143.0105793056029
 21
-92.271976084486056
  0
LINE
  8
_0-0_0
  6
CONTINUOUS
 62
    7
 10
-143.84081228523951
 20
-92.877704097056807
 11
-143.2350854841236
 21
-92.271976084486056
  0
LINE
  8
_0-0_0
  6
CONTINUOUS
 62
    7
 10
-143.9007209871707
 20
-92.713106291272041
 11
-143.45959166264419
 21
-92.271976084486042
  0
LINE
  8
_0-0_0
  6
CONTINUOUS
 62
    7
 10
-143.96062968910181
 20
-92.548508485487275
 11
-143.6840978411648
 21
-92.271976084486028
  0
LINE
  8
_0-0_0
  6
CONTINUOUS
 62
    7
 10
-144.020538391033
 20
-92.38391067970251
 11
-143.9086040196855
 21
-92.271976084486042
  0
ENDBLK
  0
BLOCK
  2
-003-KOZU0005
 70
   64
 10
0
 20
0
 30
0
  0
LINE
  8
_0-0_0
  6
CONTINUOUS
 62
    7
 10
109.8118058555125
 20
16.417909843918611
 11
110.2608444735081
 21
16.866949359992351
  0
LINE
  8
_0-0_0
  6
CONTINUOUS
 62
    7
 10
109.41679973642469
 20
16.471916189884649
 11
110.1935133142953
 21
17.248631321183989
  0
LINE
  8
_0-0_0
  6
CONTINUOUS
 62
    7
 10
109.0664938660986
 20
16.5706228740131
 11
109.7480147818756
 21
17.25214515283324
  0
LINE
  8
_0-0_0
  6
CONTINUOUS
 62
    7
 10
108.7517260733682
 20
16.70486770681336
 11
109.38156013377279
 21
17.3347030268874
  0
LINE
  8
_0-0_0
  6
CONTINUOUS
 62
    7
 10
108.4674397374459
 20
16.869594057384759
 11
109.0680948438248
 21
17.470250365075142
  0
LINE
  8
_0-0_0
  6
CONTINUOUS
 62
    7
 10
108.2108116993284
 20
17.061978761077579
 11
108.7971138535176
 21
17.648282087872321
  0
LINE
  8
_0-0_0
  6
CONTINUOUS
 62
    7
 10
107.98047013975059
 20
17.280649995883149
 11
108.5642540802726
 21
17.864435103974252
  0
LINE
  8
_0-0_0
  6
CONTINUOUS
 62
    7
 10
107.7761758048705
 20
17.52536850748097
 11
108.3687974538099
 21
18.117991341664769
  0
LINE
  8
_0-0_0
  6
CONTINUOUS
 62
    7
 10
107.59877030535959
 20
17.796975908225608
 11
108.2133249182983
 21
18.41153175027474
  0
LINE
  8
_0-0_0
  6
CONTINUOUS
 62
    7
 10
107.45036305810331
 20
18.097581619221479
 11
108.1050429975321
 21
18.752262868011471
  0
LINE
  8
_0-0_0
  6
CONTINUOUS
 62
    7
 10
107.334864211854
 20
18.431095797041142
 11
108.0608519936916
 21
19.157085030855779
  0
LINE
  8
_0-0_0
  6
CONTINUOUS
 62
    7
 10
109.9911530974325
 20
21.08738999520277
 11
110.2608444735081
 21
21.357081910661691
  0
LINE
  8
_0-0_0
  6
CONTINUOUS
 62
    7
 10
107.2592360035637
 20
18.804480692561281
 11
108.13057687089631
 21
19.675823302577371
  0
LINE
  8
_0-0_0
  6
CONTINUOUS
 62
    7
 10
109.4724149651617
 20
21.017664080521609
 11
110.2608444735081
 21
21.806095165728639
  0
LINE
  8
_0-0_0
  6
CONTINUOUS
 62
    7
 10
107.23669962948659
 20
19.230957528478339
 11
109.91727895150539
 21
21.911542211661072
  0
LINE
  8
_0-0_0
  6
CONTINUOUS
 62
    7
 10
107.2973139282749
 20
19.740585203562301
 11
109.40765139765099
 21
21.850926893617551
  0
LINE
  8
_0-0_0
  6
CONTINUOUS
 62
    7
 10
107.5538857171609
 20
20.44617076065931
 11
108.702066353699
 21
21.594353693560961
  0
ENDBLK
  0
BLOCK
  2
-004-KOZU0006
 70
   64
 10
0
 20
0
 30
0
  0
LINE
  8
_0-0_0
  6
CONTINUOUS
 62
    7
 10
114.7467718373281
 20
16.413739889939709
 11
114.93584466424301
 21
16.602813095000631
  0
LINE
  8
_0-0_0
  6
CONTINUOUS
 62
    7
 10
114.31788608833919
 20
16.433866538245411
 11
114.93584466424301
 21
17.051826350067561
  0
LINE
  8
_0-0_0
  6
CONTINUOUS
 62
    7
 10
113.942801775912
 20
16.507794730715709
 11
114.67243742353121
 21
17.237431837607652
  0
LINE
  8
_0-0_0
  6
CONTINUOUS
 62
    7
 10
113.607940456622
 20
16.621945996769281
 11
114.2646110048256
 21
17.278617858315371
  0
LINE
  8
_0-0_0
  6
CONTINUOUS
 62
    7
 10
113.3061824697124
 20
16.769200661410071
 11
113.9218684121136
 21
17.384887835184369
  0
LINE
  8
_0-0_0
  6
CONTINUOUS
 62
    7
 10
113.033532223175
 20
16.945563124638561
 11
113.62672227201691
 21
17.538754359861759
  0
LINE
  8
_0-0_0
  6
CONTINUOUS
 62
    7
 10
112.78782512138579
 20
17.148868786501652
 11
113.3717321627451
 21
17.732776995676179
  0
LINE
  8
_0-0_0
  6
CONTINUOUS
 62
    7
 10
114.38155529400549
 20
18.74260214658489
 11
114.3858444735081
 21
18.746891334665861
  0
LINE
  8
_0-0_0
  6
CONTINUOUS
 62
    7
 10
112.5681769293812
 20
17.378233410267129
 11
113.15417998930791
 21
17.96423764220113
  0
LINE
  8
_0-0_0
  6
CONTINUOUS
 62
    7
 10
113.9325429369642
 20
18.74260214658489
 11
114.3858444735081
 21
19.195904589732809
  0
LINE
  8
_0-0_0
  6
CONTINUOUS
 62
    7
 10
112.37478677540589
 20
17.633856124578099
 11
112.9746630365828
 21
18.233733585508709
  0
LINE
  8
_0-0_0
  6
CONTINUOUS
 62
    7
 10
113.4835305799229
 20
18.74260214658489
 11
114.32311885416721
 21
19.582192100007429
  0
LINE
  8
_0-0_0
  6
CONTINUOUS
 62
    7
 10
112.2089801477717
 20
17.91706242039719
 11
112.8373812493557
 21
18.545464778784659
  0
LINE
  8
_0-0_0
  6
CONTINUOUS
 62
    7
 10
113.0345182228816
 20
18.74260214658489
 11
113.87410649712589
 21
19.582192100007418
  0
LINE
  8
_0-0_0
  6
CONTINUOUS
 62
    7
 10
112.0735155015594
 20
18.230610758322261
 11
113.4250941400846
 21
19.582192100007429
  0
LINE
  8
_0-0_0
  6
CONTINUOUS
 62
    7
 10
114.9136271210986
 20
21.070728058090431
 11
114.93584466424301
 21
21.092945645669939
  0
LINE
  8
_0-0_0
  6
CONTINUOUS
 62
    7
 10
111.9733419397818
 20
18.579450251264308
 11
112.9760817830432
 21
19.582192100007429
  0
LINE
  8
_0-0_0
  6
CONTINUOUS
 62
    7
 10
114.47199848848911
 20
21.078111797289662
 11
114.93584466424301
 21
21.541958900736869
  0
LINE
  8
_0-0_0
  6
CONTINUOUS
 62
    7
 10
111.91740741284229
 20
18.97252886752258
 11
112.912221269437
 21
19.967344713747011
  0
LINE
  8
_0-0_0
  6
CONTINUOUS
 62
    7
 10
113.8558939580159
 20
20.91101928967316
 11
114.8507078146106
 21
21.905835135897579
  0
LINE
  8
_0-0_0
  6
CONTINUOUS
 62
    7
 10
111.9236838412828
 20
19.427818563582878
 11
114.39541813110409
 21
21.899557796877691
  0
LINE
  8
_0-0_0
  6
CONTINUOUS
 62
    7
 10
112.0390162678072
 20
19.992164475839282
 11
113.8310724495137
 21
21.784224241661729
  0
ENDBLK
  0
ENDSEC
  0
SECTION
  2
ENTITIES
  0
POINT
  8
_0-0_0
 62
    7
 10
205.125
 20
-148.5
  0
POINT
  8
_0-0_0
 62
    7
 10
25.125
 20
0
  0
LINE
  8
_0-0_0
  6
CONTINUOUS
 62
    7
 10
-149.2083435058594
 20
-96.571975708007813
 11
-148.60833740234381
 21
-96.571975708007813
  0
LINE
  8
_0-0_0
  6
CONTINUOUS
 62
    7
 10
-147.7083435058594
 20
-96.571975708007813
 11
-124.80833435058591
 21
-96.571975708007813
  0
LINE
  8
_0-0_0
  6
CONTINUOUS
 62
    7
 10
-149.2083435058594
 20
10.620634078979492
 11
-123.2083435058594
 21
10.620634078979492
  0
LINE
  8
_0-0_0
  6
CONTINUOUS
 62
    7
 10
-148.60833740234381
 20
-96.571975708007813
 11
-123.2083435058594
 21
-96.571975708007813
  0
LINE
  8
_0-0_0
  6
CONTINUOUS
 62
    7
 10
-123.7083435058594
 20
-96.571975708007813
 11
-123.2083435058594
 21
-96.571975708007813
  0
LINE
  8
_0-0_0
  6
CONTINUOUS
 62
    7
 10
-149.7083435058594
 20
-56.667369842529297
 11
-149.7083435058594
 21
-76.004989624023437
  0
LINE
  8
_0-0_0
  6
CONTINUOUS
 62
    7
 10
-122.70833587646479
 20
-84.400405883789063
 11
-122.70833587646479
 21
-96.071975708007813
  0
LINE
  8
_0-0_0
  6
CONTINUOUS
 62
    7
 10
-146.7083435058594
 20
-74.571975708007813
 11
-132.95097351074219
 21
-74.571975708007813
  0
LINE
  8
_0-0_0
  6
CONTINUOUS
 62
    7
 10
-130.82966613769531
 20
-75.450653076171875
 11
-123.29412841796881
 21
-82.986190795898437
  0
LINE
  8
_0-0_0
  6
CONTINUOUS
 62
    7
 10
-149.7083435058594
 20
10.120634078979492
 11
-149.7083435058594
 21
0.1206339672207832
  0
LINE
  8
_0-0_0
  6
CONTINUOUS
 62
    7
 10
-122.70833587646479
 20
10.120634078979492
 11
-122.70833587646479
 21
8.9620018005371094
  0
LINE
  8
_0-0_0
  6
CONTINUOUS
 62
    7
 10
-149.2083435058594
 20
-0.3793660402297973
 11
-123.2083435058594
 21
-0.3793660402297973
  0
LINE
  8
_0-0_0
  6
CENTER
 62
    7
 10
-134.2083435058594
 20
14.479856491088867
 11
-134.2083435058594
 21
-5.4061942100524902
  0
LINE
  8
_0-0_0
  6
CENTER
 62
    7
 10
-146.2083435058594
 20
14.306934356689453
 11
-146.2083435058594
 21
-4.714505672454834
  0
LINE
  8
_0-0_0
  6
CENTER
 62
    7
 10
-134.2083435058594
 20
-72.943565368652344
 11
-134.2083435058594
 21
-82.108436584472656
  0
LINE
  8
_0-0_0
  6
CENTER
 62
    7
 10
-100.49110412597662
 20
-54.354740142822266
 11
-130.09742736816409
 21
-83.9610595703125
  0
LINE
  8
_0-0_0
  6
CENTER
 62
    7
 10
-146.2083435058594
 20
-72.943565368652344
 11
-146.2083435058594
 21
-82.108436584472656
  0
LINE
  8
_0-0_0
  6
CENTER
 62
    7
 10
-150.836181640625
 20
-78.071975708007813
 11
-130.3516845703125
 21
-78.071975708007813
  0
LINE
  8
_0-0_0
  6
CONTINUOUS
 62
    7
 10
-131.7083435058594
 20
9.7602376937866211
 11
-131.7083435058594
 21
0.3509353101253509
  0
LINE
  8
_0-0_0
  6
CONTINUOUS
 62
    7
 10
-126.0589599609375
 20
9.2149982452392578
 11
-115.4755554199219
 21
8.4158735275268555
  0
LINE
  8
_0-0_0
  6
CONTINUOUS
 62
    7
 10
-126.0589599609375
 20
1.026269793510437
 11
-115.4755554199219
 21
1.8253942728042603
  0
LINE
  8
_0-0_0
  6
CONTINUOUS
 62
    7
 10
-122.70833587646479
 20
1.2792661190032959
 11
-122.70833587646479
 21
0.1206339672207832
  0
LINE
  8
_0-0_0
  6
CONTINUOUS
 62
    7
 10
-116.10987854003912
 20
7.6206340789794922
 11
-72.458335876464844
 21
7.6206340789794922
  0
LINE
  8
_0-0_0
  6
CONTINUOUS
 62
    7
 10
-116.10987854003912
 20
2.6206340789794922
 11
-72.458335876464844
 21
2.6206340789794922
  0
LINE
  8
_0-0_0
  6
CONTINUOUS
 62
    7
 10
-70.958335876464844
 20
2.6206340789794922
 11
-32.008338928222656
 21
2.6206340789794922
  0
LINE
  8
_0-0_0
  6
CONTINUOUS
 62
    7
 10
-70.958335876464844
 20
-75.879364013671875
 11
-32.008338928222656
 21
-75.879364013671875
  0
LINE
  8
_0-0_0
  6
CONTINUOUS
 62
    7
 10
-70.958335876464844
 20
-70.879364013671875
 11
-32.008338928222656
 21
-70.879364013671875
  0
LINE
  8
_0-0_0
  6
CONTINUOUS
 62
    7
 10
-32.008338928222656
 20
-69.379364013671875
 11
-32.008338928222656
 21
-77.379364013671875
  0
LINE
  8
_0-0_0
  6
CENTER
 62
    7
 10
-110.05094909667969
 20
-73.379364013671875
 11
149.19166564941409
 21
-73.379364013671875
  0
LINE
  8
_0-0_0
  6
CONTINUOUS
 62
    7
 10
-70.958335876464844
 20
7.6206340789794922
 11
-32.008338928222656
 21
7.6206340789794922
  0
LINE
  8
_0-0_0
  6
CENTER
 62
    7
 10
146.2162780761719
 20
5.1206340789794922
 11
-155.19483947753906
 21
5.1206340789794922
  0
LINE
  8
_0-0_0
  6
CONTINUOUS
 62
    7
 10
-32.008338928222656
 20
9.1206340789794922
 11
-32.008338928222656
 21
1.1206339597702026
  0
LINE
  8
_0-0_0
  6
PHANTOM
 62
    7
 10
-110.05094909667969
 20
-70.879364013671875
 11
-72.958335876464844
 21
-70.879364013671875
  0
LINE
  8
_0-0_0
  6
PHANTOM
 62
    7
 10
-110.05094909667969
 20
-75.879364013671875
 11
-72.958335876464844
 21
-75.879364013671875
  0
LINE
  8
_0-0_0
  6
CONTINUOUS
 62
    7
 10
-103.22737121582031
 20
-53.555473327636719
 11
-123.73345947265631
 21
-74.061569213867188
  0
LINE
  8
_0-0_0
  6
CONTINUOUS
 62
    7
 10
-99.846099853515597
 20
-57.245273590087891
 11
-120.19792938232422
 21
-77.597099304199219
  0
LINE
  8
_0-0_0
  6
CONTINUOUS
 62
    7
 10
-122.75778961181641
 20
-44.870635986328125
 11
-94.068557739257813
 21
-44.870635986328125
  0
LINE
  8
_0-0_0
  6
CONTINUOUS
 62
    7
 10
135.09165954589841
 20
26.620634078979492
 11
136.09165954589841
 21
26.620634078979492
  0
LINE
  8
_0-0_0
  6
CONTINUOUS
 62
    7
 10
2.0916612148284912
 20
-16.379365921020508
 11
2.0916612148284912
 21
-17.379365921020508
  0
LINE
  8
_0-0_0
  6
CONTINUOUS
 62
    7
 10
135.09165954589841
 20
-16.379365921020508
 11
135.09165954589841
 21
-17.379365921020508
  0
LINE
  8
_0-0_0
  6
CONTINUOUS
 62
    7
 10
135.09165954589841
 20
-16.379365921020508
 11
136.09165954589841
 21
-16.379365921020508
  0
LINE
  8
_0-0_0
  6
CONTINUOUS
 62
    7
 10
1.0916614532470703
 20
26.620634078979492
 11
1.0916614532470703
 21
-16.379365921020508
  0
LINE
  8
_0-0_0
  6
CONTINUOUS
 62
    7
 10
2.0916612148284912
 20
27.620634078979492
 11
135.09165954589841
 21
27.620634078979492
  0
LINE
  8
_0-0_0
  6
CONTINUOUS
 62
    7
 10
136.09165954589841
 20
26.620634078979492
 11
136.09165954589841
 21
-16.379365921020508
  0
LINE
  8
_0-0_0
  6
CONTINUOUS
 62
    7
 10
2.0916612148284912
 20
-17.379365921020508
 11
135.09165954589841
 21
-17.379365921020508
  0
LINE
  8
_0-0_0
  6
CONTINUOUS
 62
    7
 10
1.0916614532470703
 20
-16.379365921020508
 11
2.0916612148284912
 21
-16.379365921020508
  0
LINE
  8
_0-0_0
  6
CONTINUOUS
 62
    7
 10
1.0916614532470703
 20
26.620634078979492
 11
2.0916612148284912
 21
26.620634078979492
  0
LINE
  8
_0-0_0
  6
CONTINUOUS
 62
    7
 10
2.0916612148284912
 20
27.620634078979492
 11
2.0916612148284912
 21
26.620634078979492
  0
LINE
  8
_0-0_0
  6
CONTINUOUS
 62
    7
 10
135.09165954589841
 20
27.620634078979492
 11
135.09165954589841
 21
26.620634078979492
  0
LINE
  8
_0-0_0
  6
CENTER
 62
    7
 10
126.7916641235352
 20
-11.879365921020508
 11
134.39166259765631
 21
-11.879365921020508
  0
LINE
  8
_0-0_0
  6
CENTER
 62
    7
 10
130.59165954589838
 20
25.920633316040039
 11
130.59165954589838
 21
18.320634841918945
  0
LINE
  8
_0-0_0
  6
CENTER
 62
    7
 10
130.59165954589838
 20
-8.0793657302856445
 11
130.59165954589838
 21
-15.679366111755371
  0
LINE
  8
_0-0_0
  6
CENTER
 62
    7
 10
126.7916641235352
 20
22.120634078979492
 11
134.39166259765631
 21
22.120634078979492
  0
LINE
  8
_0-0_0
  6
CENTER
 62
    7
 10
130.59165954589838
 20
-7.8793659210205078
 11
130.59165954589838
 21
-15.879365921020508
  0
LINE
  8
_0-0_0
  6
CENTER
 62
    7
 10
130.59165954589838
 20
26.120634078979492
 11
130.59165954589838
 21
18.120634078979492
  0
LINE
  8
_0-0_0
  6
CENTER
 62
    7
 10
126.59165954589839
 20
22.120634078979492
 11
134.59165954589841
 21
22.120634078979492
  0
LINE
  8
_0-0_0
  6
CENTER
 62
    7
 10
-2.9083385467529297
 20
22.120634078979492
 11
7.0916612148284912
 21
22.120634078979492
  0
LINE
  8
_0-0_0
  6
CONTINUOUS
 62
    7
 10
1.0916614532470703
 20
24.870634078979492
 11
1.0916614532470703
 21
19.370634078979492
  0
LINE
  8
_0-0_0
  6
CONTINUOUS
 62
    7
 10
0.352541446685791
 20
19.370634078979492
 11
1.0916614532470703
 21
19.370634078979492
  0
LINE
  8
_0-0_0
  6
CONTINUOUS
 62
    7
 10
0.352541446685791
 20
24.870634078979492
 11
1.0916614532470703
 21
24.870634078979492
  0
LINE
  8
_0-0_0
  6
CONTINUOUS
 62
    7
 10
1.0916614532470703
 20
-9.1293659210205078
 11
1.0916614532470703
 21
-14.629365921020508
  0
LINE
  8
_0-0_0
  6
CONTINUOUS
 62
    7
 10
0.352541446685791
 20
-14.629365921020508
 11
1.0916614532470703
 21
-14.629365921020508
  0
LINE
  8
_0-0_0
  6
CONTINUOUS
 62
    7
 10
0.352541446685791
 20
-9.1293659210205078
 11
1.0916614532470703
 21
-9.1293659210205078
  0
LINE
  8
_0-0_0
  6
CONTINUOUS
 62
    7
 10
129.14208984375
 20
20.671064376831055
 11
132.0412292480469
 21
23.57020378112793
  0
LINE
  8
_0-0_0
  6
CONTINUOUS
 62
    7
 10
129.14208984375
 20
23.57020378112793
 11
132.0412292480469
 21
20.671064376831055
  0
LINE
  8
_0-0_0
  6
CONTINUOUS
 62
    7
 10
129.14208984375
 20
-13.328934669494629
 11
132.0412292480469
 21
-10.429797172546387
  0
LINE
  8
_0-0_0
  6
CONTINUOUS
 62
    7
 10
129.14208984375
 20
-10.429797172546387
 11
132.0412292480469
 21
-13.328934669494629
  0
LINE
  8
_0-0_0
  6
CONTINUOUS
 62
    7
 10
-27.008338928222656
 20
5.1206340789794922
 11
-27.008338928222656
 21
9.4539670944213867
  0
LINE
  8
_0-0_0
  6
CONTINUOUS
 62
    7
 10
-10.508338928222656
 20
5.1206340789794922
 11
-10.508338928222656
 21
10.553967475891113
  0
LINE
  8
_0-0_0
  6
CONTINUOUS
 62
    7
 10
-27.008338928222656
 20
9.4539670944213867
 11
-28.008338928222656
 21
9.3873004913330078
  0
LINE
  8
_0-0_0
  6
CONTINUOUS
 62
    7
 10
-8.0083389282226562
 20
5.1206340789794922
 11
-8.0083389282226562
 21
10.720633506774902
  0
LINE
  8
_0-0_0
  6
CONTINUOUS
 62
    7
 10
-11.008338928222656
 20
10.520633697509766
 11
-12.008338928222656
 21
10.453967094421387
  0
LINE
  8
_0-0_0
  6
CONTINUOUS
 62
    7
 10
-9.5083389282226563
 20
5.1206340789794922
 11
-9.5083389282226563
 21
10.620634078979492
  0
LINE
  8
_0-0_0
  6
CONTINUOUS
 62
    7
 10
-12.008338928222656
 20
9.9528570175170898
 11
-12.508338928222656
 21
9.9195241928100586
  0
LINE
  8
_0-0_0
  6
CONTINUOUS
 62
    7
 10
-13.508338928222656
 20
5.1206340789794922
 11
-13.508338928222656
 21
10.353967666625977
  0
LINE
  8
_0-0_0
  6
CONTINUOUS
 62
    7
 10
-20.008338928222656
 20
9.9206342697143555
 11
-26.508338928222656
 21
9.4873008728027344
  0
LINE
  8
_0-0_0
  6
CONTINUOUS
 62
    7
 10
-13.508338928222656
 20
9.8528575897216797
 11
-14.008338928222656
 21
9.819523811340332
  0
LINE
  8
_0-0_0
  6
CONTINUOUS
 62
    7
 10
-4.5083389282226562
 20
5.1206340789794922
 11
-4.5083389282226562
 21
10.953967094421387
  0
LINE
  8
_0-0_0
  6
CONTINUOUS
 62
    7
 10
-7.5083389282226562
 20
5.1206340789794922
 11
-7.5083389282226562
 21
10.75396728515625
  0
LINE
  8
_0-0_0
  6
CONTINUOUS
 62
    7
 10
-18.008338928222656
 20
9.5528573989868164
 11
-18.508338928222656
 21
9.5195236206054687
  0
LINE
  8
_0-0_0
  6
CONTINUOUS
 62
    7
 10
-6.5083389282226563
 20
10.820633888244629
 11
-7.5083389282226562
 21
10.75396728515625
  0
LINE
  8
_0-0_0
  6
CONTINUOUS
 62
    7
 10
-8.0083389282226562
 20
10.720633506774902
 11
-9.0083389282226563
 21
10.653966903686523
  0
LINE
  8
_0-0_0
  6
CONTINUOUS
 62
    7
 10
-5.0083389282226562
 20
5.1206340789794922
 11
-5.0083389282226562
 21
10.920634269714363
  0
LINE
  8
_0-0_0
  6
CONTINUOUS
 62
    7
 10
-7.5083389282226562
 20
10.252857208251953
 11
-8.0083389282226562
 21
10.219524383544922
  0
LINE
  8
_0-0_0
  6
CONTINUOUS
 62
    7
 10
-15.008338928222656
 20
9.7528572082519531
 11
-15.508338928222656
 21
9.7195243835449219
  0
LINE
  8
_0-0_0
  6
CONTINUOUS
 62
    7
 10
-6.0083389282226563
 20
10.35285758972168
 11
-6.5083389282226563
 21
10.319523811340332
  0
LINE
  8
_0-0_0
  6
CONTINUOUS
 62
    7
 10
-15.508338928222656
 20
10.220633506774902
 11
-16.508338928222656
 21
10.153966903686523
  0
LINE
  8
_0-0_0
  6
CONTINUOUS
 62
    7
 10
-18.008338928222656
 20
5.1206340789794922
 11
-18.008338928222656
 21
10.053967475891113
  0
LINE
  8
_0-0_0
  6
CONTINUOUS
 62
    7
 10
-16.508338928222656
 20
5.1206340789794922
 11
-16.508338928222656
 21
10.153966903686523
  0
LINE
  8
_0-0_0
  6
CONTINUOUS
 62
    7
 10
1.0916614532470703
 20
11.120634078979492
 11
-2.0083389282226562
 21
11.120634078979492
  0
LINE
  8
_0-0_0
  6
CONTINUOUS
 62
    7
 10
-10.508338928222656
 20
10.052857398986816
 11
-11.008338928222656
 21
10.019523620605469
  0
LINE
  8
_0-0_0
  6
CONTINUOUS
 62
    7
 10
-26.508338928222656
 20
8.9861907958984375
 11
-27.008338928222656
 21
8.9528570175170898
  0
LINE
  8
_0-0_0
  6
CONTINUOUS
 62
    7
 10
-6.5083389282226563
 20
5.1206340789794922
 11
-6.5083389282226563
 21
10.820633888244629
  0
LINE
  8
_0-0_0
  6
CONTINUOUS
 62
    7
 10
-18.508338928222656
 20
5.1206340789794922
 11
-18.508338928222656
 21
10.020633697509766
  0
LINE
  8
_0-0_0
  6
CONTINUOUS
 62
    7
 10
-15.508338928222656
 20
5.1206340789794922
 11
-15.508338928222656
 21
10.220633506774902
  0
LINE
  8
_0-0_0
  6
CONTINUOUS
 62
    7
 10
-28.008338928222656
 20
8.8861904144287109
 11
-28.508338928222656
 21
8.8528575897216797
  0
LINE
  8
_0-0_0
  6
CONTINUOUS
 62
    7
 10
-15.008338928222656
 20
5.1206340789794922
 11
-15.008338928222656
 21
10.25396728515625
  0
LINE
  8
_0-0_0
  6
CONTINUOUS
 62
    7
 10
-12.508338928222656
 20
5.1206340789794922
 11
-12.508338928222656
 21
10.420634269714363
  0
LINE
  8
_0-0_0
  6
CONTINUOUS
 62
    7
 10
-6.0083389282226563
 20
5.1206340789794922
 11
-6.0083389282226563
 21
10.853967666625977
  0
LINE
  8
_0-0_0
  6
CONTINUOUS
 62
    7
 10
-4.5083389282226562
 20
10.45285701751709
 11
-5.0083389282226562
 21
10.419524192810059
  0
LINE
  8
_0-0_0
  6
CONTINUOUS
 62
    7
 10
-14.008338928222656
 20
5.1206340789794922
 11
-14.008338928222656
 21
10.320633888244629
  0
LINE
  8
_0-0_0
  6
CONTINUOUS
 62
    7
 10
-12.008338928222656
 20
5.1206340789794922
 11
-12.008338928222656
 21
10.453967094421387
  0
LINE
  8
_0-0_0
  6
CONTINUOUS
 62
    7
 10
-11.008338928222656
 20
5.1206340789794922
 11
-11.008338928222656
 21
10.520633697509766
  0
LINE
  8
_0-0_0
  6
CONTINUOUS
 62
    7
 10
-28.508338928222656
 20
5.1206340789794922
 11
-28.508338928222656
 21
9.3539676666259766
  0
LINE
  8
_0-0_0
  6
CONTINUOUS
 62
    7
 10
-9.0083389282226563
 20
5.1206340789794922
 11
-9.0083389282226563
 21
10.653966903686523
  0
LINE
  8
_0-0_0
  6
CONTINUOUS
 62
    7
 10
-28.008338928222656
 20
5.1206340789794922
 11
-28.008338928222656
 21
9.3873004913330078
  0
LINE
  8
_0-0_0
  6
CONTINUOUS
 62
    7
 10
-17.008338928222656
 20
5.1206340789794922
 11
-17.008338928222656
 21
10.120634078979492
  0
LINE
  8
_0-0_0
  6
CONTINUOUS
 62
    7
 10
-19.508338928222656
 20
5.1206340789794922
 11
-19.508338928222656
 21
9.9539670944213867
  0
LINE
  8
_0-0_0
  6
CONTINUOUS
 62
    7
 10
-14.008338928222656
 20
10.320633888244629
 11
-15.008338928222656
 21
10.25396728515625
  0
LINE
  8
_0-0_0
  6
CONTINUOUS
 62
    7
 10
-5.0083389282226562
 20
10.920634269714363
 11
-6.0083389282226563
 21
10.853967666625977
  0
LINE
  8
_0-0_0
  6
CONTINUOUS
 62
    7
 10
-12.508338928222656
 20
10.420634269714363
 11
-13.508338928222656
 21
10.353967666625977
  0
LINE
  8
_0-0_0
  6
CONTINUOUS
 62
    7
 10
-17.008338928222656
 20
10.120634078979492
 11
-18.008338928222656
 21
10.053967475891113
  0
LINE
  8
_0-0_0
  6
CONTINUOUS
 62
    7
 10
-16.508338928222656
 20
9.652857780456543
 11
-17.008338928222656
 21
9.6195240020751953
  0
LINE
  8
_0-0_0
  6
CONTINUOUS
 62
    7
 10
-18.508338928222656
 20
10.020633697509766
 11
-19.508338928222656
 21
9.9539670944213867
  0
LINE
  8
_0-0_0
  6
CONTINUOUS
 62
    7
 10
-28.508338928222656
 20
9.3539676666259766
 11
-32.008338928222656
 21
9.1206340789794922
  0
LINE
  8
_0-0_0
  6
CONTINUOUS
 62
    7
 10
-19.508338928222656
 20
9.4528570175170898
 11
-20.008338928222656
 21
9.4195241928100586
  0
LINE
  8
_0-0_0
  6
CONTINUOUS
 62
    7
 10
-20.008338928222656
 20
5.1206340789794922
 11
-20.008338928222656
 21
9.9206342697143555
  0
LINE
  8
_0-0_0
  6
CONTINUOUS
 62
    7
 10
-2.0083389282226562
 20
11.120634078979492
 11
-4.5083389282226562
 21
10.953967094421387
  0
LINE
  8
_0-0_0
  6
CONTINUOUS
 62
    7
 10
-9.0083389282226563
 20
10.152857780456543
 11
-9.5083389282226563
 21
10.119524002075195
  0
LINE
  8
_0-0_0
  6
CONTINUOUS
 62
    7
 10
-9.5083389282226563
 20
10.620634078979492
 11
-10.508338928222656
 21
10.553967475891113
  0
LINE
  8
_0-0_0
  6
CONTINUOUS
 62
    7
 10
-26.508338928222656
 20
5.1206340789794922
 11
-26.508338928222656
 21
9.4873008728027344
  0
LINE
  8
_0-0_0
  6
CENTER
 62
    7
 10
-2.9083385467529297
 20
-11.879365921020508
 11
7.0916612148284912
 21
-11.879365921020508
  0
LINE
  8
_0-0_0
  6
CONTINUOUS
 62
    7
 10
-27.008338928222656
 20
5.1206340789794922
 11
-27.008338928222656
 21
0.7873006463050842
  0
LINE
  8
_0-0_0
  6
CONTINUOUS
 62
    7
 10
-10.508338928222656
 20
5.1206340789794922
 11
-10.508338928222656
 21
-0.3126993775367736
  0
LINE
  8
_0-0_0
  6
CONTINUOUS
 62
    7
 10
-27.008338928222656
 20
0.7873006463050842
 11
-28.008338928222656
 21
0.8539673089981079
  0
LINE
  8
_0-0_0
  6
CONTINUOUS
 62
    7
 10
-8.0083389282226562
 20
5.1206340789794922
 11
-8.0083389282226562
 21
-0.4793660342693328
  0
LINE
  8
_0-0_0
  6
CONTINUOUS
 62
    7
 10
-11.008338928222656
 20
-0.2793660461902618
 11
-12.008338928222656
 21
-0.2126993685960769
  0
LINE
  8
_0-0_0
  6
CONTINUOUS
 62
    7
 10
-9.5083389282226563
 20
5.1206340789794922
 11
-9.5083389282226563
 21
-0.3793660402297973
  0
LINE
  8
_0-0_0
  6
CONTINUOUS
 62
    7
 10
-12.008338928222656
 20
0.2884105145931243
 11
-12.508338928222656
 21
0.3217438459396362
  0
LINE
  8
_0-0_0
  6
CONTINUOUS
 62
    7
 10
-13.508338928222656
 20
5.1206340789794922
 11
-13.508338928222656
 21
-0.1126993671059608
  0
LINE
  8
_0-0_0
  6
CONTINUOUS
 62
    7
 10
-20.008338928222656
 20
0.320633977651596
 11
-26.508338928222656
 21
0.75396728515625
  0
LINE
  8
_0-0_0
  6
CONTINUOUS
 62
    7
 10
-13.508338928222656
 20
0.3884105086326599
 11
-14.008338928222656
 21
0.4217438399791717
  0
LINE
  8
_0-0_0
  6
CONTINUOUS
 62
    7
 10
-4.5083389282226562
 20
5.1206340789794922
 11
-4.5083389282226562
 21
-0.7126993536949157
  0
LINE
  8
_0-0_0
  6
CONTINUOUS
 62
    7
 10
-7.5083389282226562
 20
5.1206340789794922
 11
-7.5083389282226562
 21
-0.5126993656158447
  0
LINE
  8
_0-0_0
  6
CONTINUOUS
 62
    7
 10
-18.008338928222656
 20
0.6884105205535888
 11
-18.508338928222656
 21
0.7217438220977783
  0
LINE
  8
_0-0_0
  6
CONTINUOUS
 62
    7
 10
-6.5083389282226563
 20
-0.5793660283088684
 11
-7.5083389282226562
 21
-0.5126993656158447
  0
LINE
  8
_0-0_0
  6
CONTINUOUS
 62
    7
 10
-8.0083389282226562
 20
-0.4793660342693328
 11
-9.0083389282226563
 21
-0.4126993715763092
  0
LINE
  8
_0-0_0
  6
CONTINUOUS
 62
    7
 10
-5.0083389282226562
 20
5.1206340789794922
 11
-5.0083389282226562
 21
-0.6793660521507263
  0
LINE
  8
_0-0_0
  6
CONTINUOUS
 62
    7
 10
-7.5083389282226562
 20
-0.0115894889459013
 11
-8.0083389282226562
 21
0.0217438451945781
  0
LINE
  8
_0-0_0
  6
CONTINUOUS
 62
    7
 10
-15.008338928222656
 20
0.4884105026721954
 11
-15.508338928222656
 21
0.5217438340187072
  0
LINE
  8
_0-0_0
  6
CONTINUOUS
 62
    7
 10
-6.0083389282226563
 20
-0.11158949136734
 11
-6.5083389282226563
 21
-0.0782561525702476
  0
LINE
  8
_0-0_0
  6
CONTINUOUS
 62
    7
 10
-15.508338928222656
 20
0.0206339657306671
 11
-16.508338928222656
 21
0.0873006284236907
  0
LINE
  8
_0-0_0
  6
CONTINUOUS
 62
    7
 10
-18.008338928222656
 20
5.1206340789794922
 11
-18.008338928222656
 21
0.1873006373643875
  0
LINE
  8
_0-0_0
  6
CONTINUOUS
 62
    7
 10
-16.508338928222656
 20
5.1206340789794922
 11
-16.508338928222656
 21
0.0873006284236907
  0
LINE
  8
_0-0_0
  6
CONTINUOUS
 62
    7
 10
1.0916614532470703
 20
-0.8793660402297973
 11
-2.0083389282226562
 21
-0.8793660402297973
  0
LINE
  8
_0-0_0
  6
CONTINUOUS
 62
    7
 10
-10.508338928222656
 20
0.1884105056524276
 11
-11.008338928222656
 21
0.2217438519001007
  0
LINE
  8
_0-0_0
  6
CONTINUOUS
 62
    7
 10
-26.508338928222656
 20
1.2550771236419678
 11
-27.008338928222656
 21
1.2884105443954468
  0
LINE
  8
_0-0_0
  6
CONTINUOUS
 62
    7
 10
-6.5083389282226563
 20
5.1206340789794922
 11
-6.5083389282226563
 21
-0.5793660283088684
  0
LINE
  8
_0-0_0
  6
CONTINUOUS
 62
    7
 10
-18.508338928222656
 20
5.1206340789794922
 11
-18.508338928222656
 21
0.2206339687108993
  0
LINE
  8
_0-0_0
  6
CONTINUOUS
 62
    7
 10
-15.508338928222656
 20
5.1206340789794922
 11
-15.508338928222656
 21
0.0206339657306671
  0
LINE
  8
_0-0_0
  6
CONTINUOUS
 62
    7
 10
-28.008338928222656
 20
1.3550771474838257
 11
-28.508338928222656
 21
1.3884105682373047
  0
LINE
  8
_0-0_0
  6
CONTINUOUS
 62
    7
 10
-15.008338928222656
 20
5.1206340789794922
 11
-15.008338928222656
 21
-0.0126993674784898
  0
LINE
  8
_0-0_0
  6
CONTINUOUS
 62
    7
 10
-12.508338928222656
 20
5.1206340789794922
 11
-12.508338928222656
 21
-0.1793660372495651
  0
LINE
  8
_0-0_0
  6
CONTINUOUS
 62
    7
 10
-6.0083389282226563
 20
5.1206340789794922
 11
-6.0083389282226563
 21
-0.6126993894577026
  0
LINE
  8
_0-0_0
  6
CONTINUOUS
 62
    7
 10
-4.5083389282226562
 20
-0.2115894854068756
 11
-5.0083389282226562
 21
-0.1782561540603637
  0
LINE
  8
_0-0_0
  6
CONTINUOUS
 62
    7
 10
-14.008338928222656
 20
5.1206340789794922
 11
-14.008338928222656
 21
-0.079366035759449
  0
LINE
  8
_0-0_0
  6
CONTINUOUS
 62
    7
 10
-12.008338928222656
 20
5.1206340789794922
 11
-12.008338928222656
 21
-0.2126993685960769
  0
LINE
  8
_0-0_0
  6
CONTINUOUS
 62
    7
 10
-11.008338928222656
 20
5.1206340789794922
 11
-11.008338928222656
 21
-0.2793660461902618
  0
LINE
  8
_0-0_0
  6
CONTINUOUS
 62
    7
 10
-28.508338928222656
 20
5.1206340789794922
 11
-28.508338928222656
 21
0.8873006105422973
  0
LINE
  8
_0-0_0
  6
CONTINUOUS
 62
    7
 10
-9.0083389282226563
 20
5.1206340789794922
 11
-9.0083389282226563
 21
-0.4126993715763092
  0
LINE
  8
_0-0_0
  6
CONTINUOUS
 62
    7
 10
-28.008338928222656
 20
5.1206340789794922
 11
-28.008338928222656
 21
0.8539673089981079
  0
LINE
  8
_0-0_0
  6
CONTINUOUS
 62
    7
 10
-17.008338928222656
 20
5.1206340789794922
 11
-17.008338928222656
 21
0.1206339672207832
  0
LINE
  8
_0-0_0
  6
CONTINUOUS
 62
    7
 10
-19.508338928222656
 20
5.1206340789794922
 11
-19.508338928222656
 21
0.2873006463050842
  0
LINE
  8
_0-0_0
  6
CONTINUOUS
 62
    7
 10
-14.008338928222656
 20
-0.079366035759449
 11
-15.008338928222656
 21
-0.0126993674784898
  0
LINE
  8
_0-0_0
  6
CONTINUOUS
 62
    7
 10
-5.0083389282226562
 20
-0.6793660521507263
 11
-6.0083389282226563
 21
-0.6126993894577026
  0
LINE
  8
_0-0_0
  6
CONTINUOUS
 62
    7
 10
-12.508338928222656
 20
-0.1793660372495651
 11
-13.508338928222656
 21
-0.1126993671059608
  0
LINE
  8
_0-0_0
  6
CONTINUOUS
 62
    7
 10
-17.008338928222656
 20
0.1206339672207832
 11
-18.008338928222656
 21
0.1873006373643875
  0
LINE
  8
_0-0_0
  6
CONTINUOUS
 62
    7
 10
-16.508338928222656
 20
0.5884104967117309
 11
-17.008338928222656
 21
0.6217438578605651
  0
LINE
  8
_0-0_0
  6
CONTINUOUS
 62
    7
 10
-18.508338928222656
 20
0.2206339687108993
 11
-19.508338928222656
 21
0.2873006463050842
  0
LINE
  8
_0-0_0
  6
CONTINUOUS
 62
    7
 10
-28.508338928222656
 20
0.8873006105422973
 11
-32.008338928222656
 21
1.1206339597702026
  0
LINE
  8
_0-0_0
  6
CONTINUOUS
 62
    7
 10
-19.508338928222656
 20
0.788410484790802
 11
-20.008338928222656
 21
0.8217438459396362
  0
LINE
  8
_0-0_0
  6
CONTINUOUS
 62
    7
 10
-20.008338928222656
 20
5.1206340789794922
 11
-20.008338928222656
 21
0.320633977651596
  0
LINE
  8
_0-0_0
  6
CONTINUOUS
 62
    7
 10
-2.0083389282226562
 20
-0.8793660402297973
 11
-4.5083389282226562
 21
-0.7126993536949157
  0
LINE
  8
_0-0_0
  6
CONTINUOUS
 62
    7
 10
-9.0083389282226563
 20
0.0884105116128921
 11
-9.5083389282226563
 21
0.1217438429594039
  0
LINE
  8
_0-0_0
  6
CONTINUOUS
 62
    7
 10
-9.5083389282226563
 20
-0.3793660402297973
 11
-10.508338928222656
 21
-0.3126993775367736
  0
LINE
  8
_0-0_0
  6
CONTINUOUS
 62
    7
 10
-26.508338928222656
 20
5.1206340789794922
 11
-26.508338928222656
 21
0.75396728515625
  0
LINE
  8
_0-0_0
  6
CONTINUOUS
 62
    7
 10
3.4916611909866333
 20
-85.729362487792969
 11
132.49166107177729
 21
-85.729362487792969
  0
LINE
  8
_0-0_0
  6
CONTINUOUS
 62
    7
 10
1.4916613101959229
 20
-60.229366302490234
 11
134.4916687011719
 21
-60.229366302490234
  0
LINE
  8
_0-0_0
  6
CONTINUOUS
 62
    7
 10
134.4916687011719
 20
-60.229366302490234
 11
134.4916687011719
 21
-83.729362487792969
  0
LINE
  8
_0-0_0
  6
CONTINUOUS
 62
    7
 10
0.4916610717773437
 20
-61.229366302490234
 11
0.4916610717773437
 21
-75.229362487792969
  0
LINE
  8
_0-0_0
  6
CONTINUOUS
 62
    7
 10
135.4916687011719
 20
-61.229366302490234
 11
135.4916687011719
 21
-65.229362487792969
  0
LINE
  8
_0-0_0
  6
CONTINUOUS
 62
    7
 10
1.4916613101959229
 20
-60.229366302490234
 11
1.4916613101959229
 21
-83.729362487792969
  0
LINE
  8
_0-0_0
  6
CONTINUOUS
 62
    7
 10
134.4916687011719
 20
-65.229362487792969
 11
135.4916687011719
 21
-65.229362487792969
  0
LINE
  8
_0-0_0
  6
CONTINUOUS
 62
    7
 10
0.4916610717773437
 20
-75.229362487792969
 11
1.4916613101959229
 21
-75.229362487792969
  0
LINE
  8
_0-0_0
  6
CENTER
 62
    7
 10
129.99166107177729
 20
-58.229366302490234
 11
129.99166107177729
 21
-63.229366302490234
  0
LINE
  8
_0-0_0
  6
CENTER
 62
    7
 10
-1.5083389282226562
 20
-65.729362487792969
 11
3.4916611909866333
 21
-65.729362487792969
  0
LINE
  8
_0-0_0
  6
CENTER
 62
    7
 10
20.491661071777344
 20
-55.272270202636719
 11
20.491661071777344
 21
-94.156692504882813
  0
LINE
  8
_0-0_0
  6
CENTER
 62
    7
 10
129.99166107177729
 20
-56.229366302490234
 11
129.99166107177729
 21
-68.229362487792969
  0
LINE
  8
_0-0_0
  6
CONTINUOUS
 62
    7
 10
134.4916687011719
 20
-62.229366302490234
 11
134.4916687011719
 21
-85.229362487792969
  0
LINE
  8
_0-0_0
  6
CONTINUOUS
 62
    7
 10
1.4916613101959229
 20
-61.229366302490234
 11
1.4916613101959229
 21
-85.229362487792969
  0
LINE
  8
_0-0_0
  6
CONTINUOUS
 62
    7
 10
2.4916613101959229
 20
-86.229362487792969
 11
133.4916687011719
 21
-86.229362487792969
  0
LINE
  8
_0-0_0
  6
CENTER
 62
    7
 10
-3.5083389282226563
 20
-65.729362487792969
 11
6.4916611909866333
 21
-65.729362487792969
  0
LINE
  8
_0-0_0
  6
CONTINUOUS
 62
    7
 10
132.74166107177729
 20
-60.229366302490234
 11
127.2416610717773
 21
-60.229366302490234
  0
LINE
  8
_0-0_0
  6
CONTINUOUS
 62
    7
 10
127.2416610717773
 20
-59.490245819091797
 11
127.2416610717773
 21
-60.229366302490234
  0
LINE
  8
_0-0_0
  6
CONTINUOUS
 62
    7
 10
132.74166107177729
 20
-59.490245819091797
 11
132.74166107177729
 21
-60.229366302490234
  0
LINE
  8
_0-0_0
  6
CONTINUOUS
 62
    7
 10
0.4916610717773437
 20
-62.979366302490234
 11
0.4916610717773437
 21
-68.479362487792969
  0
LINE
  8
_0-0_0
  6
CONTINUOUS
 62
    7
 10
-0.2474589347839355
 20
-68.479362487792969
 11
0.4916610717773437
 21
-68.479362487792969
  0
LINE
  8
_0-0_0
  6
CONTINUOUS
 62
    7
 10
-0.2474589347839355
 20
-62.979366302490234
 11
0.4916610717773437
 21
-62.979366302490234
  0
LINE
  8
_0-0_0
  6
CONTINUOUS
 62
    7
 10
-8.0083389282226562
 20
-73.379364013671875
 11
-8.0083389282226562
 21
-78.979362487792969
  0
LINE
  8
_0-0_0
  6
CONTINUOUS
 62
    7
 10
-11.008338928222656
 20
-78.779365539550781
 11
-12.008338928222656
 21
-78.712699890136719
  0
LINE
  8
_0-0_0
  6
CONTINUOUS
 62
    7
 10
-5.0083389282226562
 20
-73.379364013671875
 11
-5.0083389282226562
 21
-79.179367065429688
  0
LINE
  8
_0-0_0
  6
CONTINUOUS
 62
    7
 10
-12.008338928222656
 20
-78.211585998535156
 11
-12.508338928222656
 21
-78.178253173828125
  0
LINE
  8
_0-0_0
  6
CONTINUOUS
 62
    7
 10
-9.5083389282226563
 20
-78.879364013671875
 11
-10.508338928222656
 21
-78.812698364257812
  0
LINE
  8
_0-0_0
  6
CONTINUOUS
 62
    7
 10
-9.0083389282226563
 20
-78.411590576171875
 11
-9.5083389282226563
 21
-78.378257751464844
  0
LINE
  8
_0-0_0
  6
CONTINUOUS
 62
    7
 10
-2.0083389282226562
 20
-79.379364013671875
 11
-4.5083389282226562
 21
-79.212699890136719
  0
LINE
  8
_0-0_0
  6
CONTINUOUS
 62
    7
 10
-28.508338928222656
 20
-77.612701416015625
 11
-32.008338928222656
 21
-77.379364013671875
  0
LINE
  8
_0-0_0
  6
CONTINUOUS
 62
    7
 10
-4.5083389282226562
 20
-73.379364013671875
 11
-4.5083389282226562
 21
-79.212699890136719
  0
LINE
  8
_0-0_0
  6
CONTINUOUS
 62
    7
 10
-26.508338928222656
 20
-73.379364013671875
 11
-26.508338928222656
 21
-77.74603271484375
  0
LINE
  8
_0-0_0
  6
CONTINUOUS
 62
    7
 10
-13.508338928222656
 20
-73.379364013671875
 11
-13.508338928222656
 21
-78.612701416015625
  0
LINE
  8
_0-0_0
  6
CONTINUOUS
 62
    7
 10
-13.508338928222656
 20
-78.111587524414063
 11
-14.008338928222656
 21
-78.078254699707031
  0
LINE
  8
_0-0_0
  6
CONTINUOUS
 62
    7
 10
-7.5083389282226562
 20
-73.379364013671875
 11
-7.5083389282226562
 21
-79.012702941894531
  0
LINE
  8
_0-0_0
  6
CONTINUOUS
 62
    7
 10
-18.008338928222656
 20
-77.811592102050781
 11
-18.508338928222656
 21
-77.77825927734375
  0
LINE
  8
_0-0_0
  6
CONTINUOUS
 62
    7
 10
-6.5083389282226563
 20
-79.079368591308594
 11
-7.5083389282226562
 21
-79.012702941894531
  0
LINE
  8
_0-0_0
  6
CONTINUOUS
 62
    7
 10
-20.008338928222656
 20
-78.179367065429687
 11
-26.508338928222656
 21
-77.74603271484375
  0
LINE
  8
_0-0_0
  6
CONTINUOUS
 62
    7
 10
-8.0083389282226562
 20
-78.979362487792969
 11
-9.0083389282226563
 21
-78.912696838378906
  0
LINE
  8
_0-0_0
  6
CONTINUOUS
 62
    7
 10
-15.008338928222656
 20
-78.011589050292969
 11
-15.508338928222656
 21
-77.978256225585937
  0
LINE
  8
_0-0_0
  6
CONTINUOUS
 62
    7
 10
-6.0083389282226563
 20
-78.611587524414063
 11
-6.5083389282226563
 21
-78.578254699707031
  0
LINE
  8
_0-0_0
  6
CONTINUOUS
 62
    7
 10
-15.508338928222656
 20
-78.479362487792969
 11
-16.508338928222656
 21
-78.412696838378906
  0
LINE
  8
_0-0_0
  6
CONTINUOUS
 62
    7
 10
-18.008338928222656
 20
-73.379364013671875
 11
-18.008338928222656
 21
-78.312698364257813
  0
LINE
  8
_0-0_0
  6
CONTINUOUS
 62
    7
 10
-7.5083389282226562
 20
-78.511589050292969
 11
-8.0083389282226562
 21
-78.478256225585937
  0
LINE
  8
_0-0_0
  6
CONTINUOUS
 62
    7
 10
-16.508338928222656
 20
-73.379364013671875
 11
-16.508338928222656
 21
-78.412696838378906
  0
LINE
  8
_0-0_0
  6
CONTINUOUS
 62
    7
 10
-10.508338928222656
 20
-78.311592102050781
 11
-11.008338928222656
 21
-78.27825927734375
  0
LINE
  8
_0-0_0
  6
CONTINUOUS
 62
    7
 10
-26.508338928222656
 20
-77.244926452636719
 11
-27.008338928222656
 21
-77.211585998535156
  0
LINE
  8
_0-0_0
  6
CONTINUOUS
 62
    7
 10
-6.5083389282226563
 20
-73.379364013671875
 11
-6.5083389282226563
 21
-79.079368591308594
  0
LINE
  8
_0-0_0
  6
CONTINUOUS
 62
    7
 10
-18.508338928222656
 20
-73.379364013671875
 11
-18.508338928222656
 21
-78.279365539550781
  0
LINE
  8
_0-0_0
  6
CONTINUOUS
 62
    7
 10
1.4916613101959229
 20
-79.379364013671875
 11
-2.0083389282226562
 21
-79.379364013671875
  0
LINE
  8
_0-0_0
  6
CONTINUOUS
 62
    7
 10
-15.508338928222656
 20
-73.379364013671875
 11
-15.508338928222656
 21
-78.479362487792969
  0
LINE
  8
_0-0_0
  6
CONTINUOUS
 62
    7
 10
-15.008338928222656
 20
-73.379364013671875
 11
-15.008338928222656
 21
-78.512702941894531
  0
LINE
  8
_0-0_0
  6
CONTINUOUS
 62
    7
 10
-12.508338928222656
 20
-73.379364013671875
 11
-12.508338928222656
 21
-78.679367065429688
  0
LINE
  8
_0-0_0
  6
CONTINUOUS
 62
    7
 10
-28.008338928222656
 20
-77.144920349121094
 11
-28.508338928222656
 21
-77.111587524414063
  0
LINE
  8
_0-0_0
  6
CONTINUOUS
 62
    7
 10
-4.5083389282226562
 20
-78.711585998535156
 11
-5.0083389282226562
 21
-78.678253173828125
  0
LINE
  8
_0-0_0
  6
CONTINUOUS
 62
    7
 10
-6.0083389282226563
 20
-73.379364013671875
 11
-6.0083389282226563
 21
-79.112701416015625
  0
LINE
  8
_0-0_0
  6
CONTINUOUS
 62
    7
 10
-9.5083389282226563
 20
-73.379364013671875
 11
-9.5083389282226563
 21
-78.879364013671875
  0
LINE
  8
_0-0_0
  6
CONTINUOUS
 62
    7
 10
-27.008338928222656
 20
-77.712699890136719
 11
-28.008338928222656
 21
-77.646034240722656
  0
LINE
  8
_0-0_0
  6
CONTINUOUS
 62
    7
 10
-10.508338928222656
 20
-73.379364013671875
 11
-10.508338928222656
 21
-78.812698364257812
  0
LINE
  8
_0-0_0
  6
CONTINUOUS
 62
    7
 10
-27.008338928222656
 20
-73.379364013671875
 11
-27.008338928222656
 21
-77.712699890136719
  0
LINE
  8
_0-0_0
  6
CONTINUOUS
 62
    7
 10
-20.008338928222656
 20
-73.379364013671875
 11
-20.008338928222656
 21
-78.179367065429687
  0
LINE
  8
_0-0_0
  6
CONTINUOUS
 62
    7
 10
-19.508338928222656
 20
-77.711585998535156
 11
-20.008338928222656
 21
-77.678253173828125
  0
LINE
  8
_0-0_0
  6
CONTINUOUS
 62
    7
 10
-18.508338928222656
 20
-78.279365539550781
 11
-19.508338928222656
 21
-78.212699890136719
  0
LINE
  8
_0-0_0
  6
CONTINUOUS
 62
    7
 10
-16.508338928222656
 20
-77.911590576171875
 11
-17.008338928222656
 21
-77.878257751464844
  0
LINE
  8
_0-0_0
  6
CONTINUOUS
 62
    7
 10
-17.008338928222656
 20
-78.379364013671875
 11
-18.008338928222656
 21
-78.312698364257813
  0
LINE
  8
_0-0_0
  6
CONTINUOUS
 62
    7
 10
-12.508338928222656
 20
-78.679367065429688
 11
-13.508338928222656
 21
-78.612701416015625
  0
LINE
  8
_0-0_0
  6
CONTINUOUS
 62
    7
 10
-5.0083389282226562
 20
-79.179367065429688
 11
-6.0083389282226563
 21
-79.112701416015625
  0
LINE
  8
_0-0_0
  6
CONTINUOUS
 62
    7
 10
-14.008338928222656
 20
-78.579368591308594
 11
-15.008338928222656
 21
-78.512702941894531
  0
LINE
  8
_0-0_0
  6
CONTINUOUS
 62
    7
 10
-19.508338928222656
 20
-73.379364013671875
 11
-19.508338928222656
 21
-78.212699890136719
  0
LINE
  8
_0-0_0
  6
CONTINUOUS
 62
    7
 10
-17.008338928222656
 20
-73.379364013671875
 11
-17.008338928222656
 21
-78.379364013671875
  0
LINE
  8
_0-0_0
  6
CONTINUOUS
 62
    7
 10
-28.008338928222656
 20
-73.379364013671875
 11
-28.008338928222656
 21
-77.646034240722656
  0
LINE
  8
_0-0_0
  6
CONTINUOUS
 62
    7
 10
-9.0083389282226563
 20
-73.379364013671875
 11
-9.0083389282226563
 21
-78.912696838378906
  0
LINE
  8
_0-0_0
  6
CONTINUOUS
 62
    7
 10
-28.508338928222656
 20
-73.379364013671875
 11
-28.508338928222656
 21
-77.612701416015625
  0
LINE
  8
_0-0_0
  6
CONTINUOUS
 62
    7
 10
-11.008338928222656
 20
-73.379364013671875
 11
-11.008338928222656
 21
-78.779365539550781
  0
LINE
  8
_0-0_0
  6
CONTINUOUS
 62
    7
 10
-12.008338928222656
 20
-73.379364013671875
 11
-12.008338928222656
 21
-78.712699890136719
  0
LINE
  8
_0-0_0
  6
CONTINUOUS
 62
    7
 10
-14.008338928222656
 20
-73.379364013671875
 11
-14.008338928222656
 21
-78.579368591308594
  0
LINE
  8
_0-0_0
  6
CONTINUOUS
 62
    7
 10
-8.0083389282226562
 20
-73.379364013671875
 11
-8.0083389282226562
 21
-67.779365539550781
  0
LINE
  8
_0-0_0
  6
CONTINUOUS
 62
    7
 10
-11.008338928222656
 20
-67.979362487792969
 11
-12.008338928222656
 21
-68.046035766601563
  0
LINE
  8
_0-0_0
  6
CONTINUOUS
 62
    7
 10
-5.0083389282226562
 20
-73.379364013671875
 11
-5.0083389282226562
 21
-67.579368591308594
  0
LINE
  8
_0-0_0
  6
CONTINUOUS
 62
    7
 10
-12.008338928222656
 20
-68.547142028808594
 11
-12.508338928222656
 21
-68.580474853515625
  0
LINE
  8
_0-0_0
  6
CONTINUOUS
 62
    7
 10
-9.5083389282226563
 20
-67.879364013671875
 11
-10.508338928222656
 21
-67.946029663085938
  0
LINE
  8
_0-0_0
  6
CONTINUOUS
 62
    7
 10
-9.0083389282226563
 20
-68.347145080566406
 11
-9.5083389282226563
 21
-68.380477905273437
  0
LINE
  8
_0-0_0
  6
CONTINUOUS
 62
    7
 10
-2.0083389282226562
 20
-67.379364013671875
 11
-4.5083389282226562
 21
-67.546035766601563
  0
LINE
  8
_0-0_0
  6
CONTINUOUS
 62
    7
 10
-28.508338928222656
 20
-69.146034240722656
 11
-32.008338928222656
 21
-69.379364013671875
  0
LINE
  8
_0-0_0
  6
CONTINUOUS
 62
    7
 10
-4.5083389282226562
 20
-73.379364013671875
 11
-4.5083389282226562
 21
-67.546035766601563
  0
LINE
  8
_0-0_0
  6
CONTINUOUS
 62
    7
 10
-26.508338928222656
 20
-73.379364013671875
 11
-26.508338928222656
 21
-69.012702941894531
  0
LINE
  8
_0-0_0
  6
CONTINUOUS
 62
    7
 10
-13.508338928222656
 20
-73.379364013671875
 11
-13.508338928222656
 21
-68.146034240722656
  0
LINE
  8
_0-0_0
  6
CONTINUOUS
 62
    7
 10
-13.508338928222656
 20
-68.647140502929688
 11
-14.008338928222656
 21
-68.680473327636719
  0
LINE
  8
_0-0_0
  6
CONTINUOUS
 62
    7
 10
-7.5083389282226562
 20
-73.379364013671875
 11
-7.5083389282226562
 21
-67.74603271484375
  0
LINE
  8
_0-0_0
  6
CONTINUOUS
 62
    7
 10
-18.008338928222656
 20
-68.9471435546875
 11
-18.508338928222656
 21
-68.980476379394531
  0
LINE
  8
_0-0_0
  6
CONTINUOUS
 62
    7
 10
-6.5083389282226563
 20
-67.679367065429688
 11
-7.5083389282226562
 21
-67.74603271484375
  0
LINE
  8
_0-0_0
  6
CONTINUOUS
 62
    7
 10
-20.008338928222656
 20
-68.579368591308594
 11
-26.508338928222656
 21
-69.012702941894531
  0
LINE
  8
_0-0_0
  6
CONTINUOUS
 62
    7
 10
-8.0083389282226562
 20
-67.779365539550781
 11
-9.0083389282226563
 21
-67.846031188964844
  0
LINE
  8
_0-0_0
  6
CONTINUOUS
 62
    7
 10
-15.008338928222656
 20
-68.747138977050781
 11
-15.508338928222656
 21
-68.780479431152344
  0
LINE
  8
_0-0_0
  6
CONTINUOUS
 62
    7
 10
-6.0083389282226563
 20
-68.147140502929688
 11
-6.5083389282226563
 21
-68.180473327636719
  0
LINE
  8
_0-0_0
  6
CONTINUOUS
 62
    7
 10
-15.508338928222656
 20
-68.279365539550781
 11
-16.508338928222656
 21
-68.346031188964844
  0
LINE
  8
_0-0_0
  6
CONTINUOUS
 62
    7
 10
-18.008338928222656
 20
-73.379364013671875
 11
-18.008338928222656
 21
-68.446029663085938
  0
LINE
  8
_0-0_0
  6
CONTINUOUS
 62
    7
 10
-7.5083389282226562
 20
-68.247138977050781
 11
-8.0083389282226562
 21
-68.280479431152344
  0
LINE
  8
_0-0_0
  6
CONTINUOUS
 62
    7
 10
-16.508338928222656
 20
-73.379364013671875
 11
-16.508338928222656
 21
-68.346031188964844
  0
LINE
  8
_0-0_0
  6
CONTINUOUS
 62
    7
 10
-10.508338928222656
 20
-68.4471435546875
 11
-11.008338928222656
 21
-68.480476379394531
  0
LINE
  8
_0-0_0
  6
CONTINUOUS
 62
    7
 10
-26.508338928222656
 20
-69.513809204101562
 11
-27.008338928222656
 21
-69.547142028808594
  0
LINE
  8
_0-0_0
  6
CONTINUOUS
 62
    7
 10
-6.5083389282226563
 20
-73.379364013671875
 11
-6.5083389282226563
 21
-67.679367065429688
  0
LINE
  8
_0-0_0
  6
CONTINUOUS
 62
    7
 10
-18.508338928222656
 20
-73.379364013671875
 11
-18.508338928222656
 21
-68.479362487792969
  0
LINE
  8
_0-0_0
  6
CONTINUOUS
 62
    7
 10
-1.3110957145690918
 20
-67.379364013671875
 11
-2.0083389282226562
 21
-67.379364013671875
  0
LINE
  8
_0-0_0
  6
CONTINUOUS
 62
    7
 10
-15.508338928222656
 20
-73.379364013671875
 11
-15.508338928222656
 21
-68.279365539550781
  0
LINE
  8
_0-0_0
  6
CONTINUOUS
 62
    7
 10
-15.008338928222656
 20
-73.379364013671875
 11
-15.008338928222656
 21
-68.24603271484375
  0
LINE
  8
_0-0_0
  6
CONTINUOUS
 62
    7
 10
-12.508338928222656
 20
-73.379364013671875
 11
-12.508338928222656
 21
-68.079368591308594
  0
LINE
  8
_0-0_0
  6
CONTINUOUS
 62
    7
 10
-28.008338928222656
 20
-69.613807678222656
 11
-28.508338928222656
 21
-69.647140502929687
  0
LINE
  8
_0-0_0
  6
CONTINUOUS
 62
    7
 10
-4.5083389282226562
 20
-68.047142028808594
 11
-5.0083389282226562
 21
-68.080474853515625
  0
LINE
  8
_0-0_0
  6
CONTINUOUS
 62
    7
 10
-6.0083389282226563
 20
-73.379364013671875
 11
-6.0083389282226563
 21
-67.646034240722656
  0
LINE
  8
_0-0_0
  6
CONTINUOUS
 62
    7
 10
-9.5083389282226563
 20
-73.379364013671875
 11
-9.5083389282226563
 21
-67.879364013671875
  0
LINE
  8
_0-0_0
  6
CONTINUOUS
 62
    7
 10
-27.008338928222656
 20
-69.046035766601562
 11
-28.008338928222656
 21
-69.112701416015625
  0
LINE
  8
_0-0_0
  6
CONTINUOUS
 62
    7
 10
-10.508338928222656
 20
-73.379364013671875
 11
-10.508338928222656
 21
-67.946029663085938
  0
LINE
  8
_0-0_0
  6
CONTINUOUS
 62
    7
 10
-27.008338928222656
 20
-73.379364013671875
 11
-27.008338928222656
 21
-69.046035766601562
  0
LINE
  8
_0-0_0
  6
CONTINUOUS
 62
    7
 10
-20.008338928222656
 20
-73.379364013671875
 11
-20.008338928222656
 21
-68.579368591308594
  0
LINE
  8
_0-0_0
  6
CONTINUOUS
 62
    7
 10
-19.508338928222656
 20
-69.047142028808594
 11
-20.008338928222656
 21
-69.080474853515625
  0
LINE
  8
_0-0_0
  6
CONTINUOUS
 62
    7
 10
-18.508338928222656
 20
-68.479362487792969
 11
-19.508338928222656
 21
-68.546035766601562
  0
LINE
  8
_0-0_0
  6
CONTINUOUS
 62
    7
 10
-16.508338928222656
 20
-68.847145080566406
 11
-17.008338928222656
 21
-68.880477905273437
  0
LINE
  8
_0-0_0
  6
CONTINUOUS
 62
    7
 10
-17.008338928222656
 20
-68.379364013671875
 11
-18.008338928222656
 21
-68.446029663085938
  0
LINE
  8
_0-0_0
  6
CONTINUOUS
 62
    7
 10
-12.508338928222656
 20
-68.079368591308594
 11
-13.508338928222656
 21
-68.146034240722656
  0
LINE
  8
_0-0_0
  6
CONTINUOUS
 62
    7
 10
-5.0083389282226562
 20
-67.579368591308594
 11
-6.0083389282226563
 21
-67.646034240722656
  0
LINE
  8
_0-0_0
  6
CONTINUOUS
 62
    7
 10
-14.008338928222656
 20
-68.179367065429687
 11
-15.008338928222656
 21
-68.24603271484375
  0
LINE
  8
_0-0_0
  6
CONTINUOUS
 62
    7
 10
-19.508338928222656
 20
-73.379364013671875
 11
-19.508338928222656
 21
-68.546035766601562
  0
LINE
  8
_0-0_0
  6
CONTINUOUS
 62
    7
 10
-17.008338928222656
 20
-73.379364013671875
 11
-17.008338928222656
 21
-68.379364013671875
  0
LINE
  8
_0-0_0
  6
CONTINUOUS
 62
    7
 10
-28.008338928222656
 20
-73.379364013671875
 11
-28.008338928222656
 21
-69.112701416015625
  0
LINE
  8
_0-0_0
  6
CONTINUOUS
 62
    7
 10
-9.0083389282226563
 20
-73.379364013671875
 11
-9.0083389282226563
 21
-67.846031188964844
  0
LINE
  8
_0-0_0
  6
CONTINUOUS
 62
    7
 10
-28.508338928222656
 20
-73.379364013671875
 11
-28.508338928222656
 21
-69.146034240722656
  0
LINE
  8
_0-0_0
  6
CONTINUOUS
 62
    7
 10
-11.008338928222656
 20
-73.379364013671875
 11
-11.008338928222656
 21
-67.979362487792969
  0
LINE
  8
_0-0_0
  6
CONTINUOUS
 62
    7
 10
-12.008338928222656
 20
-73.379364013671875
 11
-12.008338928222656
 21
-68.046035766601563
  0
LINE
  8
_0-0_0
  6
CONTINUOUS
 62
    7
 10
-14.008338928222656
 20
-73.379364013671875
 11
-14.008338928222656
 21
-68.179367065429687
  0
LINE
  8
_0-0_0
  6
CONTINUOUS
 62
    7
 10
137.9916687011719
 20
-6.5293660163879395
 11
137.9916687011719
 21
-5.6793661117553711
  0
LINE
  8
_0-0_0
  6
CONTINUOUS
 62
    7
 10
139.4916687011719
 20
-5.6793661117553711
 11
139.4916687011719
 21
15.920634269714363
  0
LINE
  8
_0-0_0
  6
CONTINUOUS
 62
    7
 10
138.64166259765631
 20
-6.5293660163879395
 11
139.4916687011719
 21
-5.6793661117553711
  0
LINE
  8
_0-0_0
  6
CONTINUOUS
 62
    7
 10
138.64166259765631
 20
16.770633697509766
 11
139.4916687011719
 21
15.920634269714363
  0
LINE
  8
_0-0_0
  6
CONTINUOUS
 62
    7
 10
137.9916687011719
 20
15.920634269714363
 11
137.9916687011719
 21
16.770633697509766
  0
LINE
  8
_0-0_0
  6
CONTINUOUS
 62
    7
 10
137.9916687011719
 20
16.770633697509766
 11
138.64166259765631
 21
16.770633697509766
  0
LINE
  8
_0-0_0
  6
CONTINUOUS
 62
    7
 10
137.9916687011719
 20
-6.5293660163879395
 11
138.64166259765631
 21
-6.5293660163879395
  0
LINE
  8
_0-0_0
  6
CONTINUOUS
 62
    7
 10
136.09165954589841
 20
15.920634269714363
 11
137.9916687011719
 21
15.920634269714363
  0
LINE
  8
_0-0_0
  6
CONTINUOUS
 62
    7
 10
136.09165954589841
 20
-5.6793661117553711
 11
137.9916687011719
 21
-5.6793661117553711
  0
LINE
  8
_0-0_0
  6
CONTINUOUS
 62
    7
 10
134.4916687011719
 20
-69.709365844726563
 11
138.89166259765631
 21
-69.709365844726563
  0
LINE
  8
_0-0_0
  6
CONTINUOUS
 62
    7
 10
134.4916687011719
 20
-76.809364318847656
 11
138.89166259765631
 21
-76.809364318847656
  0
LINE
  8
_0-0_0
  6
CONTINUOUS
 62
    7
 10
138.89166259765631
 20
-69.709365844726563
 11
138.89166259765631
 21
-76.809364318847656
  0
LINE
  8
_0-0_0
  6
CONTINUOUS
 62
    7
 10
137.39166259765631
 20
-69.709365844726563
 11
137.39166259765631
 21
-71.839363098144531
  0
LINE
  8
_0-0_0
  6
CONTINUOUS
 62
    7
 10
138.0416564941406
 20
-69.709365844726563
 11
138.0416564941406
 21
-71.839363098144531
  0
LINE
  8
_0-0_0
  6
CONTINUOUS
 62
    7
 10
137.39166259765631
 20
-71.839363098144531
 11
138.89166259765631
 21
-71.839363098144531
  0
LINE
  8
_0-0_0
  6
CONTINUOUS
 62
    7
 10
137.39166259765631
 20
-74.679367065429688
 11
138.89166259765631
 21
-74.679367065429688
  0
LINE
  8
_0-0_0
  6
CONTINUOUS
 62
    7
 10
137.39166259765631
 20
-74.679367065429688
 11
137.39166259765631
 21
-76.809364318847656
  0
LINE
  8
_0-0_0
  6
CONTINUOUS
 62
    7
 10
138.0416564941406
 20
-74.679367065429688
 11
138.0416564941406
 21
-76.809364318847656
  0
LINE
  8
_0-0_0
  6
CENTER
 62
    7
 10
100.49166107177734
 20
-55.272270202636719
 11
100.49166107177734
 21
-94.156692504882813
  0
LINE
  8
_0-0_0
  6
CONTINUOUS
 62
    7
 10
-123.94560241699219
 20
-73.849433898925781
 11
-119.98580169677729
 21
-77.809234619140625
  0
LINE
  8
_0-0_0
  6
CONTINUOUS
 62
    7
 10
-123.94560241699219
 20
-73.849433898925781
 11
-128.5064392089844
 21
-77.773880004882813
  0
LINE
  8
_0-0_0
  6
CONTINUOUS
 62
    7
 10
-119.98580169677729
 20
-77.809234619140625
 11
-123.9102478027344
 21
-82.370071411132813
  0
LINE
  8
_0-0_0
  6
CONTINUOUS
 62
    7
 10
135.93486022949219
 20
97.154792785644531
 11
135.93486022949219
 21
55.154792785644531
  0
LINE
  8
_0-0_0
  6
CONTINUOUS
 62
    7
 10
25.934860229492188
 20
97.154792785644531
 11
135.93486022949219
 21
97.154792785644531
  0
LINE
  8
_0-0_0
  6
CONTINUOUS
 62
    7
 10
95.934860229492188
 20
97.154792785644531
 11
95.934860229492188
 21
55.154792785644531
  0
LINE
  8
_0-0_0
  6
CONTINUOUS
 62
    7
 10
65.934860229492187
 20
97.154792785644531
 11
65.934860229492187
 21
55.154792785644531
  0
LINE
  8
_0-0_0
  6
CONTINUOUS
 62
    7
 10
25.934860229492188
 20
97.154792785644531
 11
25.934860229492188
 21
55.154792785644531
  0
LINE
  8
_0-0_0
  6
CONTINUOUS
 62
    7
 10
25.934860229492188
 20
90.154792785644531
 11
135.93486022949219
 21
90.154792785644531
  0
LINE
  8
_0-0_0
  6
CONTINUOUS
 62
    7
 10
25.934860229492188
 20
83.154792785644531
 11
135.93486022949219
 21
83.154792785644531
  0
LINE
  8
_0-0_0
  6
CONTINUOUS
 62
    7
 10
25.934860229492188
 20
76.154792785644531
 11
135.93486022949219
 21
76.154792785644531
  0
LINE
  8
_0-0_0
  6
CONTINUOUS
 62
    7
 10
25.934860229492188
 20
69.154792785644531
 11
135.93486022949219
 21
69.154792785644531
  0
LINE
  8
_0-0_0
  6
CONTINUOUS
 62
    7
 10
25.934860229492188
 20
62.154792785644531
 11
135.93486022949219
 21
62.154792785644531
  0
LINE
  8
_0-0_0
  6
CONTINUOUS
 62
    7
 10
25.934860229492188
 20
55.154792785644531
 11
135.93486022949219
 21
55.154792785644531
  0
LINE
  8
_0-0_0
  6
CONTINUOUS
 62
    7
 10
107.09165954589839
 20
17.620634078979492
 11
95.091659545898437
 21
17.620634078979492
  0
LINE
  8
_0-0_0
  6
CENTER
 62
    7
 10
101.09165954589844
 20
23.620634078979492
 11
101.09165954589844
 21
11.620634078979492
  0
LINE
  8
_0-0_0
  6
CENTER
 62
    7
 10
27.09166145324707
 20
-7.3793659210205078
 11
15.09166145324707
 21
-7.3793659210205078
  0
LINE
  8
_0-0_0
  6
CENTER
 62
    7
 10
21.09166145324707
 20
-1.3793660402297974
 11
21.09166145324707
 21
-13.379365921020508
  0
LINE
  8
_0-0_0
  6
CONTINUOUS
 62
    7
 10
-147.90834045410159
 20
-82.371978759765625
 11
-147.90834045410159
 21
-93.77197265625
  0
LINE
  8
_0-0_0
  6
CONTINUOUS
 62
    7
 10
-146.90834045410159
 20
-81.371978759765625
 11
-145.0225524902344
 21
-81.371978759765625
  0
LINE
  8
_0-0_0
  6
CONTINUOUS
 62
    7
 10
-142.1941223144531
 20
-79.371978759765625
 11
-138.22254943847659
 21
-79.371978759765625
  0
LINE
  8
_0-0_0
  6
CONTINUOUS
 62
    7
 10
-135.39411926269531
 20
-81.371978759765625
 11
-127.8681335449219
 21
-81.371978759765625
  0
LINE
  8
_0-0_0
  6
CONTINUOUS
 62
    7
 10
-127.16102600097659
 20
-81.664871215820313
 11
-124.8012390136719
 21
-84.024665832519531
  0
LINE
  8
_0-0_0
  6
CONTINUOUS
 62
    7
 10
-124.5083312988281
 20
-84.731773376464844
 11
-124.5083312988281
 21
-93.77197265625
  0
LINE
  8
_0-0_0
  6
CONTINUOUS
 62
    7
 10
-146.90834045410159
 20
-94.77197265625
 11
-125.5083312988281
 21
-94.77197265625
  0
LINE
  8
_0-0_0
  6
CONTINUOUS
 62
    7
 10
-137.51544189453131
 20
-79.664871215820313
 11
-136.1012268066406
 21
-81.079086303710938
  0
LINE
  8
_0-0_0
  6
CONTINUOUS
 62
    7
 10
-144.31544494628909
 20
-81.079086303710938
 11
-142.90122985839841
 21
-79.664871215820313
  0
LINE
  8
_0-0_0
  6
CONTINUOUS
 62
    7
 10
-138.936279296875
 20
-92.27197265625
 11
-137.48039245605469
 21
-92.27197265625
  0
LINE
  8
_0-0_0
  6
CONTINUOUS
 62
    7
 10
-138.2083435058594
 20
-94.27197265625
 11
-137.48039245605469
 21
-92.27197265625
  0
LINE
  8
_0-0_0
  6
CONTINUOUS
 62
    7
 10
-138.2083435058594
 20
-94.27197265625
 11
-138.936279296875
 21
-92.27197265625
  0
LINE
  8
_0-0_0
  6
CONTINUOUS
 62
    7
 10
-149.7083435058594
 20
-77.571975708007812
 11
-149.7083435058594
 21
-96.071975708007813
  0
LINE
  8
_0-0_0
  6
CONTINUOUS
 62
    7
 10
-117.0245361328125
 20
-56.667369842529297
 11
-117.0245361328125
 21
-62.489601135253906
  0
LINE
  8
_0-0_0
  6
CONTINUOUS
 62
    7
 10
-149.7083435058594
 20
-57.551559448242188
 11
-117.0245361328125
 21
-57.551559448242188
  0
LINE
  8
_0-0_0
  6
CONTINUOUS
 62
    7
 10
-149.7083435058594
 20
-57.551559448242188
 11
-146.60833740234381
 21
-57.00494384765625
  0
LINE
  8
_0-0_0
  6
CONTINUOUS
 62
    7
 10
-149.7083435058594
 20
-57.551559448242188
 11
-146.60833740234381
 21
-58.098171234130859
  0
LINE
  8
_0-0_0
  6
CONTINUOUS
 62
    7
 10
-117.0245361328125
 20
-57.551559448242188
 11
-120.1245422363281
 21
-58.098171234130859
  0
LINE
  8
_0-0_0
  6
CONTINUOUS
 62
    7
 10
-117.0245361328125
 20
-57.551559448242188
 11
-120.1245422363281
 21
-57.00494384765625
  0
LINE
  8
_0-0_0
  6
CONTINUOUS
 62
    7
 10
-122.70833587646479
 20
-96.571975708007813
 11
-110.23875427246088
 21
-96.571975708007813
  0
LINE
  8
_0-0_0
  6
CONTINUOUS
 62
    7
 10
-110.74958801269531
 20
-70.879364013671875
 11
-110.74958801269531
 21
-96.571975708007813
  0
LINE
  8
_0-0_0
  6
CONTINUOUS
 62
    7
 10
-110.74958801269531
 20
-96.571975708007813
 11
-110.2029724121094
 21
-93.471977233886719
  0
LINE
  8
_0-0_0
  6
CONTINUOUS
 62
    7
 10
-110.74958801269531
 20
-96.571975708007813
 11
-111.29619598388672
 21
-93.471977233886719
  0
LINE
  8
_0-0_0
  6
CONTINUOUS
 62
    7
 10
-110.74958801269531
 20
-70.879364013671875
 11
-111.29619598388672
 21
-73.979362487792969
  0
LINE
  8
_0-0_0
  6
CONTINUOUS
 62
    7
 10
-110.74958801269531
 20
-70.879364013671875
 11
-110.2029724121094
 21
-73.979362487792969
  0
LINE
  8
_0-0_0
  6
PHANTOM
 62
    7
 10
-110.05094909667969
 20
-73.979362487792969
 11
-72.958335876464844
 21
-73.979362487792969
  0
LINE
  8
_0-0_0
  6
CONTINUOUS
 62
    7
 10
-126.0589599609375
 20
33.762718200683587
 11
-126.0589599609375
 21
5.9248185157775879
  0
LINE
  8
_0-0_0
  6
CONTINUOUS
 62
    7
 10
0.4137372970581054
 20
33.762718200683587
 11
0.4137372970581054
 21
28.686397552490234
  0
LINE
  8
_0-0_0
  6
CONTINUOUS
 62
    7
 10
-126.0589599609375
 20
32.288948059082031
 11
0.4137372970581054
 21
32.288948059082031
  0
LINE
  8
_0-0_0
  6
CONTINUOUS
 62
    7
 10
-126.0589599609375
 20
32.288948059082031
 11
-122.9589538574219
 21
32.835563659667969
  0
LINE
  8
_0-0_0
  6
CONTINUOUS
 62
    7
 10
-126.0589599609375
 20
32.288948059082031
 11
-122.9589538574219
 21
31.742334365844727
  0
LINE
  8
_0-0_0
  6
CONTINUOUS
 62
    7
 10
0.4161515235900878
 20
32.28033447265625
 11
-2.6838483810424805
 21
31.733720779418945
  0
LINE
  8
_0-0_0
  6
CONTINUOUS
 62
    7
 10
0.4161515235900878
 20
32.28033447265625
 11
-2.6838483810424805
 21
32.826950073242187
  0
LINE
  8
_0-0_0
  6
CONTINUOUS
 62
    7
 10
40.291660308837891
 20
5.1206340789794922
 11
23.291660308837891
 21
7.4206337928771973
  0
LINE
  8
_0-0_0
  6
CONTINUOUS
 62
    7
 10
23.291660308837891
 20
5.1206340789794922
 11
40.291660308837891
 21
7.4206337928771973
  0
LINE
  8
_0-0_0
  6
CONTINUOUS
 62
    7
 10
120.2916641235352
 20
-13.379365921020508
 11
27.291660308837891
 21
-9.3793659210205078
  0
LINE
  8
_0-0_0
  6
CONTINUOUS
 62
    7
 10
27.291660308837891
 20
-13.379365921020508
 11
120.2916641235352
 21
-9.3793659210205078
  0
LINE
  8
_0-0_0
  6
CONTINUOUS
 62
    7
 10
23.291660308837891
 20
7.4206337928771973
 11
23.291660308837891
 21
5.1206340789794922
  0
LINE
  8
_0-0_0
  6
CONTINUOUS
 62
    7
 10
40.291660308837891
 20
7.4206337928771973
 11
40.291660308837891
 21
5.1206340789794922
  0
LINE
  8
_0-0_0
  6
CONTINUOUS
 62
    7
 10
23.291660308837891
 20
7.4206337928771973
 11
40.291660308837891
 21
7.4206337928771973
  0
LINE
  8
_0-0_0
  6
CONTINUOUS
 62
    7
 10
52.291660308837891
 20
18.170633316040039
 11
53.291660308837891
 21
18.170633316040039
  0
LINE
  8
_0-0_0
  6
CONTINUOUS
 62
    7
 10
53.291660308837891
 20
18.170633316040039
 11
53.291660308837891
 21
10.620634078979492
  0
LINE
  8
_0-0_0
  6
CONTINUOUS
 62
    7
 10
53.291660308837891
 20
10.620634078979492
 11
58.041660308837891
 21
10.620634078979492
  0
LINE
  8
_0-0_0
  6
CONTINUOUS
 62
    7
 10
52.291660308837891
 20
19.570634841918945
 11
52.291660308837891
 21
16.770633697509766
  0
LINE
  8
_0-0_0
  6
CONTINUOUS
 62
    7
 10
58.041660308837891
 20
8.1206340789794922
 11
57.639736175537109
 21
9.6206340789794922
  0
LINE
  8
_0-0_0
  6
CONTINUOUS
 62
    7
 10
51.591659545898438
 20
19.570634841918945
 11
52.291660308837891
 21
19.570634841918945
  0
LINE
  8
_0-0_0
  6
CONTINUOUS
 62
    7
 10
51.591659545898438
 20
16.770633697509766
 11
52.291660308837891
 21
16.770633697509766
  0
LINE
  8
_0-0_0
  6
CONTINUOUS
 62
    7
 10
58.041660308837891
 20
8.1206340789794922
 11
58.443584442138672
 21
9.6206340789794922
  0
LINE
  8
_0-0_0
  6
CONTINUOUS
 62
    7
 10
58.041660308837891
 20
10.620634078979492
 11
58.041660308837891
 21
8.1206340789794922
  0
LINE
  8
_0-0_0
  6
CONTINUOUS
 62
    7
 10
57.639736175537109
 20
9.6206340789794922
 11
58.443584442138672
 21
9.6206340789794922
  0
LINE
  8
_0-0_0
  6
CONTINUOUS
 62
    7
 10
27.291660308837891
 20
-9.3793659210205078
 11
27.291660308837891
 21
-13.379365921020508
  0
LINE
  8
_0-0_0
  6
CONTINUOUS
 62
    7
 10
120.2916641235352
 20
-9.3793659210205078
 11
120.2916641235352
 21
-13.379365921020508
  0
LINE
  8
_0-0_0
  6
CONTINUOUS
 62
    7
 10
27.291660308837891
 20
-9.3793659210205078
 11
120.2916641235352
 21
-9.3793659210205078
  0
LINE
  8
_0-0_0
  6
CONTINUOUS
 62
    7
 10
111.7916641235352
 20
8.6206340789794922
 11
122.2916641235352
 21
8.6206340789794922
  0
LINE
  8
_0-0_0
  6
CONTINUOUS
 62
    7
 10
111.7916641235352
 20
1.6206339597702026
 11
122.2916641235352
 21
1.6206339597702026
  0
LINE
  8
_0-0_0
  6
CONTINUOUS
 62
    7
 10
122.2916641235352
 20
8.6206340789794922
 11
122.2916641235352
 21
1.6206339597702026
  0
LINE
  8
_0-0_0
  6
CONTINUOUS
 62
    7
 10
111.7916641235352
 20
8.6206340789794922
 11
111.7916641235352
 21
1.6206339597702026
  0
LINE
  8
_0-0_0
  6
CONTINUOUS
 62
    7
 10
117.9071731567383
 20
18.74260139465332
 11
119.51084136962891
 21
18.74260139465332
  0
LINE
  8
_0-0_0
  6
CONTINUOUS
 62
    7
 10
119.51084136962891
 20
19.582191467285156
 11
119.51084136962891
 21
18.74260139465332
  0
LINE
  8
_0-0_0
  6
CONTINUOUS
 62
    7
 10
115.38584136962891
 20
21.898612976074219
 11
115.38584136962891
 21
21.067653656005859
  0
LINE
  8
_0-0_0
  6
CONTINUOUS
 62
    7
 10
27.291660308837891
 20
-13.379365921020508
 11
120.2916641235352
 21
-13.379365921020508
  0
LINE
  8
_0-0_0
  6
CONTINUOUS
 62
    7
 10
120.0608444213867
 20
17.25714111328125
 11
120.0608444213867
 21
16.426181793212891
  0
LINE
  8
_0-0_0
  6
CONTINUOUS
 62
    7
 10
115.38584136962891
 20
17.25714111328125
 11
115.38584136962891
 21
16.426181793212891
  0
LINE
  8
_0-0_0
  6
CONTINUOUS
 62
    7
 10
44.291660308837891
 20
15.170634269714363
 11
44.291660308837891
 21
8.1206340789794922
  0
LINE
  8
_0-0_0
  6
CONTINUOUS
 62
    7
 10
43.889736175537109
 20
9.6206340789794922
 11
44.693584442138672
 21
9.6206340789794922
  0
LINE
  8
_0-0_0
  6
CONTINUOUS
 62
    7
 10
44.291660308837891
 20
8.1206340789794922
 11
43.889736175537109
 21
9.6206340789794922
  0
LINE
  8
_0-0_0
  6
CONTINUOUS
 62
    7
 10
120.0608444213867
 20
21.898612976074219
 11
120.0608444213867
 21
21.067653656005859
  0
LINE
  8
_0-0_0
  6
CONTINUOUS
 62
    7
 10
44.291660308837891
 20
15.170634269714363
 11
44.908702850341797
 21
15.170634269714363
  0
LINE
  8
_0-0_0
  6
CONTINUOUS
 62
    7
 10
44.291660308837891
 20
8.1206340789794922
 11
44.693584442138672
 21
9.6206340789794922
  0
LINE
  8
_0-0_0
  6
CONTINUOUS
 62
    7
 10
117.9071731567383
 20
19.582191467285156
 11
119.51084136962891
 21
19.582191467285156
  0
LINE
  8
_0-0_0
  6
CONTINUOUS
 62
    7
 10
54.291660308837891
 20
21.620634078979492
 11
94.291664123535156
 21
21.620634078979492
  0
LINE
  8
_0-0_0
  6
CONTINUOUS
 62
    7
 10
54.291660308837891
 20
17.620634078979492
 11
94.291664123535156
 21
17.620634078979492
  0
LINE
  8
_0-0_0
  6
CONTINUOUS
 62
    7
 10
54.291660308837891
 20
15.620634078979492
 11
94.291664123535156
 21
15.620634078979492
  0
LINE
  8
_0-0_0
  6
CONTINUOUS
 62
    7
 10
54.291660308837891
 20
13.620634078979492
 11
94.291664123535156
 21
13.620634078979492
  0
LINE
  8
_0-0_0
  6
CONTINUOUS
 62
    7
 10
54.291660308837891
 20
11.620634078979492
 11
94.291664123535156
 21
11.620634078979492
  0
LINE
  8
_0-0_0
  6
CONTINUOUS
 62
    7
 10
54.291660308837891
 20
19.620634078979492
 11
94.291664123535156
 21
19.620634078979492
  0
LINE
  8
_0-0_0
  6
CONTINUOUS
 62
    7
 10
54.291660308837891
 20
21.620634078979492
 11
54.291660308837891
 21
11.620634078979492
  0
LINE
  8
_0-0_0
  6
CONTINUOUS
 62
    7
 10
57.791660308837891
 20
21.620634078979492
 11
57.791660308837891
 21
11.620634078979492
  0
LINE
  8
_0-0_0
  6
CONTINUOUS
 62
    7
 10
64.291660308837891
 20
21.620634078979492
 11
64.291660308837891
 21
11.620634078979492
  0
LINE
  8
_0-0_0
  6
CONTINUOUS
 62
    7
 10
67.791660308837891
 20
21.620634078979492
 11
67.791660308837891
 21
11.620634078979492
  0
LINE
  8
_0-0_0
  6
CONTINUOUS
 62
    7
 10
74.291664123535156
 20
21.620634078979492
 11
74.291664123535156
 21
11.620634078979492
  0
LINE
  8
_0-0_0
  6
CONTINUOUS
 62
    7
 10
77.791664123535156
 20
21.620634078979492
 11
77.791664123535156
 21
11.620634078979492
  0
LINE
  8
_0-0_0
  6
CONTINUOUS
 62
    7
 10
84.291664123535156
 20
21.620634078979492
 11
84.291664123535156
 21
11.620634078979492
  0
LINE
  8
_0-0_0
  6
CONTINUOUS
 62
    7
 10
87.791664123535156
 20
21.620634078979492
 11
87.791664123535156
 21
11.620634078979492
  0
LINE
  8
_0-0_0
  6
CONTINUOUS
 62
    7
 10
94.291664123535156
 20
21.620634078979492
 11
94.291664123535156
 21
11.620634078979492
  0
LINE
  8
_0-0_0
  6
CONTINUOUS
 62
    7
 10
51.291660308837891
 20
21.120634078979492
 11
51.291660308837891
 21
14.120634078979492
  0
LINE
  8
_0-0_0
  6
CONTINUOUS
 62
    7
 10
45.291660308837891
 20
21.120634078979492
 11
45.291660308837891
 21
14.120634078979492
  0
LINE
  8
_0-0_0
  6
CONTINUOUS
 62
    7
 10
45.291660308837891
 20
21.120634078979492
 11
51.291660308837891
 21
21.120634078979492
  0
LINE
  8
_0-0_0
  6
CONTINUOUS
 62
    7
 10
45.291660308837891
 20
14.120634078979492
 11
51.291660308837891
 21
14.120634078979492
  0
LINE
  8
_0-0_0
  6
CONTINUOUS
 62
    7
 10
23.291660308837891
 20
5.1206340789794922
 11
40.291660308837891
 21
5.1206340789794922
  0
LINE
  8
_0-0_0
  6
CONTINUOUS
 62
    7
 10
123.7916641235352
 20
24.120634078979492
 11
123.7916641235352
 21
-13.879365921020508
  0
LINE
  8
_0-0_0
  6
CONTINUOUS
 62
    7
 10
4.7916612029075623
 20
-14.879365921020508
 11
122.7916641235352
 21
-14.879365921020508
  0
LINE
  8
_0-0_0
  6
CONTINUOUS
 62
    7
 10
3.791661262512207
 20
24.120634078979492
 11
3.791661262512207
 21
-13.879365921020508
  0
LINE
  8
_0-0_0
  6
CONTINUOUS
 62
    7
 10
4.7916612029075623
 20
25.120634078979492
 11
122.7916641235352
 21
25.120634078979492
  0
LINE
  8
_0-0_0
  6
CENTER
 62
    7
 10
104.99166107177734
 20
5.1206340789794922
 11
112.59165954589839
 21
5.1206340789794922
  0
LINE
  8
_0-0_0
  6
CENTER
 62
    7
 10
21.09166145324707
 20
-1.3793660402297974
 11
21.09166145324707
 21
-13.379365921020508
  0
LINE
  8
_0-0_0
  6
CENTER
 62
    7
 10
108.7916641235352
 20
8.9206342697143555
 11
108.7916641235352
 21
1.3206340074539185
  0
LINE
  8
_0-0_0
  6
CENTER
 62
    7
 10
27.09166145324707
 20
-7.3793659210205078
 11
15.09166145324707
 21
-7.3793659210205078
  0
LINE
  8
_0-0_0
  6
CENTER
 62
    7
 10
101.09165954589844
 20
23.620634078979492
 11
101.09165954589844
 21
11.620634078979492
  0
LINE
  8
_0-0_0
  6
CONTINUOUS
 62
    7
 10
107.09165954589839
 20
17.620634078979492
 11
95.091659545898437
 21
17.620634078979492
  0
LINE
  8
_0-0_0
  6
CONTINUOUS
 62
    7
 10
23.402563095092773
 20
1.0521398782730103
 11
23.702564239501953
 21
1.0521398782730103
  0
LINE
  8
_0-0_0
  6
CONTINUOUS
 62
    7
 10
23.402563095092773
 20
1.7521399259567261
 11
25.308082580566406
 21
1.7521399259567261
  0
LINE
  8
_0-0_0
  6
CONTINUOUS
 62
    7
 10
24.205324172973633
 20
1.0521398782730103
 11
24.50532341003418
 21
1.0521398782730103
  0
LINE
  8
_0-0_0
  6
CONTINUOUS
 62
    7
 10
25.008083343505859
 20
1.0521398782730103
 11
25.308082580566406
 21
1.0521398782730103
  0
LINE
  8
_0-0_0
  6
CONTINUOUS
 62
    7
 10
52.991661071777337
 20
6.7880454063415527
 11
52.991661071777337
 21
6.3593268394470215
  0
LINE
  8
_0-0_0
  6
CONTINUOUS
 62
    7
 10
52.991661071777337
 20
6.3593268394470215
 11
53.791660308837891
 21
6.5736861228942871
  0
LINE
  8
_0-0_0
  6
CONTINUOUS
 62
    7
 10
52.991661071777337
 20
6.7880454063415527
 11
53.791660308837891
 21
6.5736861228942871
  0
LINE
  8
_0-0_0
  6
CONTINUOUS
 62
    7
 10
51.791660308837891
 20
6.5736861228942871
 11
53.791660308837891
 21
6.5736861228942871
  0
LINE
  8
_0-0_0
  6
CONTINUOUS
 62
    7
 10
51.091659545898438
 20
6.8206338882446289
 11
51.091659545898438
 21
5.8206338882446289
  0
LINE
  8
_0-0_0
  6
CONTINUOUS
 62
    7
 10
50.983081817626953
 20
6.9292125701904297
 11
51.774467468261719
 21
7.7205963134765625
  0
LINE
  8
_0-0_0
  6
CONTINUOUS
 62
    7
 10
48.791660308837891
 20
5.8206338882446289
 11
51.091659545898438
 21
5.8206338882446289
  0
LINE
  8
_0-0_0
  6
CONTINUOUS
 62
    7
 10
48.791660308837891
 20
7.3206338882446289
 11
48.791660308837891
 21
5.8206338882446289
  0
LINE
  8
_0-0_0
  6
CONTINUOUS
 62
    7
 10
47.791660308837891
 20
5.1206340789794922
 11
54.291660308837891
 21
5.1206340789794922
  0
LINE
  8
_0-0_0
  6
CONTINUOUS
 62
    7
 10
47.791660308837891
 20
5.4206337928771973
 11
54.291660308837891
 21
5.4206337928771973
  0
LINE
  8
_0-0_0
  6
CONTINUOUS
 62
    7
 10
47.791660308837891
 20
5.4206337928771973
 11
47.791660308837891
 21
5.1206340789794922
  0
LINE
  8
_0-0_0
  6
CONTINUOUS
 62
    7
 10
54.291660308837891
 20
5.4206337928771973
 11
54.291660308837891
 21
5.1206340789794922
  0
LINE
  8
_0-0_0
  6
CONTINUOUS
 62
    7
 10
42.291660308837891
 20
-2.3793659210205078
 11
55.291660308837891
 21
-2.3793659210205078
  0
LINE
  8
_0-0_0
  6
CONTINUOUS
 62
    7
 10
42.291660308837891
 20
1.1206339597702026
 11
55.291660308837891
 21
1.1206339597702026
  0
LINE
  8
_0-0_0
  6
CONTINUOUS
 62
    7
 10
42.291660308837891
 20
4.6206340789794922
 11
55.291660308837891
 21
4.6206340789794922
  0
LINE
  8
_0-0_0
  6
CONTINUOUS
 62
    7
 10
42.291660308837891
 20
8.1206340789794922
 11
55.291660308837891
 21
8.1206340789794922
  0
LINE
  8
_0-0_0
  6
CONTINUOUS
 62
    7
 10
50.700241088867188
 20
7.2120552062988281
 11
51.409000396728523
 21
7.9208145141601563
  0
LINE
  8
_0-0_0
  6
CONTINUOUS
 62
    7
 10
48.791660308837891
 20
7.3206338882446289
 11
50.591659545898438
 21
7.3206338882446289
  0
LINE
  8
_0-0_0
  6
CONTINUOUS
 62
    7
 10
50.591659545898438
 20
7.3206338882446289
 11
51.091659545898438
 21
6.8206338882446289
  0
LINE
  8
_0-0_0
  6
CONTINUOUS
 62
    7
 10
55.291660308837891
 20
8.1206340789794922
 11
55.291660308837891
 21
-2.3793659210205078
  0
LINE
  8
_0-0_0
  6
CONTINUOUS
 62
    7
 10
46.791660308837891
 20
8.1206340789794922
 11
46.791660308837891
 21
-2.3793659210205078
  0
LINE
  8
_0-0_0
  6
CONTINUOUS
 62
    7
 10
42.291660308837891
 20
8.1206340789794922
 11
42.291660308837891
 21
-2.3793659210205078
  0
LINE
  8
_0-0_0
  6
CONTINUOUS
 62
    7
 10
56.291660308837891
 20
4.1206340789794922
 11
87.291664123535156
 21
4.1206340789794922
  0
LINE
  8
_0-0_0
  6
CONTINUOUS
 62
    7
 10
56.291660308837891
 20
0.1206339672207832
 11
87.291664123535156
 21
0.1206339672207832
  0
LINE
  8
_0-0_0
  6
CONTINUOUS
 62
    7
 10
56.291660308837891
 20
6.1206340789794922
 11
87.291664123535156
 21
6.1206340789794922
  0
LINE
  8
_0-0_0
  6
CONTINUOUS
 62
    7
 10
56.291660308837891
 20
2.1206340789794922
 11
87.291664123535156
 21
2.1206340789794922
  0
LINE
  8
_0-0_0
  6
CONTINUOUS
 62
    7
 10
56.291660308837891
 20
8.1206340789794922
 11
87.291664123535156
 21
8.1206340789794922
  0
LINE
  8
_0-0_0
  6
CONTINUOUS
 62
    7
 10
70.791664123535156
 20
8.1206340789794922
 11
70.791664123535156
 21
0.1206339672207832
  0
LINE
  8
_0-0_0
  6
CONTINUOUS
 62
    7
 10
76.291664123535156
 20
8.1206340789794922
 11
76.291664123535156
 21
0.1206339672207832
  0
LINE
  8
_0-0_0
  6
CONTINUOUS
 62
    7
 10
81.791664123535156
 20
8.1206340789794922
 11
81.791664123535156
 21
0.1206339672207832
  0
LINE
  8
_0-0_0
  6
CONTINUOUS
 62
    7
 10
59.791660308837891
 20
8.1206340789794922
 11
59.791660308837891
 21
0.1206339672207832
  0
LINE
  8
_0-0_0
  6
CONTINUOUS
 62
    7
 10
87.291664123535156
 20
8.1206340789794922
 11
87.291664123535156
 21
0.1206339672207832
  0
LINE
  8
_0-0_0
  6
CONTINUOUS
 62
    7
 10
65.291660308837891
 20
8.1206340789794922
 11
65.291660308837891
 21
0.1206339672207832
  0
LINE
  8
_0-0_0
  6
CONTINUOUS
 62
    7
 10
56.291660308837891
 20
8.1206340789794922
 11
56.291660308837891
 21
0.1206339672207832
  0
LINE
  8
_0-0_0
  6
CONTINUOUS
 62
    7
 10
135.18540954589841
 20
-71.009368896484375
 11
134.4916687011719
 21
-71.009368896484375
  0
LINE
  8
_0-0_0
  6
CONTINUOUS
 62
    7
 10
134.4916687011719
 20
-75.509368896484375
 11
134.4916687011719
 21
-71.009368896484375
  0
LINE
  8
_0-0_0
  6
CONTINUOUS
 62
    7
 10
135.18540954589841
 20
-75.509368896484375
 11
134.4916687011719
 21
-75.509368896484375
  0
ARC
  8
_0-0_0
  6
CONTINUOUS
 62
    7
 10
-149.2083435058594
 20
-96.071975708007813
 40
0.5
 50
180.0000000000004
 51
270.00000000000051
  0
ARC
  8
_0-0_0
  6
CONTINUOUS
 62
    7
 10
-123.2083435058594
 20
-96.071975708007813
 40
0.5
 50
270.00000000000051
 51
0
  0
CIRCLE
  8
_0-0_0
  6
CONTINUOUS
 62
    7
 10
-146.2083435058594
 20
-78.071975708007813
 40
1.5
  0
CIRCLE
  8
_0-0_0
  6
CONTINUOUS
 62
    7
 10
-146.2083435058594
 20
-78.071975708007813
 40
1.1000000238418579
  0
CIRCLE
  8
_0-0_0
  6
CONTINUOUS
 62
    7
 10
-134.2083435058594
 20
-78.071975708007813
 40
1.1000000238418579
  0
CIRCLE
  8
_0-0_0
  6
CONTINUOUS
 62
    7
 10
-134.2083435058594
 20
-78.071975708007813
 40
1.5
  0
ARC
  8
_0-0_0
  6
CONTINUOUS
 62
    7
 10
-123.2083435058594
 20
10.120634078979492
 40
0.5
 50
0
 51
90.000000000000185
  0
ARC
  8
_0-0_0
  6
CONTINUOUS
 62
    7
 10
-123.2083435058594
 20
0.1206339672207832
 40
0.5
 50
270.00000000000051
 51
0
  0
ARC
  8
_0-0_0
  6
CONTINUOUS
 62
    7
 10
-149.2083435058594
 20
0.1206339672207832
 40
0.5
 50
180.0000000000004
 51
270.00000000000051
  0
ARC
  8
_0-0_0
  6
CONTINUOUS
 62
    7
 10
-149.2083435058594
 20
10.120634078979492
 40
0.5
 50
90.000000000000185
 51
180.0000000000004
  0
ARC
  8
_0-0_0
  6
CONTINUOUS
 62
    7
 10
-146.7083435058594
 20
-77.571975708007812
 40
3
 50
90.000000000000185
 51
180.0000000000004
  0
ARC
  8
_0-0_0
  6
CONTINUOUS
 62
    7
 10
-132.95097351074219
 20
-77.571975708007812
 40
3
 50
45.000206066570207
 51
90.000000000000185
  0
ARC
  8
_0-0_0
  6
CENTER
 62
    7
 10
-110.05094909667969
 20
-96.229362487792969
 40
22.85000038146973
 50
88.493604983342237
 51
135.00001352731141
  0
ARC
  8
_0-0_0
  6
PHANTOM
 62
    7
 10
-110.05094909667969
 20
-96.229362487792969
 40
25.35000038146973
 50
88.493608495479066
 51
135
  0
ARC
  8
_0-0_0
  6
PHANTOM
 62
    7
 10
-110.05094909667969
 20
-96.229362487792969
 40
20.35000038146973
 50
88.493600043577274
 51
135
  0
ARC
  8
_0-0_0
  6
PHANTOM
 62
    7
 10
-142.36572265625
 20
-63.914585113525391
 40
20.35000038146973
 50
314.99999240542712
 51
1.5063892197864979
  0
ARC
  8
_0-0_0
  6
PHANTOM
 62
    7
 10
-142.36572265625
 20
-63.914585113525391
 40
25.35000038146973
 50
314.99999390337217
 51
1.5063915045209373
  0
CIRCLE
  8
_0-0_0
  6
CONTINUOUS
 62
    7
 10
101.09165954589844
 20
17.620634078979492
 40
4
  0
CIRCLE
  8
_0-0_0
  6
CONTINUOUS
 62
    7
 10
21.09166145324707
 20
-7.3793659210205078
 40
4
  0
CIRCLE
  8
_0-0_0
  6
CONTINUOUS
 62
    7
 10
21.09166145324707
 20
-7.3793659210205078
 40
2.5
  0
CIRCLE
  8
_0-0_0
  6
CONTINUOUS
 62
    7
 10
21.09166145324707
 20
-7.3793659210205078
 40
3.589999914169312
  0
CIRCLE
  8
_0-0_0
  6
CONTINUOUS
 62
    7
 10
21.09166145324707
 20
-7.3793659210205078
 40
1.700000047683716
  0
CIRCLE
  8
_0-0_0
  6
CONTINUOUS
 62
    7
 10
101.09165954589844
 20
17.620634078979492
 40
1.700000047683716
  0
CIRCLE
  8
_0-0_0
  6
CONTINUOUS
 62
    7
 10
101.09165954589844
 20
17.620634078979492
 40
3.589999914169312
  0
CIRCLE
  8
_0-0_0
  6
CONTINUOUS
 62
    7
 10
101.09165954589844
 20
17.620634078979492
 40
2.5
  0
ARC
  8
_0-0_0
  6
CONTINUOUS
 62
    7
 10
6.0916612148284912
 20
22.120634078979492
 40
7
 50
163.0422581318349
 51
196.95772579674249
  0
ARC
  8
_0-0_0
  6
CONTINUOUS
 62
    7
 10
0.352541446685791
 20
23.870634078979492
 40
1
 50
90.000000000000185
 51
163.04228046424947
  0
ARC
  8
_0-0_0
  6
CONTINUOUS
 62
    7
 10
0.352541446685791
 20
20.370634078979492
 40
1
 50
196.95771953575121
 51
270.00000000000051
  0
ARC
  8
_0-0_0
  6
CONTINUOUS
 62
    7
 10
6.0916612148284912
 20
-11.879365921020508
 40
7
 50
163.0422581318349
 51
196.95772579674249
  0
ARC
  8
_0-0_0
  6
CONTINUOUS
 62
    7
 10
0.352541446685791
 20
-10.129365921020508
 40
1
 50
90.000000000000185
 51
163.04228046424947
  0
ARC
  8
_0-0_0
  6
CONTINUOUS
 62
    7
 10
0.352541446685791
 20
-13.629365921020508
 40
1
 50
196.95771953575121
 51
270.00000000000051
  0
CIRCLE
  8
_0-0_0
  6
CONTINUOUS
 62
    7
 10
130.59165954589838
 20
22.120634078979492
 40
2.75
  0
CIRCLE
  8
_0-0_0
  6
CONTINUOUS
 62
    7
 10
130.59165954589838
 20
-11.879365921020508
 40
2.75
  0
ARC
  8
_0-0_0
  6
CONTINUOUS
 62
    7
 10
1.4916613101959229
 20
-61.229366302490234
 40
1
 50
90.000000000000185
 51
180.0000000000004
  0
ARC
  8
_0-0_0
  6
CONTINUOUS
 62
    7
 10
134.4916687011719
 20
-61.229366302490234
 40
1
 50
0
 51
90.000000000000185
  0
ARC
  8
_0-0_0
  6
CONTINUOUS
 62
    7
 10
3.4916611909866333
 20
-83.729362487792969
 40
2
 50
180.0000000000004
 51
270.00000000000051
  0
ARC
  8
_0-0_0
  6
CONTINUOUS
 62
    7
 10
132.49166107177729
 20
-83.729362487792969
 40
2
 50
270.00000000000051
 51
0
  0
ARC
  8
_0-0_0
  6
CONTINUOUS
 62
    7
 10
133.4916687011719
 20
-85.229362487792969
 40
1
 50
270.00000000000051
 51
0
  0
ARC
  8
_0-0_0
  6
CONTINUOUS
 62
    7
 10
2.4916613101959229
 20
-85.229362487792969
 40
1
 50
180.0000000000004
 51
270.00000000000051
  0
ARC
  8
_0-0_0
  6
CONTINUOUS
 62
    7
 10
129.99166107177729
 20
-65.229362487792969
 40
7
 50
73.042248455739895
 51
106.95775154426011
  0
ARC
  8
_0-0_0
  6
CONTINUOUS
 62
    7
 10
131.74166107177729
 20
-59.490245819091797
 40
1
 50
0
 51
73.042377027209398
  0
ARC
  8
_0-0_0
  6
CONTINUOUS
 62
    7
 10
128.24166107177729
 20
-59.490245819091797
 40
1
 50
106.95762297279062
 51
180.0000000000004
  0
ARC
  8
_0-0_0
  6
CONTINUOUS
 62
    7
 10
5.4916612207889557
 20
-65.729362487792969
 40
7
 50
163.04228778451599
 51
196.95773980488221
  0
ARC
  8
_0-0_0
  6
CONTINUOUS
 62
    7
 10
-0.2474589347839355
 20
-63.979366302490234
 40
1
 50
89.999972679243314
 51
163.04216796433559
  0
ARC
  8
_0-0_0
  6
CONTINUOUS
 62
    7
 10
-0.2474589347839355
 20
-67.479362487792969
 40
1
 50
196.95804109807369
 51
270.0000273207574
  0
ARC
  8
_0-0_0
  6
CONTINUOUS
 62
    7
 10
-124.7083435058594
 20
-84.400405883789063
 40
2
 50
0
 51
45
  0
ARC
  8
_0-0_0
  6
CONTINUOUS
 62
    7
 10
-146.90834045410159
 20
-82.371978759765625
 40
1
 50
90.000000000000185
 51
180.0000000000004
  0
ARC
  8
_0-0_0
  6
CONTINUOUS
 62
    7
 10
-146.90834045410159
 20
-93.77197265625
 40
1
 50
180.0000000000004
 51
270.00000000000051
  0
ARC
  8
_0-0_0
  6
CONTINUOUS
 62
    7
 10
-125.5083312988281
 20
-93.77197265625
 40
1
 50
270.00000000000051
 51
0
  0
ARC
  8
_0-0_0
  6
CONTINUOUS
 62
    7
 10
-125.5083312988281
 20
-84.731773376464844
 40
1
 50
0
 51
45.000618204157398
  0
ARC
  8
_0-0_0
  6
CONTINUOUS
 62
    7
 10
-127.8681335449219
 20
-82.371978759765625
 40
1
 50
45
 51
90.000000000000185
  0
ARC
  8
_0-0_0
  6
CONTINUOUS
 62
    7
 10
-145.0225524902344
 20
-80.371978759765625
 40
1
 50
270.00000000000051
 51
315.00000000000068
  0
ARC
  8
_0-0_0
  6
CONTINUOUS
 62
    7
 10
-142.1941223144531
 20
-80.371978759765625
 40
1
 50
90.000000000000185
 51
135
  0
ARC
  8
_0-0_0
  6
CONTINUOUS
 62
    7
 10
-138.22254943847659
 20
-80.371978759765625
 40
1
 50
45
 51
90.000000000000185
  0
ARC
  8
_0-0_0
  6
CONTINUOUS
 62
    7
 10
-135.39411926269531
 20
-80.371978759765625
 40
1
 50
225.00000000000071
 51
270.00000000000051
  0
ARC
  8
_0-0_0
  6
CONTINUOUS
 62
    7
 10
119.7858428955078
 20
19.162397384643555
 40
2.75
 50
84.260798181078499
 51
275.7392018189222
  0
ARC
  8
_0-0_0
  6
CONTINUOUS
 62
    7
 10
119.7858428955078
 20
19.162397384643555
 40
1.9250001907348631
 50
192.59598112583831
 51
278.21325402355387
  0
ARC
  8
_0-0_0
  6
CONTINUOUS
 62
    7
 10
115.1108474731445
 20
19.162397384643555
 40
2.75
 50
84.260798181078499
 51
275.73904365855662
  0
ARC
  8
_0-0_0
  6
CONTINUOUS
 62
    7
 10
119.7858428955078
 20
19.162397384643555
 40
1.9250001907348631
 50
81.786745976446838
 51
167.4040188741624
  0
ARC
  8
_0-0_0
  6
CONTINUOUS
 62
    7
 10
115.1108474731445
 20
19.162397384643555
 40
1.9250001907348631
 50
81.786970728990042
 51
278.21325402355387
  0
ARC
  8
_0-0_0
  6
CONTINUOUS
 62
    7
 10
122.7916641235352
 20
24.120634078979492
 40
1
 50
0
 51
90.000000000000185
  0
ARC
  8
_0-0_0
  6
CONTINUOUS
 62
    7
 10
4.7916612029075623
 20
24.120634078979492
 40
1
 50
90.000000000000185
 51
180.0000000000004
  0
ARC
  8
_0-0_0
  6
CONTINUOUS
 62
    7
 10
4.7916612029075623
 20
-13.879365921020508
 40
1
 50
180.0000000000004
 51
270.00000000000051
  0
ARC
  8
_0-0_0
  6
CONTINUOUS
 62
    7
 10
122.7916641235352
 20
-13.879365921020508
 40
1
 50
270.00000000000051
 51
0
  0
CIRCLE
  8
_0-0_0
  6
CONTINUOUS
 62
    7
 10
21.09166145324707
 20
-7.3793659210205078
 40
4.5
  0
CIRCLE
  8
_0-0_0
  6
CONTINUOUS
 62
    7
 10
108.7916641235352
 20
5.1206340789794922
 40
2.25
  0
CIRCLE
  8
_0-0_0
  6
CONTINUOUS
 62
    7
 10
101.09165954589844
 20
17.620634078979492
 40
4.5
  0
ARC
  8
_0-0_0
  6
CONTINUOUS
 62
    7
 10
130.79166412353521
 20
-8.5793657302856445
 40
6
 50
343.80866400119646
 51
16.191318507404656
  0
ARC
  8
_0-0_0
  6
CONTINUOUS
 62
    7
 10
135.785400390625
 20
-10.029366493225098
 40
0.8000000119209289
 50
292.50867483745742
 51
343.80888309492428
  0
ARC
  8
_0-0_0
  6
CONTINUOUS
 62
    7
 10
135.785400390625
 20
-7.1293659210205078
 40
0.8000000119209289
 50
16.191116905076335
 51
67.491338236292393
  0
ARC
  8
_0-0_0
  6
CONTINUOUS
 62
    7
 10
130.79166412353521
 20
18.820634841918945
 40
6
 50
343.80865525549763
 51
16.19130976170355
  0
ARC
  8
_0-0_0
  6
CONTINUOUS
 62
    7
 10
135.785400390625
 20
17.370634078979492
 40
0.8000000119209289
 50
292.5086486899736
 51
343.80881750301262
  0
ARC
  8
_0-0_0
  6
CONTINUOUS
 62
    7
 10
135.785400390625
 20
20.270633697509766
 40
0.8000000119209289
 50
16.191182496988159
 51
67.491351310027085
  0
ARC
  8
_0-0_0
  6
CONTINUOUS
 62
    7
 10
130.1916580200195
 20
-73.259368896484375
 40
6
 50
343.80869023829712
 51
16.191379727290226
  0
ARC
  8
_0-0_0
  6
CONTINUOUS
 62
    7
 10
135.18540954589841
 20
-74.709365844726563
 40
0.8000000119209289
 50
270.00000000000051
 51
343.80864395934037
  0
ARC
  8
_0-0_0
  6
CONTINUOUS
 62
    7
 10
135.18540954589841
 20
-71.809364318847656
 40
0.8000000119209289
 50
16.191356040660349
 51
90.000000000000185
  0
CIRCLE
  8
_0-0_0
  6
CONTINUOUS
 62
    7
 10
108.7916641235352
 20
5.1206340789794922
 40
1.799999952316284
  0
ARC
  8
_0-0_0
  6
CONTINUOUS
 62
    7
 10
-126.0844036841165
 20
6.3582219670304738
 40
2.8650940958450342
 50
92.479306119295586
 51
103.91708851214622
  0
ARC
  8
_0-0_0
  6
CONTINUOUS
 62
    7
 10
-125.8414467764467
 20
6.3090665129063979
 40
2.9796737832954783
 50
108.22846490160326
 51
119.6662472944539
  0
ARC
  8
_0-0_0
  6
CONTINUOUS
 62
    7
 10
-125.61306255127064
 20
6.2127079982574998
 40
3.1800154737500792
 50
122.38350517316111
 51
133.82128756601176
  0
ARC
  8
_0-0_0
  6
CONTINUOUS
 62
    7
 10
-125.40832214641364
 20
6.0729736636306342
 40
3.422978250262056
 50
134.67443724510358
 51
146.11221963795421
  0
ARC
  8
_0-0_0
  6
CONTINUOUS
 62
    7
 10
-125.23535759651759
 20
5.8954135832811119
 40
3.6659175517844731
 50
145.3157451356972
 51
156.75352752854783
  0
ARC
  8
_0-0_0
  6
CONTINUOUS
 62
    7
 10
-125.10103883872364
 20
5.6870802231117921
 40
3.8740314174102566
 50
154.7061077463494
 51
166.14389013920007
  0
ARC
  8
_0-0_0
  6
CONTINUOUS
 62
    7
 10
-125.01070084729938
 20
5.4562483254895824
 40
4.0221210527622562
 50
163.2583064863916
 51
174.69608887924224
  0
ARC
  8
_0-0_0
  6
CONTINUOUS
 62
    7
 10
-124.96793173508584
 20
5.2120862467486262
 40
4.0942682586335657
 50
171.34729891674021
 51
182.78508130959085
  0
ARC
  8
_0-0_0
  6
CONTINUOUS
 62
    7
 10
-124.97443023811118
 20
4.964291801465933
 40
4.0832259830265665
 50
179.31444826767205
 51
190.75223066052268
  0
ARC
  8
_0-0_0
  6
CONTINUOUS
 62
    7
 10
-125.0299382439047
 20
4.7227070773059978
 40
3.9900835825540901
 50
187.49103235471324
 51
198.92881474756388
  0
ARC
  8
_0-0_0
  6
CONTINUOUS
 62
    7
 10
-125.13225104340424
 20
4.4969275195217051
 40
3.8243186108920373
 50
196.22536090882673
 51
207.66314330167739
  0
ARC
  8
_0-0_0
  6
CONTINUOUS
 62
    7
 10
-125.27730489926165
 20
4.2959208117843701
 40
3.6042236146044297
 50
205.90331454861672
 51
217.34109694146736
  0
ARC
  8
_0-0_0
  6
CONTINUOUS
 62
    7
 10
-125.45933845244463
 20
4.1276706909224288
 40
3.3575275199899943
 50
216.94260700792398
 51
228.38038940077459
  0
ARC
  8
_0-0_0
  6
CONTINUOUS
 62
    7
 10
-125.67112155626319
 20
3.9988598428089261
 40
3.1214180791967774
 50
229.7162356088848
 51
241.15401800173544
  0
ARC
  8
_0-0_0
  6
CONTINUOUS
 62
    7
 10
-125.904242448818
 20
3.9146044743801411
 40
2.9396992087705462
 50
244.3432267839629
 51
255.78100917681354
  0
ARC
  8
_0-0_0
  6
CONTINUOUS
 62
    7
 10
-126.1494418577372
 20
3.8782511042446544
 40
2.8534160843992367
 50
260.37934010838626
 51
271.8171225012369
  0
ARC
  8
_0-0_0
  6
CONTINUOUS
 62
    7
 10
-115.72240146610088
 20
5.8557948379615397
 40
1.8735131447470326
 50
70.389265780261553
 51
83.632061794834598
  0
ARC
  8
_0-0_0
  6
CONTINUOUS
 62
    7
 10
-115.5507836323641
 20
5.8638868450214261
 40
1.8542148109950563
 50
88.881993894834594
 51
102.12478990940764
  0
ARC
  8
_0-0_0
  6
CONTINUOUS
 62
    7
 10
-115.38187574742378
 20
5.8324497993634736
 40
1.9269609814042368
 50
106.84402025375212
 51
120.08681626832517
  0
ARC
  8
_0-0_0
  6
CONTINUOUS
 62
    7
 10
-115.22466098496375
 20
5.7631556444910927
 40
2.0682145460375785
 50
122.8941092804791
 51
136.13690529505214
  0
ARC
  8
_0-0_0
  6
CONTINUOUS
 62
    7
 10
-115.08750063325294
 20
5.6596897111922289
 40
2.2388956114908538
 50
136.66011910082429
 51
149.90291511539732
  0
ARC
  8
_0-0_0
  6
CONTINUOUS
 62
    7
 10
-114.97768940954168
 20
5.5275547174104958
 40
2.4008943431847514
 50
148.48872594889298
 51
161.73152196346604
  0
ARC
  8
_0-0_0
  6
CONTINUOUS
 62
    7
 10
-114.90106749882403
 20
5.3737781124515891
 40
2.5248083515881556
 50
158.96171709030156
 51
172.20451310487459
  0
ARC
  8
_0-0_0
  6
CONTINUOUS
 62
    7
 10
-114.86170995024423
 20
5.2065383300891739
 40
2.5914522405291045
 50
168.65685423692301
 51
181.89965025149604
  0
ARC
  8
_0-0_0
  6
CONTINUOUS
 62
    7
 10
-114.86170995024426
 20
5.0347298278696542
 40
2.5914522405290739
 50
178.1003497484958
 51
191.34314576306886
  0
ARC
  8
_0-0_0
  6
CONTINUOUS
 62
    7
 10
-114.90106749882401
 20
4.8674900455079637
 40
2.524808351588308
 50
187.79548689513317
 51
201.0382829097062
  0
ARC
  8
_0-0_0
  6
CONTINUOUS
 62
    7
 10
-114.97768940954157
 20
4.7137134405486592
 40
2.4008943431848628
 50
198.26847803653271
 51
211.51127405110577
  0
ARC
  8
_0-0_0
  6
CONTINUOUS
 62
    7
 10
-115.08750063325289
 20
4.5815784467664002
 40
2.238895611490658
 50
210.09708488459066
 51
223.33988089916372
  0
ARC
  8
_0-0_0
  6
CONTINUOUS
 62
    7
 10
-115.22466098496372
 20
4.4781125134676358
 40
2.0682145460374102
 50
223.8630947049374
 51
237.10589071951046
  0
ARC
  8
_0-0_0
  6
CONTINUOUS
 62
    7
 10
-115.38187574742375
 20
4.408818358596065
 40
1.9269609814047626
 50
239.91318373167564
 51
253.1559797462487
  0
ARC
  8
_0-0_0
  6
CONTINUOUS
 62
    7
 10
-115.55078363236407
 20
4.3773813129369756
 40
1.8542148109944605
 50
257.8752100905848
 51
271.11800610515786
  0
ARC
  8
_0-0_0
  6
CONTINUOUS
 62
    7
 10
-115.72240146610085
 20
4.3854733199975442
 40
1.8735131447470976
 50
276.3679382051572
 51
289.61073421973026
  0
ARC
  8
_0-0_0
  6
CONTINUOUS
 62
    7
 10
-116.10805846145493
 20
5.9130387303834482
 40
2.6605657590552516
 50
39.927414849790814
 51
56.271046636937832
  0
ARC
  8
_0-0_0
  6
CONTINUOUS
 62
    7
 10
-115.86461798210149
 20
6.0234960107906232
 40
2.4376163407758296
 50
59.590140422330983
 51
75.933772209477993
  0
ARC
  8
_0-0_0
  6
CONTINUOUS
 62
    7
 10
-115.59993221407947
 20
6.0609863027267465
 40
2.3500042112604462
 50
81.982687353027472
 51
98.32631914017449
  0
ARC
  8
_0-0_0
  6
CONTINUOUS
 62
    7
 10
-115.33539238311619
 20
6.0224797368358338
 40
2.439898827979349
 50
104.35315215302012
 51
120.69678394016714
  0
ARC
  8
_0-0_0
  6
CONTINUOUS
 62
    7
 10
-115.09237792067933
 20
5.9110883151314084
 40
2.6640851497638569
 50
123.96971204663834
 51
140.31334383378535
  0
ARC
  8
_0-0_0
  6
CONTINUOUS
 62
    7
 10
-114.89052863309385
 20
5.7358144069649626
 40
2.931351953368146
 50
140.19639930890966
 51
156.54003109605668
  0
ARC
  8
_0-0_0
  6
CONTINUOUS
 62
    7
 10
-114.74615746270595
 20
5.5108232005951407
 40
3.1568744015694361
 50
153.83624121836996
 51
170.17987300551698
  0
ARC
  8
_0-0_0
  6
CONTINUOUS
 62
    7
 10
-114.67093211767141
 20
5.2542979089624851
 40
3.2835275390920251
 50
165.98937438481497
 51
182.33300617196196
  0
ARC
  8
_0-0_0
  6
CONTINUOUS
 62
    7
 10
-114.67093211767141
 20
4.9869702489965846
 40
3.2835275390920251
 50
177.66699382803802
 51
194.01062561518501
  0
ARC
  8
_0-0_0
  6
CONTINUOUS
 62
    7
 10
-114.74615746270595
 20
4.7304449573636305
 40
3.1568744015693908
 50
189.82012699447756
 51
206.16375878162458
  0
ARC
  8
_0-0_0
  6
CONTINUOUS
 62
    7
 10
-114.89052863309388
 20
4.5054537509943913
 40
2.9313519533683037
 50
203.45996890394829
 51
219.80360069109531
  0
ARC
  8
_0-0_0
  6
CONTINUOUS
 62
    7
 10
-115.09237792067924
 20
4.3301798428273202
 40
2.6640851497637357
 50
219.68665616620794
 51
236.03028795335496
  0
ARC
  8
_0-0_0
  6
CONTINUOUS
 62
    7
 10
-115.33539238311616
 20
4.2187884211231648
 40
2.4398988279793876
 50
239.30321605983067
 51
255.64684784697769
  0
ARC
  8
_0-0_0
  6
CONTINUOUS
 62
    7
 10
-115.59993221407953
 20
4.1802818552321384
 40
2.3500042112603468
 50
261.67368085982429
 51
278.01731264697133
  0
ARC
  8
_0-0_0
  6
CONTINUOUS
 62
    7
 10
-115.86461798210149
 20
4.2177721471684322
 40
2.4376163407758842
 50
284.06622779051895
 51
300.40985957766594
  0
ARC
  8
_0-0_0
  6
CONTINUOUS
 62
    7
 10
-116.10805846145493
 20
4.328229427575792
 40
2.6605657590554412
 50
303.72895336305703
 51
320.07258515020408
  0
ARC
  8
_0-0_0
  6
CONTINUOUS
 62
    7
 10
-69.099517048535887
 20
-71.860346228032512
 40
2.4005498150501183
 50
197.4228726288847
 51
219.25552176071062
  0
ARC
  8
_0-0_0
  6
CONTINUOUS
 62
    7
 10
-69.945531993937777
 20
-72.129352154316308
 40
1.5128067894704906
 50
162.6831876499767
 51
197.29603561039934
  0
ARC
  8
_0-0_0
  6
CONTINUOUS
 62
    7
 10
-69.099121052375892
 20
-72.398627984550046
 40
2.4010096717252756
 50
140.74598350961713
 51
162.56072075559342
  0
ARC
  8
_0-0_0
  6
CONTINUOUS
 62
    7
 10
-69.061306621160298
 20
-74.333769433442058
 40
2.4469572693179784
 50
197.82904430763003
 51
219.1712381210555
  0
ARC
  8
_0-0_0
  6
CONTINUOUS
 62
    7
 10
-70.098591939642148
 20
-74.65861662484167
 40
1.3600528779019605
 50
159.78788529091392
 51
198.18071429455591
  0
ARC
  8
_0-0_0
  6
CONTINUOUS
 62
    7
 10
-67.263682979209904
 20
-75.792777740241633
 40
4.413053089637625
 50
146.84675078435563
 51
158.68595502657817
  0
ARC
  8
_0-0_0
  6
CONTINUOUS
 62
    7
 10
-74.65478050114325
 20
-70.96501281525417
 40
4.4150631751812934
 50
326.84919617610416
 51
338.68173076580291
  0
ARC
  8
_0-0_0
  6
CONTINUOUS
 62
    7
 10
-71.818162360794872
 20
-72.100110567963895
 40
1.3601287882497739
 50
339.78469796709925
 51
18.187492131785636
  0
ARC
  8
_0-0_0
  6
CONTINUOUS
 62
    7
 10
-72.855464495658907
 20
-72.425023772199154
 40
2.4470684114116663
 50
17.834173243252152
 51
39.170964333964903
  0
ARC
  8
_0-0_0
  6
CONTINUOUS
 62
    7
 10
-69.06130662115595
 20
4.1662305665603583
 40
2.446957269322855
 50
197.82904430765211
 51
219.17123812103424
  0
ARC
  8
_0-0_0
  6
CONTINUOUS
 62
    7
 10
-70.098591939644706
 20
3.8413833751583866
 40
1.3600528778995493
 50
159.78788529087888
 51
198.18071429459096
  0
ARC
  8
_0-0_0
  6
CONTINUOUS
 62
    7
 10
-67.263682979220164
 20
2.7072222597637392
 40
4.4130530896261186
 50
146.8467507843408
 51
158.68595502659463
  0
ARC
  8
_0-0_0
  6
CONTINUOUS
 62
    7
 10
-74.654780501143733
 20
7.5349871847461714
 40
4.4150631751818707
 50
326.84919617610433
 51
338.68173076580115
  0
ARC
  8
_0-0_0
  6
CONTINUOUS
 62
    7
 10
-71.818162360802916
 20
6.3998894320362467
 40
1.3601287882573789
 50
339.78469796721049
 51
18.187492131674396
  0
ARC
  8
_0-0_0
  6
CONTINUOUS
 62
    7
 10
-72.855464495663227
 20
6.074976227798544
 40
2.447068411416466
 50
17.834173243272751
 51
39.170964333943459
  0
ARC
  8
_0-0_0
  6
CONTINUOUS
 62
    7
 10
-74.317160518164229
 20
3.6016141588293067
 40
2.40054981506248
 50
17.422872628941604
 51
39.255521760653707
  0
ARC
  8
_0-0_0
  6
CONTINUOUS
 62
    7
 10
-73.471145572752704
 20
3.8706200851190857
 40
1.5128067894718624
 50
342.68318764999287
 51
17.296035610383147
  0
ARC
  8
_0-0_0
  6
CONTINUOUS
 62
    7
 10
-74.317556514307512
 20
4.1398959153497827
 40
2.4010096717189966
 50
320.74598350958831
 51
342.5607207556223
  0
ARC
  8
_0-0_0
  6
CONTINUOUS
 62
    7
 10
-69.099517048524888
 20
6.6396537719734425
 40
2.4005498150623703
 50
197.42287262894169
 51
219.25552176065449
  0
ARC
  8
_0-0_0
  6
CONTINUOUS
 62
    7
 10
-69.9455319939361
 20
6.3706478456836919
 40
1.5128067894720922
 50
162.68318764999557
 51
197.29603561038044
  0
ARC
  8
_0-0_0
  6
CONTINUOUS
 62
    7
 10
-69.099121052376205
 20
6.1013720154501527
 40
2.4010096717249203
 50
140.74598350961583
 51
162.56072075559567
  0
ARC
  8
_0-0_0
  6
CONTINUOUS
 62
    7
 10
-74.355370945531007
 20
6.0750373642435704
 40
2.4469572693205235
 50
17.829044307641261
 51
39.171238121044247
  0
ARC
  8
_0-0_0
  6
CONTINUOUS
 62
    7
 10
-73.318085627036595
 20
6.399884555644249
 40
1.3600528778922347
 50
339.78788529077156
 51
18.18071429469823
  0
ARC
  8
_0-0_0
  6
CONTINUOUS
 62
    7
 10
-76.152994587462842
 20
7.5340456710359689
 40
4.4130530896193774
 50
326.84675078433139
 51
338.68595502660321
  0
ARC
  8
_0-0_0
  6
CONTINUOUS
 62
    7
 10
-68.761897065552262
 20
2.7062807460602443
 40
4.4150631751740397
 50
146.8491961760941
 51
158.68173076581215
  0
ARC
  8
_0-0_0
  6
CONTINUOUS
 62
    7
 10
-71.598515205886201
 20
3.8413784987665451
 40
1.360128788257295
 50
159.78469796720927
 51
198.18749213167561
  0
ARC
  8
_0-0_0
  6
CONTINUOUS
 62
    7
 10
-70.561213071024383
 20
4.1662917030050437
 40
2.4470684114180807
 50
197.83417324328045
 51
219.17096433393661
  0
ARC
  8
_0-0_0
  6
PHANTOM
 62
    7
 10
-71.061306621156206
 20
-74.333769433439812
 40
2.4469572693225659
 50
197.82904430765026
 51
219.17123812103523
  0
ARC
  8
_0-0_0
  6
PHANTOM
 62
    7
 10
-72.098591939645388
 20
-74.658616624841613
 40
1.3600528778989167
 50
159.7878852908693
 51
198.18071429460056
  0
ARC
  8
_0-0_0
  6
PHANTOM
 62
    7
 10
-69.263682979207175
 20
-75.792777740243025
 40
4.4130530896406821
 50
146.84675078435976
 51
158.68595502657405
  0
ARC
  8
_0-0_0
  6
PHANTOM
 62
    7
 10
-76.654780501136401
 20
-70.965012815257694
 40
4.4150631751736125
 50
326.84919617609387
 51
338.68173076581326
  0
ARC
  8
_0-0_0
  6
PHANTOM
 62
    7
 10
-73.818162360800898
 20
-72.10011056796381
 40
1.3601287882554798
 50
339.78469796718298
 51
18.18749213170193
  0
ARC
  8
_0-0_0
  6
PHANTOM
 62
    7
 10
-74.855464495668684
 20
-72.425023772204469
 40
2.4470684114225829
 50
17.834173243300306
 51
39.170964333916757
  0
ARC
  8
_0-0_0
  6
PHANTOM
 62
    7
 10
-74.817160518156271
 20
-74.89838584116643
 40
2.4005498150535849
 50
17.42287262890067
 51
39.255521760694663
  0
ARC
  8
_0-0_0
  6
PHANTOM
 62
    7
 10
-73.97114557275404
 20
-74.629379914880957
 40
1.512806789473137
 50
342.68318765000788
 51
17.296035610368097
  0
ARC
  8
_0-0_0
  6
PHANTOM
 62
    7
 10
-74.817556514311093
 20
-74.360104084648327
 40
2.4010096717229805
 50
320.74598350960662
 51
342.560720755604
  0
ARC
  8
_0-0_0
  6
CONTINUOUS
 62
    7
 10
-103.4758708631295
 20
-55.98977793364196
 40
2.4469572693030242
 50
62.829044307563784
 51
84.171238121121434
  0
ARC
  8
_0-0_0
  6
CONTINUOUS
 62
    7
 10
-102.97210103230037
 20
-55.026604799046908
 40
1.360052877904949
 50
24.787885290958936
 51
63.180714294513095
  0
ARC
  8
_0-0_0
  6
CONTINUOUS
 62
    7
 10
-105.77865739789655
 20
-56.229215133346742
 40
4.4130530896092903
 50
11.84675078431734
 51
23.685955026616096
  0
ARC
  8
_0-0_0
  6
CONTINUOUS
 62
    7
 10
-97.138616903342268
 20
-54.416665271625817
 40
4.4150631751583065
 50
191.8491961760692
 51
203.68173076582949
  0
ARC
  8
_0-0_0
  6
CONTINUOUS
 62
    7
 10
-99.947044144247315
 20
-55.619821876044057
 40
1.3601287882509143
 50
204.78469796711744
 51
243.18749213177205
  0
ARC
  8
_0-0_0
  6
CONTINUOUS
 62
    7
 10
-99.443309100555297
 20
-54.656590172321529
 40
2.4470684114218493
 50
242.83417324329653
 51
264.17096433392027
  0
ARC
  8
_0-0_0
  6
CONTINUOUS
 62
    7
 10
-101.69987768953666
 20
-57.71173340264113
 40
2.4005498150548923
 50
62.42287262890612
 51
84.255521760688069
  0
ARC
  8
_0-0_0
  6
CONTINUOUS
 62
    7
 10
-101.29187069931223
 20
-56.923294583104138
 40
1.5128067894720381
 50
27.683187649994505
 51
62.296035610380329
  0
ARC
  8
_0-0_0
  6
CONTINUOUS
 62
    7
 10
-102.08078038132672
 20
-57.33139073398371
 40
2.401009671724144
 50
5.7459835096134917
 51
27.560720755600478
  0
TEXT
  8
_0-0_0
 62
    7
 10
-122.3006843328476
 20
-44.011060357093811
 40
3.2000000476837158
 41
0.8449620226432427
 50
0
  1
２－Ｍ３（取付穴）
  0
TEXT
  8
_0-0_0
 62
    7
 10
41.725562930107117
 20
92.149870276451111
 40
3.2000000476837158
 41
0.8833376527812825
 50
0
  1
製品名
  0
TEXT
  8
_0-0_0
 62
    7
 10
72.003551363945007
 20
92.149870276451111
 40
3.2000000476837158
 41
0.864908403808102
 50
0
  1
ケーブル長
  0
TEXT
  8
_0-0_0
 62
    7
 10
106.1227148771286
 20
92.149870276451111
 40
3.2000000476837158
 41
0.864908403808102
 50
0
  1
備　　　考
  0
TEXT
  8
_0-0_0
 62
    7
 10
32.575553774833679
 20
85.210150122642517
 40
3.2000000476837158
 41
1.2320722808889859
 50
0
  1
PL8# - 3
  0
TEXT
  8
_0-0_0
 62
    7
 10
32.575553774833679
 20
78.210150122642517
 40
3.2000000476837158
 41
1.2320722808889859
 50
0
  1
PL8# - 5
  0
TEXT
  8
_0-0_0
 62
    7
 10
32.575553774833679
 20
71.210150122642517
 40
3.2000000476837158
 41
1.2320722808889859
 50
0
  1
PL8# - 7
  0
TEXT
  8
_0-0_0
 62
    7
 10
32.575553774833679
 20
64.210150122642517
 40
3.2000000476837158
 41
1.2320722808889859
 50
0
  1
PL8# - A
  0
TEXT
  8
_0-0_0
 62
    7
 10
32.575553774833679
 20
57.210153937339783
 40
3.2000000476837158
 41
1.2320722808889859
 50
0
  1
PL8# - B
  0
TEXT
  8
_0-0_0
 62
    7
 10
69.110904574394226
 20
57.240999579429626
 40
3.2000000476837158
 41
0.864908403808102
 50
0
  1
１５０００
  0
TEXT
  8
_0-0_0
 62
    7
 10
85.11090362071991
 20
59.940999627113342
 40
1.6000000238418579
 41
0.8716099488892585
 50
0
  1
＋４００
  0
TEXT
  8
_0-0_0
 62
    7
 10
85.11090362071991
 20
57.240999579429626
 40
1.6000000238418579
 41
0.8716099488892585
 50
0
  1
　　　０
  0
TEXT
  8
_0-0_0
 62
    7
 10
69.110904574394226
 20
64.240995764732361
 40
3.2000000476837158
 41
0.864908403808102
 50
0
  1
１００００
  0
TEXT
  8
_0-0_0
 62
    7
 10
85.11090362071991
 20
66.940995812416077
 40
1.6000000238418579
 41
0.8716099488892585
 50
0
  1
＋２００
  0
TEXT
  8
_0-0_0
 62
    7
 10
85.11090362071991
 20
64.240995764732361
 40
1.6000000238418579
 41
0.8716099488892585
 50
0
  1
　　　０
  0
TEXT
  8
_0-0_0
 62
    7
 10
69.110904574394226
 20
71.240995764732361
 40
3.2000000476837158
 41
0.864908403808102
 50
0
  1
　７０００
  0
TEXT
  8
_0-0_0
 62
    7
 10
85.11090362071991
 20
73.940995812416077
 40
1.6000000238418579
 41
0.8716099488892585
 50
0
  1
＋２００
  0
TEXT
  8
_0-0_0
 62
    7
 10
85.11090362071991
 20
71.240995764732361
 40
1.6000000238418579
 41
0.8716099488892585
 50
0
  1
　　　０
  0
TEXT
  8
_0-0_0
 62
    7
 10
69.110904574394226
 20
78.240995764732361
 40
3.2000000476837158
 41
0.864908403808102
 50
0
  1
　５０００
  0
TEXT
  8
_0-0_0
 62
    7
 10
85.11090362071991
 20
80.940995812416077
 40
1.6000000238418579
 41
0.8716099488892585
 50
0
  1
＋２００
  0
TEXT
  8
_0-0_0
 62
    7
 10
85.11090362071991
 20
78.240995764732361
 40
1.6000000238418579
 41
0.8716099488892585
 50
0
  1
　　　０
  0
TEXT
  8
_0-0_0
 62
    7
 10
69.110904574394226
 20
85.240995764732361
 40
3.2000000476837158
 41
0.864908403808102
 50
0
  1
　３０００
  0
TEXT
  8
_0-0_0
 62
    7
 10
85.11090362071991
 20
87.940995812416077
 40
1.6000000238418579
 41
0.8716099488892585
 50
0
  1
＋１００
  0
TEXT
  8
_0-0_0
 62
    7
 10
85.11090362071991
 20
85.240995764732361
 40
1.6000000238418579
 41
0.8716099488892585
 50
0
  1
　　　０
  0
TEXT
  8
_0-0_0
 62
    7
 10
98.552112460136414
 20
71.120428442955017
 40
3.2000000476837158
 41
0.8575367042188301
 50
0
  1
ＰＬ８４対象外
  0
TEXT
  8
_0-0_0
 62
    7
 10
98.552112460136414
 20
57.120428442955017
 40
3.2000000476837158
 41
0.8575367042188301
 50
0
  1
ＰＬ８４対象外
  0
TEXT
  8
_0-0_0
 62
    7
 10
-134.77188473939901
 20
-92.093641638755798
 40
1.799999952316284
 41
1.0696289040381091
 50
0
  1
PL80
  0
TEXT
  8
_0-0_0
 62
    7
 10
-139.70466244220731
 20
-56.597398400306702
 40
3.2000000476837158
 41
0.9575534363955299
 50
0
  1
（３３）
  0
TEXT
  8
_0-0_0
 62
    7
 10
-111.70374900446171
 20
-90.933841754593345
 40
3.2000000476837158
 41
0.9575534363955299
 50
90.000002504478147
  1
（２６）
  0
TEXT
  8
_0-0_0
 62
    7
 10
-73.586406826972961
 20
33.51519238948822
 40
3.2000000476837158
 41
0.9549444383384816
 50
0
  1
ケーブル長
  0
TEXT
  8
_0-0_0
 62
    7
 10
112.4093506336212
 20
2.5533446073532104
 40
2.2999999523162842
 41
0.8695652872493017
 50
0
  1
Alarm
  0
TEXT
  8
_0-0_0
 62
    7
 10
112.357568025589
 20
5.4886075258255005
 40
2.2999999523162842
 41
0.6905370987152268
 50
0
  1
Power/
  0
TEXT
  8
_0-0_0
 62
    7
 10
108.2629425525665
 20
-6.8743925094604492
 40
1
 41
1.16392031582919
 50
0
  1
MADE IN JAPAN
  0
TEXT
  8
_0-0_0
 62
    7
 10
85.182345598936081
 20
16.098434448242187
 40
1
 41
1.352343678474426
 50
0
  1
18
  0
TEXT
  8
_0-0_0
 62
    7
 10
85.182345598936081
 20
12.098435401916504
 40
1
 41
1.1591517244066509
 50
0
  1
20
  0
TEXT
  8
_0-0_0
 62
    7
 10
85.182345598936081
 20
14.098435401916504
 40
1
 41
1.352343678474426
 50
0
  1
19
  0
TEXT
  8
_0-0_0
 62
    7
 10
85.182345598936081
 20
20.098434448242188
 40
1
 41
1.352343678474426
 50
0
  1
16
  0
TEXT
  8
_0-0_0
 62
    7
 10
75.190745562314987
 20
16.098434448242187
 40
1
 41
1.352343678474426
 50
0
  1
13
  0
TEXT
  8
_0-0_0
 62
    7
 10
75.190745562314987
 20
18.098434448242187
 40
1
 41
1.352343678474426
 50
0
  1
12
  0
TEXT
  8
_0-0_0
 62
    7
 10
75.190745562314987
 20
20.098434448242188
 40
1
 41
1.622812414169311
 50
0
  1
11
  0
TEXT
  8
_0-0_0
 62
    7
 10
85.182345598936081
 20
18.098434448242187
 40
1
 41
1.352343678474426
 50
0
  1
17
  0
TEXT
  8
_0-0_0
 62
    7
 10
75.190745562314987
 20
14.098435401916504
 40
1
 41
1.352343678474426
 50
0
  1
14
  0
TEXT
  8
_0-0_0
 62
    7
 10
75.190745562314987
 20
12.098435401916504
 40
1
 41
1.352343678474426
 50
0
  1
15
  0
TEXT
  8
_0-0_0
 62
    7
 10
65.442843645811081
 20
18.098434448242187
 40
1
 41
1
 50
0
  1
7
  0
TEXT
  8
_0-0_0
 62
    7
 10
55.451239794492722
 20
12.220284461975098
 40
1
 41
1
 50
0
  1
5
  0
TEXT
  8
_0-0_0
 62
    7
 10
65.442843645811081
 20
20.098434448242188
 40
1
 41
1
 50
0
  1
6
  0
TEXT
  8
_0-0_0
 62
    7
 10
65.0772964656353
 20
12.178262710571289
 40
1
 41
1.4752840128811919
 50
0
  1
10
  0
TEXT
  8
_0-0_0
 62
    7
 10
65.442843645811081
 20
16.098434448242187
 40
1
 41
1
 50
0
  1
8
  0
TEXT
  8
_0-0_0
 62
    7
 10
65.442843645811081
 20
14.098435401916504
 40
1
 41
1
 50
0
  1
9
  0
TEXT
  8
_0-0_0
 62
    7
 10
55.451239794492722
 20
18.220283508300781
 40
1
 41
1
 50
0
  1
2
  0
TEXT
  8
_0-0_0
 62
    7
 10
55.451239794492722
 20
16.220283508300781
 40
1
 41
1
 50
0
  1
3
  0
TEXT
  8
_0-0_0
 62
    7
 10
54.354602068662643
 20
22.048015594482422
 40
1
 41
1.127153714766373
 50
0
  1
I/O CONNECTOR PIN ASSIGNMENT
  0
TEXT
  8
_0-0_0
 62
    7
 10
55.451239794492722
 20
14.220284461975098
 40
1
 41
1
 50
0
  1
4
  0
TEXT
  8
_0-0_0
 62
    7
 10
55.451239794492722
 20
20.220283508300781
 40
1
 41
0.6666666666666666
 50
0
  1
1
  0
TEXT
  8
_0-0_0
 62
    7
 10
46.817163527011871
 20
8.3524246215820312
 40
1
 41
0.9999999850988389
 50
0
  1
DIRECTION
  0
TEXT
  8
_0-0_0
 62
    7
 10
8.5323369204998016
 20
0.7327969074249267
 40
1.5
 41
0.8585775470247072
 50
0
  1
Power Supply:
  0
TEXT
  8
_0-0_0
 62
    7
 10
8.4813308715820312
 20
5.219180703163147
 40
2.2999999523162842
 41
0.8390905377189882
 50
0
  1
Serial No.
  0
TEXT
  8
_0-0_0
 62
    7
 10
8.1854299306869507
 20
10.156086921691895
 40
3
 41
0.9411764705882351
 50
0
  1
PL8#-*
  0
TEXT
  8
_0-0_0
 62
    7
 10
8.360895574092865
 20
-1.7672030925750732
 40
1.5
 41
1.1015909894720299
 50
0
  1
       Output:
  0
TEXT
  8
_0-0_0
 62
    7
 10
42.975037395954132
 20
2.2547852993011475
 40
1.5
 41
1.081874990463257
 50
0
  1
ON
  0
TEXT
  8
_0-0_0
 62
    7
 10
43.776085674762733
 20
5.6992850303649902
 40
1.5
 41
0.6666666666666666
 50
0
  1
1
  0
TEXT
  8
_0-0_0
 62
    7
 10
42.915777921676643
 20
-1.2698192596435547
 40
1.5
 41
0.8750000596046447
 50
0
  1
OFF
  0
TEXT
  8
_0-0_0
 62
    7
 10
59.715949296951287
 20
8.4009494781494141
 40
1
 41
0.8453950425863145
 50
0
  1
ＲＥＳＯＬＵＴＩＯＮ　ＳＥＴＴＩＮＧＳ（μｍ）
  0
TEXT
  8
_0-0_0
 62
    7
 10
72.388224810361862
 20
6.6950664520263672
 40
1
 41
1.0818749427795411
 50
0
  1
25
  0
TEXT
  8
_0-0_0
 62
    7
 10
82.989070147275925
 20
6.6950664520263672
 40
1
 41
1.363682357040612
 50
0
  1
100
  0
TEXT
  8
_0-0_0
 62
    7
 10
77.993266314268112
 20
6.6950664520263672
 40
1
 41
1.1591517244066509
 50
0
  1
50
  0
TEXT
  8
_0-0_0
 62
    7
 10
57.52267000079155
 20
2.7454855442047119
 40
1
 41
1
 50
0
  1
3
  0
TEXT
  8
_0-0_0
 62
    7
 10
66.90502855181694
 20
6.5732178688049316
 40
1
 41
1.1591517244066509
 50
0
  1
20
  0
TEXT
  8
_0-0_0
 62
    7
 10
61.543681353330612
 20
6.6950664520263672
 40
1
 41
1.4752840128811919
 50
0
  1
10
  0
TEXT
  8
_0-0_0
 62
    7
 10
57.52267000079155
 20
4.745485782623291
 40
1
 41
1
 50
0
  1
4
  0
TEXT
  8
_0-0_0
 62
    7
 10
57.52267000079155
 20
0.7454855442047119
 40
1
 41
1
 50
0
  1
2
  0
TEXT
  8
_0-0_0
 62
    7
 10
-160.48783874511719
 20
79.243133544921875
 40
10
 41
1.1708705357142859
 50
0
  1
PL81/82/84
  0
INSERT
  2
-002-KOZU0004
  8
_0-0_0
 10
5.125
 20
0
 41
1
 42
1
 50
0
  0
INSERT
  2
-003-KOZU0005
  8
_0-0_0
 10
5.125
 20
0
 41
1
 42
1
 50
0
  0
INSERT
  2
-004-KOZU0006
  8
_0-0_0
 10
5.125
 20
0
 41
1
 42
1
 50
0
  0
INSERT
  2
-000-KOZU0002
  8
_0-0_0
 10
102.00764465332031
 20
20.081405639648437
 41
1
 42
1
 50
0
  0
INSERT
  2
-001-KOZU0003
  8
_0-0_0
 10
-133.71928405761719
 20
-76.653938293457031
 41
1
 42
1
 50
0
  0
ENDSEC
  0
EOF
