  0
SECTION
  2
HEADER
  9
$ACADVER
  1
AC1015
  9
$ACADMAINTVER
 70
     6
  9
$DWGCODEPAGE
  3
ANSI_1252
  9
$INSBASE
 10
0.0
 20
0.0
 30
0.0
  9
$EXTMIN
 10
0.0
 20
0.0
 30
0.0
  9
$EXTMAX
 10
207.284882
 20
133.749863
 30
2.0
  9
$LIMMIN
 10
0.0
 20
0.0
  9
$LIMMAX
 10
420.0
 20
297.0
  9
$ORTHOMODE
 70
     0
  9
$REGENMODE
 70
     1
  9
$FILLMODE
 70
     1
  9
$QTEXTMODE
 70
     0
  9
$MIRRTEXT
 70
     1
  9
$LTSCALE
 40
1.0
  9
$ATTMODE
 70
     1
  9
$TEXTSIZE
 40
2.5
  9
$TRACEWID
 40
1.0
  9
$TEXTSTYLE
  7
Standard
  9
$CLAYER
  8
0
  9
$CELTYPE
  6
ByLayer
  9
$CECOLOR
 62
   256
  9
$CELTSCALE
 40
1.0
  9
$DISPSILH
 70
     0
  9
$DIMSCALE
 40
1.0
  9
$DIMASZ
 40
2.5
  9
$DIMEXO
 40
0.625
  9
$DIMDLI
 40
3.75
  9
$DIMRND
 40
0.0
  9
$DIMDLE
 40
0.0
  9
$DIMEXE
 40
1.25
  9
$DIMTP
 40
0.0
  9
$DIMTM
 40
0.0
  9
$DIMTXT
 40
2.5
  9
$DIMCEN
 40
2.5
  9
$DIMTSZ
 40
0.0
  9
$DIMTOL
 70
     0
  9
$DIMLIM
 70
     0
  9
$DIMTIH
 70
     0
  9
$DIMTOH
 70
     0
  9
$DIMSE1
 70
     0
  9
$DIMSE2
 70
     0
  9
$DIMTAD
 70
     1
  9
$DIMZIN
 70
     8
  9
$DIMBLK
  1

  9
$DIMASO
 70
     1
  9
$DIMSHO
 70
     1
  9
$DIMPOST
  1

  9
$DIMAPOST
  1

  9
$DIMALT
 70
     0
  9
$DIMALTD
 70
     3
  9
$DIMALTF
 40
0.03937
  9
$DIMLFAC
 40
1.0
  9
$DIMTOFL
 70
     1
  9
$DIMTVP
 40
0.0
  9
$DIMTIX
 70
     0
  9
$DIMSOXD
 70
     0
  9
$DIMSAH
 70
     0
  9
$DIMBLK1
  1

  9
$DIMBLK2
  1

  9
$DIMSTYLE
  2

  9
$DIMCLRD
 70
     0
  9
$DIMCLRE
 70
     0
  9
$DIMCLRT
 70
     0
  9
$DIMTFAC
 40
1.0
  9
$DIMGAP
 40
0.625
  9
$DIMJUST
 70
     0
  9
$DIMSD1
 70
     0
  9
$DIMSD2
 70
     0
  9
$DIMTOLJ
 70
     0
  9
$DIMTZIN
 70
     8
  9
$DIMALTZ
 70
     0
  9
$DIMALTTZ
 70
     0
  9
$DIMUPT
 70
     0
  9
$DIMDEC
 70
     2
  9
$DIMTDEC
 70
     2
  9
$DIMALTU
 70
     2
  9
$DIMALTTD
 70
     3
  9
$DIMTXSTY
  7
Standard
  9
$DIMAUNIT
 70
     0
  9
$DIMADEC
 70
     0
  9
$DIMALTRND
 40
0.0
  9
$DIMAZIN
 70
     0
  9
$DIMDSEP
 70
    44
  9
$DIMATFIT
 70
     0
  9
$DIMFRAC
 70
     0
  9
$DIMLDRBLK
  1

  9
$DIMLUNIT
 70
     2
  9
$DIMLWD
 70
    -2
  9
$DIMLWE
 70
    -2
  9
$DIMTMOVE
 70
     0
  9
$LUNITS
 70
     2
  9
$LUPREC
 70
     4
  9
$SKETCHINC
 40
1.0
  9
$FILLETRAD
 40
2.5
  9
$AUNITS
 70
     0
  9
$AUPREC
 70
     0
  9
$MENU
  1
.
  9
$ELEVATION
 40
0.0
  9
$PELEVATION
 40
0.0
  9
$THICKNESS
 40
0.0
  9
$LIMCHECK
 70
     0
  9
$CHAMFERA
 40
2.5
  9
$CHAMFERB
 40
2.5
  9
$CHAMFERC
 40
0.0
  9
$CHAMFERD
 40
0.0
  9
$SKPOLY
 70
     0
  9
$TDCREATE
 40
0.000000000
  9
$TDUCREATE
 40
0.000000000
  9
$TDUPDATE
 40
0.000000000
  9
$TDUUPDATE
 40
0.000000000
  9
$TDINDWG
 40
0.0000000000
  9
$TDUSRTIMER
 40
0.0000000000
  9
$USRTIMER
 70
     1
  9
$ANGBASE
 50
0.0
  9
$ANGDIR
 70
     0
  9
$PDMODE
 70
     0
  9
$PDSIZE
 40
0.0
  9
$PLINEWID
 40
0.0
  9
$SPLFRAME
 70
     0
  9
$SPLINETYPE
 70
     6
  9
$SPLINESEGS
 70
     8
  9
$HANDSEED
  5
281
  9
$SURFTAB1
 70
     6
  9
$SURFTAB2
 70
     6
  9
$SURFTYPE
 70
     6
  9
$SURFU
 70
     6
  9
$SURFV
 70
     6
  9
$UCSBASE
  2

  9
$UCSNAME
  2

  9
$UCSORG
 10
0.0
 20
0.0
 30
0.0
  9
$UCSXDIR
 10
1.0
 20
0.0
 30
0.0
  9
$UCSYDIR
 10
0.0
 20
1.0
 30
0.0
  9
$UCSORTHOREF
  2

  9
$UCSORTHOVIEW
 70
     1
  9
$UCSORGTOP
 10
0.0
 20
0.0
 30
0.0
  9
$UCSORGBOTTOM
 10
0.0
 20
0.0
 30
0.0
  9
$UCSORGLEFT
 10
0.0
 20
0.0
 30
0.0
  9
$UCSORGRIGHT
 10
0.0
 20
0.0
 30
0.0
  9
$UCSORGFRONT
 10
0.0
 20
0.0
 30
0.0
  9
$UCSORGBACK
 10
0.0
 20
0.0
 30
0.0
  9
$PUCSBASE
  2

  9
$PUCSNAME
  2

  9
$PUCSORG
 10
0.0
 20
0.0
 30
0.0
  9
$PUCSXDIR
 10
1.0
 20
0.0
 30
0.0
  9
$PUCSYDIR
 10
0.0
 20
1.0
 30
0.0
  9
$PUCSORTHOREF
  2

  9
$PUCSORTHOVIEW
 70
     0
  9
$PUCSORGTOP
 10
0.0
 20
0.0
 30
0.0
  9
$PUCSORGBOTTOM
 10
0.0
 20
0.0
 30
0.0
  9
$PUCSORGLEFT
 10
0.0
 20
0.0
 30
0.0
  9
$PUCSORGRIGHT
 10
0.0
 20
0.0
 30
0.0
  9
$PUCSORGFRONT
 10
0.0
 20
0.0
 30
0.0
  9
$PUCSORGBACK
 10
0.0
 20
0.0
 30
0.0
  9
$USERI1
 70
     0
  9
$USERI2
 70
     0
  9
$USERI3
 70
     0
  9
$USERI4
 70
     0
  9
$USERI5
 70
     0
  9
$USERR1
 40
0.0
  9
$USERR2
 40
0.0
  9
$USERR3
 40
0.0
  9
$USERR4
 40
0.0
  9
$USERR5
 40
0.0
  9
$WORLDVIEW
 70
     1
  9
$SHADEDGE
 70
     3
  9
$SHADEDIF
 70
    70
  9
$TILEMODE
 70
     1
  9
$MAXACTVP
 70
    48
  9
$PINSBASE
 10
0.0
 20
0.0
 30
0.0
  9
$PLIMCHECK
 70
     0
  9
$PEXTMIN
 10
0.0
 20
0.0
 30
0.0
  9
$PEXTMAX
 10
207.284882
 20
133.749863
 30
2.0
  9
$PLIMMIN
 10
0.0
 20
0.0
  9
$PLIMMAX
 10
420.0
 20
297.0
  9
$UNITMODE
 70
     0
  9
$VISRETAIN
 70
     0
  9
$PLINEGEN
 70
     0
  9
$PSLTSCALE
 70
     1
  9
$TREEDEPTH
 70
  3020
  9
$CMLSTYLE
  2
Standard
  9
$CMLJUST
 70
     0
  9
$CMLSCALE
 40
20.0
  9
$PROXYGRAPHICS
 70
     1
  9
$MEASUREMENT
 70
     1
  9
$CELWEIGHT
370
    -1
  9
$ENDCAPS
280
     0
  9
$JOINSTYLE
280
     0
  9
$LWDISPLAY
290
     0
  9
$INSUNITS
 70
     0
  9
$HYPERLINKBASE
  1

  9
$STYLESHEET
  1

  9
$XEDIT
290
     1
  9
$CEPSNTYPE
380
     0
  9
$PSTYLEMODE
290
     0
  9
$FINGERPRINTGUID
  2

  9
$VERSIONGUID
  2

  9
$EXTNAMES
290
     0
  9
$PSVPSCALE
 40
0.0
  0
ENDSEC
  0
SECTION
  2
CLASSES
  0
CLASS
  1
LWPOLYLINE
  2
AcDbPolyline
  3
AutoCAD 2000
 90
        0
280
     0
281
     1
  0
CLASS
  1
IMAGE
  2
AcDbRasterImage
  3
ISM
 90
      127
280
     0
281
     1
  0
CLASS
  1
OLE2FRAME
  2
AcDbOle2Frame
  3
AutoCAD 2000
 90
        0
280
     0
281
     1
  0
CLASS
  1
HATCH
  2
AcDbHatch
  3
AutoCAD 2000
 90
        0
280
     0
281
     1
  0
CLASS
  1
DICTIONARYVAR
  2
AcDbDictionaryVar
  3
AutoCAD 2000
 90
        0
280
     0
281
     0
  0
CLASS
  1
RASTERVARIABLES
  2
AcDbRasterVariables
  3
ISM
 90
        0
280
     0
281
     0
  0
CLASS
  1
IMAGEDEF
  2
AcDbRasterImageDef
  3
ISM
 90
        0
280
     0
281
     0
  0
CLASS
  1
IMAGEDEF_REACTOR
  2
AcDbRasterImageDefReactor
  3
ISM
 90
        1
280
     0
281
     0
  0
CLASS
  1
IDBUFFER
  2
AcDbIdBuffer
  3
AutoCAD 2000
 90
        0
280
     0
281
     0
  0
CLASS
  1
SPATIAL_FILTER
  2
AcDbSpatialFilter
  3
AutoCAD 2000
 90
        0
280
     0
281
     0
  0
CLASS
  1
XRECORD
  2
AcDbXrecord
  3
AutoCAD 2000
 90
        0
280
     0
281
     0
  0
CLASS
  1
SORTENTSTABLE
  2
AcDbSortentsTable
  3
AutoCAD 2000
 90
        0
280
     0
281
     0
  0
CLASS
  1
LAYER_INDEX
  2
AcDbLayerIndex
  3
AutoCAD 2000
 90
        0
280
     0
281
     0
  0
CLASS
  1
SPATIAL_INDEX
  2
AcDbSpatialIndex
  3
AutoCAD 2000
 90
        0
280
     0
281
     0
  0
CLASS
  1
OBJECT_PTR
  2
CAseDLPNTableRecord
  3
"ASE-LPNTableRecord"
 90
        1
280
     0
281
     0
  0
CLASS
  1
LAYOUT
  2
AcDbLayout
  3
AutoCAD 2000
 90
        0
280
     0
281
     0
  0
CLASS
  1
PLOTSETTINGS
  2
AcDbPlotSettings
  3
AutoCAD 2000
 90
        0
280
     0
281
     0
  0
CLASS
  1
ACDBDICTIONARYWDFLT
  2
AcDbDictionaryWithDefault
  3
AutoCAD 2000
 90
        0
280
     0
281
     0
  0
CLASS
  1
ACDBPLACEHOLDER
  2
AcDbPlaceHolder
  3
AutoCAD 2000
 90
        0
280
     0
281
     0
  0
CLASS
  1
VBA_PROJECT
  2
AcDbVbaProject
  3
acadvba
 90
        0
280
     0
281
     0
  0
CLASS
  1
WIPEOUT
  2
AcDbWipeout
  3
WipeOut|AutoCAD Express Tool|expresstools@autodesk.com
 90
      127
280
     0
281
     1
  0
CLASS
  1
WIPEOUTVARIABLES
  2
AcDbWipeoutVariables
  3
WipeOut|AutoCAD Express Tool|expresstools@autodesk.com
 90
        0
280
     0
281
     0
  0
CLASS
  1
RTEXT
  2
RText
  3
RText|AutoCAD Express Tool|expresstools@autodesk.com
 90
        0
280
     0
281
     1
  0
CLASS
  1
ARCALIGNEDTEXT
  2
AcDbArcAlignedText
  3
ATEXT|AutoCAD Express Tool|expresstools@autodesk.com
 90
        0
280
     0
281
     1
  0
ENDSEC
  0
SECTION
  2
TABLES
  0
TABLE
  2
VPORT
  5
7
100
AcDbSymbolTable
 70
     1
  0
VPORT
  5
15
100
AcDbSymbolTableRecord
100
AcDbViewportTableRecord
  2
*ACTIVE
 70
     0
 10
0.0
 20
0.0
 11
1.0
 21
1.0
 12
6.591288
 22
4.579184
 13
0.0
 23
0.0
 14
1.0
 24
1.0
 15
0.0
 25
0.0
 16
0.0
 26
0.0
 36
1.0
 17
0.0
 27
0.0
 37
0.0
 40
9.158369
 41
0.688564
 42
50.0
 43
0.0
 44
0.0
 50
0.0
 51
0.0
 71
     0
 72
   100
 73
     1
 74
     1
 75
     0
 76
     0
 77
     0
 78
     0
281
     0
 65
     0
110
0.0
120
0.0
130
0.0
111
1.0
121
0.0
131
0.0
112
0.0
122
1.0
132
0.0
345
0
346
0
 79
     0
146
0.0
  0
ENDTAB
  0
TABLE
  2
LTYPE
  5
4
100
AcDbSymbolTable
 70
     4
  0
LTYPE
  5
11
100
AcDbSymbolTableRecord
100
AcDbLinetypeTableRecord
  2
ByBlock
 70
    64
  3

 72
    65
 73
     0
 40
0.0
  0
LTYPE
  5
12
100
AcDbSymbolTableRecord
100
AcDbLinetypeTableRecord
  2
ByLayer
 70
    64
  3

 72
    65
 73
     0
 40
0.0
  0
LTYPE
  5
13
100
AcDbSymbolTableRecord
100
AcDbLinetypeTableRecord
  2
Continuous
 70
    64
  3
Solid line
 72
    65
 73
     0
 40
0.0
  0
LTYPE
  5
24
100
AcDbSymbolTableRecord
100
AcDbLinetypeTableRecord
  2
DASHED
 70
     0
  3
__ __ __ __ __ __ __ __ __ __ __ __ __ __ __ __
 72
    65
 73
     2
 40
15.0
 49
12.0
 74
     0
 49
-3.0
 74
     0
  0
ENDTAB
  0
TABLE
  2
LAYER
  5
2
100
AcDbSymbolTable
 70
     1
  0
LAYER
  5
14
100
AcDbSymbolTableRecord
100
AcDbLayerTableRecord
  2
0
 70
     0
 62
     7
  6
Continuous
290
     1
370
    -3
390
1D
  0
ENDTAB
  0
TABLE
  2
STYLE
  5
3
100
AcDbSymbolTable
 70
     1
  0
STYLE
  5
17
100
AcDbSymbolTableRecord
100
AcDbTextStyleTableRecord
  2
Standard
 70
     0
 40
0.0
 41
1.0
 50
0.0
 71
     0
 42
0.0
  3
txt
  4

  0
ENDTAB
  0
TABLE
  2
VIEW
  5
5
100
AcDbSymbolTable
 70
     0
  0
ENDTAB
  0
TABLE
  2
UCS
  5
6
100
AcDbSymbolTable
 70
     0
  0
ENDTAB
  0
TABLE
  2
APPID
  5
8
100
AcDbSymbolTable
 70
     1
  0
APPID
  5
16
100
AcDbSymbolTableRecord
100
AcDbRegAppTableRecord
  2
ACAD
 70
     0
  0
ENDTAB
  0
TABLE
  2
DIMSTYLE
  5
9
100
AcDbSymbolTable
 70
     1
100
AcDbDimStyleTable
 71
     0
  0
DIMSTYLE
105
18
100
AcDbSymbolTableRecord
100
AcDbDimStyleTableRecord
  2
Standard
 70
     0
  3

  4

 40
1.0
 41
0.18
 42
0.0625
 43
0.38
 44
0.18
 45
0.0
 46
0.0
 47
0.0
 48
0.0
 71
     0
 72
     0
 73
     1
 74
     1
 75
     0
 76
     0
 77
     0
 78
     0
 79
     0
140
0.18
141
0.09
142
0.0
143
25.4
144
1.0
145
0.0
146
1.0
147
0.09
148
0.0
170
     0
171
     2
172
     0
173
     0
174
     0
175
     0
176
     0
177
     0
178
     0
179
     0
271
     4
272
     4
273
     2
274
     2
275
     0
276
     0
277
     2
278
    46
279
     0
280
     0
281
     0
282
     0
283
     1
284
     0
285
     0
286
     0
288
     0
289
     3
340
17
341
0
342
0
343
0
344
0
371
    -2
372
    -2
  0
ENDTAB
  0
TABLE
  2
BLOCK_RECORD
  5
1
100
AcDbSymbolTable
 70
     0
  0
BLOCK_RECORD
  5
A
100
AcDbSymbolTableRecord
100
AcDbBlockTableRecord
  2
*MODEL_SPACE
340
20
  0
BLOCK_RECORD
  5
B
100
AcDbSymbolTableRecord
100
AcDbBlockTableRecord
  2
*PAPER_SPACE
340
21
  0
ENDTAB
  0
ENDSEC
  0
SECTION
  2
BLOCKS
  0
BLOCK
  5
D
100
AcDbEntity
  8
0
390
0
100
AcDbBlockBegin
  2
*MODEL_SPACE
 70
     0
 10
0.0
 20
0.0
 30
0.0
  3
*MODEL_SPACE
  1

  0
ENDBLK
  5
E
100
AcDbEntity
  8
0
390
0
100
AcDbBlockEnd
  0
BLOCK
  5
F
100
AcDbEntity
 67
     1
  8
0
390
0
100
AcDbBlockBegin
  2
*PAPER_SPACE
 70
     0
 10
0.0
 20
0.0
 30
0.0
  3
*PAPER_SPACE
  1

  0
ENDBLK
  5
10
100
AcDbEntity
 67
     1
  8
0
390
0
100
AcDbBlockEnd
  0
ENDSEC
  0
SECTION
  2
ENTITIES
  0
VIEWPORT
  5
280
100
AcDbEntity
 67
     1
  8
0
370
     0
390
0
 62
     0
 48
0.0
100
AcDbViewport
 10
0.0
 20
0.0
 30
0.0
 40
1000.0
 41
1000.0
 68
     1
 69
     1
 12
0.0
 22
0.0
 13
0.0
 23
0.0
 14
1.0
 24
1.0
 15
1.0
 25
1.0
 16
0.0
 26
0.0
 36
1.0
 17
0.0
 27
0.0
 37
0.0
 42
50.0
 43
0.0
 44
0.0
 45
1000.0
 50
0.0
 51
0.0
 72
   100
 90
        0
340
0
  1

281
     0
 71
     0
 74
     1
110
0.0
120
0.0
130
0.0
111
1.0
121
0.0
131
0.0
112
0.0
122
1.0
132
0.0
345
0
346
0
 79
     0
146
0.0
  0
LINE
  5
25
100
AcDbEntity
  8
0
370
    35
390
0
 62
     7
 48
0.150001
100
AcDbLine
 10
71.715126
 20
72.249893
 30
0.0
 11
65.715096
 21
72.249893
 31
0.0
210
0.0
220
0.0
230
1.0
  0
LINE
  5
26
100
AcDbEntity
  8
0
370
    35
390
0
 62
     7
 48
0.249998
100
AcDbLine
 10
64.715096
 20
63.250015
 30
0.0
 11
54.715187
 21
63.250015
 31
0.0
210
0.0
220
0.0
230
1.0
  0
LINE
  5
27
100
AcDbEntity
  8
0
370
    35
390
0
 62
     7
 48
0.249998
100
AcDbLine
 10
64.715096
 20
71.249893
 30
0.0
 11
54.715187
 21
71.249893
 31
0.0
210
0.0
220
0.0
230
1.0
  0
LINE
  5
28
100
AcDbEntity
  8
0
370
    35
390
0
 62
     7
 48
0.020972
100
AcDbLine
 10
52.290962
 20
63.499924
 30
0.0
 11
51.91581
 21
64.250229
 31
0.0
210
0.0
220
0.0
230
1.0
  0
LINE
  5
29
100
AcDbEntity
  8
0
370
    35
390
0
 62
     7
 48
0.020959
100
AcDbLine
 10
52.290337
 20
70.999664
 30
0.0
 11
51.915405
 21
70.249802
 31
0.0
210
0.0
220
0.0
230
1.0
  0
LINE
  5
2A
100
AcDbEntity
  8
0
370
    35
390
0
 62
     7
 48
0.060625
100
AcDbLine
 10
54.715187
 20
70.999893
 30
0.0
 11
52.290199
 21
70.999893
 31
0.0
210
0.0
220
0.0
230
1.0
  0
LINE
  5
2B
100
AcDbEntity
  8
0
370
    35
390
0
 62
     7
 48
0.060612
100
AcDbLine
 10
54.715187
 20
63.500015
 30
0.0
 11
52.290688
 21
63.500015
 31
0.0
210
0.0
220
0.0
230
1.0
  0
LINE
  5
2C
100
AcDbEntity
  8
0
370
    35
390
0
 62
     7
 48
0.199997
100
AcDbLine
 10
54.715065
 20
63.250015
 30
0.0
 11
54.715065
 21
71.249893
 31
0.0
210
0.0
220
0.0
230
1.0
  0
LINE
  5
2D
100
AcDbEntity
  8
0
370
    35
390
0
 62
     7
 48
0.224997
100
AcDbLine
 10
64.715096
 20
62.250015
 30
0.0
 11
64.715096
 21
71.249893
 31
0.0
210
0.0
220
0.0
230
1.0
  0
LINE
  5
2E
100
AcDbEntity
  8
0
370
    35
390
0
 62
     7
 48
0.081702
100
AcDbLine
 10
22.715103
 20
68.884171
 30
0.0
 11
22.715103
 21
65.616104
 31
0.0
210
0.0
220
0.0
230
1.0
  0
LINE
  5
2F
100
AcDbEntity
  8
0
370
    35
390
0
 62
     7
 48
0.043311
100
AcDbLine
 10
22.714127
 20
65.615524
 30
0.0
 11
24.214447
 21
64.749306
 31
0.0
210
0.0
220
0.0
230
1.0
  0
LINE
  5
30
100
AcDbEntity
  8
0
370
    35
390
0
 62
     7
 48
0.080029
100
AcDbLine
 10
24.215103
 20
64.750381
 30
0.0
 11
27.416275
 21
64.750381
 31
0.0
210
0.0
220
0.0
230
1.0
  0
LINE
  5
31
100
AcDbEntity
  8
0
370
    35
390
0
 62
     7
 48
0.125
100
AcDbLine
 10
24.215103
 20
69.749893
 30
0.0
 11
24.215103
 21
64.749893
 31
0.0
210
0.0
220
0.0
230
1.0
  0
LINE
  5
32
100
AcDbEntity
  8
0
370
    35
390
0
 62
     7
 48
0.026855
100
AcDbLine
 10
26.656532
 20
64.750748
 30
0.0
 11
27.416107
 21
65.510345
 31
0.0
210
0.0
220
0.0
230
1.0
  0
LINE
  5
33
100
AcDbEntity
  8
0
370
    35
390
0
 62
     7
 48
0.061865
100
AcDbLine
 10
25.665581
 20
64.749451
 30
0.0
 11
27.41539
 21
66.499268
 31
0.0
210
0.0
220
0.0
230
1.0
  0
LINE
  5
34
100
AcDbEntity
  8
0
370
    35
390
0
 62
     7
 48
0.096875
100
AcDbLine
 10
24.675865
 20
64.750832
 30
0.0
 11
27.415901
 21
67.490868
 31
0.0
210
0.0
220
0.0
230
1.0
  0
LINE
  5
35
100
AcDbEntity
  8
0
370
    35
390
0
 62
     7
 48
0.113135
100
AcDbLine
 10
24.216743
 20
65.278496
 30
0.0
 11
27.416672
 21
68.478439
 31
0.0
210
0.0
220
0.0
230
1.0
  0
LINE
  5
36
100
AcDbEntity
  8
0
370
    35
390
0
 62
     7
 48
0.113135
100
AcDbLine
 10
24.215126
 20
66.271896
 30
0.0
 11
27.415062
 21
69.471832
 31
0.0
210
0.0
220
0.0
230
1.0
  0
LINE
  5
37
100
AcDbEntity
  8
0
370
    35
390
0
 62
     7
 48
0.088037
100
AcDbLine
 10
24.216148
 20
67.259544
 30
0.0
 11
26.706207
 21
69.749611
 31
0.0
210
0.0
220
0.0
230
1.0
  0
LINE
  5
38
100
AcDbEntity
  8
0
370
    35
390
0
 62
     7
 48
0.053076
100
AcDbLine
 10
24.216492
 20
68.248047
 30
0.0
 11
25.717712
 21
69.749268
 31
0.0
210
0.0
220
0.0
230
1.0
  0
LINE
  5
39
100
AcDbEntity
  8
0
370
    35
390
0
 62
     7
 48
0.018018
100
AcDbLine
 10
24.216148
 20
69.239998
 30
0.0
 11
24.725761
 21
69.749611
 31
0.0
210
0.0
220
0.0
230
1.0
  0
LINE
  5
3A
100
AcDbEntity
  8
0
370
    35
390
0
 62
     7
 48
0.02688
100
AcDbLine
 10
26.655281
 20
69.751167
 30
0.0
 11
27.415565
 21
68.990883
 31
0.0
210
0.0
220
0.0
230
1.0
  0
LINE
  5
3B
100
AcDbEntity
  8
0
370
    35
390
0
 62
     7
 48
0.080029
100
AcDbLine
 10
24.215103
 20
69.750381
 30
0.0
 11
27.416275
 21
69.750381
 31
0.0
210
0.0
220
0.0
230
1.0
  0
LINE
  5
3C
100
AcDbEntity
  8
0
370
    35
390
0
 62
     7
 48
0.061865
100
AcDbLine
 10
25.665405
 20
69.748749
 30
0.0
 11
27.415215
 21
67.998932
 31
0.0
210
0.0
220
0.0
230
1.0
  0
LINE
  5
3D
100
AcDbEntity
  8
0
370
    35
390
0
 62
     7
 48
0.096899
100
AcDbLine
 10
24.675522
 20
69.750465
 30
0.0
 11
27.416245
 21
67.009727
 31
0.0
210
0.0
220
0.0
230
1.0
  0
LINE
  5
3E
100
AcDbEntity
  8
0
370
    35
390
0
 62
     7
 48
0.113135
100
AcDbLine
 10
24.215111
 20
69.218933
 30
0.0
 11
27.415047
 21
66.018997
 31
0.0
210
0.0
220
0.0
230
1.0
  0
LINE
  5
3F
100
AcDbEntity
  8
0
370
    35
390
0
 62
     7
 48
0.113135
100
AcDbLine
 10
24.214592
 20
68.228539
 30
0.0
 11
27.414528
 21
65.028603
 31
0.0
210
0.0
220
0.0
230
1.0
  0
LINE
  5
40
100
AcDbEntity
  8
0
370
    35
390
0
 62
     7
 48
0.088031
100
AcDbLine
 10
24.214767
 20
67.239174
 30
0.0
 11
26.704659
 21
64.749283
 31
0.0
210
0.0
220
0.0
230
1.0
  0
LINE
  5
41
100
AcDbEntity
  8
0
370
    35
390
0
 62
     7
 48
0.053027
100
AcDbLine
 10
24.215096
 20
66.247955
 30
0.0
 11
25.714943
 21
64.748123
 31
0.0
210
0.0
220
0.0
230
1.0
  0
LINE
  5
42
100
AcDbEntity
  8
0
370
    35
390
0
 62
     7
 48
0.018018
100
AcDbLine
 10
24.216667
 20
65.259933
 30
0.0
 11
24.72628
 21
64.750313
 31
0.0
210
0.0
220
0.0
230
1.0
  0
LINE
  5
43
100
AcDbEntity
  8
0
370
    35
390
0
 62
     7
 48
0.125
100
AcDbLine
 10
27.416275
 20
69.749893
 30
0.0
 11
27.416275
 21
64.749893
 31
0.0
210
0.0
220
0.0
230
1.0
  0
LINE
  5
44
100
AcDbEntity
  8
0
370
    35
390
0
 62
     7
 48
0.010644
100
AcDbLine
 10
27.715126
 20
65.050735
 30
0.0
 11
27.414055
 21
64.749664
 31
0.0
210
0.0
220
0.0
230
1.0
  0
LINE
  5
45
100
AcDbEntity
  8
0
370
    35
390
0
 62
     7
 48
0.010596
100
AcDbLine
 10
27.414871
 20
69.749435
 30
0.0
 11
27.714561
 21
69.449745
 31
0.0
210
0.0
220
0.0
230
1.0
  0
LINE
  5
46
100
AcDbEntity
  8
0
370
    35
390
0
 62
     7
 48
0.043311
100
AcDbLine
 10
22.715736
 20
68.884811
 30
0.0
 11
24.216057
 21
69.75103
 31
0.0
210
0.0
220
0.0
230
1.0
  0
LINE
  5
47
100
AcDbEntity
  8
0
370
    35
390
0
 62
     7
100
AcDbLine
 10
116.415077
 20
72.049942
 30
0.0
 11
72.515175
 21
72.049942
 31
0.0
210
0.0
220
0.0
230
1.0
  0
LINE
  5
48
100
AcDbEntity
  8
0
370
    35
390
0
 62
     7
 48
0.020001
100
AcDbLine
 10
72.515175
 20
72.149796
 30
0.0
 11
71.715126
 21
72.149796
 31
0.0
210
0.0
220
0.0
230
1.0
  0
LINE
  5
49
100
AcDbEntity
  8
0
370
    35
390
0
 62
     7
100
AcDbLine
 10
115.715126
 20
60.449966
 30
0.0
 11
72.515175
 21
60.449966
 31
0.0
210
0.0
220
0.0
230
1.0
  0
LINE
  5
4A
100
AcDbEntity
  8
0
370
    35
390
0
 62
     7
 48
0.125001
100
AcDbLine
 10
71.715126
 20
60.249916
 30
0.0
 11
66.715096
 21
60.249916
 31
0.0
210
0.0
220
0.0
230
1.0
  0
LINE
  5
4B
100
AcDbEntity
  8
0
370
    35
390
0
 62
     7
 48
0.020001
100
AcDbLine
 10
72.515175
 20
60.350113
 30
0.0
 11
71.715126
 21
60.350014
 31
0.0
210
0.0
220
0.0
230
1.0
  0
LINE
  5
4C
100
AcDbEntity
  8
0
370
    35
390
0
 62
     7
 48
0.086116
100
AcDbLine
 10
77.665131
 20
132.849915
 30
0.0
 11
81.109779
 21
132.849915
 31
0.0
210
0.0
220
0.0
230
1.0
  0
LINE
  5
4D
100
AcDbEntity
  8
0
370
    35
390
0
 62
     7
 48
0.039643
100
AcDbLine
 10
71.715126
 20
132.750015
 30
0.0
 11
70.129402
 21
132.750015
 31
0.0
210
0.0
220
0.0
230
1.0
  0
LINE
  5
4E
100
AcDbEntity
  8
0
370
    35
390
0
 62
     7
 48
0.249998
100
AcDbLine
 10
64.715096
 20
110.250008
 30
0.0
 11
54.715187
 21
110.250008
 31
0.0
210
0.0
220
0.0
230
1.0
  0
LINE
  5
4F
100
AcDbEntity
  8
0
370
    35
390
0
 62
     7
 48
0.249998
100
AcDbLine
 10
64.715096
 20
118.250008
 30
0.0
 11
54.715187
 21
118.250008
 31
0.0
210
0.0
220
0.0
230
1.0
  0
LINE
  5
50
100
AcDbEntity
  8
0
370
    35
390
0
 62
     7
 48
0.020965
100
AcDbLine
 10
52.290558
 20
110.500198
 30
0.0
 11
51.91552
 21
111.250282
 31
0.0
210
0.0
220
0.0
230
1.0
  0
LINE
  5
51
100
AcDbEntity
  8
0
370
    35
390
0
 62
     7
 48
0.02096
100
AcDbLine
 10
52.290138
 20
117.999557
 30
0.0
 11
51.915199
 21
117.24968
 31
0.0
210
0.0
220
0.0
230
1.0
  0
LINE
  5
52
100
AcDbEntity
  8
0
370
    35
390
0
 62
     7
100
AcDbLine
 10
64.715096
 20
105.163895
 30
0.0
 11
64.715096
 21
127.335831
 31
0.0
210
0.0
220
0.0
230
1.0
  0
LINE
  5
53
100
AcDbEntity
  8
0
370
    35
390
0
 62
     7
 48
0.2
100
AcDbLine
 10
54.715065
 20
110.250008
 30
0.0
 11
54.715065
 21
118.250008
 31
0.0
210
0.0
220
0.0
230
1.0
  0
LINE
  5
54
100
AcDbEntity
  8
0
370
    35
390
0
 62
     7
 48
0.060625
100
AcDbLine
 10
54.715187
 20
118.000008
 30
0.0
 11
52.290199
 21
118.000008
 31
0.0
210
0.0
220
0.0
230
1.0
  0
LINE
  5
55
100
AcDbEntity
  8
0
370
    35
390
0
 62
     7
 48
0.060612
100
AcDbLine
 10
54.715187
 20
110.500008
 30
0.0
 11
52.290688
 21
110.500008
 31
0.0
210
0.0
220
0.0
230
1.0
  0
LINE
  5
56
100
AcDbEntity
  8
0
370
    35
390
0
 62
     7
 48
0.15
100
AcDbLine
 10
51.915199
 20
111.250008
 30
0.0
 11
51.915199
 21
117.250008
 31
0.0
210
0.0
220
0.0
230
1.0
  0
LINE
  5
57
100
AcDbEntity
  8
0
370
    35
390
0
 62
     7
 48
0.1875
100
AcDbLine
 10
52.290688
 20
110.500008
 30
0.0
 11
52.290688
 21
118.000008
 31
0.0
210
0.0
220
0.0
230
1.0
  0
LINE
  5
58
100
AcDbEntity
  8
0
370
    35
390
0
 62
     7
 48
0.081702
100
AcDbLine
 10
22.715103
 20
115.884285
 30
0.0
 11
22.715103
 21
112.616219
 31
0.0
210
0.0
220
0.0
230
1.0
  0
LINE
  5
59
100
AcDbEntity
  8
0
370
    35
390
0
 62
     7
 48
0.04331
100
AcDbLine
 10
22.714272
 20
112.614944
 30
0.0
 11
24.214584
 21
111.748734
 31
0.0
210
0.0
220
0.0
230
1.0
  0
LINE
  5
5A
100
AcDbEntity
  8
0
370
    35
390
0
 62
     7
 48
0.080029
100
AcDbLine
 10
24.215103
 20
111.750496
 30
0.0
 11
27.416275
 21
111.750496
 31
0.0
210
0.0
220
0.0
230
1.0
  0
LINE
  5
5B
100
AcDbEntity
  8
0
370
    35
390
0
 62
     7
 48
0.125
100
AcDbLine
 10
24.215103
 20
116.750008
 30
0.0
 11
24.215103
 21
111.750008
 31
0.0
210
0.0
220
0.0
230
1.0
  0
LINE
  5
5C
100
AcDbEntity
  8
0
370
    35
390
0
 62
     7
 48
0.026856
100
AcDbLine
 10
26.655571
 20
111.750877
 30
0.0
 11
27.415146
 21
112.510483
 31
0.0
210
0.0
220
0.0
230
1.0
  0
LINE
  5
5D
100
AcDbEntity
  8
0
370
    35
390
0
 62
     7
 48
0.061865
100
AcDbLine
 10
25.665482
 20
111.749565
 30
0.0
 11
27.415291
 21
113.499382
 31
0.0
210
0.0
220
0.0
230
1.0
  0
LINE
  5
5E
100
AcDbEntity
  8
0
370
    35
390
0
 62
     7
 48
0.096869
100
AcDbLine
 10
24.676086
 20
111.750519
 30
0.0
 11
27.415955
 21
114.490387
 31
0.0
210
0.0
220
0.0
230
1.0
  0
LINE
  5
5F
100
AcDbEntity
  8
0
370
    35
390
0
 62
     7
 48
0.113135
100
AcDbLine
 10
24.216789
 20
112.278458
 30
0.0
 11
27.416725
 21
115.478394
 31
0.0
210
0.0
220
0.0
230
1.0
  0
LINE
  5
60
100
AcDbEntity
  8
0
370
    35
390
0
 62
     7
 48
0.113135
100
AcDbLine
 10
24.215866
 20
113.27108
 30
0.0
 11
27.415802
 21
116.471016
 31
0.0
210
0.0
220
0.0
230
1.0
  0
LINE
  5
61
100
AcDbEntity
  8
0
370
    35
390
0
 62
     7
 48
0.088037
100
AcDbLine
 10
24.216049
 20
114.259308
 30
0.0
 11
26.706116
 21
116.749374
 31
0.0
210
0.0
220
0.0
230
1.0
  0
LINE
  5
62
100
AcDbEntity
  8
0
370
    35
390
0
 62
     7
 48
0.053076
100
AcDbLine
 10
24.216393
 20
115.24781
 30
0.0
 11
25.717613
 21
116.749031
 31
0.0
210
0.0
220
0.0
230
1.0
  0
LINE
  5
63
100
AcDbEntity
  8
0
370
    35
390
0
 62
     7
 48
0.018018
100
AcDbLine
 10
24.216217
 20
116.239937
 30
0.0
 11
24.72583
 21
116.74955
 31
0.0
210
0.0
220
0.0
230
1.0
  0
LINE
  5
64
100
AcDbEntity
  8
0
370
    35
390
0
 62
     7
 48
0.02688
100
AcDbLine
 10
26.655182
 20
116.750931
 30
0.0
 11
27.415466
 21
115.990654
 31
0.0
210
0.0
220
0.0
230
1.0
  0
LINE
  5
65
100
AcDbEntity
  8
0
370
    35
390
0
 62
     7
 48
0.080029
100
AcDbLine
 10
24.215103
 20
116.750496
 30
0.0
 11
27.416275
 21
116.750496
 31
0.0
210
0.0
220
0.0
230
1.0
  0
LINE
  5
66
100
AcDbEntity
  8
0
370
    35
390
0
 62
     7
 48
0.061865
100
AcDbLine
 10
25.665306
 20
116.748512
 30
0.0
 11
27.415115
 21
114.998703
 31
0.0
210
0.0
220
0.0
230
1.0
  0
LINE
  5
67
100
AcDbEntity
  8
0
370
    35
390
0
 62
     7
 48
0.096893
100
AcDbLine
 10
24.675514
 20
116.750214
 30
0.0
 11
27.416061
 21
114.009659
 31
0.0
210
0.0
220
0.0
230
1.0
  0
LINE
  5
68
100
AcDbEntity
  8
0
370
    35
390
0
 62
     7
 48
0.113135
100
AcDbLine
 10
24.215012
 20
116.218704
 30
0.0
 11
27.414948
 21
113.018768
 31
0.0
210
0.0
220
0.0
230
1.0
  0
LINE
  5
69
100
AcDbEntity
  8
0
370
    35
390
0
 62
     7
 48
0.113135
100
AcDbLine
 10
24.214668
 20
115.228477
 30
0.0
 11
27.414604
 21
112.028542
 31
0.0
210
0.0
220
0.0
230
1.0
  0
LINE
  5
6A
100
AcDbEntity
  8
0
370
    35
390
0
 62
     7
 48
0.088037
100
AcDbLine
 10
24.214493
 20
114.239113
 30
0.0
 11
26.704559
 21
111.749046
 31
0.0
210
0.0
220
0.0
230
1.0
  0
LINE
  5
6B
100
AcDbEntity
  8
0
370
    35
390
0
 62
     7
 48
0.053027
100
AcDbLine
 10
24.215439
 20
113.247658
 30
0.0
 11
25.715286
 21
111.747826
 31
0.0
210
0.0
220
0.0
230
1.0
  0
LINE
  5
6C
100
AcDbEntity
  8
0
370
    35
390
0
 62
     7
 48
0.018018
100
AcDbLine
 10
24.216652
 20
112.259781
 30
0.0
 11
24.726265
 21
111.750168
 31
0.0
210
0.0
220
0.0
230
1.0
  0
LINE
  5
6D
100
AcDbEntity
  8
0
370
    35
390
0
 62
     7
 48
0.125
100
AcDbLine
 10
27.416275
 20
116.750008
 30
0.0
 11
27.416275
 21
111.750008
 31
0.0
210
0.0
220
0.0
230
1.0
  0
LINE
  5
6E
100
AcDbEntity
  8
0
370
    35
390
0
 62
     7
 48
0.010645
100
AcDbLine
 10
27.715759
 20
112.05043
 30
0.0
 11
27.41468
 21
111.749359
 31
0.0
210
0.0
220
0.0
230
1.0
  0
LINE
  5
6F
100
AcDbEntity
  8
0
370
    35
390
0
 62
     7
 48
0.010596
100
AcDbLine
 10
27.414948
 20
116.749374
 30
0.0
 11
27.714638
 21
116.449684
 31
0.0
210
0.0
220
0.0
230
1.0
  0
LINE
  5
70
100
AcDbEntity
  8
0
370
    35
390
0
 62
     7
 48
0.043311
100
AcDbLine
 10
22.715797
 20
115.884583
 30
0.0
 11
24.216118
 21
116.750793
 31
0.0
210
0.0
220
0.0
230
1.0
  0
LINE
  5
71
100
AcDbEntity
  8
0
370
    35
390
0
 62
     7
100
AcDbLine
 10
71.715126
 20
99.750008
 30
0.0
 11
71.715126
 21
132.750015
 31
0.0
210
0.0
220
0.0
230
1.0
  0
LINE
  5
72
100
AcDbEntity
  8
0
370
    35
390
0
 62
     7
 48
0.039645
100
AcDbLine
 10
71.715126
 20
99.750008
 30
0.0
 11
70.129311
 21
99.750008
 31
0.0
210
0.0
220
0.0
230
1.0
  0
LINE
  5
73
100
AcDbEntity
  8
0
370
    35
390
0
 62
     7
 48
0.204999
100
AcDbLine
 10
137.41507
 20
110.150032
 30
0.0
 11
137.41507
 21
118.349983
 31
0.0
210
0.0
220
0.0
230
1.0
  0
LINE
  5
74
100
AcDbEntity
  8
0
370
    35
390
0
 62
     7
 48
0.229999
100
AcDbLine
 10
136.91507
 20
109.650032
 30
0.0
 11
136.91507
 21
118.849983
 31
0.0
210
0.0
220
0.0
230
1.0
  0
LINE
  5
75
100
AcDbEntity
  8
0
370
    35
390
0
 62
     7
 48
0.4875
100
AcDbLine
 10
136.91507
 20
117.949959
 30
0.0
 11
117.415077
 21
117.949959
 31
0.0
210
0.0
220
0.0
230
1.0
  0
LINE
  5
76
100
AcDbEntity
  8
0
370
    35
390
0
 62
     7
 48
0.4875
100
AcDbLine
 10
136.91507
 20
117.14991
 30
0.0
 11
117.415077
 21
117.14991
 31
0.0
210
0.0
220
0.0
230
1.0
  0
LINE
  5
77
100
AcDbEntity
  8
0
370
    35
390
0
 62
     7
 48
0.4875
100
AcDbLine
 10
136.91507
 20
116.350105
 30
0.0
 11
117.415077
 21
116.350105
 31
0.0
210
0.0
220
0.0
230
1.0
  0
LINE
  5
78
100
AcDbEntity
  8
0
370
    35
390
0
 62
     7
 48
0.4875
100
AcDbLine
 10
136.91507
 20
115.550056
 30
0.0
 11
117.415077
 21
115.550056
 31
0.0
210
0.0
220
0.0
230
1.0
  0
LINE
  5
79
100
AcDbEntity
  8
0
370
    35
390
0
 62
     7
 48
0.4875
100
AcDbLine
 10
136.91507
 20
114.750008
 30
0.0
 11
117.415077
 21
114.750008
 31
0.0
210
0.0
220
0.0
230
1.0
  0
LINE
  5
7A
100
AcDbEntity
  8
0
370
    35
390
0
 62
     7
 48
0.4875
100
AcDbLine
 10
136.91507
 20
113.949959
 30
0.0
 11
117.415077
 21
113.949959
 31
0.0
210
0.0
220
0.0
230
1.0
  0
LINE
  5
7B
100
AcDbEntity
  8
0
370
    35
390
0
 62
     7
 48
0.4875
100
AcDbLine
 10
136.91507
 20
113.14991
 30
0.0
 11
117.415077
 21
113.14991
 31
0.0
210
0.0
220
0.0
230
1.0
  0
LINE
  5
7C
100
AcDbEntity
  8
0
370
    35
390
0
 62
     7
 48
0.4875
100
AcDbLine
 10
136.91507
 20
112.350105
 30
0.0
 11
117.415077
 21
112.350105
 31
0.0
210
0.0
220
0.0
230
1.0
  0
LINE
  5
7D
100
AcDbEntity
  8
0
370
    35
390
0
 62
     7
 48
0.4875
100
AcDbLine
 10
136.91507
 20
111.550056
 30
0.0
 11
117.415077
 21
111.550056
 31
0.0
210
0.0
220
0.0
230
1.0
  0
LINE
  5
7E
100
AcDbEntity
  8
0
370
    35
390
0
 62
     7
 48
0.4875
100
AcDbLine
 10
136.91507
 20
110.750008
 30
0.0
 11
117.415077
 21
110.750008
 31
0.0
210
0.0
220
0.0
230
1.0
  0
LINE
  5
7F
100
AcDbEntity
  8
0
370
    35
390
0
 62
     7
100
AcDbLine
 10
115.715126
 20
132.549866
 30
0.0
 11
71.715126
 21
132.550064
 31
0.0
210
0.0
220
0.0
230
1.0
  0
LINE
  5
80
100
AcDbEntity
  8
0
370
    35
390
0
 62
     7
100
AcDbLine
 10
115.715126
 20
99.94986
 30
0.0
 11
71.715126
 21
99.949959
 31
0.0
210
0.0
220
0.0
230
1.0
  0
LINE
  5
81
100
AcDbEntity
  8
0
370
    35
390
0
 62
     7
 48
0.086116
100
AcDbLine
 10
81.109779
 20
99.649811
 30
0.0
 11
77.665131
 21
99.649811
 31
0.0
210
0.0
220
0.0
230
1.0
  0
LINE
  5
82
100
AcDbEntity
  8
0
370
    35
390
0
 62
     7
 48
0.0125
100
AcDbLine
 10
118.215126
 20
128.749908
 30
0.0
 11
118.215126
 21
129.249908
 31
0.0
210
0.0
220
0.0
230
1.0
  0
LINE
  5
83
100
AcDbEntity
  8
0
370
    35
390
0
 62
     7
 48
0.025
100
AcDbLine
 10
119.715126
 20
119.750008
 30
0.0
 11
118.715126
 21
119.750008
 31
0.0
210
0.0
220
0.0
230
1.0
  0
LINE
  5
84
100
AcDbEntity
  8
0
370
    35
390
0
 62
     7
 48
0.025
100
AcDbLine
 10
119.715126
 20
129.749908
 30
0.0
 11
118.715126
 21
129.749908
 31
0.0
210
0.0
220
0.0
230
1.0
  0
LINE
  5
85
100
AcDbEntity
  8
0
370
    35
390
0
 62
     7
 48
0.156067
100
AcDbLine
 10
69.422844
 20
132.457336
 30
0.0
 11
65.008675
 21
128.04303
 31
0.0
210
0.0
220
0.0
230
1.0
  0
LINE
  5
86
100
AcDbEntity
  8
0
370
    35
390
0
 62
     7
 48
0.15607
100
AcDbLine
 10
69.422226
 20
100.042877
 30
0.0
 11
65.007713
 21
104.457031
 31
0.0
210
0.0
220
0.0
230
1.0
  0
LINE
  5
87
100
AcDbEntity
  8
0
370
    35
390
0
 62
     7
 48
0.224997
100
AcDbLine
 10
120.215126
 20
120.250038
 30
0.0
 11
120.215126
 21
129.249908
 31
0.0
210
0.0
220
0.0
230
1.0
  0
LINE
  5
88
100
AcDbEntity
  8
0
370
    35
390
0
 62
     7
 48
0.224997
100
AcDbLine
 10
118.215126
 20
120.250038
 30
0.0
 11
118.215126
 21
129.249908
 31
0.0
210
0.0
220
0.0
230
1.0
  0
LINE
  5
89
100
AcDbEntity
  8
0
370
    35
390
0
 62
     7
 48
0.025
100
AcDbLine
 10
121.215126
 20
120.750038
 30
0.0
 11
120.215126
 21
120.750038
 31
0.0
210
0.0
220
0.0
230
1.0
  0
LINE
  5
8A
100
AcDbEntity
  8
0
370
    35
390
0
 62
     7
 48
0.025
100
AcDbLine
 10
121.215126
 20
128.749908
 30
0.0
 11
120.215126
 21
128.749908
 31
0.0
210
0.0
220
0.0
230
1.0
  0
LINE
  5
8B
100
AcDbEntity
  8
0
370
    35
390
0
 62
     7
 48
0.199997
100
AcDbLine
 10
128.715057
 20
120.750038
 30
0.0
 11
128.715057
 21
128.749908
 31
0.0
210
0.0
220
0.0
230
1.0
  0
LINE
  5
8C
100
AcDbEntity
  8
0
370
    35
390
0
 62
     7
 48
0.249998
100
AcDbLine
 10
121.215126
 20
119.750008
 30
0.0
 11
121.215126
 21
129.749908
 31
0.0
210
0.0
220
0.0
230
1.0
  0
LINE
  5
8D
100
AcDbEntity
  8
0
370
    35
390
0
 62
     7
 48
0.1625
100
AcDbLine
 10
127.715126
 20
119.750008
 30
0.0
 11
121.215126
 21
119.750008
 31
0.0
210
0.0
220
0.0
230
1.0
  0
LINE
  5
8E
100
AcDbEntity
  8
0
370
    35
390
0
 62
     7
 48
0.1625
100
AcDbLine
 10
127.715126
 20
129.749908
 30
0.0
 11
121.215126
 21
129.749908
 31
0.0
210
0.0
220
0.0
230
1.0
  0
LINE
  5
8F
100
AcDbEntity
  8
0
370
    35
390
0
 62
     7
 48
0.045069
100
AcDbLine
 10
130.215759
 20
122.500275
 30
0.0
 11
128.71579
 21
121.50029
 31
0.0
210
0.0
220
0.0
230
1.0
  0
LINE
  5
90
100
AcDbEntity
  8
0
370
    35
390
0
 62
     7
 48
0.045068
100
AcDbLine
 10
130.215515
 20
127.00032
 30
0.0
 11
128.715576
 21
128.000305
 31
0.0
210
0.0
220
0.0
230
1.0
  0
LINE
  5
91
100
AcDbEntity
  8
0
370
    35
390
0
 62
     7
 48
0.112522
100
AcDbLine
 10
130.215057
 20
122.500031
 30
0.0
 11
130.215057
 21
127.000916
 31
0.0
210
0.0
220
0.0
230
1.0
  0
LINE
  5
92
100
AcDbEntity
  8
0
370
    35
390
0
 62
     7
100
AcDbLine
 10
72.515175
 20
99.950157
 30
0.0
 11
72.515175
 21
132.550064
 31
0.0
210
0.0
220
0.0
230
1.0
  0
LINE
  5
93
100
AcDbEntity
  8
0
370
    35
390
0
 62
     7
 48
0.075
100
AcDbLine
 10
78.215126
 20
99.94986
 30
0.0
 11
81.215126
 21
99.94986
 31
0.0
210
0.0
220
0.0
230
1.0
  0
LINE
  5
94
100
AcDbEntity
  8
0
370
    35
390
0
 62
     7
 48
0.08875
100
AcDbLine
 10
81.765129
 20
99.649811
 30
0.0
 11
78.215126
 21
99.649811
 31
0.0
210
0.0
220
0.0
230
1.0
  0
LINE
  5
95
100
AcDbEntity
  8
0
370
    35
390
0
  6
DASHED
 62
     7
 48
0.007501
100
AcDbLine
 10
80.515175
 20
99.649811
 30
0.0
 11
80.515175
 21
99.94986
 31
0.0
210
0.0
220
0.0
230
1.0
  0
LINE
  5
96
100
AcDbEntity
  8
0
370
    35
390
0
  6
DASHED
 62
     7
 48
0.007501
100
AcDbLine
 10
78.915199
 20
99.649811
 30
0.0
 11
78.915199
 21
99.94986
 31
0.0
210
0.0
220
0.0
230
1.0
  0
LINE
  5
97
100
AcDbEntity
  8
0
370
    35
390
0
 62
     7
 48
0.08875
100
AcDbLine
 10
78.215126
 20
132.849915
 30
0.0
 11
81.765129
 21
132.849915
 31
0.0
210
0.0
220
0.0
230
1.0
  0
LINE
  5
98
100
AcDbEntity
  8
0
370
    35
390
0
 62
     7
 48
0.075
100
AcDbLine
 10
81.215126
 20
132.549866
 30
0.0
 11
78.215126
 21
132.549866
 31
0.0
210
0.0
220
0.0
230
1.0
  0
LINE
  5
99
100
AcDbEntity
  8
0
370
    35
390
0
  6
DASHED
 62
     7
 48
0.007501
100
AcDbLine
 10
80.515175
 20
132.549866
 30
0.0
 11
80.515175
 21
132.849915
 31
0.0
210
0.0
220
0.0
230
1.0
  0
LINE
  5
9A
100
AcDbEntity
  8
0
370
    35
390
0
  6
DASHED
 62
     7
 48
0.007501
100
AcDbLine
 10
78.915199
 20
132.549866
 30
0.0
 11
78.915199
 21
132.849915
 31
0.0
210
0.0
220
0.0
230
1.0
  0
LINE
  5
9B
100
AcDbEntity
  8
0
370
    35
390
0
 62
     7
 48
0.4875
100
AcDbLine
 10
136.91507
 20
71.849991
 30
0.0
 11
117.415077
 21
71.849991
 31
0.0
210
0.0
220
0.0
230
1.0
  0
LINE
  5
9C
100
AcDbEntity
  8
0
370
    35
390
0
 62
     7
 48
0.4875
100
AcDbLine
 10
136.91507
 20
62.649918
 30
0.0
 11
117.415077
 21
62.649918
 31
0.0
210
0.0
220
0.0
230
1.0
  0
LINE
  5
9D
100
AcDbEntity
  8
0
370
    35
390
0
 62
     7
 48
0.017682
100
AcDbLine
 10
136.916229
 20
62.650383
 30
0.0
 11
137.416321
 21
63.150528
 31
0.0
210
0.0
220
0.0
230
1.0
  0
LINE
  5
9E
100
AcDbEntity
  8
0
370
    35
390
0
 62
     7
 48
0.017676
100
AcDbLine
 10
137.414398
 20
71.34964
 30
0.0
 11
136.914459
 21
71.849586
 31
0.0
210
0.0
220
0.0
230
1.0
  0
LINE
  5
9F
100
AcDbEntity
  8
0
370
    35
390
0
 62
     7
 48
0.242502
100
AcDbLine
 10
117.415077
 20
62.149918
 30
0.0
 11
117.415077
 21
71.849991
 31
0.0
210
0.0
220
0.0
230
1.0
  0
LINE
  5
A0
100
AcDbEntity
  8
0
370
    35
390
0
 62
     7
100
AcDbLine
 10
117.415077
 20
101.649811
 30
0.0
 11
117.415077
 21
128.349991
 31
0.0
210
0.0
220
0.0
230
1.0
  0
LINE
  5
A1
100
AcDbEntity
  8
0
370
    35
390
0
 62
     7
 48
0.064999
100
AcDbLine
 10
117.415077
 20
128.250137
 30
0.0
 11
117.415077
 21
130.850113
 31
0.0
210
0.0
220
0.0
230
1.0
  0
LINE
  5
A2
100
AcDbEntity
  8
0
370
    35
390
0
 62
     7
 48
0.4875
100
AcDbLine
 10
136.91507
 20
109.650032
 30
0.0
 11
117.415077
 21
109.650032
 31
0.0
210
0.0
220
0.0
230
1.0
  0
LINE
  5
A3
100
AcDbEntity
  8
0
370
    35
390
0
 62
     7
 48
0.4875
100
AcDbLine
 10
136.91507
 20
118.849983
 30
0.0
 11
117.415077
 21
118.849983
 31
0.0
210
0.0
220
0.0
230
1.0
  0
LINE
  5
A4
100
AcDbEntity
  8
0
370
    35
390
0
 62
     7
 48
0.017675
100
AcDbLine
 10
137.414886
 20
110.149727
 30
0.0
 11
136.914978
 21
109.649765
 31
0.0
210
0.0
220
0.0
230
1.0
  0
LINE
  5
A5
100
AcDbEntity
  8
0
370
    35
390
0
 62
     7
 48
0.017682
100
AcDbLine
 10
137.414795
 20
118.349777
 30
0.0
 11
136.914673
 21
118.849899
 31
0.0
210
0.0
220
0.0
230
1.0
  0
LINE
  5
A6
100
AcDbEntity
  8
0
370
    35
390
0
 62
     7
 48
0.294992
100
AcDbLine
 10
72.515175
 20
72.149796
 30
0.0
 11
72.515175
 21
60.350113
 31
0.0
210
0.0
220
0.0
230
1.0
  0
LINE
  5
A7
100
AcDbEntity
  8
0
370
    35
390
0
 62
     7
 48
0.299999
100
AcDbLine
 10
71.715126
 20
72.249893
 30
0.0
 11
71.715126
 21
60.249916
 31
0.0
210
0.0
220
0.0
230
1.0
  0
LINE
  5
A8
100
AcDbEntity
  8
0
370
    35
390
0
 62
     7
 48
0.187497
100
AcDbLine
 10
52.290199
 20
70.999893
 30
0.0
 11
52.290199
 21
63.500015
 31
0.0
210
0.0
220
0.0
230
1.0
  0
LINE
  5
A9
100
AcDbEntity
  8
0
370
    35
390
0
 62
     7
 48
0.4875
100
AcDbLine
 10
136.91507
 20
70.949844
 30
0.0
 11
117.415077
 21
70.949844
 31
0.0
210
0.0
220
0.0
230
1.0
  0
LINE
  5
AA
100
AcDbEntity
  8
0
370
    35
390
0
 62
     7
 48
0.4875
100
AcDbLine
 10
136.91507
 20
70.149796
 30
0.0
 11
117.415077
 21
70.149796
 31
0.0
210
0.0
220
0.0
230
1.0
  0
LINE
  5
AB
100
AcDbEntity
  8
0
370
    35
390
0
 62
     7
 48
0.4875
100
AcDbLine
 10
136.91507
 20
69.349991
 30
0.0
 11
117.415077
 21
69.349991
 31
0.0
210
0.0
220
0.0
230
1.0
  0
LINE
  5
AC
100
AcDbEntity
  8
0
370
    35
390
0
 62
     7
 48
0.4875
100
AcDbLine
 10
136.91507
 20
64.549942
 30
0.0
 11
117.415077
 21
64.549942
 31
0.0
210
0.0
220
0.0
230
1.0
  0
LINE
  5
AD
100
AcDbEntity
  8
0
370
    35
390
0
 62
     7
 48
0.4875
100
AcDbLine
 10
136.91507
 20
63.749893
 30
0.0
 11
117.415077
 21
63.749893
 31
0.0
210
0.0
220
0.0
230
1.0
  0
LINE
  5
AE
100
AcDbEntity
  8
0
370
    35
390
0
 62
     7
 48
0.25
100
AcDbLine
 10
26.755531
 20
29.750137
 30
0.0
 11
26.755531
 21
39.750141
 31
0.0
210
0.0
220
0.0
230
1.0
  0
LINE
  5
AF
100
AcDbEntity
  8
0
370
    35
390
0
 62
     7
 48
0.487498
100
AcDbLine
 10
37.755531
 20
28.250137
 30
0.0
 11
57.25544
 21
28.250137
 31
0.0
210
0.0
220
0.0
230
1.0
  0
LINE
  5
B0
100
AcDbEntity
  8
0
370
    35
390
0
 62
     7
 48
0.487498
100
AcDbLine
 10
37.755531
 20
41.250141
 30
0.0
 11
57.25544
 21
41.250141
 31
0.0
210
0.0
220
0.0
230
1.0
  0
LINE
  5
B1
100
AcDbEntity
  8
0
370
    35
390
0
 62
     7
 48
0.294995
100
AcDbLine
 10
32.955482
 20
28.850235
 30
0.0
 11
32.955482
 21
40.650043
 31
0.0
210
0.0
220
0.0
230
1.0
  0
LINE
  5
B2
100
AcDbEntity
  8
0
370
    35
390
0
 62
     7
 48
0.325
100
AcDbLine
 10
37.755531
 20
28.250137
 30
0.0
 11
37.755531
 21
41.250141
 31
0.0
210
0.0
220
0.0
230
1.0
  0
LINE
  5
B3
100
AcDbEntity
  8
0
370
    35
390
0
 62
     7
 48
0.154999
100
AcDbLine
 10
26.755531
 20
29.750137
 30
0.0
 11
32.955482
 21
29.750137
 31
0.0
210
0.0
220
0.0
230
1.0
  0
LINE
  5
B4
100
AcDbEntity
  8
0
370
    35
390
0
 62
     7
 48
0.154999
100
AcDbLine
 10
26.755531
 20
39.750141
 30
0.0
 11
32.955482
 21
39.750141
 31
0.0
210
0.0
220
0.0
230
1.0
  0
LINE
  5
B5
100
AcDbEntity
  8
0
370
    35
390
0
 62
     7
 48
0.120001
100
AcDbLine
 10
32.955482
 20
28.850235
 30
0.0
 11
37.755531
 21
28.850235
 31
0.0
210
0.0
220
0.0
230
1.0
  0
LINE
  5
B6
100
AcDbEntity
  8
0
370
    35
390
0
 62
     7
 48
0.120001
100
AcDbLine
 10
32.955482
 20
40.650043
 30
0.0
 11
37.755531
 21
40.650043
 31
0.0
210
0.0
220
0.0
230
1.0
  0
LINE
  5
B7
100
AcDbEntity
  8
0
370
    35
390
0
 62
     7
 48
0.175
100
AcDbLine
 10
76.25547
 20
31.250137
 30
0.0
 11
76.25547
 21
38.250137
 31
0.0
210
0.0
220
0.0
230
1.0
  0
LINE
  5
B8
100
AcDbEntity
  8
0
370
    35
390
0
 62
     7
 48
0.128552
100
AcDbLine
 10
57.255585
 20
29.050056
 30
0.0
 11
62.255692
 21
30.250076
 31
0.0
210
0.0
220
0.0
230
1.0
  0
LINE
  5
B9
100
AcDbEntity
  8
0
370
    35
390
0
 62
     7
 48
0.128546
100
AcDbLine
 10
62.25573
 20
39.249935
 30
0.0
 11
57.255867
 21
40.449902
 31
0.0
210
0.0
220
0.0
230
1.0
  0
LINE
  5
BA
100
AcDbEntity
  8
0
370
    35
390
0
 62
     7
 48
0.350227
100
AcDbLine
 10
62.255791
 20
30.750076
 30
0.0
 11
76.255959
 21
31.250076
 31
0.0
210
0.0
220
0.0
230
1.0
  0
LINE
  5
BB
100
AcDbEntity
  8
0
370
    35
390
0
 62
     7
 48
0.155005
100
AcDbLine
 10
60.555489
 20
31.65004
 30
0.0
 11
60.555489
 21
37.850235
 31
0.0
210
0.0
220
0.0
230
1.0
  0
LINE
  5
BC
100
AcDbEntity
  8
0
370
    35
390
0
 62
     7
 48
0.155005
100
AcDbLine
 10
58.955391
 20
31.65004
 30
0.0
 11
58.955391
 21
37.850235
 31
0.0
210
0.0
220
0.0
230
1.0
  0
LINE
  5
BD
100
AcDbEntity
  8
0
370
    35
390
0
 62
     7
 48
0.040002
100
AcDbLine
 10
58.955391
 20
31.65004
 30
0.0
 11
60.555489
 21
31.65004
 31
0.0
210
0.0
220
0.0
230
1.0
  0
LINE
  5
BE
100
AcDbEntity
  8
0
370
    35
390
0
 62
     7
 48
0.040002
100
AcDbLine
 10
58.955391
 20
37.850235
 30
0.0
 11
60.555489
 21
37.850235
 31
0.0
210
0.0
220
0.0
230
1.0
  0
LINE
  5
BF
100
AcDbEntity
  8
0
370
    35
390
0
 62
     7
 48
0.042499
100
AcDbLine
 10
57.25544
 20
33.550186
 30
0.0
 11
58.955391
 21
33.550186
 31
0.0
210
0.0
220
0.0
230
1.0
  0
LINE
  5
C0
100
AcDbEntity
  8
0
370
    35
390
0
 62
     7
 48
0.042499
100
AcDbLine
 10
57.25544
 20
35.950089
 30
0.0
 11
58.955391
 21
35.950089
 31
0.0
210
0.0
220
0.0
230
1.0
  0
LINE
  5
C1
100
AcDbEntity
  8
0
370
    35
390
0
 62
     7
 48
0.175
100
AcDbLine
 10
54.155342
 20
31.250137
 30
0.0
 11
54.155342
 21
38.250137
 31
0.0
210
0.0
220
0.0
230
1.0
  0
LINE
  5
C2
100
AcDbEntity
  8
0
370
    35
390
0
 62
     7
 48
0.175
100
AcDbLine
 10
53.655342
 20
31.250137
 30
0.0
 11
53.655342
 21
38.250137
 31
0.0
210
0.0
220
0.0
230
1.0
  0
LINE
  5
C3
100
AcDbEntity
  8
0
370
    35
390
0
 62
     7
 48
0.175
100
AcDbLine
 10
51.955482
 20
31.250137
 30
0.0
 11
51.955482
 21
38.250137
 31
0.0
210
0.0
220
0.0
230
1.0
  0
LINE
  5
C4
100
AcDbEntity
  8
0
370
    35
390
0
 62
     7
 48
0.175
100
AcDbLine
 10
51.455482
 20
31.250137
 30
0.0
 11
51.455482
 21
38.250137
 31
0.0
210
0.0
220
0.0
230
1.0
  0
LINE
  5
C5
100
AcDbEntity
  8
0
370
    35
390
0
 62
     7
 48
0.175
100
AcDbLine
 10
49.755531
 20
31.250137
 30
0.0
 11
49.755531
 21
38.250137
 31
0.0
210
0.0
220
0.0
230
1.0
  0
LINE
  5
C6
100
AcDbEntity
  8
0
370
    35
390
0
 62
     7
 48
0.175
100
AcDbLine
 10
49.255531
 20
31.250137
 30
0.0
 11
49.255531
 21
38.250137
 31
0.0
210
0.0
220
0.0
230
1.0
  0
LINE
  5
C7
100
AcDbEntity
  8
0
370
    35
390
0
 62
     7
 48
0.175
100
AcDbLine
 10
47.55558
 20
31.250137
 30
0.0
 11
47.55558
 21
38.250137
 31
0.0
210
0.0
220
0.0
230
1.0
  0
LINE
  5
C8
100
AcDbEntity
  8
0
370
    35
390
0
 62
     7
 48
0.175
100
AcDbLine
 10
40.55558
 20
31.250137
 30
0.0
 11
40.55558
 21
38.250137
 31
0.0
210
0.0
220
0.0
230
1.0
  0
LINE
  5
C9
100
AcDbEntity
  8
0
370
    35
390
0
 62
     7
 48
0.175
100
AcDbLine
 10
40.55558
 20
31.250137
 30
0.0
 11
47.55558
 21
31.250137
 31
0.0
210
0.0
220
0.0
230
1.0
  0
LINE
  5
CA
100
AcDbEntity
  8
0
370
    35
390
0
 62
     7
 48
0.175
100
AcDbLine
 10
40.55558
 20
38.250137
 30
0.0
 11
47.55558
 21
38.250137
 31
0.0
210
0.0
220
0.0
230
1.0
  0
LINE
  5
CB
100
AcDbEntity
  8
0
370
    35
390
0
 62
     7
 48
0.0125
100
AcDbLine
 10
49.255531
 20
31.250137
 30
0.0
 11
49.755531
 21
31.250137
 31
0.0
210
0.0
220
0.0
230
1.0
  0
LINE
  5
CC
100
AcDbEntity
  8
0
370
    35
390
0
 62
     7
 48
0.0125
100
AcDbLine
 10
51.455482
 20
31.250137
 30
0.0
 11
51.955482
 21
31.250137
 31
0.0
210
0.0
220
0.0
230
1.0
  0
LINE
  5
CD
100
AcDbEntity
  8
0
370
    35
390
0
 62
     7
 48
0.011877
100
AcDbLine
 10
53.655342
 20
31.250137
 30
0.0
 11
54.13044
 21
31.250137
 31
0.0
210
0.0
220
0.0
230
1.0
  0
LINE
  5
CE
100
AcDbEntity
  8
0
370
    35
390
0
 62
     7
 48
0.0125
100
AcDbLine
 10
49.255531
 20
38.250137
 30
0.0
 11
49.755531
 21
38.250137
 31
0.0
210
0.0
220
0.0
230
1.0
  0
LINE
  5
CF
100
AcDbEntity
  8
0
370
    35
390
0
 62
     7
 48
0.0125
100
AcDbLine
 10
51.455482
 20
38.250137
 30
0.0
 11
51.955482
 21
38.250137
 31
0.0
210
0.0
220
0.0
230
1.0
  0
LINE
  5
D0
100
AcDbEntity
  8
0
370
    35
390
0
 62
     7
 48
0.0125
100
AcDbLine
 10
53.655342
 20
38.250137
 30
0.0
 11
54.155342
 21
38.250137
 31
0.0
210
0.0
220
0.0
230
1.0
  0
LINE
  5
D1
100
AcDbEntity
  8
0
370
    35
390
0
 62
     7
 48
0.05
100
AcDbLine
 10
46.55558
 20
33.750137
 30
0.0
 11
46.55558
 21
35.750137
 31
0.0
210
0.0
220
0.0
230
1.0
  0
LINE
  5
D2
100
AcDbEntity
  8
0
370
    35
390
0
 62
     7
 48
0.070709
100
AcDbLine
 10
43.555611
 20
32.750381
 30
0.0
 11
41.555656
 21
34.750343
 31
0.0
210
0.0
220
0.0
230
1.0
  0
LINE
  5
D3
100
AcDbEntity
  8
0
370
    35
390
0
 62
     7
 48
0.070709
100
AcDbLine
 10
43.555611
 20
36.750298
 30
0.0
 11
41.555656
 21
34.750343
 31
0.0
210
0.0
220
0.0
230
1.0
  0
LINE
  5
D4
100
AcDbEntity
  8
0
370
    35
390
0
 62
     7
 48
0.025
100
AcDbLine
 10
43.55558
 20
32.750137
 30
0.0
 11
43.55558
 21
33.750137
 31
0.0
210
0.0
220
0.0
230
1.0
  0
LINE
  5
D5
100
AcDbEntity
  8
0
370
    35
390
0
 62
     7
 48
0.075
100
AcDbLine
 10
43.55558
 20
35.750137
 30
0.0
 11
46.55558
 21
35.750137
 31
0.0
210
0.0
220
0.0
230
1.0
  0
LINE
  5
D6
100
AcDbEntity
  8
0
370
    35
390
0
 62
     7
 48
0.075
100
AcDbLine
 10
43.55558
 20
33.750137
 30
0.0
 11
46.55558
 21
33.750137
 31
0.0
210
0.0
220
0.0
230
1.0
  0
LINE
  5
D7
100
AcDbEntity
  8
0
370
    35
390
0
 62
     7
 48
0.025
100
AcDbLine
 10
43.55558
 20
35.750137
 30
0.0
 11
43.55558
 21
36.750137
 31
0.0
210
0.0
220
0.0
230
1.0
  0
LINE
  5
D8
100
AcDbEntity
  8
0
370
    35
390
0
 62
     7
 48
0.325
100
AcDbLine
 10
57.25544
 20
28.250137
 30
0.0
 11
57.25544
 21
41.250141
 31
0.0
210
0.0
220
0.0
230
1.0
  0
LINE
  5
D9
100
AcDbEntity
  8
0
370
    35
390
0
 62
     7
 48
0.071985
100
AcDbLine
 10
73.75576
 20
37.58532
 30
0.0
 11
74.255768
 21
34.749672
 31
0.0
210
0.0
220
0.0
230
1.0
  0
LINE
  5
DA
100
AcDbEntity
  8
0
370
    35
390
0
 62
     7
 48
0.017938
100
AcDbLine
 10
72.615845
 20
38.379913
 30
0.0
 11
72.74044
 21
37.673286
 31
0.0
210
0.0
220
0.0
230
1.0
  0
LINE
  5
DB
100
AcDbEntity
  8
0
370
    35
390
0
 62
     7
 48
0.071985
100
AcDbLine
 10
71.755836
 20
37.585701
 30
0.0
 11
72.255836
 21
34.750046
 31
0.0
210
0.0
220
0.0
230
1.0
  0
LINE
  5
DC
100
AcDbEntity
  8
0
370
    35
390
0
 62
     7
 48
0.027182
100
AcDbLine
 10
70.566978
 20
38.656403
 30
0.0
 11
70.755791
 21
37.585625
 31
0.0
210
0.0
220
0.0
230
1.0
  0
LINE
  5
DD
100
AcDbEntity
  8
0
370
    35
390
0
 62
     7
 48
0.02171
100
AcDbLine
 10
70.755859
 20
31.914146
 30
0.0
 11
70.906654
 21
31.058929
 31
0.0
210
0.0
220
0.0
230
1.0
  0
LINE
  5
DE
100
AcDbEntity
  8
0
370
    35
390
0
 62
     7
 48
0.030845
100
AcDbLine
 10
68.541695
 20
38.801086
 30
0.0
 11
68.755943
 21
37.586021
 31
0.0
210
0.0
220
0.0
230
1.0
  0
LINE
  5
DF
100
AcDbEntity
  8
0
370
    35
390
0
 62
     7
 48
0.023517
100
AcDbLine
 10
68.755836
 20
31.914505
 30
0.0
 11
68.919182
 21
30.988129
 31
0.0
210
0.0
220
0.0
230
1.0
  0
LINE
  5
E0
100
AcDbEntity
  8
0
370
    35
390
0
 62
     7
 48
0.034528
100
AcDbLine
 10
66.515984
 20
38.945751
 30
0.0
 11
66.755814
 21
37.585617
 31
0.0
210
0.0
220
0.0
230
1.0
  0
LINE
  5
E1
100
AcDbEntity
  8
0
370
    35
390
0
 62
     7
 48
0.025317
100
AcDbLine
 10
66.755753
 20
31.91436
 30
0.0
 11
66.931602
 21
30.917053
 31
0.0
210
0.0
220
0.0
230
1.0
  0
LINE
  5
E2
100
AcDbEntity
  8
0
370
    35
390
0
 62
     7
 48
0.038211
100
AcDbLine
 10
64.490356
 20
39.090435
 30
0.0
 11
64.755768
 21
37.585228
 31
0.0
210
0.0
220
0.0
230
1.0
  0
LINE
  5
E3
100
AcDbEntity
  8
0
370
    35
390
0
 62
     7
 48
0.027127
100
AcDbLine
 10
64.755844
 20
31.914619
 30
0.0
 11
64.944267
 21
30.846024
 31
0.0
210
0.0
220
0.0
230
1.0
  0
LINE
  5
E4
100
AcDbEntity
  8
0
370
    35
390
0
 62
     7
 48
0.02735
100
AcDbLine
 10
62.552383
 20
38.739441
 30
0.0
 11
62.742355
 21
37.662064
 31
0.0
210
0.0
220
0.0
230
1.0
  0
LINE
  5
E5
100
AcDbEntity
  8
0
370
    35
390
0
 62
     7
 48
0.073596
100
AcDbLine
 10
64.751328
 20
37.561623
 30
0.0
 11
64.240135
 21
34.662506
 31
0.0
210
0.0
220
0.0
230
1.0
  0
LINE
  5
E6
100
AcDbEntity
  8
0
370
    35
390
0
 62
     7
 48
0.035462
100
AcDbLine
 10
66.001923
 20
38.982517
 30
0.0
 11
65.755608
 21
37.585594
 31
0.0
210
0.0
220
0.0
230
1.0
  0
LINE
  5
E7
100
AcDbEntity
  8
0
370
    35
390
0
 62
     7
 48
0.034085
100
AcDbLine
 10
67.976913
 20
38.841446
 30
0.0
 11
67.740166
 21
37.498756
 31
0.0
210
0.0
220
0.0
230
1.0
  0
LINE
  5
E8
100
AcDbEntity
  8
0
370
    35
390
0
 62
     7
 48
0.028299
100
AcDbLine
 10
69.952148
 20
38.700363
 30
0.0
 11
69.755585
 21
37.585587
 31
0.0
210
0.0
220
0.0
230
1.0
  0
LINE
  5
E9
100
AcDbEntity
  8
0
370
    35
390
0
 62
     7
 48
0.020813
100
AcDbLine
 10
71.900162
 20
38.405579
 30
0.0
 11
71.755592
 21
37.585701
 31
0.0
210
0.0
220
0.0
230
1.0
  0
LINE
  5
EA
100
AcDbEntity
  8
0
370
    35
390
0
 62
     7
 48
0.021075
100
AcDbLine
 10
71.755638
 20
31.91433
 30
0.0
 11
71.609245
 21
31.084122
 31
0.0
210
0.0
220
0.0
230
1.0
  0
LINE
  5
EB
100
AcDbEntity
  8
0
370
    35
390
0
 62
     7
 48
0.019342
100
AcDbLine
 10
73.887741
 20
38.334503
 30
0.0
 11
73.753395
 21
37.572578
 31
0.0
210
0.0
220
0.0
230
1.0
  0
LINE
  5
EC
100
AcDbEntity
  8
0
370
    35
390
0
 62
     7
 48
0.073926
100
AcDbLine
 10
62.742149
 20
37.662041
 30
0.0
 11
62.228661
 21
34.749939
 31
0.0
210
0.0
220
0.0
230
1.0
  0
LINE
  5
ED
100
AcDbEntity
  8
0
370
    35
390
0
 62
     7
 48
0.071985
100
AcDbLine
 10
75.755806
 20
37.585709
 30
0.0
 11
76.255806
 21
34.750053
 31
0.0
210
0.0
220
0.0
230
1.0
  0
LINE
  5
EE
100
AcDbEntity
  8
0
370
    35
390
0
 62
     7
 48
0.017523
100
AcDbLine
 10
75.875366
 20
38.263672
 30
0.0
 11
75.753654
 21
37.573387
 31
0.0
210
0.0
220
0.0
230
1.0
  0
LINE
  5
EF
100
AcDbEntity
  8
0
370
    35
390
0
 62
     7
 48
0.029392
100
AcDbLine
 10
62.759148
 20
31.933174
 30
0.0
 11
62.963303
 21
30.775375
 31
0.0
210
0.0
220
0.0
230
1.0
  0
LINE
  5
F0
100
AcDbEntity
  8
0
370
    35
390
0
 62
     7
 48
0.070273
100
AcDbLine
 10
75.267677
 20
34.682419
 30
0.0
 11
75.755791
 21
31.914215
 31
0.0
210
0.0
220
0.0
230
1.0
  0
LINE
  5
F1
100
AcDbEntity
  8
0
370
    35
390
0
 62
     7
 48
0.018103
100
AcDbLine
 10
74.755745
 20
31.914139
 30
0.0
 11
74.881493
 21
31.201019
 31
0.0
210
0.0
220
0.0
230
1.0
  0
LINE
  5
F2
100
AcDbEntity
  8
0
370
    35
390
0
 62
     7
 48
0.019263
100
AcDbLine
 10
73.755806
 20
31.914665
 30
0.0
 11
73.622009
 21
31.155861
 31
0.0
210
0.0
220
0.0
230
1.0
  0
LINE
  5
F3
100
AcDbEntity
  8
0
370
    35
390
0
 62
     7
 48
0.022913
100
AcDbLine
 10
69.755714
 20
31.914696
 30
0.0
 11
69.596565
 21
31.012115
 31
0.0
210
0.0
220
0.0
230
1.0
  0
LINE
  5
F4
100
AcDbEntity
  8
0
370
    35
390
0
 62
     7
 48
0.024725
100
AcDbLine
 10
67.755539
 20
31.91436
 30
0.0
 11
67.583801
 21
30.940369
 31
0.0
210
0.0
220
0.0
230
1.0
  0
LINE
  5
F5
100
AcDbEntity
  8
0
370
    35
390
0
 62
     7
 48
0.026538
100
AcDbLine
 10
65.755371
 20
31.914024
 30
0.0
 11
65.571037
 21
30.868629
 31
0.0
210
0.0
220
0.0
230
1.0
  0
LINE
  5
F6
100
AcDbEntity
  8
0
370
    35
390
0
 62
     7
 48
0.028381
100
AcDbLine
 10
63.755608
 20
31.914612
 30
0.0
 11
63.558472
 21
30.7966
 31
0.0
210
0.0
220
0.0
230
1.0
  0
LINE
  5
F7
100
AcDbEntity
  8
0
370
    35
390
0
 62
     7
 48
0.015491
100
AcDbLine
 10
74.659569
 20
38.306938
 30
0.0
 11
74.767166
 21
37.696724
 31
0.0
210
0.0
220
0.0
230
1.0
  0
LINE
  5
F8
100
AcDbEntity
  8
0
370
    35
390
0
 62
     7
 48
0.073798
100
AcDbLine
 10
72.73748
 20
37.657005
 30
0.0
 11
72.224892
 21
34.749947
 31
0.0
210
0.0
220
0.0
230
1.0
  0
LINE
  5
F9
100
AcDbEntity
  8
0
370
    35
390
0
 62
     7
 48
0.071985
100
AcDbLine
 10
65.755768
 20
37.585541
 30
0.0
 11
66.255768
 21
34.749893
 31
0.0
210
0.0
220
0.0
230
1.0
  0
LINE
  5
FA
100
AcDbEntity
  8
0
370
    35
390
0
 62
     7
 48
0.071985
100
AcDbLine
 10
69.755882
 20
37.585327
 30
0.0
 11
70.255882
 21
34.74968
 31
0.0
210
0.0
220
0.0
230
1.0
  0
LINE
  5
FB
100
AcDbEntity
  8
0
370
    35
390
0
 62
     7
 48
0.071985
100
AcDbLine
 10
67.740341
 20
37.497925
 30
0.0
 11
68.240349
 21
34.66227
 31
0.0
210
0.0
220
0.0
230
1.0
  0
LINE
  5
FC
100
AcDbEntity
  8
0
370
    35
390
0
 62
     7
 48
0.071985
100
AcDbLine
 10
63.740372
 20
37.49791
 30
0.0
 11
64.240372
 21
34.662262
 31
0.0
210
0.0
220
0.0
230
1.0
  0
LINE
  5
FD
100
AcDbEntity
  8
0
370
    35
390
0
 62
     7
 48
0.071997
100
AcDbLine
 10
68.755623
 20
37.586143
 30
0.0
 11
68.255539
 21
34.750008
 31
0.0
210
0.0
220
0.0
230
1.0
  0
LINE
  5
FE
100
AcDbEntity
  8
0
370
    35
390
0
 62
     7
 48
0.071991
100
AcDbLine
 10
66.755455
 20
37.585808
 30
0.0
 11
66.255409
 21
34.749916
 31
0.0
210
0.0
220
0.0
230
1.0
  0
LINE
  5
FF
100
AcDbEntity
  8
0
370
    35
390
0
 62
     7
 48
0.072131
100
AcDbLine
 10
74.741432
 20
37.678741
 30
0.0
 11
74.24041
 21
34.837318
 31
0.0
210
0.0
220
0.0
230
1.0
  0
LINE
  5
100
100
AcDbEntity
  8
0
370
    35
390
0
 62
     7
 48
0.065521
100
AcDbLine
 10
70.740074
 20
37.673042
 30
0.0
 11
70.284966
 21
35.09201
 31
0.0
210
0.0
220
0.0
230
1.0
  0
LINE
  5
101
100
AcDbEntity
  8
0
370
    35
390
0
 62
     7
 48
0.041268
100
AcDbLine
 10
64.026932
 20
39.123592
 30
0.0
 11
63.740288
 21
37.49794
 31
0.0
210
0.0
220
0.0
230
1.0
  0
LINE
  5
102
100
AcDbEntity
  8
0
370
    35
390
0
 62
     7
 48
0.071985
100
AcDbLine
 10
63.255836
 20
34.749954
 30
0.0
 11
63.755836
 21
31.914307
 31
0.0
210
0.0
220
0.0
230
1.0
  0
LINE
  5
103
100
AcDbEntity
  8
0
370
    35
390
0
 62
     7
 48
0.071973
100
AcDbLine
 10
65.255569
 20
34.749702
 30
0.0
 11
64.755646
 21
31.914536
 31
0.0
210
0.0
220
0.0
230
1.0
  0
LINE
  5
104
100
AcDbEntity
  8
0
370
    35
390
0
 62
     7
 48
0.071982
100
AcDbLine
 10
65.255768
 20
34.74958
 30
0.0
 11
65.755753
 21
31.914047
 31
0.0
210
0.0
220
0.0
230
1.0
  0
LINE
  5
105
100
AcDbEntity
  8
0
370
    35
390
0
 62
     7
 48
0.071991
100
AcDbLine
 10
67.255501
 20
34.750084
 30
0.0
 11
66.755455
 21
31.914192
 31
0.0
210
0.0
220
0.0
230
1.0
  0
LINE
  5
106
100
AcDbEntity
  8
0
370
    35
390
0
 62
     7
 48
0.071982
100
AcDbLine
 10
67.255814
 20
34.749962
 30
0.0
 11
67.755798
 21
31.914436
 31
0.0
210
0.0
220
0.0
230
1.0
  0
LINE
  5
107
100
AcDbEntity
  8
0
370
    35
390
0
 62
     7
 48
0.071982
100
AcDbLine
 10
69.255951
 20
34.750366
 30
0.0
 11
69.755928
 21
31.914841
 31
0.0
210
0.0
220
0.0
230
1.0
  0
LINE
  5
108
100
AcDbEntity
  8
0
370
    35
390
0
 62
     7
 48
0.071991
100
AcDbLine
 10
71.255592
 20
34.750053
 30
0.0
 11
70.755547
 21
31.914162
 31
0.0
210
0.0
220
0.0
230
1.0
  0
LINE
  5
109
100
AcDbEntity
  8
0
370
    35
390
0
 62
     7
 48
0.071982
100
AcDbLine
 10
71.255791
 20
34.749977
 30
0.0
 11
71.755775
 21
31.914444
 31
0.0
210
0.0
220
0.0
230
1.0
  0
LINE
  5
10A
100
AcDbEntity
  8
0
370
    35
390
0
 62
     7
 48
0.071503
100
AcDbLine
 10
63.25576
 20
34.750053
 30
0.0
 11
62.759109
 21
31.933395
 31
0.0
210
0.0
220
0.0
230
1.0
  0
LINE
  5
10B
100
AcDbEntity
  8
0
370
    35
390
0
 62
     7
 48
0.071982
100
AcDbLine
 10
73.255882
 20
34.750122
 30
0.0
 11
73.755859
 21
31.914589
 31
0.0
210
0.0
220
0.0
230
1.0
  0
LINE
  5
10C
100
AcDbEntity
  8
0
370
    35
390
0
 62
     7
100
AcDbLine
 10
76.25547
 20
32.500137
 30
0.0
 11
123.099068
 21
32.500137
 31
0.0
210
0.0
220
0.0
230
1.0
  0
LINE
  5
10D
100
AcDbEntity
  8
0
370
    35
390
0
 62
     7
100
AcDbLine
 10
76.25547
 20
37.000137
 30
0.0
 11
121.599068
 21
37.000137
 31
0.0
210
0.0
220
0.0
230
1.0
  0
LINE
  5
10E
100
AcDbEntity
  8
0
370
    35
390
0
 62
     7
 48
0.025
100
AcDbLine
 10
27.755531
 20
34.250137
 30
0.0
 11
27.755531
 21
35.250137
 31
0.0
210
0.0
220
0.0
230
1.0
  0
LINE
  5
10F
100
AcDbEntity
  8
0
370
    35
390
0
 62
     7
 48
0.084998
100
AcDbLine
 10
27.755531
 20
34.250137
 30
0.0
 11
31.155434
 21
34.250137
 31
0.0
210
0.0
220
0.0
230
1.0
  0
LINE
  5
110
100
AcDbEntity
  8
0
370
    35
390
0
 62
     7
 48
0.025
100
AcDbLine
 10
31.155434
 20
34.250137
 30
0.0
 11
31.155434
 21
35.250137
 31
0.0
210
0.0
220
0.0
230
1.0
  0
LINE
  5
111
100
AcDbEntity
  8
0
370
    35
390
0
 62
     7
 48
0.350892
100
AcDbLine
 10
76.25547
 20
38.250114
 30
0.0
 11
62.255447
 21
39.250114
 31
0.0
210
0.0
220
0.0
230
1.0
  0
LINE
  5
112
100
AcDbEntity
  8
0
370
    35
390
0
 62
     7
 48
0.070992
100
AcDbLine
 10
68.781219
 20
31.950325
 30
0.0
 11
69.255341
 21
34.750153
 31
0.0
210
0.0
220
0.0
230
1.0
  0
LINE
  5
113
100
AcDbEntity
  8
0
370
    35
390
0
 62
     7
 48
0.016132
100
AcDbLine
 10
72.590408
 20
31.338127
 30
0.0
 11
72.38636
 21
31.950279
 31
0.0
210
0.0
220
0.0
230
1.0
  0
LINE
  5
114
100
AcDbEntity
  8
0
370
    35
390
0
 62
     7
 48
0.061456
100
AcDbLine
 10
72.386475
 20
31.950333
 30
0.0
 11
72.998672
 21
34.331123
 31
0.0
210
0.0
220
0.0
230
1.0
  0
LINE
  5
115
100
AcDbEntity
  8
0
370
    35
390
0
 62
     7
 48
0.021511
100
AcDbLine
 10
75.311546
 20
31.270081
 30
0.0
 11
75.583641
 21
32.086349
 31
0.0
210
0.0
220
0.0
230
1.0
  0
LINE
  5
116
100
AcDbEntity
  8
0
370
    35
390
0
 62
     7
 48
0.071052
100
AcDbLine
 10
74.767311
 20
31.950333
 30
0.0
 11
75.255478
 21
34.750168
 31
0.0
210
0.0
220
0.0
230
1.0
  0
LINE
  5
117
100
AcDbEntity
  8
0
370
    35
390
0
 62
     7
 48
0.084998
100
AcDbLine
 10
27.755531
 20
35.250137
 30
0.0
 11
31.155434
 21
35.250137
 31
0.0
210
0.0
220
0.0
230
1.0
  0
LINE
  5
118
100
AcDbEntity
  8
0
370
    35
390
0
 62
     7
100
AcDbLine
 10
160.034698
 20
127.000916
 30
0.0
 11
130.214874
 21
127.000916
 31
0.0
210
0.0
220
0.0
230
1.0
  0
LINE
  5
119
100
AcDbEntity
  8
0
370
    35
390
0
 62
     7
100
AcDbLine
 10
160.034698
 20
122.50061
 30
0.0
 11
130.214874
 21
122.50061
 31
0.0
210
0.0
220
0.0
230
1.0
  0
LINE
  5
11A
100
AcDbEntity
  8
0
370
    35
390
0
 62
     7
100
AcDbLine
 10
123.099068
 20
37.000137
 30
0.0
 11
160.034882
 21
37.000137
 31
0.0
210
0.0
220
0.0
230
1.0
  0
LINE
  5
11B
100
AcDbEntity
  8
0
370
    35
390
0
 62
     7
100
AcDbLine
 10
124.599068
 20
32.500137
 30
0.0
 11
160.034882
 21
32.500137
 31
0.0
210
0.0
220
0.0
230
1.0
  0
LINE
  5
11C
100
AcDbEntity
  8
0
370
    35
390
0
 62
     7
 48
0.025
100
AcDbLine
 10
119.715126
 20
61.349915
 30
0.0
 11
118.715126
 21
61.349915
 31
0.0
210
0.0
220
0.0
230
1.0
  0
LINE
  5
11D
100
AcDbEntity
  8
0
370
    35
390
0
 62
     7
 48
0.019999
100
AcDbLine
 10
120.215126
 20
61.849945
 30
0.0
 11
120.215126
 21
62.649918
 31
0.0
210
0.0
220
0.0
230
1.0
  0
LINE
  5
11E
100
AcDbEntity
  8
0
370
    35
390
0
 62
     7
 48
0.019999
100
AcDbLine
 10
118.215126
 20
61.849945
 30
0.0
 11
118.215126
 21
62.649918
 31
0.0
210
0.0
220
0.0
230
1.0
  0
LINE
  5
11F
100
AcDbEntity
  8
0
370
    35
390
0
 62
     7
 48
0.025
100
AcDbLine
 10
121.215126
 20
62.349945
 30
0.0
 11
120.215126
 21
62.349945
 31
0.0
210
0.0
220
0.0
230
1.0
  0
LINE
  5
120
100
AcDbEntity
  8
0
370
    35
390
0
 62
     7
 48
0.007499
100
AcDbLine
 10
128.715057
 20
62.349945
 30
0.0
 11
128.715057
 21
62.649918
 31
0.0
210
0.0
220
0.0
230
1.0
  0
LINE
  5
121
100
AcDbEntity
  8
0
370
    35
390
0
 62
     7
 48
0.0325
100
AcDbLine
 10
121.215126
 20
61.349915
 30
0.0
 11
121.215126
 21
62.649918
 31
0.0
210
0.0
220
0.0
230
1.0
  0
LINE
  5
122
100
AcDbEntity
  8
0
370
    35
390
0
 62
     7
 48
0.1625
100
AcDbLine
 10
127.715126
 20
61.349915
 30
0.0
 11
121.215126
 21
61.349915
 31
0.0
210
0.0
220
0.0
230
1.0
  0
LINE
  5
123
100
AcDbEntity
  8
0
370
    35
390
0
 62
     7
 48
0.205018
100
AcDbLine
 10
137.41507
 20
63.149277
 30
0.0
 11
137.41507
 21
71.349991
 31
0.0
210
0.0
220
0.0
230
1.0
  0
LINE
  5
124
100
AcDbEntity
  8
0
370
    35
390
0
 62
     7
 48
0.229999
100
AcDbLine
 10
136.91507
 20
62.649918
 30
0.0
 11
136.91507
 21
71.849869
 31
0.0
210
0.0
220
0.0
230
1.0
  0
LINE
  5
125
100
AcDbEntity
  8
0
370
    35
390
0
 62
     7
 48
0.4875
100
AcDbLine
 10
136.91507
 20
68.549988
 30
0.0
 11
117.415077
 21
68.549988
 31
0.0
210
0.0
220
0.0
230
1.0
  0
LINE
  5
126
100
AcDbEntity
  8
0
370
    35
390
0
 62
     7
 48
0.4875
100
AcDbLine
 10
136.91507
 20
67.749985
 30
0.0
 11
117.415077
 21
67.749985
 31
0.0
210
0.0
220
0.0
230
1.0
  0
LINE
  5
127
100
AcDbEntity
  8
0
370
    35
390
0
 62
     7
 48
0.4875
100
AcDbLine
 10
136.91507
 20
66.949982
 30
0.0
 11
117.415077
 21
66.949982
 31
0.0
210
0.0
220
0.0
230
1.0
  0
LINE
  5
128
100
AcDbEntity
  8
0
370
    35
390
0
 62
     7
 48
0.4875
100
AcDbLine
 10
136.91507
 20
66.149979
 30
0.0
 11
117.415077
 21
66.149979
 31
0.0
210
0.0
220
0.0
230
1.0
  0
LINE
  5
129
100
AcDbEntity
  8
0
370
    35
390
0
 62
     7
 48
0.4875
100
AcDbLine
 10
136.91507
 20
65.349976
 30
0.0
 11
117.415077
 21
65.349976
 31
0.0
210
0.0
220
0.0
230
1.0
  0
LINE
  5
12A
100
AcDbEntity
  8
0
370
    35
390
0
 62
     7
 48
0.4875
100
AcDbLine
 10
136.91507
 20
62.94989
 30
0.0
 11
117.415077
 21
62.94989
 31
0.0
210
0.0
220
0.0
230
1.0
  0
LINE
  5
12B
100
AcDbEntity
  8
0
370
    35
390
0
 62
     7
 48
0.02
100
AcDbLine
 10
80.11512
 20
66.049896
 30
0.0
 11
79.315132
 21
66.049896
 31
0.0
210
0.0
220
0.0
230
1.0
  0
LINE
  5
12C
100
AcDbEntity
  8
0
370
    35
390
0
 62
     7
 48
0.02
100
AcDbLine
 10
80.11512
 20
68.44989
 30
0.0
 11
79.315132
 21
68.44989
 31
0.0
210
0.0
220
0.0
230
1.0
  0
LINE
  5
12D
100
AcDbEntity
  8
0
370
    35
390
0
 62
     7
 48
0.02
100
AcDbLine
 10
80.915123
 20
66.849899
 30
0.0
 11
80.915123
 21
67.649887
 31
0.0
210
0.0
220
0.0
230
1.0
  0
LINE
  5
12E
100
AcDbEntity
  8
0
370
    35
390
0
 62
     7
 48
0.02
100
AcDbLine
 10
78.515129
 20
66.849899
 30
0.0
 11
78.515129
 21
67.649887
 31
0.0
210
0.0
220
0.0
230
1.0
  0
LINE
  5
12F
100
AcDbEntity
  8
0
370
    35
390
0
 62
     7
 48
0.0125
100
AcDbLine
 10
79.315132
 20
66.049896
 30
0.0
 11
79.315132
 21
66.549896
 31
0.0
210
0.0
220
0.0
230
1.0
  0
LINE
  5
130
100
AcDbEntity
  8
0
370
    35
390
0
 62
     7
 48
0.0125
100
AcDbLine
 10
80.11512
 20
66.049896
 30
0.0
 11
80.11512
 21
66.549896
 31
0.0
210
0.0
220
0.0
230
1.0
  0
LINE
  5
131
100
AcDbEntity
  8
0
370
    35
390
0
 62
     7
 48
0.0125
100
AcDbLine
 10
80.915123
 20
67.649887
 30
0.0
 11
80.415123
 21
67.649887
 31
0.0
210
0.0
220
0.0
230
1.0
  0
LINE
  5
132
100
AcDbEntity
  8
0
370
    35
390
0
 62
     7
 48
0.0125
100
AcDbLine
 10
80.915123
 20
66.849899
 30
0.0
 11
80.415123
 21
66.849899
 31
0.0
210
0.0
220
0.0
230
1.0
  0
LINE
  5
133
100
AcDbEntity
  8
0
370
    35
390
0
 62
     7
 48
0.0125
100
AcDbLine
 10
79.015129
 20
66.849899
 30
0.0
 11
78.515129
 21
66.849899
 31
0.0
210
0.0
220
0.0
230
1.0
  0
LINE
  5
134
100
AcDbEntity
  8
0
370
    35
390
0
 62
     7
 48
0.0125
100
AcDbLine
 10
79.315132
 20
67.94989
 30
0.0
 11
79.315132
 21
68.44989
 31
0.0
210
0.0
220
0.0
230
1.0
  0
LINE
  5
135
100
AcDbEntity
  8
0
370
    35
390
0
 62
     7
 48
0.0125
100
AcDbLine
 10
79.015129
 20
67.649887
 30
0.0
 11
78.515129
 21
67.649887
 31
0.0
210
0.0
220
0.0
230
1.0
  0
LINE
  5
136
100
AcDbEntity
  8
0
370
    35
390
0
 62
     7
 48
0.0125
100
AcDbLine
 10
80.11512
 20
67.94989
 30
0.0
 11
80.11512
 21
68.44989
 31
0.0
210
0.0
220
0.0
230
1.0
  0
LINE
  5
137
100
AcDbEntity
  8
0
370
    35
390
0
 62
     7
 48
0.225003
100
AcDbLine
 10
62.25544
 20
30.250015
 30
0.0
 11
62.25544
 21
39.250141
 31
0.0
210
0.0
220
0.0
230
1.0
  0
LINE
  5
138
100
AcDbEntity
  8
0
370
    35
390
0
 62
     7
 48
0.007501
100
AcDbLine
 10
77.715126
 20
132.549866
 30
0.0
 11
77.715126
 21
132.849915
 31
0.0
210
0.0
220
0.0
230
1.0
  0
LINE
  5
139
100
AcDbEntity
  8
0
370
    35
390
0
 62
     7
 48
0.007501
100
AcDbLine
 10
81.715126
 20
132.549866
 30
0.0
 11
81.715126
 21
132.849915
 31
0.0
210
0.0
220
0.0
230
1.0
  0
LINE
  5
13A
100
AcDbEntity
  8
0
370
    35
390
0
 62
     7
 48
0.007501
100
AcDbLine
 10
77.715126
 20
99.649811
 30
0.0
 11
77.715126
 21
99.94986
 31
0.0
210
0.0
220
0.0
230
1.0
  0
LINE
  5
13B
100
AcDbEntity
  8
0
370
    35
390
0
 62
     7
 48
0.007501
100
AcDbLine
 10
81.715126
 20
99.649811
 30
0.0
 11
81.715126
 21
99.94986
 31
0.0
210
0.0
220
0.0
230
1.0
  0
LINE
  5
13C
100
AcDbEntity
  8
0
370
    35
390
0
 62
     7
 48
0.018749
100
AcDbLine
 10
77.665131
 20
99.649811
 30
0.0
 11
77.665131
 21
98.899864
 31
0.0
210
0.0
220
0.0
230
1.0
  0
LINE
  5
13D
100
AcDbEntity
  8
0
370
    35
390
0
 62
     7
 48
0.018749
100
AcDbLine
 10
81.765129
 20
99.649811
 30
0.0
 11
81.765129
 21
98.899864
 31
0.0
210
0.0
220
0.0
230
1.0
  0
LINE
  5
13E
100
AcDbEntity
  8
0
370
    35
390
0
 62
     7
 48
0.018749
100
AcDbLine
 10
77.665131
 20
132.849915
 30
0.0
 11
77.665131
 21
133.599869
 31
0.0
210
0.0
220
0.0
230
1.0
  0
LINE
  5
13F
100
AcDbEntity
  8
0
370
    35
390
0
 62
     7
 48
0.018749
100
AcDbLine
 10
81.765129
 20
132.849915
 30
0.0
 11
81.765129
 21
133.599869
 31
0.0
210
0.0
220
0.0
230
1.0
  0
LINE
  5
140
100
AcDbEntity
  8
0
370
    35
390
0
 62
     7
 48
0.125
100
AcDbLine
 10
27.715103
 20
116.750008
 30
0.0
 11
27.715103
 21
111.750008
 31
0.0
210
0.0
220
0.0
230
1.0
  0
LINE
  5
141
100
AcDbEntity
  8
0
370
    35
390
0
 62
     7
 48
0.096892
100
AcDbLine
 10
50.415001
 20
118.125702
 30
0.0
 11
50.415001
 21
114.250008
 31
0.0
210
0.0
220
0.0
230
1.0
  0
LINE
  5
142
100
AcDbEntity
  8
0
370
    35
390
0
 62
     7
 48
0.183457
100
AcDbLine
 10
48.614998
 20
117.919197
 30
0.0
 11
48.614998
 21
110.580917
 31
0.0
210
0.0
220
0.0
230
1.0
  0
LINE
  5
143
100
AcDbEntity
  8
0
370
    35
390
0
 62
     7
 48
0.183457
100
AcDbLine
 10
46.814995
 20
117.919197
 30
0.0
 11
46.814995
 21
110.580917
 31
0.0
210
0.0
220
0.0
230
1.0
  0
LINE
  5
144
100
AcDbEntity
  8
0
370
    35
390
0
 62
     7
 48
0.183457
100
AcDbLine
 10
45.014992
 20
117.919197
 30
0.0
 11
45.014992
 21
110.580917
 31
0.0
210
0.0
220
0.0
230
1.0
  0
LINE
  5
145
100
AcDbEntity
  8
0
370
    35
390
0
 62
     7
 48
0.183457
100
AcDbLine
 10
43.214989
 20
117.919197
 30
0.0
 11
43.214989
 21
110.580917
 31
0.0
210
0.0
220
0.0
230
1.0
  0
LINE
  5
146
100
AcDbEntity
  8
0
370
    35
390
0
 62
     7
 48
0.183457
100
AcDbLine
 10
41.414986
 20
117.919197
 30
0.0
 11
41.414986
 21
110.580917
 31
0.0
210
0.0
220
0.0
230
1.0
  0
LINE
  5
147
100
AcDbEntity
  8
0
370
    35
390
0
 62
     7
 48
0.183457
100
AcDbLine
 10
39.614983
 20
117.919197
 30
0.0
 11
39.614983
 21
110.580917
 31
0.0
210
0.0
220
0.0
230
1.0
  0
LINE
  5
148
100
AcDbEntity
  8
0
370
    35
390
0
 62
     7
 48
0.183457
100
AcDbLine
 10
37.81498
 20
117.919197
 30
0.0
 11
37.81498
 21
110.580917
 31
0.0
210
0.0
220
0.0
230
1.0
  0
LINE
  5
149
100
AcDbEntity
  8
0
370
    35
390
0
 62
     7
 48
0.183457
100
AcDbLine
 10
36.014977
 20
117.919197
 30
0.0
 11
36.014977
 21
110.580917
 31
0.0
210
0.0
220
0.0
230
1.0
  0
LINE
  5
14A
100
AcDbEntity
  8
0
370
    35
390
0
 62
     7
 48
0.183457
100
AcDbLine
 10
34.214973
 20
117.919197
 30
0.0
 11
34.214973
 21
110.580917
 31
0.0
210
0.0
220
0.0
230
1.0
  0
LINE
  5
14B
100
AcDbEntity
  8
0
370
    35
390
0
 62
     7
 48
0.183457
100
AcDbLine
 10
32.41497
 20
117.919197
 30
0.0
 11
32.41497
 21
110.580917
 31
0.0
210
0.0
220
0.0
230
1.0
  0
LINE
  5
14C
100
AcDbEntity
  8
0
370
    35
390
0
 62
     7
 48
0.183457
100
AcDbLine
 10
30.614975
 20
117.919197
 30
0.0
 11
30.614975
 21
110.580917
 31
0.0
210
0.0
220
0.0
230
1.0
  0
LINE
  5
14D
100
AcDbEntity
  8
0
370
    35
390
0
 62
     7
 48
0.129714
100
AcDbLine
 10
49.515007
 20
116.844246
 30
0.0
 11
49.515007
 21
111.65567
 31
0.0
210
0.0
220
0.0
230
1.0
  0
LINE
  5
14E
100
AcDbEntity
  8
0
370
    35
390
0
 62
     7
 48
0.129714
100
AcDbLine
 10
47.715004
 20
116.844246
 30
0.0
 11
47.715004
 21
111.65567
 31
0.0
210
0.0
220
0.0
230
1.0
  0
LINE
  5
14F
100
AcDbEntity
  8
0
370
    35
390
0
 62
     7
 48
0.129714
100
AcDbLine
 10
45.915001
 20
116.844246
 30
0.0
 11
45.915001
 21
111.65567
 31
0.0
210
0.0
220
0.0
230
1.0
  0
LINE
  5
150
100
AcDbEntity
  8
0
370
    35
390
0
 62
     7
 48
0.129702
100
AcDbLine
 10
44.114998
 20
116.844002
 30
0.0
 11
44.114998
 21
111.655914
 31
0.0
210
0.0
220
0.0
230
1.0
  0
LINE
  5
151
100
AcDbEntity
  8
0
370
    35
390
0
 62
     7
 48
0.129714
100
AcDbLine
 10
42.314995
 20
116.844246
 30
0.0
 11
42.314995
 21
111.65567
 31
0.0
210
0.0
220
0.0
230
1.0
  0
LINE
  5
152
100
AcDbEntity
  8
0
370
    35
390
0
 62
     7
 48
0.129714
100
AcDbLine
 10
40.514992
 20
116.844246
 30
0.0
 11
40.514992
 21
111.65567
 31
0.0
210
0.0
220
0.0
230
1.0
  0
LINE
  5
153
100
AcDbEntity
  8
0
370
    35
390
0
 62
     7
 48
0.129714
100
AcDbLine
 10
38.714989
 20
116.844246
 30
0.0
 11
38.714989
 21
111.65567
 31
0.0
210
0.0
220
0.0
230
1.0
  0
LINE
  5
154
100
AcDbEntity
  8
0
370
    35
390
0
 62
     7
 48
0.129714
100
AcDbLine
 10
36.914986
 20
116.844246
 30
0.0
 11
36.914986
 21
111.65567
 31
0.0
210
0.0
220
0.0
230
1.0
  0
LINE
  5
155
100
AcDbEntity
  8
0
370
    35
390
0
 62
     7
 48
0.129714
100
AcDbLine
 10
35.114983
 20
116.844246
 30
0.0
 11
35.114983
 21
111.65567
 31
0.0
210
0.0
220
0.0
230
1.0
  0
LINE
  5
156
100
AcDbEntity
  8
0
370
    35
390
0
 62
     7
 48
0.129714
100
AcDbLine
 10
33.31498
 20
116.844246
 30
0.0
 11
33.31498
 21
111.65567
 31
0.0
210
0.0
220
0.0
230
1.0
  0
LINE
  5
157
100
AcDbEntity
  8
0
370
    35
390
0
 62
     7
 48
0.129714
100
AcDbLine
 10
31.514977
 20
116.844246
 30
0.0
 11
31.514977
 21
111.65567
 31
0.0
210
0.0
220
0.0
230
1.0
  0
LINE
  5
158
100
AcDbEntity
  8
0
370
    35
390
0
 62
     7
 48
0.125
100
AcDbLine
 10
28.715073
 20
116.750008
 30
0.0
 11
28.715073
 21
111.750008
 31
0.0
210
0.0
220
0.0
230
1.0
  0
LINE
  5
159
100
AcDbEntity
  8
0
370
    35
390
0
 62
     7
 48
0.031877
100
AcDbLine
 10
50.257156
 20
117.986069
 30
0.0
 11
49.600822
 21
116.892891
 31
0.0
210
0.0
220
0.0
230
1.0
  0
LINE
  5
15A
100
AcDbEntity
  8
0
370
    35
390
0
 62
     7
 48
0.024976
100
AcDbLine
 10
49.429245
 20
116.892807
 30
0.0
 11
48.914993
 21
117.749313
 31
0.0
210
0.0
220
0.0
230
1.0
  0
LINE
  5
15B
100
AcDbEntity
  8
0
370
    35
390
0
 62
     7
 48
0.024969
100
AcDbLine
 10
48.314949
 20
117.749214
 30
0.0
 11
47.800835
 21
116.892921
 31
0.0
210
0.0
220
0.0
230
1.0
  0
LINE
  5
15C
100
AcDbEntity
  8
0
370
    35
390
0
 62
     7
 48
0.024976
100
AcDbLine
 10
47.629311
 20
116.892807
 30
0.0
 11
47.115067
 21
117.749313
 31
0.0
210
0.0
220
0.0
230
1.0
  0
LINE
  5
15D
100
AcDbEntity
  8
0
370
    35
390
0
 62
     7
 48
0.02497
100
AcDbLine
 10
46.514954
 20
117.749245
 30
0.0
 11
46.000832
 21
116.892944
 31
0.0
210
0.0
220
0.0
230
1.0
  0
LINE
  5
15E
100
AcDbEntity
  8
0
370
    35
390
0
 62
     7
 48
0.024976
100
AcDbLine
 10
45.829384
 20
116.892807
 30
0.0
 11
45.315132
 21
117.749306
 31
0.0
210
0.0
220
0.0
230
1.0
  0
LINE
  5
15F
100
AcDbEntity
  8
0
370
    35
390
0
 62
     7
 48
0.024982
100
AcDbLine
 10
44.714973
 20
117.749268
 30
0.0
 11
44.2006
 21
116.892548
 31
0.0
210
0.0
220
0.0
230
1.0
  0
LINE
  5
160
100
AcDbEntity
  8
0
370
    35
390
0
 62
     7
 48
0.024976
100
AcDbLine
 10
44.029266
 20
116.892685
 30
0.0
 11
43.515022
 21
117.749191
 31
0.0
210
0.0
220
0.0
230
1.0
  0
LINE
  5
161
100
AcDbEntity
  8
0
370
    35
390
0
 62
     7
 48
0.024976
100
AcDbLine
 10
42.914978
 20
117.749298
 30
0.0
 11
42.400734
 21
116.892792
 31
0.0
210
0.0
220
0.0
230
1.0
  0
LINE
  5
162
100
AcDbEntity
  8
0
370
    35
390
0
 62
     7
 48
0.024969
100
AcDbLine
 10
42.22921
 20
116.892899
 30
0.0
 11
41.715088
 21
117.749191
 31
0.0
210
0.0
220
0.0
230
1.0
  0
LINE
  5
163
100
AcDbEntity
  8
0
370
    35
390
0
 62
     7
 48
0.024976
100
AcDbLine
 10
41.114983
 20
117.749329
 30
0.0
 11
40.600739
 21
116.892822
 31
0.0
210
0.0
220
0.0
230
1.0
  0
LINE
  5
164
100
AcDbEntity
  8
0
370
    35
390
0
 62
     7
 48
0.024969
100
AcDbLine
 10
40.42923
 20
116.89286
 30
0.0
 11
39.915108
 21
117.749153
 31
0.0
210
0.0
220
0.0
230
1.0
  0
LINE
  5
165
100
AcDbEntity
  8
0
370
    35
390
0
 62
     7
 48
0.024976
100
AcDbLine
 10
39.315002
 20
117.749344
 30
0.0
 11
38.800758
 21
116.892838
 31
0.0
210
0.0
220
0.0
230
1.0
  0
LINE
  5
166
100
AcDbEntity
  8
0
370
    35
390
0
 62
     7
 48
0.024976
100
AcDbLine
 10
38.629265
 20
116.892838
 30
0.0
 11
38.115013
 21
117.749336
 31
0.0
210
0.0
220
0.0
230
1.0
  0
LINE
  5
167
100
AcDbEntity
  8
0
370
    35
390
0
 62
     7
 48
0.02497
100
AcDbLine
 10
37.514893
 20
117.749161
 30
0.0
 11
37.000778
 21
116.89286
 31
0.0
210
0.0
220
0.0
230
1.0
  0
LINE
  5
168
100
AcDbEntity
  8
0
370
    35
390
0
 62
     7
 48
0.024976
100
AcDbLine
 10
36.829262
 20
116.892792
 30
0.0
 11
36.315018
 21
117.749298
 31
0.0
210
0.0
220
0.0
230
1.0
  0
LINE
  5
169
100
AcDbEntity
  8
0
370
    35
390
0
 62
     7
 48
0.02497
100
AcDbLine
 10
35.714897
 20
117.749191
 30
0.0
 11
35.200783
 21
116.892891
 31
0.0
210
0.0
220
0.0
230
1.0
  0
LINE
  5
16A
100
AcDbEntity
  8
0
370
    35
390
0
 62
     7
 48
0.024975
100
AcDbLine
 10
35.029282
 20
116.892761
 30
0.0
 11
34.515038
 21
117.74926
 31
0.0
210
0.0
220
0.0
230
1.0
  0
LINE
  5
16B
100
AcDbEntity
  8
0
370
    35
390
0
 62
     7
 48
0.024969
100
AcDbLine
 10
33.914917
 20
117.749207
 30
0.0
 11
33.400803
 21
116.892914
 31
0.0
210
0.0
220
0.0
230
1.0
  0
LINE
  5
16C
100
AcDbEntity
  8
0
370
    35
390
0
 62
     7
 48
0.024969
100
AcDbLine
 10
33.229179
 20
116.892937
 30
0.0
 11
32.715057
 21
117.749229
 31
0.0
210
0.0
220
0.0
230
1.0
  0
LINE
  5
16D
100
AcDbEntity
  8
0
370
    35
390
0
 62
     7
 48
0.024969
100
AcDbLine
 10
32.114929
 20
117.749237
 30
0.0
 11
31.600807
 21
116.892944
 31
0.0
210
0.0
220
0.0
230
1.0
  0
LINE
  5
16E
100
AcDbEntity
  8
0
370
    35
390
0
 62
     7
 48
0.024976
100
AcDbLine
 10
31.429253
 20
116.892776
 30
0.0
 11
30.915001
 21
117.749275
 31
0.0
210
0.0
220
0.0
230
1.0
  0
LINE
  5
16F
100
AcDbEntity
  8
0
370
    35
390
0
 62
     7
 48
0.047157
100
AcDbLine
 10
30.314949
 20
117.749268
 30
0.0
 11
28.715096
 21
116.750008
 31
0.0
210
0.0
220
0.0
230
1.0
  0
LINE
  5
170
100
AcDbEntity
  8
0
370
    35
390
0
 62
     7
 48
0.024999
100
AcDbLine
 10
28.715073
 20
116.750008
 30
0.0
 11
27.715103
 21
116.750008
 31
0.0
210
0.0
220
0.0
230
1.0
  0
LINE
  5
171
100
AcDbEntity
  8
0
370
    35
390
0
 62
     7
 48
0.096892
100
AcDbLine
 10
50.415001
 20
110.374313
 30
0.0
 11
50.415001
 21
114.250008
 31
0.0
210
0.0
220
0.0
230
1.0
  0
LINE
  5
172
100
AcDbEntity
  8
0
370
    35
390
0
 62
     7
 48
0.031875
100
AcDbLine
 10
50.257156
 20
110.513947
 30
0.0
 11
49.600868
 21
111.607048
 31
0.0
210
0.0
220
0.0
230
1.0
  0
LINE
  5
173
100
AcDbEntity
  8
0
370
    35
390
0
 62
     7
 48
0.024976
100
AcDbLine
 10
49.429298
 20
111.607277
 30
0.0
 11
48.915054
 21
110.750771
 31
0.0
210
0.0
220
0.0
230
1.0
  0
LINE
  5
174
100
AcDbEntity
  8
0
370
    35
390
0
 62
     7
 48
0.02497
100
AcDbLine
 10
48.314995
 20
110.750725
 30
0.0
 11
47.80088
 21
111.607025
 31
0.0
210
0.0
220
0.0
230
1.0
  0
LINE
  5
175
100
AcDbEntity
  8
0
370
    35
390
0
 62
     7
 48
0.024975
100
AcDbLine
 10
47.629372
 20
111.607277
 30
0.0
 11
47.115128
 21
110.750778
 31
0.0
210
0.0
220
0.0
230
1.0
  0
LINE
  5
176
100
AcDbEntity
  8
0
370
    35
390
0
 62
     7
 48
0.02497
100
AcDbLine
 10
46.514999
 20
110.750694
 30
0.0
 11
46.000877
 21
111.606995
 31
0.0
210
0.0
220
0.0
230
1.0
  0
LINE
  5
177
100
AcDbEntity
  8
0
370
    35
390
0
 62
     7
 48
0.024976
100
AcDbLine
 10
45.829445
 20
111.607285
 30
0.0
 11
45.315193
 21
110.750778
 31
0.0
210
0.0
220
0.0
230
1.0
  0
LINE
  5
178
100
AcDbEntity
  8
0
370
    35
390
0
 62
     7
 48
0.024982
100
AcDbLine
 10
44.715019
 20
110.750679
 30
0.0
 11
44.200645
 21
111.607391
 31
0.0
210
0.0
220
0.0
230
1.0
  0
LINE
  5
179
100
AcDbEntity
  8
0
370
    35
390
0
 62
     7
 48
0.024975
100
AcDbLine
 10
44.02932
 20
111.607399
 30
0.0
 11
43.515076
 21
110.7509
 31
0.0
210
0.0
220
0.0
230
1.0
  0
LINE
  5
17A
100
AcDbEntity
  8
0
370
    35
390
0
 62
     7
 48
0.024976
100
AcDbLine
 10
42.915016
 20
110.750648
 30
0.0
 11
42.40078
 21
111.607155
 31
0.0
210
0.0
220
0.0
230
1.0
  0
LINE
  5
17B
100
AcDbEntity
  8
0
370
    35
390
0
 62
     7
 48
0.024969
100
AcDbLine
 10
42.229271
 20
111.607193
 30
0.0
 11
41.715149
 21
110.7509
 31
0.0
210
0.0
220
0.0
230
1.0
  0
LINE
  5
17C
100
AcDbEntity
  8
0
370
    35
390
0
 62
     7
 48
0.024976
100
AcDbLine
 10
41.115028
 20
110.750618
 30
0.0
 11
40.600784
 21
111.607124
 31
0.0
210
0.0
220
0.0
230
1.0
  0
LINE
  5
17D
100
AcDbEntity
  8
0
370
    35
390
0
 62
     7
 48
0.024969
100
AcDbLine
 10
40.429283
 20
111.607224
 30
0.0
 11
39.915169
 21
110.750931
 31
0.0
210
0.0
220
0.0
230
1.0
  0
LINE
  5
17E
100
AcDbEntity
  8
0
370
    35
390
0
 62
     7
 48
0.024976
100
AcDbLine
 10
39.315041
 20
110.750595
 30
0.0
 11
38.800804
 21
111.607101
 31
0.0
210
0.0
220
0.0
230
1.0
  0
LINE
  5
17F
100
AcDbEntity
  8
0
370
    35
390
0
 62
     7
 48
0.024976
100
AcDbLine
 10
38.629318
 20
111.607254
 30
0.0
 11
38.115074
 21
110.750748
 31
0.0
210
0.0
220
0.0
230
1.0
  0
LINE
  5
180
100
AcDbEntity
  8
0
370
    35
390
0
 62
     7
 48
0.024969
100
AcDbLine
 10
37.514938
 20
110.750786
 30
0.0
 11
37.000816
 21
111.607079
 31
0.0
210
0.0
220
0.0
230
1.0
  0
LINE
  5
181
100
AcDbEntity
  8
0
370
    35
390
0
 62
     7
 48
0.024975
100
AcDbLine
 10
36.829323
 20
111.607292
 30
0.0
 11
36.315079
 21
110.750793
 31
0.0
210
0.0
220
0.0
230
1.0
  0
LINE
  5
182
100
AcDbEntity
  8
0
370
    35
390
0
 62
     7
 48
0.024969
100
AcDbLine
 10
35.714943
 20
110.750755
 30
0.0
 11
35.200829
 21
111.607048
 31
0.0
210
0.0
220
0.0
230
1.0
  0
LINE
  5
183
100
AcDbEntity
  8
0
370
    35
390
0
 62
     7
 48
0.024976
100
AcDbLine
 10
35.029343
 20
111.60733
 30
0.0
 11
34.515099
 21
110.750824
 31
0.0
210
0.0
220
0.0
230
1.0
  0
LINE
  5
184
100
AcDbEntity
  8
0
370
    35
390
0
 62
     7
 48
0.02497
100
AcDbLine
 10
33.914963
 20
110.750732
 30
0.0
 11
33.400848
 21
111.607033
 31
0.0
210
0.0
220
0.0
230
1.0
  0
LINE
  5
185
100
AcDbEntity
  8
0
370
    35
390
0
 62
     7
 48
0.02497
100
AcDbLine
 10
33.22924
 20
111.607155
 30
0.0
 11
32.715111
 21
110.750862
 31
0.0
210
0.0
220
0.0
230
1.0
  0
LINE
  5
186
100
AcDbEntity
  8
0
370
    35
390
0
 62
     7
 48
0.024969
100
AcDbLine
 10
32.114922
 20
110.750763
 30
0.0
 11
31.600807
 21
111.607056
 31
0.0
210
0.0
220
0.0
230
1.0
  0
LINE
  5
187
100
AcDbEntity
  8
0
370
    35
390
0
 62
     7
 48
0.024975
100
AcDbLine
 10
31.429222
 20
111.607178
 30
0.0
 11
30.914978
 21
110.750679
 31
0.0
210
0.0
220
0.0
230
1.0
  0
LINE
  5
188
100
AcDbEntity
  8
0
370
    35
390
0
 62
     7
 48
0.047157
100
AcDbLine
 10
30.314941
 20
110.750732
 30
0.0
 11
28.715088
 21
111.749985
 31
0.0
210
0.0
220
0.0
230
1.0
  0
LINE
  5
189
100
AcDbEntity
  8
0
370
    35
390
0
 62
     7
 48
0.024999
100
AcDbLine
 10
28.715073
 20
111.750008
 30
0.0
 11
27.715103
 21
111.750008
 31
0.0
210
0.0
220
0.0
230
1.0
  0
LINE
  5
18A
100
AcDbEntity
  8
0
370
    35
390
0
 62
     7
 48
0.167455
100
AcDbLine
 10
51.915001
 20
117.599129
 30
0.0
 11
51.915001
 21
110.900948
 31
0.0
210
0.0
220
0.0
230
1.0
  0
LINE
  5
18B
100
AcDbEntity
  8
0
370
    35
390
0
 62
     7
 48
0.033202
100
AcDbLine
 10
50.696381
 20
118.12706
 30
0.0
 11
51.915001
 21
117.599068
 31
0.0
210
0.0
220
0.0
230
1.0
  0
LINE
  5
18C
100
AcDbEntity
  8
0
370
    35
390
0
 62
     7
 48
0.033202
100
AcDbLine
 10
50.696381
 20
110.372955
 30
0.0
 11
51.915001
 21
110.90094
 31
0.0
210
0.0
220
0.0
230
1.0
  0
LINE
  5
18D
100
AcDbEntity
  8
0
370
    35
390
0
 62
     7
 48
0.125
100
AcDbLine
 10
27.715103
 20
69.749893
 30
0.0
 11
27.715103
 21
64.749893
 31
0.0
210
0.0
220
0.0
230
1.0
  0
LINE
  5
18E
100
AcDbEntity
  8
0
370
    35
390
0
 62
     7
 48
0.096892
100
AcDbLine
 10
50.415001
 20
71.125587
 30
0.0
 11
50.415001
 21
67.249893
 31
0.0
210
0.0
220
0.0
230
1.0
  0
LINE
  5
18F
100
AcDbEntity
  8
0
370
    35
390
0
 62
     7
 48
0.183457
100
AcDbLine
 10
48.614998
 20
70.919083
 30
0.0
 11
48.614998
 21
63.580803
 31
0.0
210
0.0
220
0.0
230
1.0
  0
LINE
  5
190
100
AcDbEntity
  8
0
370
    35
390
0
 62
     7
 48
0.183457
100
AcDbLine
 10
46.814995
 20
70.919083
 30
0.0
 11
46.814995
 21
63.580803
 31
0.0
210
0.0
220
0.0
230
1.0
  0
LINE
  5
191
100
AcDbEntity
  8
0
370
    35
390
0
 62
     7
 48
0.183457
100
AcDbLine
 10
45.014992
 20
70.919083
 30
0.0
 11
45.014992
 21
63.580803
 31
0.0
210
0.0
220
0.0
230
1.0
  0
LINE
  5
192
100
AcDbEntity
  8
0
370
    35
390
0
 62
     7
 48
0.183457
100
AcDbLine
 10
43.214989
 20
70.919083
 30
0.0
 11
43.214989
 21
63.580803
 31
0.0
210
0.0
220
0.0
230
1.0
  0
LINE
  5
193
100
AcDbEntity
  8
0
370
    35
390
0
 62
     7
 48
0.183457
100
AcDbLine
 10
41.414986
 20
70.919083
 30
0.0
 11
41.414986
 21
63.580803
 31
0.0
210
0.0
220
0.0
230
1.0
  0
LINE
  5
194
100
AcDbEntity
  8
0
370
    35
390
0
 62
     7
 48
0.183457
100
AcDbLine
 10
39.614983
 20
70.919083
 30
0.0
 11
39.614983
 21
63.580803
 31
0.0
210
0.0
220
0.0
230
1.0
  0
LINE
  5
195
100
AcDbEntity
  8
0
370
    35
390
0
 62
     7
 48
0.183457
100
AcDbLine
 10
37.81498
 20
70.919083
 30
0.0
 11
37.81498
 21
63.580803
 31
0.0
210
0.0
220
0.0
230
1.0
  0
LINE
  5
196
100
AcDbEntity
  8
0
370
    35
390
0
 62
     7
 48
0.183457
100
AcDbLine
 10
36.014977
 20
70.919083
 30
0.0
 11
36.014977
 21
63.580803
 31
0.0
210
0.0
220
0.0
230
1.0
  0
LINE
  5
197
100
AcDbEntity
  8
0
370
    35
390
0
 62
     7
 48
0.183457
100
AcDbLine
 10
34.214973
 20
70.919083
 30
0.0
 11
34.214973
 21
63.580803
 31
0.0
210
0.0
220
0.0
230
1.0
  0
LINE
  5
198
100
AcDbEntity
  8
0
370
    35
390
0
 62
     7
 48
0.183457
100
AcDbLine
 10
32.41497
 20
70.919083
 30
0.0
 11
32.41497
 21
63.580803
 31
0.0
210
0.0
220
0.0
230
1.0
  0
LINE
  5
199
100
AcDbEntity
  8
0
370
    35
390
0
 62
     7
 48
0.183457
100
AcDbLine
 10
30.614975
 20
70.919083
 30
0.0
 11
30.614975
 21
63.580803
 31
0.0
210
0.0
220
0.0
230
1.0
  0
LINE
  5
19A
100
AcDbEntity
  8
0
370
    35
390
0
 62
     7
 48
0.129714
100
AcDbLine
 10
49.515007
 20
69.844131
 30
0.0
 11
49.515007
 21
64.655556
 31
0.0
210
0.0
220
0.0
230
1.0
  0
LINE
  5
19B
100
AcDbEntity
  8
0
370
    35
390
0
 62
     7
 48
0.129714
100
AcDbLine
 10
47.715004
 20
69.844131
 30
0.0
 11
47.715004
 21
64.655556
 31
0.0
210
0.0
220
0.0
230
1.0
  0
LINE
  5
19C
100
AcDbEntity
  8
0
370
    35
390
0
 62
     7
 48
0.129714
100
AcDbLine
 10
45.915001
 20
69.844131
 30
0.0
 11
45.915001
 21
64.655556
 31
0.0
210
0.0
220
0.0
230
1.0
  0
LINE
  5
19D
100
AcDbEntity
  8
0
370
    35
390
0
 62
     7
 48
0.129702
100
AcDbLine
 10
44.114998
 20
69.843887
 30
0.0
 11
44.114998
 21
64.6558
 31
0.0
210
0.0
220
0.0
230
1.0
  0
LINE
  5
19E
100
AcDbEntity
  8
0
370
    35
390
0
 62
     7
 48
0.129714
100
AcDbLine
 10
42.314995
 20
69.844131
 30
0.0
 11
42.314995
 21
64.655556
 31
0.0
210
0.0
220
0.0
230
1.0
  0
LINE
  5
19F
100
AcDbEntity
  8
0
370
    35
390
0
 62
     7
 48
0.129714
100
AcDbLine
 10
40.514992
 20
69.844131
 30
0.0
 11
40.514992
 21
64.655556
 31
0.0
210
0.0
220
0.0
230
1.0
  0
LINE
  5
1A0
100
AcDbEntity
  8
0
370
    35
390
0
 62
     7
 48
0.129714
100
AcDbLine
 10
38.714989
 20
69.844131
 30
0.0
 11
38.714989
 21
64.655556
 31
0.0
210
0.0
220
0.0
230
1.0
  0
LINE
  5
1A1
100
AcDbEntity
  8
0
370
    35
390
0
 62
     7
 48
0.129714
100
AcDbLine
 10
36.914986
 20
69.844131
 30
0.0
 11
36.914986
 21
64.655556
 31
0.0
210
0.0
220
0.0
230
1.0
  0
LINE
  5
1A2
100
AcDbEntity
  8
0
370
    35
390
0
 62
     7
 48
0.129714
100
AcDbLine
 10
35.114983
 20
69.844131
 30
0.0
 11
35.114983
 21
64.655556
 31
0.0
210
0.0
220
0.0
230
1.0
  0
LINE
  5
1A3
100
AcDbEntity
  8
0
370
    35
390
0
 62
     7
 48
0.129714
100
AcDbLine
 10
33.31498
 20
69.844131
 30
0.0
 11
33.31498
 21
64.655556
 31
0.0
210
0.0
220
0.0
230
1.0
  0
LINE
  5
1A4
100
AcDbEntity
  8
0
370
    35
390
0
 62
     7
 48
0.129714
100
AcDbLine
 10
31.514977
 20
69.844131
 30
0.0
 11
31.514977
 21
64.655556
 31
0.0
210
0.0
220
0.0
230
1.0
  0
LINE
  5
1A5
100
AcDbEntity
  8
0
370
    35
390
0
 62
     7
 48
0.125
100
AcDbLine
 10
28.715073
 20
69.749893
 30
0.0
 11
28.715073
 21
64.749893
 31
0.0
210
0.0
220
0.0
230
1.0
  0
LINE
  5
1A6
100
AcDbEntity
  8
0
370
    35
390
0
 62
     7
 48
0.031877
100
AcDbLine
 10
50.257156
 20
70.985954
 30
0.0
 11
49.600822
 21
69.892776
 31
0.0
210
0.0
220
0.0
230
1.0
  0
LINE
  5
1A7
100
AcDbEntity
  8
0
370
    35
390
0
 62
     7
 48
0.024976
100
AcDbLine
 10
49.429245
 20
69.892693
 30
0.0
 11
48.914993
 21
70.749199
 31
0.0
210
0.0
220
0.0
230
1.0
  0
LINE
  5
1A8
100
AcDbEntity
  8
0
370
    35
390
0
 62
     7
 48
0.024969
100
AcDbLine
 10
48.314949
 20
70.7491
 30
0.0
 11
47.800835
 21
69.892807
 31
0.0
210
0.0
220
0.0
230
1.0
  0
LINE
  5
1A9
100
AcDbEntity
  8
0
370
    35
390
0
 62
     7
 48
0.024976
100
AcDbLine
 10
47.629311
 20
69.892693
 30
0.0
 11
47.115067
 21
70.749199
 31
0.0
210
0.0
220
0.0
230
1.0
  0
LINE
  5
1AA
100
AcDbEntity
  8
0
370
    35
390
0
 62
     7
 48
0.024969
100
AcDbLine
 10
46.514954
 20
70.74913
 30
0.0
 11
46.000832
 21
69.892838
 31
0.0
210
0.0
220
0.0
230
1.0
  0
LINE
  5
1AB
100
AcDbEntity
  8
0
370
    35
390
0
 62
     7
 48
0.024976
100
AcDbLine
 10
45.829384
 20
69.892693
 30
0.0
 11
45.315132
 21
70.749191
 31
0.0
210
0.0
220
0.0
230
1.0
  0
LINE
  5
1AC
100
AcDbEntity
  8
0
370
    35
390
0
 62
     7
 48
0.024982
100
AcDbLine
 10
44.714973
 20
70.749153
 30
0.0
 11
44.2006
 21
69.892433
 31
0.0
210
0.0
220
0.0
230
1.0
  0
LINE
  5
1AD
100
AcDbEntity
  8
0
370
    35
390
0
 62
     7
 48
0.024976
100
AcDbLine
 10
44.029266
 20
69.89257
 30
0.0
 11
43.515022
 21
70.749077
 31
0.0
210
0.0
220
0.0
230
1.0
  0
LINE
  5
1AE
100
AcDbEntity
  8
0
370
    35
390
0
 62
     7
 48
0.024976
100
AcDbLine
 10
42.914978
 20
70.749184
 30
0.0
 11
42.400734
 21
69.892677
 31
0.0
210
0.0
220
0.0
230
1.0
  0
LINE
  5
1AF
100
AcDbEntity
  8
0
370
    35
390
0
 62
     7
 48
0.024969
100
AcDbLine
 10
42.22921
 20
69.892784
 30
0.0
 11
41.715088
 21
70.749077
 31
0.0
210
0.0
220
0.0
230
1.0
  0
LINE
  5
1B0
100
AcDbEntity
  8
0
370
    35
390
0
 62
     7
 48
0.024976
100
AcDbLine
 10
41.114983
 20
70.749214
 30
0.0
 11
40.600739
 21
69.892708
 31
0.0
210
0.0
220
0.0
230
1.0
  0
LINE
  5
1B1
100
AcDbEntity
  8
0
370
    35
390
0
 62
     7
 48
0.024969
100
AcDbLine
 10
40.42923
 20
69.892746
 30
0.0
 11
39.915108
 21
70.749039
 31
0.0
210
0.0
220
0.0
230
1.0
  0
LINE
  5
1B2
100
AcDbEntity
  8
0
370
    35
390
0
 62
     7
 48
0.024976
100
AcDbLine
 10
39.315002
 20
70.749229
 30
0.0
 11
38.800758
 21
69.892723
 31
0.0
210
0.0
220
0.0
230
1.0
  0
LINE
  5
1B3
100
AcDbEntity
  8
0
370
    35
390
0
 62
     7
 48
0.024976
100
AcDbLine
 10
38.629265
 20
69.892723
 30
0.0
 11
38.115013
 21
70.749222
 31
0.0
210
0.0
220
0.0
230
1.0
  0
LINE
  5
1B4
100
AcDbEntity
  8
0
370
    35
390
0
 62
     7
 48
0.02497
100
AcDbLine
 10
37.514893
 20
70.749046
 30
0.0
 11
37.000778
 21
69.892746
 31
0.0
210
0.0
220
0.0
230
1.0
  0
LINE
  5
1B5
100
AcDbEntity
  8
0
370
    35
390
0
 62
     7
 48
0.024976
100
AcDbLine
 10
36.829262
 20
69.892677
 30
0.0
 11
36.315018
 21
70.749184
 31
0.0
210
0.0
220
0.0
230
1.0
  0
LINE
  5
1B6
100
AcDbEntity
  8
0
370
    35
390
0
 62
     7
 48
0.02497
100
AcDbLine
 10
35.714897
 20
70.749077
 30
0.0
 11
35.200783
 21
69.892776
 31
0.0
210
0.0
220
0.0
230
1.0
  0
LINE
  5
1B7
100
AcDbEntity
  8
0
370
    35
390
0
 62
     7
 48
0.024975
100
AcDbLine
 10
35.029282
 20
69.892647
 30
0.0
 11
34.515038
 21
70.749146
 31
0.0
210
0.0
220
0.0
230
1.0
  0
LINE
  5
1B8
100
AcDbEntity
  8
0
370
    35
390
0
 62
     7
 48
0.024969
100
AcDbLine
 10
33.914917
 20
70.749092
 30
0.0
 11
33.400803
 21
69.892799
 31
0.0
210
0.0
220
0.0
230
1.0
  0
LINE
  5
1B9
100
AcDbEntity
  8
0
370
    35
390
0
 62
     7
 48
0.024969
100
AcDbLine
 10
33.229179
 20
69.892822
 30
0.0
 11
32.715057
 21
70.749115
 31
0.0
210
0.0
220
0.0
230
1.0
  0
LINE
  5
1BA
100
AcDbEntity
  8
0
370
    35
390
0
 62
     7
 48
0.024969
100
AcDbLine
 10
32.114929
 20
70.749123
 30
0.0
 11
31.600807
 21
69.89283
 31
0.0
210
0.0
220
0.0
230
1.0
  0
LINE
  5
1BB
100
AcDbEntity
  8
0
370
    35
390
0
 62
     7
 48
0.024976
100
AcDbLine
 10
31.429253
 20
69.892654
 30
0.0
 11
30.915001
 21
70.749161
 31
0.0
210
0.0
220
0.0
230
1.0
  0
LINE
  5
1BC
100
AcDbEntity
  8
0
370
    35
390
0
 62
     7
 48
0.047157
100
AcDbLine
 10
30.314949
 20
70.749153
 30
0.0
 11
28.715096
 21
69.749893
 31
0.0
210
0.0
220
0.0
230
1.0
  0
LINE
  5
1BD
100
AcDbEntity
  8
0
370
    35
390
0
 62
     7
 48
0.024999
100
AcDbLine
 10
28.715073
 20
69.749893
 30
0.0
 11
27.715103
 21
69.749893
 31
0.0
210
0.0
220
0.0
230
1.0
  0
LINE
  5
1BE
100
AcDbEntity
  8
0
370
    35
390
0
 62
     7
 48
0.096892
100
AcDbLine
 10
50.415001
 20
63.374199
 30
0.0
 11
50.415001
 21
67.249893
 31
0.0
210
0.0
220
0.0
230
1.0
  0
LINE
  5
1BF
100
AcDbEntity
  8
0
370
    35
390
0
 62
     7
 48
0.031874
100
AcDbLine
 10
50.257156
 20
63.51384
 30
0.0
 11
49.600868
 21
64.606934
 31
0.0
210
0.0
220
0.0
230
1.0
  0
LINE
  5
1C0
100
AcDbEntity
  8
0
370
    35
390
0
 62
     7
 48
0.024976
100
AcDbLine
 10
49.429298
 20
64.607162
 30
0.0
 11
48.915054
 21
63.750656
 31
0.0
210
0.0
220
0.0
230
1.0
  0
LINE
  5
1C1
100
AcDbEntity
  8
0
370
    35
390
0
 62
     7
 48
0.02497
100
AcDbLine
 10
48.314995
 20
63.75061
 30
0.0
 11
47.80088
 21
64.606911
 31
0.0
210
0.0
220
0.0
230
1.0
  0
LINE
  5
1C2
100
AcDbEntity
  8
0
370
    35
390
0
 62
     7
 48
0.024975
100
AcDbLine
 10
47.629372
 20
64.607162
 30
0.0
 11
47.115128
 21
63.750664
 31
0.0
210
0.0
220
0.0
230
1.0
  0
LINE
  5
1C3
100
AcDbEntity
  8
0
370
    35
390
0
 62
     7
 48
0.02497
100
AcDbLine
 10
46.514999
 20
63.75058
 30
0.0
 11
46.000877
 21
64.60688
 31
0.0
210
0.0
220
0.0
230
1.0
  0
LINE
  5
1C4
100
AcDbEntity
  8
0
370
    35
390
0
 62
     7
 48
0.024976
100
AcDbLine
 10
45.829445
 20
64.60717
 30
0.0
 11
45.315193
 21
63.750671
 31
0.0
210
0.0
220
0.0
230
1.0
  0
LINE
  5
1C5
100
AcDbEntity
  8
0
370
    35
390
0
 62
     7
 48
0.024982
100
AcDbLine
 10
44.715019
 20
63.750565
 30
0.0
 11
44.200645
 21
64.607277
 31
0.0
210
0.0
220
0.0
230
1.0
  0
LINE
  5
1C6
100
AcDbEntity
  8
0
370
    35
390
0
 62
     7
 48
0.024975
100
AcDbLine
 10
44.02932
 20
64.607285
 30
0.0
 11
43.515076
 21
63.750786
 31
0.0
210
0.0
220
0.0
230
1.0
  0
LINE
  5
1C7
100
AcDbEntity
  8
0
370
    35
390
0
 62
     7
 48
0.024976
100
AcDbLine
 10
42.915016
 20
63.750534
 30
0.0
 11
42.40078
 21
64.60704
 31
0.0
210
0.0
220
0.0
230
1.0
  0
LINE
  5
1C8
100
AcDbEntity
  8
0
370
    35
390
0
 62
     7
 48
0.024969
100
AcDbLine
 10
42.229271
 20
64.607079
 30
0.0
 11
41.715149
 21
63.750786
 31
0.0
210
0.0
220
0.0
230
1.0
  0
LINE
  5
1C9
100
AcDbEntity
  8
0
370
    35
390
0
 62
     7
 48
0.024976
100
AcDbLine
 10
41.115028
 20
63.750504
 30
0.0
 11
40.600784
 21
64.60701
 31
0.0
210
0.0
220
0.0
230
1.0
  0
LINE
  5
1CA
100
AcDbEntity
  8
0
370
    35
390
0
 62
     7
 48
0.024969
100
AcDbLine
 10
40.429283
 20
64.607109
 30
0.0
 11
39.915169
 21
63.750824
 31
0.0
210
0.0
220
0.0
230
1.0
  0
LINE
  5
1CB
100
AcDbEntity
  8
0
370
    35
390
0
 62
     7
 48
0.024975
100
AcDbLine
 10
39.315041
 20
63.750488
 30
0.0
 11
38.800804
 21
64.606987
 31
0.0
210
0.0
220
0.0
230
1.0
  0
LINE
  5
1CC
100
AcDbEntity
  8
0
370
    35
390
0
 62
     7
 48
0.024975
100
AcDbLine
 10
38.629318
 20
64.60714
 30
0.0
 11
38.115074
 21
63.750641
 31
0.0
210
0.0
220
0.0
230
1.0
  0
LINE
  5
1CD
100
AcDbEntity
  8
0
370
    35
390
0
 62
     7
 48
0.024969
100
AcDbLine
 10
37.514938
 20
63.750671
 30
0.0
 11
37.000816
 21
64.606964
 31
0.0
210
0.0
220
0.0
230
1.0
  0
LINE
  5
1CE
100
AcDbEntity
  8
0
370
    35
390
0
 62
     7
 48
0.024975
100
AcDbLine
 10
36.829323
 20
64.607178
 30
0.0
 11
36.315079
 21
63.750679
 31
0.0
210
0.0
220
0.0
230
1.0
  0
LINE
  5
1CF
100
AcDbEntity
  8
0
370
    35
390
0
 62
     7
 48
0.024969
100
AcDbLine
 10
35.714943
 20
63.750641
 30
0.0
 11
35.200829
 21
64.606934
 31
0.0
210
0.0
220
0.0
230
1.0
  0
LINE
  5
1D0
100
AcDbEntity
  8
0
370
    35
390
0
 62
     7
 48
0.024975
100
AcDbLine
 10
35.029343
 20
64.607216
 30
0.0
 11
34.515099
 21
63.750717
 31
0.0
210
0.0
220
0.0
230
1.0
  0
LINE
  5
1D1
100
AcDbEntity
  8
0
370
    35
390
0
 62
     7
 48
0.024969
100
AcDbLine
 10
33.914963
 20
63.750626
 30
0.0
 11
33.400848
 21
64.606918
 31
0.0
210
0.0
220
0.0
230
1.0
  0
LINE
  5
1D2
100
AcDbEntity
  8
0
370
    35
390
0
 62
     7
 48
0.02497
100
AcDbLine
 10
33.22924
 20
64.60704
 30
0.0
 11
32.715111
 21
63.750748
 31
0.0
210
0.0
220
0.0
230
1.0
  0
LINE
  5
1D3
100
AcDbEntity
  8
0
370
    35
390
0
 62
     7
 48
0.024969
100
AcDbLine
 10
32.114922
 20
63.750648
 30
0.0
 11
31.600807
 21
64.606941
 31
0.0
210
0.0
220
0.0
230
1.0
  0
LINE
  5
1D4
100
AcDbEntity
  8
0
370
    35
390
0
 62
     7
 48
0.024976
100
AcDbLine
 10
31.429222
 20
64.607071
 30
0.0
 11
30.914978
 21
63.750565
 31
0.0
210
0.0
220
0.0
230
1.0
  0
LINE
  5
1D5
100
AcDbEntity
  8
0
370
    35
390
0
 62
     7
 48
0.047157
100
AcDbLine
 10
30.314941
 20
63.750626
 30
0.0
 11
28.715088
 21
64.74987
 31
0.0
210
0.0
220
0.0
230
1.0
  0
LINE
  5
1D6
100
AcDbEntity
  8
0
370
    35
390
0
 62
     7
 48
0.024999
100
AcDbLine
 10
28.715073
 20
64.749893
 30
0.0
 11
27.715103
 21
64.749893
 31
0.0
210
0.0
220
0.0
230
1.0
  0
LINE
  5
1D7
100
AcDbEntity
  8
0
370
    35
390
0
 62
     7
 48
0.167455
100
AcDbLine
 10
51.915001
 20
70.599014
 30
0.0
 11
51.915001
 21
63.900833
 31
0.0
210
0.0
220
0.0
230
1.0
  0
LINE
  5
1D8
100
AcDbEntity
  8
0
370
    35
390
0
 62
     7
 48
0.033202
100
AcDbLine
 10
50.696381
 20
71.126945
 30
0.0
 11
51.915001
 21
70.598953
 31
0.0
210
0.0
220
0.0
230
1.0
  0
LINE
  5
1D9
100
AcDbEntity
  8
0
370
    35
390
0
 62
     7
 48
0.033202
100
AcDbLine
 10
50.696381
 20
63.372849
 30
0.0
 11
51.915001
 21
63.900833
 31
0.0
210
0.0
220
0.0
230
1.0
  0
LINE
  5
1DA
100
AcDbEntity
  8
0
370
    35
390
0
 62
     7
 48
0.155
100
AcDbLine
 10
82.915077
 20
69.349945
 30
0.0
 11
82.915077
 21
63.149948
 31
0.0
210
0.0
220
0.0
230
1.0
  0
LINE
  5
1DB
100
AcDbEntity
  8
0
370
    35
390
0
 62
     7
 48
0.155
100
AcDbLine
 10
114.915077
 20
69.349945
 30
0.0
 11
114.915077
 21
63.149948
 31
0.0
210
0.0
220
0.0
230
1.0
  0
LINE
  5
1DC
100
AcDbEntity
  8
0
370
    35
390
0
 62
     7
100
AcDbLine
 10
83.915077
 20
70.349945
 30
0.0
 11
113.915077
 21
70.349945
 31
0.0
210
0.0
220
0.0
230
1.0
  0
LINE
  5
1DD
100
AcDbEntity
  8
0
370
    35
390
0
 62
     7
100
AcDbLine
 10
83.915077
 20
62.149948
 30
0.0
 11
113.915077
 21
62.149948
 31
0.0
210
0.0
220
0.0
230
1.0
  0
ARC
  5
1DE
100
AcDbEntity
  8
0
370
    35
390
0
 62
     7
100
AcDbCircle
 10
65.715096
 20
71.249893
 30
0.0
 40
1.0
210
0.0
220
0.0
230
1.0
100
AcDbArc
 50
90.000003
 51
180.000009
  0
ARC
  5
1DF
100
AcDbEntity
  8
0
370
    35
390
0
 62
     7
100
AcDbCircle
 10
23.215103
 20
67.249893
 30
0.0
 40
1.5
210
0.0
220
0.0
230
1.0
100
AcDbArc
 50
109.471253
 51
250.528802
  0
ARC
  5
1E0
100
AcDbEntity
  8
0
370
    35
390
0
 62
     7
100
AcDbCircle
 10
66.715096
 20
62.249916
 30
0.0
 40
2.0
210
0.0
220
0.0
230
1.0
100
AcDbArc
 50
179.999896
 51
269.999997
  0
ARC
  5
1E1
100
AcDbEntity
  8
0
370
    35
390
0
 62
     7
100
AcDbCircle
 10
23.215103
 20
114.250008
 30
0.0
 40
1.5
210
0.0
220
0.0
230
1.0
100
AcDbArc
 50
109.471226
 51
250.528767
  0
ARC
  5
1E2
100
AcDbEntity
  8
0
370
    35
390
0
 62
     7
100
AcDbCircle
 10
49.574379
 20
116.944344
 30
0.0
 40
0.1
210
0.0
220
0.0
230
1.0
100
AcDbArc
 50
210.932651
 51
329.065947
  0
ARC
  5
1E3
100
AcDbEntity
  8
0
370
    35
390
0
 62
     7
100
AcDbCircle
 10
49.515053
 20
111.555672
 30
0.0
 40
0.1
210
0.0
220
0.0
230
1.0
100
AcDbArc
 50
30.934521
 51
149.067349
  0
ARC
  5
1E4
100
AcDbEntity
  8
0
370
    35
390
0
 62
     7
100
AcDbCircle
 10
47.715004
 20
111.555672
 30
0.0
 40
0.1
210
0.0
220
0.0
230
1.0
100
AcDbArc
 50
30.968347
 51
149.03399
  0
ARC
  5
1E5
100
AcDbEntity
  8
0
370
    35
390
0
 62
     7
100
AcDbCircle
 10
45.914955
 20
111.555672
 30
0.0
 40
0.1
210
0.0
220
0.0
230
1.0
100
AcDbArc
 50
31.00171
 51
149.000631
  0
ARC
  5
1E6
100
AcDbEntity
  8
0
370
    35
390
0
 62
     7
100
AcDbCircle
 10
44.114906
 20
111.555916
 30
0.0
 40
0.1
210
0.0
220
0.0
230
1.0
100
AcDbArc
 50
31.038538
 51
148.963339
  0
ARC
  5
1E7
100
AcDbEntity
  8
0
370
    35
390
0
 62
     7
100
AcDbCircle
 10
42.314857
 20
111.555672
 30
0.0
 40
0.1
210
0.0
220
0.0
230
1.0
100
AcDbArc
 50
30.951668
 51
149.050669
  0
ARC
  5
1E8
100
AcDbEntity
  8
0
370
    35
390
0
 62
     7
100
AcDbCircle
 10
40.514809
 20
111.555672
 30
0.0
 40
0.1
210
0.0
220
0.0
230
1.0
100
AcDbArc
 50
30.955134
 51
149.045328
  0
ARC
  5
1E9
100
AcDbEntity
  8
0
370
    35
390
0
 62
     7
100
AcDbCircle
 10
38.715004
 20
111.555672
 30
0.0
 40
0.1
210
0.0
220
0.0
230
1.0
100
AcDbArc
 50
30.959072
 51
149.04093
  0
ARC
  5
1EA
100
AcDbEntity
  8
0
370
    35
390
0
 62
     7
100
AcDbCircle
 10
36.914955
 20
111.555672
 30
0.0
 40
0.1
210
0.0
220
0.0
230
1.0
100
AcDbArc
 50
30.947263
 51
149.050205
  0
ARC
  5
1EB
100
AcDbEntity
  8
0
370
    35
390
0
 62
     7
100
AcDbCircle
 10
35.114906
 20
111.555672
 30
0.0
 40
0.1
210
0.0
220
0.0
230
1.0
100
AcDbArc
 50
30.950261
 51
149.043744
  0
ARC
  5
1EC
100
AcDbEntity
  8
0
370
    35
390
0
 62
     7
100
AcDbCircle
 10
33.314857
 20
111.555672
 30
0.0
 40
0.1
210
0.0
220
0.0
230
1.0
100
AcDbArc
 50
30.949325
 51
149.049262
  0
ARC
  5
1ED
100
AcDbEntity
  8
0
370
    35
390
0
 62
     7
100
AcDbCircle
 10
31.514809
 20
111.555672
 30
0.0
 40
0.1
210
0.0
220
0.0
230
1.0
100
AcDbArc
 50
30.942393
 51
149.057609
  0
ARC
  5
1EE
100
AcDbEntity
  8
0
370
    35
390
0
 62
     7
100
AcDbCircle
 10
117.715126
 20
128.749908
 30
0.0
 40
0.5
210
0.0
220
0.0
230
1.0
100
AcDbArc
 50
0.0
 51
126.876897
  0
ARC
  5
1EF
100
AcDbEntity
  8
0
370
    35
390
0
 62
     7
100
AcDbCircle
 10
65.715096
 20
105.163895
 30
0.0
 40
1.0
210
0.0
220
0.0
230
1.0
100
AcDbArc
 50
180.002454
 51
225.00209
  0
ARC
  5
1F0
100
AcDbEntity
  8
0
370
    35
390
0
 62
     7
100
AcDbCircle
 10
70.129402
 20
131.750015
 30
0.0
 40
1.0
210
0.0
220
0.0
230
1.0
100
AcDbArc
 50
90.00044
 51
135.001161
  0
ARC
  5
1F1
100
AcDbEntity
  8
0
370
    35
390
0
 62
     7
100
AcDbCircle
 10
65.715096
 20
127.335831
 30
0.0
 40
1.0
210
0.0
220
0.0
230
1.0
100
AcDbArc
 50
134.997528
 51
179.995197
  0
ARC
  5
1F2
100
AcDbEntity
  8
0
370
    35
390
0
 62
     7
100
AcDbCircle
 10
119.715126
 20
120.250038
 30
0.0
 40
0.5
210
0.0
220
0.0
230
1.0
100
AcDbArc
 50
269.999997
 51
360.0
  0
ARC
  5
1F3
100
AcDbEntity
  8
0
370
    35
390
0
 62
     7
100
AcDbCircle
 10
118.715126
 20
120.250038
 30
0.0
 40
0.5
210
0.0
220
0.0
230
1.0
100
AcDbArc
 50
180.000009
 51
269.999997
  0
ARC
  5
1F4
100
AcDbEntity
  8
0
370
    35
390
0
 62
     7
100
AcDbCircle
 10
119.715126
 20
129.249908
 30
0.0
 40
0.5
210
0.0
220
0.0
230
1.0
100
AcDbArc
 50
0.0
 51
90.000003
  0
ARC
  5
1F5
100
AcDbEntity
  8
0
370
    35
390
0
 62
     7
100
AcDbCircle
 10
118.715126
 20
129.249908
 30
0.0
 40
0.5
210
0.0
220
0.0
230
1.0
100
AcDbArc
 50
90.000003
 51
180.000009
  0
ARC
  5
1F6
100
AcDbEntity
  8
0
370
    35
390
0
 62
     7
100
AcDbCircle
 10
127.715126
 20
120.750038
 30
0.0
 40
1.0
210
0.0
220
0.0
230
1.0
100
AcDbArc
 50
269.999997
 51
360.0
  0
ARC
  5
1F7
100
AcDbEntity
  8
0
370
    35
390
0
 62
     7
100
AcDbCircle
 10
127.715126
 20
128.749908
 30
0.0
 40
1.0
210
0.0
220
0.0
230
1.0
100
AcDbArc
 50
0.0
 51
90.000003
  0
ARC
  5
1F8
100
AcDbEntity
  8
0
370
    35
390
0
 62
     7
100
AcDbCircle
 10
117.715126
 20
120.750038
 30
0.0
 40
0.5
210
0.0
220
0.0
230
1.0
100
AcDbArc
 50
233.123103
 51
360.0
  0
CIRCLE
  5
1F9
100
AcDbEntity
  8
0
370
    35
390
0
 62
     7
100
AcDbCircle
 10
68.715096
 20
106.750031
 30
0.0
 40
2.1
210
0.0
220
0.0
230
1.0
  0
CIRCLE
  5
1FA
100
AcDbEntity
  8
0
370
    35
390
0
 62
     7
100
AcDbCircle
 10
68.715096
 20
121.749985
 30
0.0
 40
2.1
210
0.0
220
0.0
230
1.0
  0
ARC
  5
1FB
100
AcDbEntity
  8
0
370
    35
390
0
 62
     7
100
AcDbCircle
 10
116.415077
 20
71.049942
 30
0.0
 40
1.0
210
0.0
220
0.0
230
1.0
100
AcDbArc
 50
0.0
 51
90.000003
  0
ARC
  5
1FC
100
AcDbEntity
  8
0
370
    35
390
0
 62
     7
100
AcDbCircle
 10
115.715126
 20
62.149918
 30
0.0
 40
1.7
210
0.0
220
0.0
230
1.0
100
AcDbArc
 50
269.99997
 51
360.0
  0
ARC
  5
1FD
100
AcDbEntity
  8
0
370
    35
390
0
 62
     7
100
AcDbCircle
 10
115.715126
 20
101.649811
 30
0.0
 40
1.7
210
0.0
220
0.0
230
1.0
100
AcDbArc
 50
269.99997
 51
0.00002
  0
ARC
  5
1FE
100
AcDbEntity
  8
0
370
    35
390
0
 62
     7
100
AcDbCircle
 10
115.715126
 20
130.849915
 30
0.0
 40
1.7
210
0.0
220
0.0
230
1.0
100
AcDbArc
 50
0.000064
 51
90.00003
  0
ARC
  5
1FF
100
AcDbEntity
  8
0
370
    35
390
0
 62
     7
100
AcDbCircle
 10
30.81144
 20
39.750141
 30
0.0
 40
0.7
210
0.0
220
0.0
230
1.0
100
AcDbArc
 50
359.999682
 51
180.000009
  0
ARC
  5
200
100
AcDbEntity
  8
0
370
    35
390
0
 62
     7
100
AcDbCircle
 10
30.81144
 20
29.750137
 30
0.0
 40
0.7
210
0.0
220
0.0
230
1.0
100
AcDbArc
 50
180.000009
 51
360.0
  0
ARC
  5
201
100
AcDbEntity
  8
0
370
    35
390
0
 62
     7
100
AcDbCircle
 10
119.715126
 20
61.849945
 30
0.0
 40
0.5
210
0.0
220
0.0
230
1.0
100
AcDbArc
 50
269.999997
 51
360.0
  0
ARC
  5
202
100
AcDbEntity
  8
0
370
    35
390
0
 62
     7
100
AcDbCircle
 10
118.715126
 20
61.849945
 30
0.0
 40
0.5
210
0.0
220
0.0
230
1.0
100
AcDbArc
 50
180.000009
 51
269.999997
  0
ARC
  5
203
100
AcDbEntity
  8
0
370
    35
390
0
 62
     7
100
AcDbCircle
 10
127.715126
 20
62.349945
 30
0.0
 40
1.0
210
0.0
220
0.0
230
1.0
100
AcDbArc
 50
269.999997
 51
360.0
  0
ARC
  5
204
100
AcDbEntity
  8
0
370
    35
390
0
 62
     7
100
AcDbCircle
 10
117.715126
 20
62.349945
 30
0.0
 40
0.5
210
0.0
220
0.0
230
1.0
100
AcDbArc
 50
233.123376
 51
360.0
  0
ARC
  5
205
100
AcDbEntity
  8
0
370
    35
390
0
 62
     7
100
AcDbCircle
 10
117.715126
 20
70.349823
 30
0.0
 40
0.5
210
0.0
220
0.0
230
1.0
100
AcDbArc
 50
90.000003
 51
126.876897
  0
ARC
  5
206
100
AcDbEntity
  8
0
370
    35
390
0
 62
     7
100
AcDbCircle
 10
80.415123
 20
67.94989
 30
0.0
 40
0.3
210
0.0
220
0.0
230
1.0
100
AcDbArc
 50
180.000009
 51
269.999997
  0
ARC
  5
207
100
AcDbEntity
  8
0
370
    35
390
0
 62
     7
100
AcDbCircle
 10
80.415123
 20
66.549896
 30
0.0
 40
0.3
210
0.0
220
0.0
230
1.0
100
AcDbArc
 50
90.000003
 51
180.000733
  0
ARC
  5
208
100
AcDbEntity
  8
0
370
    35
390
0
 62
     7
100
AcDbCircle
 10
79.015129
 20
66.549896
 30
0.0
 40
0.3
210
0.0
220
0.0
230
1.0
100
AcDbArc
 50
0.0
 51
90.000003
  0
ARC
  5
209
100
AcDbEntity
  8
0
370
    35
390
0
 62
     7
100
AcDbCircle
 10
79.015129
 20
67.94989
 30
0.0
 40
0.3
210
0.0
220
0.0
230
1.0
100
AcDbArc
 50
269.999997
 51
360.0
  0
CIRCLE
  5
20A
100
AcDbEntity
  8
0
370
    35
390
0
 62
     7
100
AcDbCircle
 10
79.715126
 20
67.249893
 30
0.0
 40
2.05
210
0.0
220
0.0
230
1.0
  0
ARC
  5
20B
100
AcDbEntity
  8
0
370
    35
390
0
 62
     7
100
AcDbCircle
 10
160.034882
 20
79.750137
 30
0.0
 40
42.75
210
0.0
220
0.0
230
1.0
100
AcDbArc
 50
269.999997
 51
90.000003
  0
ARC
  5
20C
100
AcDbEntity
  8
0
370
    35
390
0
 62
     7
100
AcDbCircle
 10
160.034882
 20
79.750137
 30
0.0
 40
47.25
210
0.0
220
0.0
230
1.0
100
AcDbArc
 50
269.999997
 51
90.000003
  0
ARC
  5
20D
100
AcDbEntity
  8
0
370
    35
390
0
 62
     7
100
AcDbCircle
 10
48.614998
 20
117.569099
 30
0.0
 40
0.35
210
0.0
220
0.0
230
1.0
100
AcDbArc
 50
30.992164
 51
149.008828
  0
ARC
  5
20E
100
AcDbEntity
  8
0
370
    35
390
0
 62
     7
100
AcDbCircle
 10
46.815025
 20
117.569099
 30
0.0
 40
0.35
210
0.0
220
0.0
230
1.0
100
AcDbArc
 50
30.982766
 51
149.018171
  0
ARC
  5
20F
100
AcDbEntity
  8
0
370
    35
390
0
 62
     7
100
AcDbCircle
 10
45.015068
 20
117.569099
 30
0.0
 40
0.35
210
0.0
220
0.0
230
1.0
100
AcDbArc
 50
30.974949
 51
149.025179
  0
ARC
  5
210
100
AcDbEntity
  8
0
370
    35
390
0
 62
     7
100
AcDbCircle
 10
43.214958
 20
117.569099
 30
0.0
 40
0.35
210
0.0
220
0.0
230
1.0
100
AcDbArc
 50
30.997062
 51
149.00406
  0
ARC
  5
211
100
AcDbEntity
  8
0
370
    35
390
0
 62
     7
100
AcDbCircle
 10
41.414986
 20
117.569099
 30
0.0
 40
0.35
210
0.0
220
0.0
230
1.0
100
AcDbArc
 50
30.987533
 51
149.013732
  0
ARC
  5
212
100
AcDbEntity
  8
0
370
    35
390
0
 62
     7
100
AcDbCircle
 10
39.614998
 20
117.569099
 30
0.0
 40
0.35
210
0.0
220
0.0
230
1.0
100
AcDbArc
 50
30.987533
 51
149.011751
  0
ARC
  5
213
100
AcDbEntity
  8
0
370
    35
390
0
 62
     7
100
AcDbCircle
 10
37.81501
 20
117.569099
 30
0.0
 40
0.35
210
0.0
220
0.0
230
1.0
100
AcDbArc
 50
30.98627
 51
149.012871
  0
ARC
  5
214
100
AcDbEntity
  8
0
370
    35
390
0
 62
     7
100
AcDbCircle
 10
36.014992
 20
117.569099
 30
0.0
 40
0.35
210
0.0
220
0.0
230
1.0
100
AcDbArc
 50
30.986943
 51
149.011819
  0
ARC
  5
215
100
AcDbEntity
  8
0
370
    35
390
0
 62
     7
100
AcDbCircle
 10
34.214989
 20
117.569099
 30
0.0
 40
0.35
210
0.0
220
0.0
230
1.0
100
AcDbArc
 50
30.988199
 51
149.011423
  0
ARC
  5
216
100
AcDbEntity
  8
0
370
    35
390
0
 62
     7
100
AcDbCircle
 10
32.414986
 20
117.569099
 30
0.0
 40
0.35
210
0.0
220
0.0
230
1.0
100
AcDbArc
 50
30.9878
 51
149.01156
  0
ARC
  5
217
100
AcDbEntity
  8
0
370
    35
390
0
 62
     7
100
AcDbCircle
 10
30.614983
 20
117.569099
 30
0.0
 40
0.35
210
0.0
220
0.0
230
1.0
100
AcDbArc
 50
30.991092
 51
149.009552
  0
ARC
  5
218
100
AcDbEntity
  8
0
370
    35
390
0
 62
     7
100
AcDbCircle
 10
49.515007
 20
116.944344
 30
0.0
 40
0.1
210
0.0
220
0.0
230
1.0
100
AcDbArc
 50
210.932651
 51
329.065947
  0
ARC
  5
219
100
AcDbEntity
  8
0
370
    35
390
0
 62
     7
100
AcDbCircle
 10
47.715034
 20
116.944344
 30
0.0
 40
0.1
210
0.0
220
0.0
230
1.0
100
AcDbArc
 50
210.96601
 51
329.032124
  0
ARC
  5
21A
100
AcDbEntity
  8
0
370
    35
390
0
 62
     7
100
AcDbCircle
 10
45.915062
 20
116.944344
 30
0.0
 40
0.1
210
0.0
220
0.0
230
1.0
100
AcDbArc
 50
210.999369
 51
328.998301
  0
ARC
  5
21B
100
AcDbEntity
  8
0
370
    35
390
0
 62
     7
100
AcDbCircle
 10
44.114967
 20
116.944099
 30
0.0
 40
0.1
210
0.0
220
0.0
230
1.0
100
AcDbArc
 50
211.035541
 51
328.961472
  0
ARC
  5
21C
100
AcDbEntity
  8
0
370
    35
390
0
 62
     7
100
AcDbCircle
 10
42.314995
 20
116.944344
 30
0.0
 40
0.1
210
0.0
220
0.0
230
1.0
100
AcDbArc
 50
210.949331
 51
329.047205
  0
ARC
  5
21D
100
AcDbEntity
  8
0
370
    35
390
0
 62
     7
100
AcDbCircle
 10
40.514992
 20
116.944344
 30
0.0
 40
0.1
210
0.0
220
0.0
230
1.0
100
AcDbArc
 50
210.954207
 51
329.045344
  0
ARC
  5
21E
100
AcDbEntity
  8
0
370
    35
390
0
 62
     7
100
AcDbCircle
 10
38.715004
 20
116.944344
 30
0.0
 40
0.1
210
0.0
220
0.0
230
1.0
100
AcDbArc
 50
210.958606
 51
329.041386
  0
ARC
  5
21F
100
AcDbEntity
  8
0
370
    35
390
0
 62
     7
100
AcDbCircle
 10
36.915001
 20
116.944344
 30
0.0
 40
0.1
210
0.0
220
0.0
230
1.0
100
AcDbArc
 50
210.949795
 51
329.052068
  0
ARC
  5
220
100
AcDbEntity
  8
0
370
    35
390
0
 62
     7
100
AcDbCircle
 10
35.114998
 20
116.944344
 30
0.0
 40
0.1
210
0.0
220
0.0
230
1.0
100
AcDbArc
 50
210.956256
 51
329.049746
  0
ARC
  5
221
100
AcDbEntity
  8
0
370
    35
390
0
 62
     7
100
AcDbCircle
 10
33.314995
 20
116.944344
 30
0.0
 40
0.1
210
0.0
220
0.0
230
1.0
100
AcDbArc
 50
210.952978
 51
329.053379
  0
ARC
  5
222
100
AcDbEntity
  8
0
370
    35
390
0
 62
     7
100
AcDbCircle
 10
31.514977
 20
116.944344
 30
0.0
 40
0.1
210
0.0
220
0.0
230
1.0
100
AcDbArc
 50
210.942391
 51
329.057614
  0
ARC
  5
223
100
AcDbEntity
  8
0
370
    35
390
0
 62
     7
100
AcDbCircle
 10
48.614998
 20
110.930916
 30
0.0
 40
0.35
210
0.0
220
0.0
230
1.0
100
AcDbArc
 50
210.99217
 51
329.007836
  0
ARC
  5
224
100
AcDbEntity
  8
0
370
    35
390
0
 62
     7
100
AcDbCircle
 10
46.815025
 20
110.930916
 30
0.0
 40
0.35
210
0.0
220
0.0
230
1.0
100
AcDbArc
 50
210.981829
 51
329.017371
  0
ARC
  5
225
100
AcDbEntity
  8
0
370
    35
390
0
 62
     7
100
AcDbCircle
 10
45.015068
 20
110.930916
 30
0.0
 40
0.35
210
0.0
220
0.0
230
1.0
100
AcDbArc
 50
210.974753
 51
329.02513
  0
ARC
  5
226
100
AcDbEntity
  8
0
370
    35
390
0
 62
     7
100
AcDbCircle
 10
43.214958
 20
110.930916
 30
0.0
 40
0.35
210
0.0
220
0.0
230
1.0
100
AcDbArc
 50
210.995872
 51
329.003082
  0
ARC
  5
227
100
AcDbEntity
  8
0
370
    35
390
0
 62
     7
100
AcDbCircle
 10
41.414986
 20
110.930916
 30
0.0
 40
0.35
210
0.0
220
0.0
230
1.0
100
AcDbArc
 50
210.986214
 51
329.012535
  0
ARC
  5
228
100
AcDbEntity
  8
0
370
    35
390
0
 62
     7
100
AcDbCircle
 10
39.614998
 20
110.930916
 30
0.0
 40
0.35
210
0.0
220
0.0
230
1.0
100
AcDbArc
 50
210.988194
 51
329.012535
  0
ARC
  5
229
100
AcDbEntity
  8
0
370
    35
390
0
 62
     7
100
AcDbCircle
 10
37.81501
 20
110.930916
 30
0.0
 40
0.35
210
0.0
220
0.0
230
1.0
100
AcDbArc
 50
210.980326
 51
329.013874
  0
ARC
  5
22A
100
AcDbEntity
  8
0
370
    35
390
0
 62
     7
100
AcDbCircle
 10
36.014992
 20
110.930916
 30
0.0
 40
0.35
210
0.0
220
0.0
230
1.0
100
AcDbArc
 50
210.988181
 51
329.013054
  0
ARC
  5
22B
100
AcDbEntity
  8
0
370
    35
390
0
 62
     7
100
AcDbCircle
 10
34.214989
 20
110.930916
 30
0.0
 40
0.35
210
0.0
220
0.0
230
1.0
100
AcDbArc
 50
210.988509
 51
329.011797
  0
ARC
  5
22C
100
AcDbEntity
  8
0
370
    35
390
0
 62
     7
100
AcDbCircle
 10
32.414986
 20
110.930916
 30
0.0
 40
0.35
210
0.0
220
0.0
230
1.0
100
AcDbArc
 50
210.988386
 51
329.012207
  0
ARC
  5
22D
100
AcDbEntity
  8
0
370
    35
390
0
 62
     7
100
AcDbCircle
 10
30.614983
 20
110.930916
 30
0.0
 40
0.35
210
0.0
220
0.0
230
1.0
100
AcDbArc
 50
210.99038
 51
329.008983
  0
ARC
  5
22E
100
AcDbEntity
  8
0
370
    35
390
0
 62
     7
100
AcDbCircle
 10
49.515007
 20
111.555672
 30
0.0
 40
0.1
210
0.0
220
0.0
230
1.0
100
AcDbArc
 50
30.934521
 51
149.067349
  0
ARC
  5
22F
100
AcDbEntity
  8
0
370
    35
390
0
 62
     7
100
AcDbCircle
 10
47.715034
 20
111.555672
 30
0.0
 40
0.1
210
0.0
220
0.0
230
1.0
100
AcDbArc
 50
30.968347
 51
149.03399
  0
ARC
  5
230
100
AcDbEntity
  8
0
370
    35
390
0
 62
     7
100
AcDbCircle
 10
45.915062
 20
111.555672
 30
0.0
 40
0.1
210
0.0
220
0.0
230
1.0
100
AcDbArc
 50
31.00171
 51
149.000631
  0
ARC
  5
231
100
AcDbEntity
  8
0
370
    35
390
0
 62
     7
100
AcDbCircle
 10
44.114967
 20
111.555916
 30
0.0
 40
0.1
210
0.0
220
0.0
230
1.0
100
AcDbArc
 50
31.038538
 51
148.964459
  0
ARC
  5
232
100
AcDbEntity
  8
0
370
    35
390
0
 62
     7
100
AcDbCircle
 10
42.314995
 20
111.555672
 30
0.0
 40
0.1
210
0.0
220
0.0
230
1.0
100
AcDbArc
 50
30.952792
 51
149.050669
  0
ARC
  5
233
100
AcDbEntity
  8
0
370
    35
390
0
 62
     7
100
AcDbCircle
 10
40.514992
 20
111.555672
 30
0.0
 40
0.1
210
0.0
220
0.0
230
1.0
100
AcDbArc
 50
30.955134
 51
149.045806
  0
ARC
  5
234
100
AcDbEntity
  8
0
370
    35
390
0
 62
     7
100
AcDbCircle
 10
38.715004
 20
111.555672
 30
0.0
 40
0.1
210
0.0
220
0.0
230
1.0
100
AcDbArc
 50
30.959072
 51
149.04093
  0
ARC
  5
235
100
AcDbEntity
  8
0
370
    35
390
0
 62
     7
100
AcDbCircle
 10
36.915001
 20
111.555672
 30
0.0
 40
0.1
210
0.0
220
0.0
230
1.0
100
AcDbArc
 50
30.94839
 51
149.050205
  0
ARC
  5
236
100
AcDbEntity
  8
0
370
    35
390
0
 62
     7
100
AcDbCircle
 10
35.114998
 20
111.555672
 30
0.0
 40
0.1
210
0.0
220
0.0
230
1.0
100
AcDbArc
 50
30.950261
 51
149.043744
  0
ARC
  5
237
100
AcDbEntity
  8
0
370
    35
390
0
 62
     7
100
AcDbCircle
 10
33.314995
 20
111.555672
 30
0.0
 40
0.1
210
0.0
220
0.0
230
1.0
100
AcDbArc
 50
30.947078
 51
149.047022
  0
ARC
  5
238
100
AcDbEntity
  8
0
370
    35
390
0
 62
     7
100
AcDbCircle
 10
31.514977
 20
111.555672
 30
0.0
 40
0.1
210
0.0
220
0.0
230
1.0
100
AcDbArc
 50
30.942393
 51
149.057609
  0
ARC
  5
239
100
AcDbEntity
  8
0
370
    35
390
0
 62
     7
100
AcDbCircle
 10
50.557228
 20
117.805908
 30
0.0
 40
0.35
210
0.0
220
0.0
230
1.0
100
AcDbArc
 50
66.575199
 51
149.020015
  0
ARC
  5
23A
100
AcDbEntity
  8
0
370
    35
390
0
 62
     7
100
AcDbCircle
 10
50.557228
 20
110.694107
 30
0.0
 40
0.35
210
0.0
220
0.0
230
1.0
100
AcDbArc
 50
210.980572
 51
293.424842
  0
ARC
  5
23B
100
AcDbEntity
  8
0
370
    35
390
0
 62
     7
100
AcDbCircle
 10
48.614998
 20
70.568985
 30
0.0
 40
0.35
210
0.0
220
0.0
230
1.0
100
AcDbArc
 50
30.992031
 51
149.00936
  0
ARC
  5
23C
100
AcDbEntity
  8
0
370
    35
390
0
 62
     7
100
AcDbCircle
 10
46.815025
 20
70.568985
 30
0.0
 40
0.35
210
0.0
220
0.0
230
1.0
100
AcDbArc
 50
30.9825
 51
149.018567
  0
ARC
  5
23D
100
AcDbEntity
  8
0
370
    35
390
0
 62
     7
100
AcDbCircle
 10
45.015068
 20
70.568985
 30
0.0
 40
0.35
210
0.0
220
0.0
230
1.0
100
AcDbArc
 50
30.974679
 51
149.025316
  0
ARC
  5
23E
100
AcDbEntity
  8
0
370
    35
390
0
 62
     7
100
AcDbCircle
 10
43.214958
 20
70.568985
 30
0.0
 40
0.35
210
0.0
220
0.0
230
1.0
100
AcDbArc
 50
30.996529
 51
149.004333
  0
ARC
  5
23F
100
AcDbEntity
  8
0
370
    35
390
0
 62
     7
100
AcDbCircle
 10
41.414986
 20
70.568985
 30
0.0
 40
0.35
210
0.0
220
0.0
230
1.0
100
AcDbArc
 50
30.986997
 51
149.013855
  0
ARC
  5
240
100
AcDbEntity
  8
0
370
    35
390
0
 62
     7
100
AcDbCircle
 10
39.614998
 20
70.568985
 30
0.0
 40
0.35
210
0.0
220
0.0
230
1.0
100
AcDbArc
 50
30.986997
 51
149.012147
  0
ARC
  5
241
100
AcDbEntity
  8
0
370
    35
390
0
 62
     7
100
AcDbCircle
 10
37.81501
 20
70.568985
 30
0.0
 40
0.35
210
0.0
220
0.0
230
1.0
100
AcDbArc
 50
30.98614
 51
149.013008
  0
ARC
  5
242
100
AcDbEntity
  8
0
370
    35
390
0
 62
     7
100
AcDbCircle
 10
36.014992
 20
70.568985
 30
0.0
 40
0.35
210
0.0
220
0.0
230
1.0
100
AcDbArc
 50
30.986676
 51
149.011819
  0
ARC
  5
243
100
AcDbEntity
  8
0
370
    35
390
0
 62
     7
100
AcDbCircle
 10
34.214989
 20
70.568985
 30
0.0
 40
0.35
210
0.0
220
0.0
230
1.0
100
AcDbArc
 50
30.98807
 51
149.011819
  0
ARC
  5
244
100
AcDbEntity
  8
0
370
    35
390
0
 62
     7
100
AcDbCircle
 10
32.414986
 20
70.568985
 30
0.0
 40
0.35
210
0.0
220
0.0
230
1.0
100
AcDbArc
 50
30.987533
 51
149.011819
  0
ARC
  5
245
100
AcDbEntity
  8
0
370
    35
390
0
 62
     7
100
AcDbCircle
 10
30.614983
 20
70.568985
 30
0.0
 40
0.35
210
0.0
220
0.0
230
1.0
100
AcDbArc
 50
30.990959
 51
149.009688
  0
ARC
  5
246
100
AcDbEntity
  8
0
370
    35
390
0
 62
     7
100
AcDbCircle
 10
49.515007
 20
69.944229
 30
0.0
 40
0.1
210
0.0
220
0.0
230
1.0
100
AcDbArc
 50
210.934523
 51
329.065482
  0
ARC
  5
247
100
AcDbEntity
  8
0
370
    35
390
0
 62
     7
100
AcDbCircle
 10
47.715034
 20
69.944229
 30
0.0
 40
0.1
210
0.0
220
0.0
230
1.0
100
AcDbArc
 50
210.96601
 51
329.030239
  0
ARC
  5
248
100
AcDbEntity
  8
0
370
    35
390
0
 62
     7
100
AcDbCircle
 10
45.915062
 20
69.944229
 30
0.0
 40
0.1
210
0.0
220
0.0
230
1.0
100
AcDbArc
 50
210.999369
 51
328.99688
  0
ARC
  5
249
100
AcDbEntity
  8
0
370
    35
390
0
 62
     7
100
AcDbCircle
 10
44.114967
 20
69.943985
 30
0.0
 40
0.1
210
0.0
220
0.0
230
1.0
100
AcDbArc
 50
211.036484
 51
328.960516
  0
ARC
  5
24A
100
AcDbEntity
  8
0
370
    35
390
0
 62
     7
100
AcDbCircle
 10
42.314995
 20
69.944229
 30
0.0
 40
0.1
210
0.0
220
0.0
230
1.0
100
AcDbArc
 50
210.95026
 51
329.04674
  0
ARC
  5
24B
100
AcDbEntity
  8
0
370
    35
390
0
 62
     7
100
AcDbCircle
 10
40.514992
 20
69.944229
 30
0.0
 40
0.1
210
0.0
220
0.0
230
1.0
100
AcDbArc
 50
210.955136
 51
329.044855
  0
ARC
  5
24C
100
AcDbEntity
  8
0
370
    35
390
0
 62
     7
100
AcDbCircle
 10
38.715004
 20
69.944229
 30
0.0
 40
0.1
210
0.0
220
0.0
230
1.0
100
AcDbArc
 50
210.960013
 51
329.039992
  0
ARC
  5
24D
100
AcDbEntity
  8
0
370
    35
390
0
 62
     7
100
AcDbCircle
 10
36.915001
 20
69.944229
 30
0.0
 40
0.1
210
0.0
220
0.0
230
1.0
100
AcDbArc
 50
210.95026
 51
329.051607
  0
ARC
  5
24E
100
AcDbEntity
  8
0
370
    35
390
0
 62
     7
100
AcDbCircle
 10
35.114998
 20
69.944229
 30
0.0
 40
0.1
210
0.0
220
0.0
230
1.0
100
AcDbArc
 50
210.956256
 51
329.047861
  0
ARC
  5
24F
100
AcDbEntity
  8
0
370
    35
390
0
 62
     7
100
AcDbCircle
 10
33.314995
 20
69.944229
 30
0.0
 40
0.1
210
0.0
220
0.0
230
1.0
100
AcDbArc
 50
210.954385
 51
329.051986
  0
ARC
  5
250
100
AcDbEntity
  8
0
370
    35
390
0
 62
     7
100
AcDbCircle
 10
31.514977
 20
69.944229
 30
0.0
 40
0.1
210
0.0
220
0.0
230
1.0
100
AcDbArc
 50
210.944263
 51
329.055729
  0
ARC
  5
251
100
AcDbEntity
  8
0
370
    35
390
0
 62
     7
100
AcDbCircle
 10
48.614998
 20
63.930801
 30
0.0
 40
0.35
210
0.0
220
0.0
230
1.0
100
AcDbArc
 50
210.992566
 51
329.007426
  0
ARC
  5
252
100
AcDbEntity
  8
0
370
    35
390
0
 62
     7
100
AcDbCircle
 10
46.815025
 20
63.930801
 30
0.0
 40
0.35
210
0.0
220
0.0
230
1.0
100
AcDbArc
 50
210.981965
 51
329.016961
  0
ARC
  5
253
100
AcDbEntity
  8
0
370
    35
390
0
 62
     7
100
AcDbCircle
 10
45.015068
 20
63.930801
 30
0.0
 40
0.35
210
0.0
220
0.0
230
1.0
100
AcDbArc
 50
210.975217
 51
329.024775
  0
ARC
  5
254
100
AcDbEntity
  8
0
370
    35
390
0
 62
     7
100
AcDbCircle
 10
43.214958
 20
63.930801
 30
0.0
 40
0.35
210
0.0
220
0.0
230
1.0
100
AcDbArc
 50
210.996213
 51
329.002945
  0
ARC
  5
255
100
AcDbEntity
  8
0
370
    35
390
0
 62
     7
100
AcDbCircle
 10
41.414986
 20
63.930801
 30
0.0
 40
0.35
210
0.0
220
0.0
230
1.0
100
AcDbArc
 50
210.986678
 51
329.01248
  0
ARC
  5
256
100
AcDbEntity
  8
0
370
    35
390
0
 62
     7
100
AcDbCircle
 10
39.614998
 20
63.930801
 30
0.0
 40
0.35
210
0.0
220
0.0
230
1.0
100
AcDbArc
 50
210.988386
 51
329.01248
  0
ARC
  5
257
100
AcDbEntity
  8
0
370
    35
390
0
 62
     7
100
AcDbCircle
 10
37.81501
 20
63.930801
 30
0.0
 40
0.35
210
0.0
220
0.0
230
1.0
100
AcDbArc
 50
210.980791
 51
329.013327
  0
ARC
  5
258
100
AcDbEntity
  8
0
370
    35
390
0
 62
     7
100
AcDbCircle
 10
36.014992
 20
63.930801
 30
0.0
 40
0.35
210
0.0
220
0.0
230
1.0
100
AcDbArc
 50
210.988714
 51
329.012781
  0
ARC
  5
259
100
AcDbEntity
  8
0
370
    35
390
0
 62
     7
100
AcDbCircle
 10
34.214989
 20
63.930801
 30
0.0
 40
0.35
210
0.0
220
0.0
230
1.0
100
AcDbArc
 50
210.988714
 51
329.011387
  0
ARC
  5
25A
100
AcDbEntity
  8
0
370
    35
390
0
 62
     7
100
AcDbCircle
 10
32.414986
 20
63.930801
 30
0.0
 40
0.35
210
0.0
220
0.0
230
1.0
100
AcDbArc
 50
210.988714
 51
329.01193
  0
ARC
  5
25B
100
AcDbEntity
  8
0
370
    35
390
0
 62
     7
100
AcDbCircle
 10
30.614983
 20
63.930801
 30
0.0
 40
0.35
210
0.0
220
0.0
230
1.0
100
AcDbArc
 50
210.990858
 51
329.008519
  0
ARC
  5
25C
100
AcDbEntity
  8
0
370
    35
390
0
 62
     7
100
AcDbCircle
 10
49.515007
 20
64.555557
 30
0.0
 40
0.1
210
0.0
220
0.0
230
1.0
100
AcDbArc
 50
30.932646
 51
149.067349
  0
ARC
  5
25D
100
AcDbEntity
  8
0
370
    35
390
0
 62
     7
100
AcDbCircle
 10
47.715034
 20
64.555557
 30
0.0
 40
0.1
210
0.0
220
0.0
230
1.0
100
AcDbArc
 50
30.96788
 51
149.03399
  0
ARC
  5
25E
100
AcDbEntity
  8
0
370
    35
390
0
 62
     7
100
AcDbCircle
 10
45.915062
 20
64.555557
 30
0.0
 40
0.1
210
0.0
220
0.0
230
1.0
100
AcDbArc
 50
31.001242
 51
149.002503
  0
ARC
  5
25F
100
AcDbEntity
  8
0
370
    35
390
0
 62
     7
100
AcDbCircle
 10
44.114967
 20
64.555801
 30
0.0
 40
0.1
210
0.0
220
0.0
230
1.0
100
AcDbArc
 50
31.037599
 51
148.965401
  0
ARC
  5
260
100
AcDbEntity
  8
0
370
    35
390
0
 62
     7
100
AcDbCircle
 10
42.314995
 20
64.555557
 30
0.0
 40
0.1
210
0.0
220
0.0
230
1.0
100
AcDbArc
 50
30.951388
 51
149.051612
  0
ARC
  5
261
100
AcDbEntity
  8
0
370
    35
390
0
 62
     7
100
AcDbCircle
 10
40.514992
 20
64.555557
 30
0.0
 40
0.1
210
0.0
220
0.0
230
1.0
100
AcDbArc
 50
30.95326
 51
149.046735
  0
ARC
  5
262
100
AcDbEntity
  8
0
370
    35
390
0
 62
     7
100
AcDbCircle
 10
38.715004
 20
64.555557
 30
0.0
 40
0.1
210
0.0
220
0.0
230
1.0
100
AcDbArc
 50
30.958133
 51
149.041872
  0
ARC
  5
263
100
AcDbEntity
  8
0
370
    35
390
0
 62
     7
100
AcDbCircle
 10
36.915001
 20
64.555557
 30
0.0
 40
0.1
210
0.0
220
0.0
230
1.0
100
AcDbArc
 50
30.946515
 51
149.051612
  0
ARC
  5
264
100
AcDbEntity
  8
0
370
    35
390
0
 62
     7
100
AcDbCircle
 10
35.114998
 20
64.555557
 30
0.0
 40
0.1
210
0.0
220
0.0
230
1.0
100
AcDbArc
 50
30.950261
 51
149.045615
  0
ARC
  5
265
100
AcDbEntity
  8
0
370
    35
390
0
 62
     7
100
AcDbCircle
 10
33.314995
 20
64.555557
 30
0.0
 40
0.1
210
0.0
220
0.0
230
1.0
100
AcDbArc
 50
30.946139
 51
149.047486
  0
ARC
  5
266
100
AcDbEntity
  8
0
370
    35
390
0
 62
     7
100
AcDbCircle
 10
31.514977
 20
64.555557
 30
0.0
 40
0.1
210
0.0
220
0.0
230
1.0
100
AcDbArc
 50
30.942393
 51
149.057609
  0
ARC
  5
267
100
AcDbEntity
  8
0
370
    35
390
0
 62
     7
100
AcDbCircle
 10
50.557228
 20
70.805794
 30
0.0
 40
0.35
210
0.0
220
0.0
230
1.0
100
AcDbArc
 50
66.575015
 51
149.020289
  0
ARC
  5
268
100
AcDbEntity
  8
0
370
    35
390
0
 62
     7
100
AcDbCircle
 10
50.557228
 20
63.694
 30
0.0
 40
0.35
210
0.0
220
0.0
230
1.0
100
AcDbArc
 50
210.981105
 51
293.424732
  0
ARC
  5
269
100
AcDbEntity
  8
0
370
    35
390
0
 62
     7
100
AcDbCircle
 10
83.915077
 20
69.349945
 30
0.0
 40
1.0
210
0.0
220
0.0
230
1.0
100
AcDbArc
 50
90.000003
 51
180.000009
  0
ARC
  5
26A
100
AcDbEntity
  8
0
370
    35
390
0
 62
     7
100
AcDbCircle
 10
83.915077
 20
63.149948
 30
0.0
 40
1.0
210
0.0
220
0.0
230
1.0
100
AcDbArc
 50
180.000009
 51
269.999997
  0
ARC
  5
26B
100
AcDbEntity
  8
0
370
    35
390
0
 62
     7
100
AcDbCircle
 10
113.915077
 20
69.349945
 30
0.0
 40
1.0
210
0.0
220
0.0
230
1.0
100
AcDbArc
 50
0.0
 51
90.000003
  0
ARC
  5
26C
100
AcDbEntity
  8
0
370
    35
390
0
 62
     7
100
AcDbCircle
 10
113.915077
 20
63.149948
 30
0.0
 40
1.0
210
0.0
220
0.0
230
1.0
100
AcDbArc
 50
269.999997
 51
360.0
  0
ARC
  5
26D
100
AcDbEntity
  8
0
370
    35
390
0
 62
     7
100
AcDbCircle
 10
70.129311
 20
100.750008
 30
0.0
 40
1.0
210
0.0
220
0.0
230
1.0
100
AcDbArc
 50
225.002281
 51
269.999997
  0
ARC
  5
26E
100
AcDbEntity
  8
0
370
    35
390
0
 62
     7
100
AcDbCircle
 10
122.074425
 20
33.523087
 30
0.0
 40
3.624884
210
0.0
220
0.0
230
1.0
100
AcDbArc
 50
55.938457
 51
73.580419
  0
ARC
  5
26F
100
AcDbEntity
  8
0
370
    35
390
0
 62
     7
100
AcDbCircle
 10
123.787788
 20
35.803097
 30
0.0
 40
0.789369
210
0.0
220
0.0
230
1.0
100
AcDbArc
 50
345.652187
 51
66.332133
  0
ARC
  5
270
100
AcDbEntity
  8
0
370
    35
390
0
 62
     7
100
AcDbCircle
 10
121.776939
 20
37.16761
 30
0.0
 40
3.184005
210
0.0
220
0.0
230
1.0
100
AcDbArc
 50
310.601459
 51
330.66025
  0
ARC
  5
271
100
AcDbEntity
  8
0
370
    35
390
0
 62
     7
100
AcDbCircle
 10
125.917824
 20
32.33588
 30
0.0
 40
3.179369
210
0.0
220
0.0
230
1.0
100
AcDbArc
 50
130.592971
 51
150.697892
  0
ARC
  5
272
100
AcDbEntity
  8
0
370
    35
390
0
 62
     7
100
AcDbCircle
 10
123.911079
 20
33.697632
 30
0.0
 40
0.790083
210
0.0
220
0.0
230
1.0
100
AcDbArc
 50
165.765153
 51
246.301024
  0
ARC
  5
273
100
AcDbEntity
  8
0
370
    35
390
0
 62
     7
100
AcDbCircle
 10
125.623711
 20
35.977188
 30
0.0
 40
3.624881
210
0.0
220
0.0
230
1.0
100
AcDbArc
 50
235.939272
 51
253.580469
  0
ARC
  5
274
100
AcDbEntity
  8
0
370
    35
390
0
 62
     7
100
AcDbCircle
 10
120.574425
 20
33.523087
 30
0.0
 40
3.624884
210
0.0
220
0.0
230
1.0
100
AcDbArc
 50
55.938457
 51
73.580419
  0
ARC
  5
275
100
AcDbEntity
  8
0
370
    35
390
0
 62
     7
100
AcDbCircle
 10
122.287788
 20
35.803097
 30
0.0
 40
0.789369
210
0.0
220
0.0
230
1.0
100
AcDbArc
 50
345.652187
 51
66.332133
  0
ARC
  5
276
100
AcDbEntity
  8
0
370
    35
390
0
 62
     7
100
AcDbCircle
 10
120.276939
 20
37.16761
 30
0.0
 40
3.184005
210
0.0
220
0.0
230
1.0
100
AcDbArc
 50
310.601459
 51
330.66025
  0
ARC
  5
277
100
AcDbEntity
  8
0
370
    35
390
0
 62
     7
100
AcDbCircle
 10
124.417824
 20
32.33588
 30
0.0
 40
3.179369
210
0.0
220
0.0
230
1.0
100
AcDbArc
 50
130.592971
 51
150.697892
  0
ARC
  5
278
100
AcDbEntity
  8
0
370
    35
390
0
 62
     7
100
AcDbCircle
 10
122.411079
 20
33.697632
 30
0.0
 40
0.790083
210
0.0
220
0.0
230
1.0
100
AcDbArc
 50
165.765153
 51
246.301024
  0
ARC
  5
279
100
AcDbEntity
  8
0
370
    35
390
0
 62
     7
100
AcDbCircle
 10
124.123711
 20
35.977188
 30
0.0
 40
3.624881
210
0.0
220
0.0
230
1.0
100
AcDbArc
 50
235.939272
 51
253.580469
  0
ARC
  5
27A
100
AcDbEntity
  8
0
370
    35
390
0
 62
     7
100
AcDbCircle
 10
79.729187
 20
112.991783
 30
0.0
 40
14.242279
210
0.0
220
0.0
230
1.0
100
AcDbArc
 50
261.667085
 51
267.183009
  0
ARC
  5
27B
100
AcDbEntity
  8
0
370
    35
390
0
 62
     7
100
AcDbCircle
 10
79.715126
 20
112.718163
 30
0.0
 40
13.968299
210
0.0
220
0.0
230
1.0
100
AcDbArc
 50
267.18544
 51
272.813899
  0
ARC
  5
27C
100
AcDbEntity
  8
0
370
    35
390
0
 62
     7
100
AcDbCircle
 10
79.701073
 20
112.991776
 30
0.0
 40
14.242276
210
0.0
220
0.0
230
1.0
100
AcDbArc
 50
272.81633
 51
278.33291
  0
ARC
  5
27D
100
AcDbEntity
  8
0
370
    35
390
0
 62
     7
100
AcDbCircle
 10
79.701073
 20
119.507942
 30
0.0
 40
14.242279
210
0.0
220
0.0
230
1.0
100
AcDbArc
 50
81.667076
 51
87.183021
  0
ARC
  5
27E
100
AcDbEntity
  8
0
370
    35
390
0
 62
     7
100
AcDbCircle
 10
79.715126
 20
119.781563
 30
0.0
 40
13.968299
210
0.0
220
0.0
230
1.0
100
AcDbArc
 50
87.185459
 51
92.81389
  0
ARC
  5
27F
100
AcDbEntity
  8
0
370
    35
390
0
 62
     7
100
AcDbCircle
 10
79.729187
 20
119.50795
 30
0.0
 40
14.242276
210
0.0
220
0.0
230
1.0
100
AcDbArc
 50
92.816342
 51
98.332922
  0
ENDSEC
  0
SECTION
  2
OBJECTS
  0
DICTIONARY
  5
19
100
AcDbDictionary
280
     0
281
     1
  3
ACAD_GROUP
350
1A
  3
ACAD_MLINESTYLE
350
1B
  3
ACAD_LAYOUT
350
1E
  3
ACAD_PLOTSETTINGS
350
22
  3
ACAD_PLOTSTYLENAME
350
1F
  3
ACAD_WIPEOUT_VARS
350
23
  0
DICTIONARY
  5
1A
102
{ACAD_REACTORS
330
19
102
}
100
AcDbDictionary
280
     0
281
     1
  0
DICTIONARY
  5
1B
102
{ACAD_REACTORS
330
19
102
}
100
AcDbDictionary
280
     0
281
     1
  3
Standard
350
1C
  0
MLINESTYLE
  5
1C
102
{ACAD_REACTORS
330
1B
102
}
100
AcDbMlineStyle
  2
Standard
 70
     0
  3

 62
     0
 51
90.0
 52
90.0
 71
     2
 49
0.5
 62
   256
  6
ByLayer
 49
-0.5
 62
   256
  6
ByLayer
  0
ACDBDICTIONARYWDFLT
  5
1F
102
{ACAD_REACTORS
330
19
102
}
100
AcDbDictionary
281
     1
  3
Normal
350
1D
100
AcDbDictionaryWithDefault
340
1D
  0
ACDBPLACEHOLDER
  5
1D
102
{ACAD_REACTORS
330
1F
102
}
  0
LAYOUT
  5
20
102
{ACAD_REACTORS
330
1E
102
}
100
AcDbPlotSettings
  1

  2

  4

  6

 40
0.0
 41
0.0
 42
0.0
 43
0.0
 44
0.0
 45
0.0
 46
0.0
 47
0.0
 48
0.0
 49
0.0
140
0.0
141
0.0
142
1.0
143
1.0
 70
  1024
 72
     0
 73
     0
 74
     0
  7

 75
     0
147
1.0
148
0.0
149
0.0
100
AcDbLayout
  1
Model
 70
     0
 71
     0
 10
0.0
 20
0.0
 11
0.0
 21
0.0
 12
0.0
 22
0.0
 32
0.0
 14
0.0
 24
0.0
 34
0.0
 15
0.0
 25
0.0
 35
0.0
146
0.0
 13
0.0
 23
0.0
 33
0.0
 16
0.0
 26
0.0
 36
0.0
 17
0.0
 27
0.0
 37
0.0
 76
     0
330
A
331
0
345
0
346
0
  0
LAYOUT
  5
21
102
{ACAD_REACTORS
330
1E
102
}
100
AcDbPlotSettings
  1

  2

  4

  6

 40
0.0
 41
0.0
 42
0.0
 43
0.0
 44
0.0
 45
0.0
 46
0.0
 47
0.0
 48
0.0
 49
0.0
140
0.0
141
0.0
142
1.0
143
1.0
 70
     0
 72
     0
 73
     0
 74
     0
  7

 75
     0
147
1.0
148
0.0
149
0.0
100
AcDbLayout
  1
Layout1
 70
     0
 71
     0
 10
0.0
 20
0.0
 11
0.0
 21
0.0
 12
0.0
 22
0.0
 32
0.0
 14
0.0
 24
0.0
 34
0.0
 15
0.0
 25
0.0
 35
0.0
146
0.0
 13
0.0
 23
0.0
 33
0.0
 16
0.0
 26
0.0
 36
0.0
 17
0.0
 27
0.0
 37
0.0
 76
     0
330
B
331
0
345
0
346
0
  0
DICTIONARY
  5
1E
102
{ACAD_REACTORS
330
19
102
}
100
AcDbDictionary
280
     0
281
     1
  3
Layout1
350
21
  3
Model
350
20
  0
DICTIONARY
  5
22
102
{ACAD_REACTORS
330
19
102
}
100
AcDbDictionary
280
     0
281
     1
  0
WIPEOUTVARIABLES
  5
23
100
AcDbWipeoutVariables
 70
     1
  0
ENDSEC
  0
EOF
