  0
SECTION
  2
HEADER
  9
$ACADVER
  1
AC1015
  9
$ACADMAINTVER
 70
     6
  9
$DWGCODEPAGE
  3
ANSI_1252
  9
$INSBASE
 10
0.0
 20
0.0
 30
0.0
  9
$EXTMIN
 10
0.0
 20
0.0
 30
0.0
  9
$EXTMAX
 10
244.496353
 20
84.393158
 30
2.0
  9
$LIMMIN
 10
0.0
 20
0.0
  9
$LIMMAX
 10
420.0
 20
297.0
  9
$ORTHOMODE
 70
     0
  9
$REGENMODE
 70
     1
  9
$FILLMODE
 70
     1
  9
$QTEXTMODE
 70
     0
  9
$MIRRTEXT
 70
     1
  9
$LTSCALE
 40
1.0
  9
$ATTMODE
 70
     1
  9
$TEXTSIZE
 40
2.5
  9
$TRACEWID
 40
1.0
  9
$TEXTSTYLE
  7
Standard
  9
$CLAYER
  8
0
  9
$CELTYPE
  6
ByLayer
  9
$CECOLOR
 62
   256
  9
$CELTSCALE
 40
1.0
  9
$DISPSILH
 70
     0
  9
$DIMSCALE
 40
1.0
  9
$DIMASZ
 40
2.5
  9
$DIMEXO
 40
0.625
  9
$DIMDLI
 40
3.75
  9
$DIMRND
 40
0.0
  9
$DIMDLE
 40
0.0
  9
$DIMEXE
 40
1.25
  9
$DIMTP
 40
0.0
  9
$DIMTM
 40
0.0
  9
$DIMTXT
 40
2.5
  9
$DIMCEN
 40
2.5
  9
$DIMTSZ
 40
0.0
  9
$DIMTOL
 70
     0
  9
$DIMLIM
 70
     0
  9
$DIMTIH
 70
     0
  9
$DIMTOH
 70
     0
  9
$DIMSE1
 70
     0
  9
$DIMSE2
 70
     0
  9
$DIMTAD
 70
     1
  9
$DIMZIN
 70
     8
  9
$DIMBLK
  1

  9
$DIMASO
 70
     1
  9
$DIMSHO
 70
     1
  9
$DIMPOST
  1

  9
$DIMAPOST
  1

  9
$DIMALT
 70
     0
  9
$DIMALTD
 70
     3
  9
$DIMALTF
 40
0.03937
  9
$DIMLFAC
 40
1.0
  9
$DIMTOFL
 70
     1
  9
$DIMTVP
 40
0.0
  9
$DIMTIX
 70
     0
  9
$DIMSOXD
 70
     0
  9
$DIMSAH
 70
     0
  9
$DIMBLK1
  1

  9
$DIMBLK2
  1

  9
$DIMSTYLE
  2

  9
$DIMCLRD
 70
     0
  9
$DIMCLRE
 70
     0
  9
$DIMCLRT
 70
     0
  9
$DIMTFAC
 40
1.0
  9
$DIMGAP
 40
0.625
  9
$DIMJUST
 70
     0
  9
$DIMSD1
 70
     0
  9
$DIMSD2
 70
     0
  9
$DIMTOLJ
 70
     0
  9
$DIMTZIN
 70
     8
  9
$DIMALTZ
 70
     0
  9
$DIMALTTZ
 70
     0
  9
$DIMUPT
 70
     0
  9
$DIMDEC
 70
     2
  9
$DIMTDEC
 70
     2
  9
$DIMALTU
 70
     2
  9
$DIMALTTD
 70
     3
  9
$DIMTXSTY
  7
Standard
  9
$DIMAUNIT
 70
     0
  9
$DIMADEC
 70
     0
  9
$DIMALTRND
 40
0.0
  9
$DIMAZIN
 70
     0
  9
$DIMDSEP
 70
    44
  9
$DIMATFIT
 70
     0
  9
$DIMFRAC
 70
     0
  9
$DIMLDRBLK
  1

  9
$DIMLUNIT
 70
     2
  9
$DIMLWD
 70
    -2
  9
$DIMLWE
 70
    -2
  9
$DIMTMOVE
 70
     0
  9
$LUNITS
 70
     2
  9
$LUPREC
 70
     4
  9
$SKETCHINC
 40
1.0
  9
$FILLETRAD
 40
2.5
  9
$AUNITS
 70
     0
  9
$AUPREC
 70
     0
  9
$MENU
  1
.
  9
$ELEVATION
 40
0.0
  9
$PELEVATION
 40
0.0
  9
$THICKNESS
 40
0.0
  9
$LIMCHECK
 70
     0
  9
$CHAMFERA
 40
2.5
  9
$CHAMFERB
 40
2.5
  9
$CHAMFERC
 40
0.0
  9
$CHAMFERD
 40
0.0
  9
$SKPOLY
 70
     0
  9
$TDCREATE
 40
0.000000000
  9
$TDUCREATE
 40
0.000000000
  9
$TDUPDATE
 40
0.000000000
  9
$TDUUPDATE
 40
0.000000000
  9
$TDINDWG
 40
0.0000000000
  9
$TDUSRTIMER
 40
0.0000000000
  9
$USRTIMER
 70
     1
  9
$ANGBASE
 50
0.0
  9
$ANGDIR
 70
     0
  9
$PDMODE
 70
     0
  9
$PDSIZE
 40
0.0
  9
$PLINEWID
 40
0.0
  9
$SPLFRAME
 70
     0
  9
$SPLINETYPE
 70
     6
  9
$SPLINESEGS
 70
     8
  9
$HANDSEED
  5
41F
  9
$SURFTAB1
 70
     6
  9
$SURFTAB2
 70
     6
  9
$SURFTYPE
 70
     6
  9
$SURFU
 70
     6
  9
$SURFV
 70
     6
  9
$UCSBASE
  2

  9
$UCSNAME
  2

  9
$UCSORG
 10
0.0
 20
0.0
 30
0.0
  9
$UCSXDIR
 10
1.0
 20
0.0
 30
0.0
  9
$UCSYDIR
 10
0.0
 20
1.0
 30
0.0
  9
$UCSORTHOREF
  2

  9
$UCSORTHOVIEW
 70
     1
  9
$UCSORGTOP
 10
0.0
 20
0.0
 30
0.0
  9
$UCSORGBOTTOM
 10
0.0
 20
0.0
 30
0.0
  9
$UCSORGLEFT
 10
0.0
 20
0.0
 30
0.0
  9
$UCSORGRIGHT
 10
0.0
 20
0.0
 30
0.0
  9
$UCSORGFRONT
 10
0.0
 20
0.0
 30
0.0
  9
$UCSORGBACK
 10
0.0
 20
0.0
 30
0.0
  9
$PUCSBASE
  2

  9
$PUCSNAME
  2

  9
$PUCSORG
 10
0.0
 20
0.0
 30
0.0
  9
$PUCSXDIR
 10
1.0
 20
0.0
 30
0.0
  9
$PUCSYDIR
 10
0.0
 20
1.0
 30
0.0
  9
$PUCSORTHOREF
  2

  9
$PUCSORTHOVIEW
 70
     0
  9
$PUCSORGTOP
 10
0.0
 20
0.0
 30
0.0
  9
$PUCSORGBOTTOM
 10
0.0
 20
0.0
 30
0.0
  9
$PUCSORGLEFT
 10
0.0
 20
0.0
 30
0.0
  9
$PUCSORGRIGHT
 10
0.0
 20
0.0
 30
0.0
  9
$PUCSORGFRONT
 10
0.0
 20
0.0
 30
0.0
  9
$PUCSORGBACK
 10
0.0
 20
0.0
 30
0.0
  9
$USERI1
 70
     0
  9
$USERI2
 70
     0
  9
$USERI3
 70
     0
  9
$USERI4
 70
     0
  9
$USERI5
 70
     0
  9
$USERR1
 40
0.0
  9
$USERR2
 40
0.0
  9
$USERR3
 40
0.0
  9
$USERR4
 40
0.0
  9
$USERR5
 40
0.0
  9
$WORLDVIEW
 70
     1
  9
$SHADEDGE
 70
     3
  9
$SHADEDIF
 70
    70
  9
$TILEMODE
 70
     1
  9
$MAXACTVP
 70
    48
  9
$PINSBASE
 10
0.0
 20
0.0
 30
0.0
  9
$PLIMCHECK
 70
     0
  9
$PEXTMIN
 10
0.0
 20
0.0
 30
0.0
  9
$PEXTMAX
 10
244.496353
 20
84.393158
 30
2.0
  9
$PLIMMIN
 10
0.0
 20
0.0
  9
$PLIMMAX
 10
420.0
 20
297.0
  9
$UNITMODE
 70
     0
  9
$VISRETAIN
 70
     0
  9
$PLINEGEN
 70
     0
  9
$PSLTSCALE
 70
     1
  9
$TREEDEPTH
 70
  3020
  9
$CMLSTYLE
  2
Standard
  9
$CMLJUST
 70
     0
  9
$CMLSCALE
 40
20.0
  9
$PROXYGRAPHICS
 70
     1
  9
$MEASUREMENT
 70
     1
  9
$CELWEIGHT
370
    -1
  9
$ENDCAPS
280
     0
  9
$JOINSTYLE
280
     0
  9
$LWDISPLAY
290
     0
  9
$INSUNITS
 70
     0
  9
$HYPERLINKBASE
  1

  9
$STYLESHEET
  1

  9
$XEDIT
290
     1
  9
$CEPSNTYPE
380
     0
  9
$PSTYLEMODE
290
     0
  9
$FINGERPRINTGUID
  2

  9
$VERSIONGUID
  2

  9
$EXTNAMES
290
     0
  9
$PSVPSCALE
 40
0.0
  0
ENDSEC
  0
SECTION
  2
CLASSES
  0
CLASS
  1
LWPOLYLINE
  2
AcDbPolyline
  3
AutoCAD 2000
 90
        0
280
     0
281
     1
  0
CLASS
  1
IMAGE
  2
AcDbRasterImage
  3
ISM
 90
      127
280
     0
281
     1
  0
CLASS
  1
OLE2FRAME
  2
AcDbOle2Frame
  3
AutoCAD 2000
 90
        0
280
     0
281
     1
  0
CLASS
  1
HATCH
  2
AcDbHatch
  3
AutoCAD 2000
 90
        0
280
     0
281
     1
  0
CLASS
  1
DICTIONARYVAR
  2
AcDbDictionaryVar
  3
AutoCAD 2000
 90
        0
280
     0
281
     0
  0
CLASS
  1
RASTERVARIABLES
  2
AcDbRasterVariables
  3
ISM
 90
        0
280
     0
281
     0
  0
CLASS
  1
IMAGEDEF
  2
AcDbRasterImageDef
  3
ISM
 90
        0
280
     0
281
     0
  0
CLASS
  1
IMAGEDEF_REACTOR
  2
AcDbRasterImageDefReactor
  3
ISM
 90
        1
280
     0
281
     0
  0
CLASS
  1
IDBUFFER
  2
AcDbIdBuffer
  3
AutoCAD 2000
 90
        0
280
     0
281
     0
  0
CLASS
  1
SPATIAL_FILTER
  2
AcDbSpatialFilter
  3
AutoCAD 2000
 90
        0
280
     0
281
     0
  0
CLASS
  1
XRECORD
  2
AcDbXrecord
  3
AutoCAD 2000
 90
        0
280
     0
281
     0
  0
CLASS
  1
SORTENTSTABLE
  2
AcDbSortentsTable
  3
AutoCAD 2000
 90
        0
280
     0
281
     0
  0
CLASS
  1
LAYER_INDEX
  2
AcDbLayerIndex
  3
AutoCAD 2000
 90
        0
280
     0
281
     0
  0
CLASS
  1
SPATIAL_INDEX
  2
AcDbSpatialIndex
  3
AutoCAD 2000
 90
        0
280
     0
281
     0
  0
CLASS
  1
OBJECT_PTR
  2
CAseDLPNTableRecord
  3
"ASE-LPNTableRecord"
 90
        1
280
     0
281
     0
  0
CLASS
  1
LAYOUT
  2
AcDbLayout
  3
AutoCAD 2000
 90
        0
280
     0
281
     0
  0
CLASS
  1
PLOTSETTINGS
  2
AcDbPlotSettings
  3
AutoCAD 2000
 90
        0
280
     0
281
     0
  0
CLASS
  1
ACDBDICTIONARYWDFLT
  2
AcDbDictionaryWithDefault
  3
AutoCAD 2000
 90
        0
280
     0
281
     0
  0
CLASS
  1
ACDBPLACEHOLDER
  2
AcDbPlaceHolder
  3
AutoCAD 2000
 90
        0
280
     0
281
     0
  0
CLASS
  1
VBA_PROJECT
  2
AcDbVbaProject
  3
acadvba
 90
        0
280
     0
281
     0
  0
CLASS
  1
WIPEOUT
  2
AcDbWipeout
  3
WipeOut|AutoCAD Express Tool|expresstools@autodesk.com
 90
      127
280
     0
281
     1
  0
CLASS
  1
WIPEOUTVARIABLES
  2
AcDbWipeoutVariables
  3
WipeOut|AutoCAD Express Tool|expresstools@autodesk.com
 90
        0
280
     0
281
     0
  0
CLASS
  1
RTEXT
  2
RText
  3
RText|AutoCAD Express Tool|expresstools@autodesk.com
 90
        0
280
     0
281
     1
  0
CLASS
  1
ARCALIGNEDTEXT
  2
AcDbArcAlignedText
  3
ATEXT|AutoCAD Express Tool|expresstools@autodesk.com
 90
        0
280
     0
281
     1
  0
ENDSEC
  0
SECTION
  2
TABLES
  0
TABLE
  2
VPORT
  5
7
100
AcDbSymbolTable
 70
     1
  0
VPORT
  5
15
100
AcDbSymbolTableRecord
100
AcDbViewportTableRecord
  2
*ACTIVE
 70
     0
 10
0.0
 20
0.0
 11
1.0
 21
1.0
 12
6.591288
 22
4.579184
 13
0.0
 23
0.0
 14
1.0
 24
1.0
 15
0.0
 25
0.0
 16
0.0
 26
0.0
 36
1.0
 17
0.0
 27
0.0
 37
0.0
 40
9.158369
 41
0.688564
 42
50.0
 43
0.0
 44
0.0
 50
0.0
 51
0.0
 71
     0
 72
   100
 73
     1
 74
     1
 75
     0
 76
     0
 77
     0
 78
     0
281
     0
 65
     0
110
0.0
120
0.0
130
0.0
111
1.0
121
0.0
131
0.0
112
0.0
122
1.0
132
0.0
345
0
346
0
 79
     0
146
0.0
  0
ENDTAB
  0
TABLE
  2
LTYPE
  5
4
100
AcDbSymbolTable
 70
     3
  0
LTYPE
  5
11
100
AcDbSymbolTableRecord
100
AcDbLinetypeTableRecord
  2
ByBlock
 70
    64
  3

 72
    65
 73
     0
 40
0.0
  0
LTYPE
  5
12
100
AcDbSymbolTableRecord
100
AcDbLinetypeTableRecord
  2
ByLayer
 70
    64
  3

 72
    65
 73
     0
 40
0.0
  0
LTYPE
  5
13
100
AcDbSymbolTableRecord
100
AcDbLinetypeTableRecord
  2
Continuous
 70
    64
  3
Solid line
 72
    65
 73
     0
 40
0.0
  0
ENDTAB
  0
TABLE
  2
LAYER
  5
2
100
AcDbSymbolTable
 70
     1
  0
LAYER
  5
14
100
AcDbSymbolTableRecord
100
AcDbLayerTableRecord
  2
0
 70
     0
 62
     7
  6
Continuous
290
     1
370
    -3
390
1D
  0
ENDTAB
  0
TABLE
  2
STYLE
  5
3
100
AcDbSymbolTable
 70
     1
  0
STYLE
  5
17
100
AcDbSymbolTableRecord
100
AcDbTextStyleTableRecord
  2
Standard
 70
     0
 40
0.0
 41
1.0
 50
0.0
 71
     0
 42
0.0
  3
txt
  4

  0
ENDTAB
  0
TABLE
  2
VIEW
  5
5
100
AcDbSymbolTable
 70
     0
  0
ENDTAB
  0
TABLE
  2
UCS
  5
6
100
AcDbSymbolTable
 70
     0
  0
ENDTAB
  0
TABLE
  2
APPID
  5
8
100
AcDbSymbolTable
 70
     1
  0
APPID
  5
16
100
AcDbSymbolTableRecord
100
AcDbRegAppTableRecord
  2
ACAD
 70
     0
  0
ENDTAB
  0
TABLE
  2
DIMSTYLE
  5
9
100
AcDbSymbolTable
 70
     1
100
AcDbDimStyleTable
 71
     0
  0
DIMSTYLE
105
18
100
AcDbSymbolTableRecord
100
AcDbDimStyleTableRecord
  2
Standard
 70
     0
  3

  4

 40
1.0
 41
0.18
 42
0.0625
 43
0.38
 44
0.18
 45
0.0
 46
0.0
 47
0.0
 48
0.0
 71
     0
 72
     0
 73
     1
 74
     1
 75
     0
 76
     0
 77
     0
 78
     0
 79
     0
140
0.18
141
0.09
142
0.0
143
25.4
144
1.0
145
0.0
146
1.0
147
0.09
148
0.0
170
     0
171
     2
172
     0
173
     0
174
     0
175
     0
176
     0
177
     0
178
     0
179
     0
271
     4
272
     4
273
     2
274
     2
275
     0
276
     0
277
     2
278
    46
279
     0
280
     0
281
     0
282
     0
283
     1
284
     0
285
     0
286
     0
288
     0
289
     3
340
17
341
0
342
0
343
0
344
0
371
    -2
372
    -2
  0
ENDTAB
  0
TABLE
  2
BLOCK_RECORD
  5
1
100
AcDbSymbolTable
 70
     0
  0
BLOCK_RECORD
  5
A
100
AcDbSymbolTableRecord
100
AcDbBlockTableRecord
  2
*MODEL_SPACE
340
20
  0
BLOCK_RECORD
  5
B
100
AcDbSymbolTableRecord
100
AcDbBlockTableRecord
  2
*PAPER_SPACE
340
21
  0
ENDTAB
  0
ENDSEC
  0
SECTION
  2
BLOCKS
  0
BLOCK
  5
D
100
AcDbEntity
  8
0
390
0
100
AcDbBlockBegin
  2
*MODEL_SPACE
 70
     0
 10
0.0
 20
0.0
 30
0.0
  3
*MODEL_SPACE
  1

  0
ENDBLK
  5
E
100
AcDbEntity
  8
0
390
0
100
AcDbBlockEnd
  0
BLOCK
  5
F
100
AcDbEntity
 67
     1
  8
0
390
0
100
AcDbBlockBegin
  2
*PAPER_SPACE
 70
     0
 10
0.0
 20
0.0
 30
0.0
  3
*PAPER_SPACE
  1

  0
ENDBLK
  5
10
100
AcDbEntity
 67
     1
  8
0
390
0
100
AcDbBlockEnd
  0
ENDSEC
  0
SECTION
  2
ENTITIES
  0
VIEWPORT
  5
41E
100
AcDbEntity
 67
     1
  8
0
370
     0
390
0
 62
     0
 48
0.0
100
AcDbViewport
 10
0.0
 20
0.0
 30
0.0
 40
1000.0
 41
1000.0
 68
     1
 69
     1
 12
0.0
 22
0.0
 13
0.0
 23
0.0
 14
1.0
 24
1.0
 15
1.0
 25
1.0
 16
0.0
 26
0.0
 36
1.0
 17
0.0
 27
0.0
 37
0.0
 42
50.0
 43
0.0
 44
0.0
 45
1000.0
 50
0.0
 51
0.0
 72
   100
 90
        0
340
0
  1

281
     0
 71
     0
 74
     1
110
0.0
120
0.0
130
0.0
111
1.0
121
0.0
131
0.0
112
0.0
122
1.0
132
0.0
345
0
346
0
 79
     0
146
0.0
  0
LINE
  5
24
100
AcDbEntity
  8
0
370
    35
390
0
 62
     7
 48
0.00625
100
AcDbLine
 10
33.596359
 20
76.39315
 30
0.0
 11
33.596359
 21
76.64315
 31
0.0
210
0.0
220
0.0
230
1.0
  0
LINE
  5
25
100
AcDbEntity
  8
0
370
    35
390
0
 62
     7
 48
0.045
100
AcDbLine
 10
33.596359
 20
76.64315
 30
0.0
 11
31.796356
 21
76.64315
 31
0.0
210
0.0
220
0.0
230
1.0
  0
LINE
  5
26
100
AcDbEntity
  8
0
370
    35
390
0
 62
     7
 48
0.010665
100
AcDbLine
 10
31.796356
 20
76.64315
 30
0.0
 11
31.796356
 21
77.069756
 31
0.0
210
0.0
220
0.0
230
1.0
  0
LINE
  5
27
100
AcDbEntity
  8
0
370
    35
390
0
 62
     7
100
AcDbLine
 10
64.596359
 20
77.069756
 30
0.0
 11
31.796356
 21
77.069756
 31
0.0
210
0.0
220
0.0
230
1.0
  0
LINE
  5
28
100
AcDbEntity
  8
0
370
    35
390
0
 62
     7
100
AcDbLine
 10
64.596359
 20
79.71656
 30
0.0
 11
31.796356
 21
79.71656
 31
0.0
210
0.0
220
0.0
230
1.0
  0
LINE
  5
29
100
AcDbEntity
  8
0
370
    35
390
0
 62
     7
 48
0.010665
100
AcDbLine
 10
31.796356
 20
79.71656
 30
0.0
 11
31.796356
 21
80.14315
 31
0.0
210
0.0
220
0.0
230
1.0
  0
LINE
  5
2A
100
AcDbEntity
  8
0
370
    35
390
0
 62
     7
 48
0.045
100
AcDbLine
 10
33.596359
 20
80.14315
 30
0.0
 11
31.796356
 21
80.14315
 31
0.0
210
0.0
220
0.0
230
1.0
  0
LINE
  5
2B
100
AcDbEntity
  8
0
370
    35
390
0
 62
     7
 48
0.00625
100
AcDbLine
 10
33.596359
 20
80.14315
 30
0.0
 11
33.596359
 21
80.39315
 31
0.0
210
0.0
220
0.0
230
1.0
  0
LINE
  5
2C
100
AcDbEntity
  8
0
370
    35
390
0
 62
     7
100
AcDbLine
 10
64.596359
 20
79.030098
 30
0.0
 11
31.796356
 21
79.030098
 31
0.0
210
0.0
220
0.0
230
1.0
  0
LINE
  5
2D
100
AcDbEntity
  8
0
370
    35
390
0
 62
     7
 48
0.000714
100
AcDbLine
 10
31.796356
 20
79.030098
 30
0.0
 11
31.769623
 21
79.040154
 31
0.0
210
0.0
220
0.0
230
1.0
  0
LINE
  5
2E
100
AcDbEntity
  8
0
370
    35
390
0
 62
     7
 48
0.000635
100
AcDbLine
 10
31.769623
 20
79.040154
 30
0.0
 11
31.746613
 21
79.05088
 31
0.0
210
0.0
220
0.0
230
1.0
  0
LINE
  5
2F
100
AcDbEntity
  8
0
370
    35
390
0
 62
     7
 48
0.001106
100
AcDbLine
 10
31.746613
 20
79.05088
 30
0.0
 11
31.708694
 21
79.073692
 31
0.0
210
0.0
220
0.0
230
1.0
  0
LINE
  5
30
100
AcDbEntity
  8
0
370
    35
390
0
 62
     7
 48
0.000964
100
AcDbLine
 10
31.708694
 20
79.073692
 30
0.0
 11
31.678711
 21
79.097923
 31
0.0
210
0.0
220
0.0
230
1.0
  0
LINE
  5
31
100
AcDbEntity
  8
0
370
    35
390
0
 62
     7
 48
0.00059
100
AcDbLine
 10
31.678711
 20
79.097923
 30
0.0
 11
31.66214
 21
79.114738
 31
0.0
210
0.0
220
0.0
230
1.0
  0
LINE
  5
32
100
AcDbEntity
  8
0
370
    35
390
0
 62
     7
 48
0.000558
100
AcDbLine
 10
31.66214
 20
79.114738
 30
0.0
 11
31.647949
 21
79.13195
 31
0.0
210
0.0
220
0.0
230
1.0
  0
LINE
  5
33
100
AcDbEntity
  8
0
370
    35
390
0
 62
     7
 48
0.000587
100
AcDbLine
 10
31.647949
 20
79.13195
 30
0.0
 11
31.634689
 21
79.151344
 31
0.0
210
0.0
220
0.0
230
1.0
  0
LINE
  5
34
100
AcDbEntity
  8
0
370
    35
390
0
 62
     7
 48
0.000566
100
AcDbLine
 10
31.634689
 20
79.151344
 30
0.0
 11
31.623688
 21
79.171135
 31
0.0
210
0.0
220
0.0
230
1.0
  0
LINE
  5
35
100
AcDbEntity
  8
0
370
    35
390
0
 62
     7
 48
0.001043
100
AcDbLine
 10
31.623688
 20
79.171135
 30
0.0
 11
31.608292
 21
79.209908
 31
0.0
210
0.0
220
0.0
230
1.0
  0
LINE
  5
36
100
AcDbEntity
  8
0
370
    35
390
0
 62
     7
 48
0.001038
100
AcDbLine
 10
31.608292
 20
79.209908
 30
0.0
 11
31.599319
 21
79.250465
 31
0.0
210
0.0
220
0.0
230
1.0
  0
LINE
  5
37
100
AcDbEntity
  8
0
370
    35
390
0
 62
     7
 48
0.00107
100
AcDbLine
 10
31.599319
 20
79.250465
 30
0.0
 11
31.596359
 21
79.293159
 31
0.0
210
0.0
220
0.0
230
1.0
  0
LINE
  5
38
100
AcDbEntity
  8
0
370
    35
390
0
 62
     7
 48
0.001124
100
AcDbLine
 10
31.596359
 20
79.293159
 30
0.0
 11
31.599319
 21
79.338036
 31
0.0
210
0.0
220
0.0
230
1.0
  0
LINE
  5
39
100
AcDbEntity
  8
0
370
    35
390
0
 62
     7
 48
0.001207
100
AcDbLine
 10
31.599319
 20
79.338036
 30
0.0
 11
31.608307
 21
79.38549
 31
0.0
210
0.0
220
0.0
230
1.0
  0
LINE
  5
3A
100
AcDbEntity
  8
0
370
    35
390
0
 62
     7
 48
0.001325
100
AcDbLine
 10
31.608307
 20
79.38549
 30
0.0
 11
31.623749
 21
79.436195
 31
0.0
210
0.0
220
0.0
230
1.0
  0
LINE
  5
3B
100
AcDbEntity
  8
0
370
    35
390
0
 62
     7
 48
0.001491
100
AcDbLine
 10
31.623749
 20
79.436195
 30
0.0
 11
31.646606
 21
79.491264
 31
0.0
210
0.0
220
0.0
230
1.0
  0
LINE
  5
3C
100
AcDbEntity
  8
0
370
    35
390
0
 62
     7
 48
0.001726
100
AcDbLine
 10
31.646606
 20
79.491264
 30
0.0
 11
31.678726
 21
79.552391
 31
0.0
210
0.0
220
0.0
230
1.0
  0
LINE
  5
3D
100
AcDbEntity
  8
0
370
    35
390
0
 62
     7
 48
0.001111
100
AcDbLine
 10
31.678726
 20
79.552391
 30
0.0
 11
31.701965
 21
79.590294
 31
0.0
210
0.0
220
0.0
230
1.0
  0
LINE
  5
3E
100
AcDbEntity
  8
0
370
    35
390
0
 62
     7
 48
0.001248
100
AcDbLine
 10
31.701965
 20
79.590294
 30
0.0
 11
31.730026
 21
79.631599
 31
0.0
210
0.0
220
0.0
230
1.0
  0
LINE
  5
3F
100
AcDbEntity
  8
0
370
    35
390
0
 62
     7
 48
0.001251
100
AcDbLine
 10
31.730026
 20
79.631599
 30
0.0
 11
31.759918
 21
79.671745
 31
0.0
210
0.0
220
0.0
230
1.0
  0
LINE
  5
40
100
AcDbEntity
  8
0
370
    35
390
0
 62
     7
 48
0.001444
100
AcDbLine
 10
31.759918
 20
79.671745
 30
0.0
 11
31.796356
 21
79.71656
 31
0.0
210
0.0
220
0.0
230
1.0
  0
LINE
  5
41
100
AcDbEntity
  8
0
370
    35
390
0
 62
     7
100
AcDbLine
 10
64.596359
 20
77.756218
 30
0.0
 11
31.796356
 21
77.756218
 31
0.0
210
0.0
220
0.0
230
1.0
  0
LINE
  5
42
100
AcDbEntity
  8
0
370
    35
390
0
 62
     7
 48
0.031847
100
AcDbLine
 10
31.796356
 20
77.756218
 30
0.0
 11
31.796356
 21
79.030098
 31
0.0
210
0.0
220
0.0
230
1.0
  0
LINE
  5
43
100
AcDbEntity
  8
0
370
    35
390
0
 62
     7
 48
0.001443
100
AcDbLine
 10
31.796356
 20
77.069756
 30
0.0
 11
31.759933
 21
77.114555
 31
0.0
210
0.0
220
0.0
230
1.0
  0
LINE
  5
44
100
AcDbEntity
  8
0
370
    35
390
0
 62
     7
 48
0.00125
100
AcDbLine
 10
31.759933
 20
77.114555
 30
0.0
 11
31.730057
 21
77.154671
 31
0.0
210
0.0
220
0.0
230
1.0
  0
LINE
  5
45
100
AcDbEntity
  8
0
370
    35
390
0
 62
     7
 48
0.001249
100
AcDbLine
 10
31.730057
 20
77.154671
 30
0.0
 11
31.701981
 21
77.195976
 31
0.0
210
0.0
220
0.0
230
1.0
  0
LINE
  5
46
100
AcDbEntity
  8
0
370
    35
390
0
 62
     7
 48
0.001112
100
AcDbLine
 10
31.701981
 20
77.195976
 30
0.0
 11
31.678741
 21
77.233894
 31
0.0
210
0.0
220
0.0
230
1.0
  0
LINE
  5
47
100
AcDbEntity
  8
0
370
    35
390
0
 62
     7
 48
0.001726
100
AcDbLine
 10
31.678741
 20
77.233894
 30
0.0
 11
31.646622
 21
77.294991
 31
0.0
210
0.0
220
0.0
230
1.0
  0
LINE
  5
48
100
AcDbEntity
  8
0
370
    35
390
0
 62
     7
 48
0.00149
100
AcDbLine
 10
31.646622
 20
77.294991
 30
0.0
 11
31.623764
 21
77.350044
 31
0.0
210
0.0
220
0.0
230
1.0
  0
LINE
  5
49
100
AcDbEntity
  8
0
370
    35
390
0
 62
     7
 48
0.001324
100
AcDbLine
 10
31.623764
 20
77.350044
 30
0.0
 11
31.608322
 21
77.400719
 31
0.0
210
0.0
220
0.0
230
1.0
  0
LINE
  5
4A
100
AcDbEntity
  8
0
370
    35
390
0
 62
     7
 48
0.001208
100
AcDbLine
 10
31.608322
 20
77.400719
 30
0.0
 11
31.599319
 21
77.448204
 31
0.0
210
0.0
220
0.0
230
1.0
  0
LINE
  5
4B
100
AcDbEntity
  8
0
370
    35
390
0
 62
     7
 48
0.001127
100
AcDbLine
 10
31.599319
 20
77.448204
 30
0.0
 11
31.596359
 21
77.493172
 31
0.0
210
0.0
220
0.0
230
1.0
  0
LINE
  5
4C
100
AcDbEntity
  8
0
370
    35
390
0
 62
     7
 48
0.000902
100
AcDbLine
 10
31.596359
 20
77.493172
 30
0.0
 11
31.59845
 21
77.529182
 31
0.0
210
0.0
220
0.0
230
1.0
  0
LINE
  5
4D
100
AcDbEntity
  8
0
370
    35
390
0
 62
     7
 48
0.000985
100
AcDbLine
 10
31.59845
 20
77.529182
 30
0.0
 11
31.605835
 21
77.567879
 31
0.0
210
0.0
220
0.0
230
1.0
  0
LINE
  5
4E
100
AcDbEntity
  8
0
370
    35
390
0
 62
     7
 48
0.000984
100
AcDbLine
 10
31.605835
 20
77.567879
 30
0.0
 11
31.618896
 21
77.605003
 31
0.0
210
0.0
220
0.0
230
1.0
  0
LINE
  5
4F
100
AcDbEntity
  8
0
370
    35
390
0
 62
     7
 48
0.001016
100
AcDbLine
 10
31.618896
 20
77.605003
 30
0.0
 11
31.638321
 21
77.640709
 31
0.0
210
0.0
220
0.0
230
1.0
  0
LINE
  5
50
100
AcDbEntity
  8
0
370
    35
390
0
 62
     7
 48
0.00109
100
AcDbLine
 10
31.638321
 20
77.640709
 30
0.0
 11
31.665283
 21
77.674995
 31
0.0
210
0.0
220
0.0
230
1.0
  0
LINE
  5
51
100
AcDbEntity
  8
0
370
    35
390
0
 62
     7
 48
0.001083
100
AcDbLine
 10
31.665283
 20
77.674995
 30
0.0
 11
31.697296
 21
77.704201
 31
0.0
210
0.0
220
0.0
230
1.0
  0
LINE
  5
52
100
AcDbEntity
  8
0
370
    35
390
0
 62
     7
 48
0.000621
100
AcDbLine
 10
31.697296
 20
77.704201
 30
0.0
 11
31.717529
 21
77.718636
 31
0.0
210
0.0
220
0.0
230
1.0
  0
LINE
  5
53
100
AcDbEntity
  8
0
370
    35
390
0
 62
     7
 48
0.000684
100
AcDbLine
 10
31.717529
 20
77.718636
 30
0.0
 11
31.741074
 21
77.732552
 31
0.0
210
0.0
220
0.0
230
1.0
  0
LINE
  5
54
100
AcDbEntity
  8
0
370
    35
390
0
 62
     7
 48
0.0007
100
AcDbLine
 10
31.741074
 20
77.732552
 30
0.0
 11
31.766296
 21
77.744743
 31
0.0
210
0.0
220
0.0
230
1.0
  0
LINE
  5
55
100
AcDbEntity
  8
0
370
    35
390
0
 62
     7
 48
0.000804
100
AcDbLine
 10
31.766296
 20
77.744743
 30
0.0
 11
31.796356
 21
77.756218
 31
0.0
210
0.0
220
0.0
230
1.0
  0
LINE
  5
56
100
AcDbEntity
  8
0
370
    35
390
0
 62
     7
 48
0.005
100
AcDbLine
 10
31.596359
 20
76.64315
 30
0.0
 11
31.796356
 21
76.64315
 31
0.0
210
0.0
220
0.0
230
1.0
  0
LINE
  5
57
100
AcDbEntity
  8
0
370
    35
390
0
 62
     7
 48
0.005
100
AcDbLine
 10
31.596359
 20
80.14315
 30
0.0
 11
31.796356
 21
80.14315
 31
0.0
210
0.0
220
0.0
230
1.0
  0
LINE
  5
58
100
AcDbEntity
  8
0
370
    35
390
0
 62
     7
 48
0.13
100
AcDbLine
 10
31.596359
 20
75.793159
 30
0.0
 11
31.596359
 21
80.993156
 31
0.0
210
0.0
220
0.0
230
1.0
  0
LINE
  5
59
100
AcDbEntity
  8
0
370
    35
390
0
 62
     7
 48
0.039368
100
AcDbLine
 10
64.596359
 20
75.368156
 30
0.0
 11
64.596359
 21
76.942894
 31
0.0
210
0.0
220
0.0
230
1.0
  0
LINE
  5
5A
100
AcDbEntity
  8
0
370
    35
390
0
 62
     7
 48
0.111882
100
AcDbLine
 10
64.596359
 20
76.942894
 30
0.0
 11
64.596359
 21
81.418159
 31
0.0
210
0.0
220
0.0
230
1.0
  0
LINE
  5
5B
100
AcDbEntity
  8
0
370
    35
390
0
 62
     7
 48
0.13
100
AcDbLine
 10
30.996353
 20
75.793159
 30
0.0
 11
30.996353
 21
80.993156
 31
0.0
210
0.0
220
0.0
230
1.0
  0
LINE
  5
5C
100
AcDbEntity
  8
0
370
    35
390
0
 62
     7
 48
0.119279
100
AcDbLine
 10
64.796356
 20
76.847008
 30
0.0
 11
64.796356
 21
81.618156
 31
0.0
210
0.0
220
0.0
230
1.0
  0
LINE
  5
5D
100
AcDbEntity
  8
0
370
    35
390
0
 62
     7
 48
0.041971
100
AcDbLine
 10
64.796356
 20
75.168159
 30
0.0
 11
64.796356
 21
76.847008
 31
0.0
210
0.0
220
0.0
230
1.0
  0
LINE
  5
5E
100
AcDbEntity
  8
0
370
    35
390
0
 62
     7
 48
0.119279
100
AcDbLine
 10
66.096359
 20
76.847008
 30
0.0
 11
66.096359
 21
81.618156
 31
0.0
210
0.0
220
0.0
230
1.0
  0
LINE
  5
5F
100
AcDbEntity
  8
0
370
    35
390
0
 62
     7
 48
0.041971
100
AcDbLine
 10
66.096359
 20
75.168159
 30
0.0
 11
66.096359
 21
76.847008
 31
0.0
210
0.0
220
0.0
230
1.0
  0
LINE
  5
60
100
AcDbEntity
  8
0
370
    35
390
0
 62
     7
 48
0.000742
100
AcDbLine
 10
30.757599
 20
80.831047
 30
0.0
 11
30.735931
 21
80.851341
 31
0.0
210
0.0
220
0.0
230
1.0
  0
LINE
  5
61
100
AcDbEntity
  8
0
370
    35
390
0
 62
     7
 48
0.003123
100
AcDbLine
 10
30.846359
 20
80.743156
 30
0.0
 11
30.757599
 21
80.831047
 31
0.0
210
0.0
220
0.0
230
1.0
  0
LINE
  5
62
100
AcDbEntity
  8
0
370
    35
390
0
 62
     7
 48
0.000807
100
AcDbLine
 10
30.757599
 20
80.827431
 30
0.0
 11
30.735931
 21
80.851341
 31
0.0
210
0.0
220
0.0
230
1.0
  0
LINE
  5
63
100
AcDbEntity
  8
0
370
    35
390
0
 62
     7
 48
0.000742
100
AcDbLine
 10
30.735931
 20
80.851341
 30
0.0
 11
30.757599
 21
80.831047
 31
0.0
210
0.0
220
0.0
230
1.0
  0
LINE
  5
64
100
AcDbEntity
  8
0
370
    35
390
0
 62
     7
 48
0.003218
100
AcDbLine
 10
30.846359
 20
80.734215
 30
0.0
 11
30.757599
 21
80.827431
 31
0.0
210
0.0
220
0.0
230
1.0
  0
LINE
  5
65
100
AcDbEntity
  8
0
370
    35
390
0
 62
     7
 48
0.003019
100
AcDbLine
 10
30.846359
 20
80.734215
 30
0.0
 11
30.757599
 21
80.816109
 31
0.0
210
0.0
220
0.0
230
1.0
  0
ARC
  5
66
100
AcDbEntity
  8
0
370
    35
390
0
 62
     7
100
AcDbCircle
 10
30.816635
 20
80.876671
 30
0.0
 40
0.091956
210
0.0
220
0.0
230
1.0
100
AcDbArc
 50
208.521362
 51
230.40925
  0
LINE
  5
67
100
AcDbEntity
  8
0
370
    35
390
0
 62
     7
 48
0.00068
100
AcDbLine
 10
30.736298
 20
80.833015
 30
0.0
 11
30.757599
 21
80.816109
 31
0.0
210
0.0
220
0.0
230
1.0
  0
LINE
  5
68
100
AcDbEntity
  8
0
370
    35
390
0
 62
     7
 48
0.003303
100
AcDbLine
 10
30.846359
 20
80.707451
 30
0.0
 11
30.757599
 21
80.80529
 31
0.0
210
0.0
220
0.0
230
1.0
  0
LINE
  5
69
100
AcDbEntity
  8
0
370
    35
390
0
 62
     7
 48
0.00291
100
AcDbLine
 10
30.846359
 20
80.707451
 30
0.0
 11
30.757599
 21
80.782738
 31
0.0
210
0.0
220
0.0
230
1.0
  0
LINE
  5
6A
100
AcDbEntity
  8
0
370
    35
390
0
 62
     7
 48
0.000632
100
AcDbLine
 10
30.757599
 20
80.764793
 30
0.0
 11
30.741699
 21
80.784447
 31
0.0
210
0.0
220
0.0
230
1.0
  0
LINE
  5
6B
100
AcDbEntity
  8
0
370
    35
390
0
 62
     7
 48
0.000206
100
AcDbLine
 10
30.741699
 20
80.784447
 30
0.0
 11
30.737259
 21
80.791405
 31
0.0
210
0.0
220
0.0
230
1.0
  0
LINE
  5
6C
100
AcDbEntity
  8
0
370
    35
390
0
 62
     7
 48
0.000069
100
AcDbLine
 10
30.737259
 20
80.791405
 30
0.0
 11
30.736145
 21
80.793922
 31
0.0
210
0.0
220
0.0
230
1.0
  0
LINE
  5
6D
100
AcDbEntity
  8
0
370
    35
390
0
 62
     7
 48
0.000033
100
AcDbLine
 10
30.736145
 20
80.793922
 30
0.0
 11
30.735886
 21
80.795204
 31
0.0
210
0.0
220
0.0
230
1.0
  0
LINE
  5
6E
100
AcDbEntity
  8
0
370
    35
390
0
 62
     7
 48
0.000012
100
AcDbLine
 10
30.735886
 20
80.795204
 30
0.0
 11
30.735916
 21
80.795677
 31
0.0
210
0.0
220
0.0
230
1.0
  0
LINE
  5
6F
100
AcDbEntity
  8
0
370
    35
390
0
 62
     7
 48
0.000014
100
AcDbLine
 10
30.735916
 20
80.795677
 30
0.0
 11
30.73616
 21
80.796181
 31
0.0
210
0.0
220
0.0
230
1.0
  0
LINE
  5
70
100
AcDbEntity
  8
0
370
    35
390
0
 62
     7
 48
0.000007
100
AcDbLine
 10
30.73616
 20
80.796181
 30
0.0
 11
30.736374
 21
80.796349
 31
0.0
210
0.0
220
0.0
230
1.0
  0
LINE
  5
71
100
AcDbEntity
  8
0
370
    35
390
0
 62
     7
 48
0.000016
100
AcDbLine
 10
30.736374
 20
80.796349
 30
0.0
 11
30.736984
 21
80.796486
 31
0.0
210
0.0
220
0.0
230
1.0
  0
ARC
  5
72
100
AcDbEntity
  8
0
370
    35
390
0
 62
     7
100
AcDbCircle
 10
30.711838
 20
80.738899
 30
0.0
 40
0.063096
210
0.0
220
0.0
230
1.0
100
AcDbArc
 50
43.768808
 51
66.41471
  0
LINE
  5
73
100
AcDbEntity
  8
0
370
    35
390
0
 62
     7
 48
0.003375
100
AcDbLine
 10
30.846359
 20
80.663078
 30
0.0
 11
30.757599
 21
80.764793
 31
0.0
210
0.0
220
0.0
230
1.0
  0
LINE
  5
74
100
AcDbEntity
  8
0
370
    35
390
0
 62
     7
 48
0.002797
100
AcDbLine
 10
30.846359
 20
80.663078
 30
0.0
 11
30.757599
 21
80.731178
 31
0.0
210
0.0
220
0.0
230
1.0
  0
LINE
  5
75
100
AcDbEntity
  8
0
370
    35
390
0
 62
     7
 48
0.000625
100
AcDbLine
 10
30.757599
 20
80.70623
 30
0.0
 11
30.742355
 21
80.726036
 31
0.0
210
0.0
220
0.0
230
1.0
  0
LINE
  5
76
100
AcDbEntity
  8
0
370
    35
390
0
 62
     7
 48
0.000308
100
AcDbLine
 10
30.742355
 20
80.726036
 30
0.0
 11
30.736465
 21
80.736855
 31
0.0
210
0.0
220
0.0
230
1.0
  0
LINE
  5
77
100
AcDbEntity
  8
0
370
    35
390
0
 62
     7
 48
0.000066
100
AcDbLine
 10
30.736465
 20
80.736855
 30
0.0
 11
30.735886
 21
80.739449
 31
0.0
210
0.0
220
0.0
230
1.0
  0
LINE
  5
78
100
AcDbEntity
  8
0
370
    35
390
0
 62
     7
 48
0.000024
100
AcDbLine
 10
30.735886
 20
80.739449
 30
0.0
 11
30.735931
 21
80.740425
 31
0.0
210
0.0
220
0.0
230
1.0
  0
LINE
  5
79
100
AcDbEntity
  8
0
370
    35
390
0
 62
     7
 48
0.000029
100
AcDbLine
 10
30.735931
 20
80.740425
 30
0.0
 11
30.736435
 21
80.741463
 31
0.0
210
0.0
220
0.0
230
1.0
  0
LINE
  5
7A
100
AcDbEntity
  8
0
370
    35
390
0
 62
     7
 48
0.000014
100
AcDbLine
 10
30.736435
 20
80.741463
 30
0.0
 11
30.736862
 21
80.741798
 31
0.0
210
0.0
220
0.0
230
1.0
  0
LINE
  5
7B
100
AcDbEntity
  8
0
370
    35
390
0
 62
     7
 48
0.000033
100
AcDbLine
 10
30.736862
 20
80.741798
 30
0.0
 11
30.738144
 21
80.742073
 31
0.0
210
0.0
220
0.0
230
1.0
  0
ARC
  5
7C
100
AcDbEntity
  8
0
370
    35
390
0
 62
     7
100
AcDbCircle
 10
30.723541
 20
80.695091
 30
0.0
 40
0.049409
210
0.0
220
0.0
230
1.0
100
AcDbArc
 50
46.656394
 51
72.727868
  0
LINE
  5
7D
100
AcDbEntity
  8
0
370
    35
390
0
 62
     7
 48
0.003433
100
AcDbLine
 10
30.846359
 20
80.601433
 30
0.0
 11
30.757599
 21
80.70623
 31
0.0
210
0.0
220
0.0
230
1.0
  0
LINE
  5
7E
100
AcDbEntity
  8
0
370
    35
390
0
 62
     7
 48
0.002684
100
AcDbLine
 10
30.846359
 20
80.601433
 30
0.0
 11
30.757599
 21
80.661812
 31
0.0
210
0.0
220
0.0
230
1.0
  0
LINE
  5
7F
100
AcDbEntity
  8
0
370
    35
390
0
 62
     7
 48
0.000674
100
AcDbLine
 10
30.757599
 20
80.630074
 30
0.0
 11
30.741714
 21
80.651863
 31
0.0
210
0.0
220
0.0
230
1.0
  0
LINE
  5
80
100
AcDbEntity
  8
0
370
    35
390
0
 62
     7
 48
0.000335
100
AcDbLine
 10
30.741714
 20
80.651863
 30
0.0
 11
30.73616
 21
80.66407
 31
0.0
210
0.0
220
0.0
230
1.0
  0
LINE
  5
81
100
AcDbEntity
  8
0
370
    35
390
0
 62
     7
 48
0.000075
100
AcDbLine
 10
30.73616
 20
80.66407
 30
0.0
 11
30.735916
 21
80.667061
 31
0.0
210
0.0
220
0.0
230
1.0
  0
LINE
  5
82
100
AcDbEntity
  8
0
370
    35
390
0
 62
     7
 48
0.000029
100
AcDbLine
 10
30.735916
 20
80.667061
 30
0.0
 11
30.736191
 21
80.668205
 31
0.0
210
0.0
220
0.0
230
1.0
  0
LINE
  5
83
100
AcDbEntity
  8
0
370
    35
390
0
 62
     7
 48
0.000056
100
AcDbLine
 10
30.736191
 20
80.668205
 30
0.0
 11
30.737762
 21
80.669823
 31
0.0
210
0.0
220
0.0
230
1.0
  0
LINE
  5
84
100
AcDbEntity
  8
0
370
    35
390
0
 62
     7
 48
0.000047
100
AcDbLine
 10
30.737762
 20
80.669823
 30
0.0
 11
30.739609
 21
80.670158
 31
0.0
210
0.0
220
0.0
230
1.0
  0
ARC
  5
85
100
AcDbEntity
  8
0
370
    35
390
0
 62
     7
100
AcDbCircle
 10
30.731003
 20
80.629433
 30
0.0
 40
0.041762
210
0.0
220
0.0
230
1.0
100
AcDbArc
 50
50.615513
 51
78.072389
  0
LINE
  5
86
100
AcDbEntity
  8
0
370
    35
390
0
 62
     7
 48
0.003477
100
AcDbLine
 10
30.846359
 20
80.522987
 30
0.0
 11
30.757599
 21
80.630074
 31
0.0
210
0.0
220
0.0
230
1.0
  0
LINE
  5
87
100
AcDbEntity
  8
0
370
    35
390
0
 62
     7
 48
0.002574
100
AcDbLine
 10
30.846359
 20
80.522987
 30
0.0
 11
30.757599
 21
80.575203
 31
0.0
210
0.0
220
0.0
230
1.0
  0
LINE
  5
88
100
AcDbEntity
  8
0
370
    35
390
0
 62
     7
 48
0.000635
100
AcDbLine
 10
30.757599
 20
80.536903
 30
0.0
 11
30.742813
 21
80.557579
 31
0.0
210
0.0
220
0.0
230
1.0
  0
LINE
  5
89
100
AcDbEntity
  8
0
370
    35
390
0
 62
     7
 48
0.000357
100
AcDbLine
 10
30.742813
 20
80.557579
 30
0.0
 11
30.736755
 21
80.570503
 31
0.0
210
0.0
220
0.0
230
1.0
  0
LINE
  5
8A
100
AcDbEntity
  8
0
370
    35
390
0
 62
     7
 48
0.000133
100
AcDbLine
 10
30.736755
 20
80.570503
 30
0.0
 11
30.735886
 21
80.575752
 31
0.0
210
0.0
220
0.0
230
1.0
  0
LINE
  5
8B
100
AcDbEntity
  8
0
370
    35
390
0
 62
     7
 48
0.00005
100
AcDbLine
 10
30.735886
 20
80.575752
 30
0.0
 11
30.73613
 21
80.577736
 31
0.0
210
0.0
220
0.0
230
1.0
  0
LINE
  5
8C
100
AcDbEntity
  8
0
370
    35
390
0
 62
     7
 48
0.000064
100
AcDbLine
 10
30.73613
 20
80.577736
 30
0.0
 11
30.737381
 21
80.579948
 31
0.0
210
0.0
220
0.0
230
1.0
  0
LINE
  5
8D
100
AcDbEntity
  8
0
370
    35
390
0
 62
     7
 48
0.000032
100
AcDbLine
 10
30.737381
 20
80.579948
 30
0.0
 11
30.738419
 21
80.580666
 31
0.0
210
0.0
220
0.0
230
1.0
  0
LINE
  5
8E
100
AcDbEntity
  8
0
370
    35
390
0
 62
     7
 48
0.000077
100
AcDbLine
 10
30.738419
 20
80.580666
 30
0.0
 11
30.741425
 21
80.581276
 31
0.0
210
0.0
220
0.0
230
1.0
  0
LINE
  5
8F
100
AcDbEntity
  8
0
370
    35
390
0
 62
     7
 48
0.000432
100
AcDbLine
 10
30.741425
 20
80.581276
 30
0.0
 11
30.757599
 21
80.575203
 31
0.0
210
0.0
220
0.0
230
1.0
  0
LINE
  5
90
100
AcDbEntity
  8
0
370
    35
390
0
 62
     7
 48
0.003506
100
AcDbLine
 10
30.846359
 20
80.428307
 30
0.0
 11
30.757599
 21
80.536903
 31
0.0
210
0.0
220
0.0
230
1.0
  0
LINE
  5
91
100
AcDbEntity
  8
0
370
    35
390
0
 62
     7
 48
0.002473
100
AcDbLine
 10
30.846359
 20
80.428307
 30
0.0
 11
30.757599
 21
80.471977
 31
0.0
210
0.0
220
0.0
230
1.0
  0
LINE
  5
92
100
AcDbEntity
  8
0
370
    35
390
0
 62
     7
 48
0.000291
100
AcDbLine
 10
30.757599
 20
80.427406
 30
0.0
 11
30.750504
 21
80.436638
 31
0.0
210
0.0
220
0.0
230
1.0
  0
LINE
  5
93
100
AcDbEntity
  8
0
370
    35
390
0
 62
     7
 48
0.000383
100
AcDbLine
 10
30.750504
 20
80.436638
 30
0.0
 11
30.742294
 21
80.449577
 31
0.0
210
0.0
220
0.0
230
1.0
  0
LINE
  5
94
100
AcDbEntity
  8
0
370
    35
390
0
 62
     7
 48
0.000385
100
AcDbLine
 10
30.742294
 20
80.449577
 30
0.0
 11
30.736435
 21
80.463799
 31
0.0
210
0.0
220
0.0
230
1.0
  0
LINE
  5
95
100
AcDbEntity
  8
0
370
    35
390
0
 62
     7
 48
0.000163
100
AcDbLine
 10
30.736435
 20
80.463799
 30
0.0
 11
30.736023
 21
80.470314
 31
0.0
210
0.0
220
0.0
230
1.0
  0
LINE
  5
96
100
AcDbEntity
  8
0
370
    35
390
0
 62
     7
 48
0.000063
100
AcDbLine
 10
30.736023
 20
80.470314
 30
0.0
 11
30.736801
 21
80.472725
 31
0.0
210
0.0
220
0.0
230
1.0
  0
LINE
  5
97
100
AcDbEntity
  8
0
370
    35
390
0
 62
     7
 48
0.000087
100
AcDbLine
 10
30.736801
 20
80.472725
 30
0.0
 11
30.739258
 21
80.475212
 31
0.0
210
0.0
220
0.0
230
1.0
  0
LINE
  5
98
100
AcDbEntity
  8
0
370
    35
390
0
 62
     7
 48
0.00011
100
AcDbLine
 10
30.739258
 20
80.475212
 30
0.0
 11
30.743561
 21
80.476128
 31
0.0
210
0.0
220
0.0
230
1.0
  0
LINE
  5
99
100
AcDbEntity
  8
0
370
    35
390
0
 62
     7
 48
0.000366
100
AcDbLine
 10
30.743561
 20
80.476128
 30
0.0
 11
30.757599
 21
80.471977
 31
0.0
210
0.0
220
0.0
230
1.0
  0
LINE
  5
9A
100
AcDbEntity
  8
0
370
    35
390
0
 62
     7
 48
0.003519
100
AcDbLine
 10
30.846359
 20
80.318169
 30
0.0
 11
30.757599
 21
80.427406
 31
0.0
210
0.0
220
0.0
230
1.0
  0
LINE
  5
9B
100
AcDbEntity
  8
0
370
    35
390
0
 62
     7
 48
0.002383
100
AcDbLine
 10
30.846359
 20
80.318169
 30
0.0
 11
30.757599
 21
80.352928
 31
0.0
210
0.0
220
0.0
230
1.0
  0
LINE
  5
9C
100
AcDbEntity
  8
0
370
    35
390
0
 62
     7
 48
0.000282
100
AcDbLine
 10
30.757599
 20
80.302422
 30
0.0
 11
30.750748
 21
80.311378
 31
0.0
210
0.0
220
0.0
230
1.0
  0
LINE
  5
9D
100
AcDbEntity
  8
0
370
    35
390
0
 62
     7
 48
0.000379
100
AcDbLine
 10
30.750748
 20
80.311378
 30
0.0
 11
30.742722
 21
80.324242
 31
0.0
210
0.0
220
0.0
230
1.0
  0
LINE
  5
9E
100
AcDbEntity
  8
0
370
    35
390
0
 62
     7
 48
0.000461
100
AcDbLine
 10
30.742722
 20
80.324242
 30
0.0
 11
30.736191
 21
80.341469
 31
0.0
210
0.0
220
0.0
230
1.0
  0
LINE
  5
9F
100
AcDbEntity
  8
0
370
    35
390
0
 62
     7
 48
0.000182
100
AcDbLine
 10
30.736191
 20
80.341469
 30
0.0
 11
30.736282
 21
80.348763
 31
0.0
210
0.0
220
0.0
230
1.0
  0
LINE
  5
A0
100
AcDbEntity
  8
0
370
    35
390
0
 62
     7
 48
0.000075
100
AcDbLine
 10
30.736282
 20
80.348763
 30
0.0
 11
30.737411
 21
80.351524
 31
0.0
210
0.0
220
0.0
230
1.0
  0
LINE
  5
A1
100
AcDbEntity
  8
0
370
    35
390
0
 62
     7
 48
0.000108
100
AcDbLine
 10
30.737411
 20
80.351524
 30
0.0
 11
30.740631
 21
80.354408
 31
0.0
210
0.0
220
0.0
230
1.0
  0
LINE
  5
A2
100
AcDbEntity
  8
0
370
    35
390
0
 62
     7
 48
0.000138
100
AcDbLine
 10
30.740631
 20
80.354408
 30
0.0
 11
30.746017
 21
80.355522
 31
0.0
210
0.0
220
0.0
230
1.0
  0
LINE
  5
A3
100
AcDbEntity
  8
0
370
    35
390
0
 62
     7
 48
0.000297
100
AcDbLine
 10
30.746017
 20
80.355522
 30
0.0
 11
30.757599
 21
80.352928
 31
0.0
210
0.0
220
0.0
230
1.0
  0
LINE
  5
A4
100
AcDbEntity
  8
0
370
    35
390
0
 62
     7
 48
0.003516
100
AcDbLine
 10
30.846359
 20
80.193352
 30
0.0
 11
30.757599
 21
80.302422
 31
0.0
210
0.0
220
0.0
230
1.0
  0
LINE
  5
A5
100
AcDbEntity
  8
0
370
    35
390
0
 62
     7
 48
0.002309
100
AcDbLine
 10
30.846359
 20
80.193352
 30
0.0
 11
30.757599
 21
80.218956
 31
0.0
210
0.0
220
0.0
230
1.0
  0
LINE
  5
A6
100
AcDbEntity
  8
0
370
    35
390
0
 62
     7
 48
0.000258
100
AcDbLine
 10
30.757599
 20
80.16291
 30
0.0
 11
30.751312
 21
80.171074
 31
0.0
210
0.0
220
0.0
230
1.0
  0
LINE
  5
A7
100
AcDbEntity
  8
0
370
    35
390
0
 62
     7
 48
0.000369
100
AcDbLine
 10
30.751312
 20
80.171074
 30
0.0
 11
30.743439
 21
80.183571
 31
0.0
210
0.0
220
0.0
230
1.0
  0
LINE
  5
A8
100
AcDbEntity
  8
0
370
    35
390
0
 62
     7
 48
0.000403
100
AcDbLine
 10
30.743439
 20
80.183571
 30
0.0
 11
30.737198
 21
80.198418
 31
0.0
210
0.0
220
0.0
230
1.0
  0
LINE
  5
A9
100
AcDbEntity
  8
0
370
    35
390
0
 62
     7
 48
0.000284
100
AcDbLine
 10
30.737198
 20
80.198418
 30
0.0
 11
30.736038
 21
80.209724
 31
0.0
210
0.0
220
0.0
230
1.0
  0
LINE
  5
AA
100
AcDbEntity
  8
0
370
    35
390
0
 62
     7
 48
0.000108
100
AcDbLine
 10
30.736038
 20
80.209724
 30
0.0
 11
30.737183
 21
80.213905
 31
0.0
210
0.0
220
0.0
230
1.0
  0
LINE
  5
AB
100
AcDbEntity
  8
0
370
    35
390
0
 62
     7
 48
0.0001
100
AcDbLine
 10
30.737183
 20
80.213905
 30
0.0
 11
30.739487
 21
80.217186
 31
0.0
210
0.0
220
0.0
230
1.0
  0
LINE
  5
AC
100
AcDbEntity
  8
0
370
    35
390
0
 62
     7
 48
0.000109
100
AcDbLine
 10
30.739487
 20
80.217186
 30
0.0
 11
30.743195
 21
80.219444
 31
0.0
210
0.0
220
0.0
230
1.0
  0
LINE
  5
AD
100
AcDbEntity
  8
0
370
    35
390
0
 62
     7
 48
0.000141
100
AcDbLine
 10
30.743195
 20
80.219444
 30
0.0
 11
30.748779
 21
80.220345
 31
0.0
210
0.0
220
0.0
230
1.0
  0
LINE
  5
AE
100
AcDbEntity
  8
0
370
    35
390
0
 62
     7
 48
0.000223
100
AcDbLine
 10
30.748779
 20
80.220345
 30
0.0
 11
30.757599
 21
80.218956
 31
0.0
210
0.0
220
0.0
230
1.0
  0
LINE
  5
AF
100
AcDbEntity
  8
0
370
    35
390
0
 62
     7
 48
0.003496
100
AcDbLine
 10
30.846359
 20
80.054848
 30
0.0
 11
30.757599
 21
80.16291
 31
0.0
210
0.0
220
0.0
230
1.0
  0
LINE
  5
B0
100
AcDbEntity
  8
0
370
    35
390
0
 62
     7
 48
0.002256
100
AcDbLine
 10
30.846359
 20
80.054848
 30
0.0
 11
30.757599
 21
80.071098
 31
0.0
210
0.0
220
0.0
230
1.0
  0
LINE
  5
B1
100
AcDbEntity
  8
0
370
    35
390
0
 62
     7
 48
0.000283
100
AcDbLine
 10
30.757599
 20
80.009941
 30
0.0
 11
30.750671
 21
80.018913
 31
0.0
210
0.0
220
0.0
230
1.0
  0
LINE
  5
B2
100
AcDbEntity
  8
0
370
    35
390
0
 62
     7
 48
0.000394
100
AcDbLine
 10
30.750671
 20
80.018913
 30
0.0
 11
30.742523
 21
80.032417
 31
0.0
210
0.0
220
0.0
230
1.0
  0
LINE
  5
B3
100
AcDbEntity
  8
0
370
    35
390
0
 62
     7
 48
0.000436
100
AcDbLine
 10
30.742523
 20
80.032417
 30
0.0
 11
30.736572
 21
80.048805
 31
0.0
210
0.0
220
0.0
230
1.0
  0
LINE
  5
B4
100
AcDbEntity
  8
0
370
    35
390
0
 62
     7
 48
0.000179
100
AcDbLine
 10
30.736572
 20
80.048805
 30
0.0
 11
30.735886
 21
80.055946
 31
0.0
210
0.0
220
0.0
230
1.0
  0
LINE
  5
B5
100
AcDbEntity
  8
0
370
    35
390
0
 62
     7
 48
0.000153
100
AcDbLine
 10
30.735886
 20
80.055946
 30
0.0
 11
30.736816
 21
80.062004
 31
0.0
210
0.0
220
0.0
230
1.0
  0
LINE
  5
B6
100
AcDbEntity
  8
0
370
    35
390
0
 62
     7
 48
0.000139
100
AcDbLine
 10
30.736816
 20
80.062004
 30
0.0
 11
30.739517
 21
80.066856
 31
0.0
210
0.0
220
0.0
230
1.0
  0
LINE
  5
B7
100
AcDbEntity
  8
0
370
    35
390
0
 62
     7
 48
0.000146
100
AcDbLine
 10
30.739517
 20
80.066856
 30
0.0
 11
30.744263
 21
80.070274
 31
0.0
210
0.0
220
0.0
230
1.0
  0
LINE
  5
B8
100
AcDbEntity
  8
0
370
    35
390
0
 62
     7
 48
0.000139
100
AcDbLine
 10
30.744263
 20
80.070274
 30
0.0
 11
30.749664
 21
80.071556
 31
0.0
210
0.0
220
0.0
230
1.0
  0
LINE
  5
B9
100
AcDbEntity
  8
0
370
    35
390
0
 62
     7
 48
0.000199
100
AcDbLine
 10
30.749664
 20
80.071556
 30
0.0
 11
30.757599
 21
80.071098
 31
0.0
210
0.0
220
0.0
230
1.0
  0
LINE
  5
BA
100
AcDbEntity
  8
0
370
    35
390
0
 62
     7
 48
0.003461
100
AcDbLine
 10
30.846359
 20
79.903709
 30
0.0
 11
30.757599
 21
80.009941
 31
0.0
210
0.0
220
0.0
230
1.0
  0
LINE
  5
BB
100
AcDbEntity
  8
0
370
    35
390
0
 62
     7
 48
0.002225
100
AcDbLine
 10
30.846359
 20
79.903709
 30
0.0
 11
30.757599
 21
79.910469
 31
0.0
210
0.0
220
0.0
230
1.0
  0
LINE
  5
BC
100
AcDbEntity
  8
0
370
    35
390
0
 62
     7
 48
0.000235
100
AcDbLine
 10
30.757599
 20
79.844658
 30
0.0
 11
30.751755
 21
79.851997
 31
0.0
210
0.0
220
0.0
230
1.0
  0
LINE
  5
BD
100
AcDbEntity
  8
0
370
    35
390
0
 62
     7
 48
0.000346
100
AcDbLine
 10
30.751755
 20
79.851997
 30
0.0
 11
30.744293
 21
79.863655
 31
0.0
210
0.0
220
0.0
230
1.0
  0
LINE
  5
BE
100
AcDbEntity
  8
0
370
    35
390
0
 62
     7
 48
0.000543
100
AcDbLine
 10
30.744293
 20
79.863655
 30
0.0
 11
30.736572
 21
79.883949
 31
0.0
210
0.0
220
0.0
230
1.0
  0
LINE
  5
BF
100
AcDbEntity
  8
0
370
    35
390
0
 62
     7
 48
0.000286
100
AcDbLine
 10
30.736572
 20
79.883949
 30
0.0
 11
30.736221
 21
79.895393
 31
0.0
210
0.0
220
0.0
230
1.0
  0
LINE
  5
C0
100
AcDbEntity
  8
0
370
    35
390
0
 62
     7
 48
0.000236
100
AcDbLine
 10
30.736221
 20
79.895393
 30
0.0
 11
30.739822
 21
79.904121
 31
0.0
210
0.0
220
0.0
230
1.0
  0
LINE
  5
C1
100
AcDbEntity
  8
0
370
    35
390
0
 62
     7
 48
0.000256
100
AcDbLine
 10
30.739822
 20
79.904121
 30
0.0
 11
30.748428
 21
79.909706
 31
0.0
210
0.0
220
0.0
230
1.0
  0
LINE
  5
C2
100
AcDbEntity
  8
0
370
    35
390
0
 62
     7
 48
0.00023
100
AcDbLine
 10
30.748428
 20
79.909706
 30
0.0
 11
30.757599
 21
79.910469
 31
0.0
210
0.0
220
0.0
230
1.0
  0
LINE
  5
C3
100
AcDbEntity
  8
0
370
    35
390
0
 62
     7
 48
0.00341
100
AcDbLine
 10
30.846359
 20
79.741066
 30
0.0
 11
30.757599
 21
79.844658
 31
0.0
210
0.0
220
0.0
230
1.0
  0
LINE
  5
C4
100
AcDbEntity
  8
0
370
    35
390
0
 62
     7
 48
0.00222
100
AcDbLine
 10
30.846359
 20
79.741066
 30
0.0
 11
30.757599
 21
79.738289
 31
0.0
210
0.0
220
0.0
230
1.0
  0
LINE
  5
C5
100
AcDbEntity
  8
0
370
    35
390
0
 62
     7
 48
0.000234
100
AcDbLine
 10
30.757599
 20
79.668327
 30
0.0
 11
30.751678
 21
79.675575
 31
0.0
210
0.0
220
0.0
230
1.0
  0
LINE
  5
C6
100
AcDbEntity
  8
0
370
    35
390
0
 62
     7
 48
0.000348
100
AcDbLine
 10
30.751678
 20
79.675575
 30
0.0
 11
30.744171
 21
79.687279
 31
0.0
210
0.0
220
0.0
230
1.0
  0
LINE
  5
C7
100
AcDbEntity
  8
0
370
    35
390
0
 62
     7
 48
0.000546
100
AcDbLine
 10
30.744171
 20
79.687279
 30
0.0
 11
30.736572
 21
79.707741
 31
0.0
210
0.0
220
0.0
230
1.0
  0
LINE
  5
C8
100
AcDbEntity
  8
0
370
    35
390
0
 62
     7
 48
0.000304
100
AcDbLine
 10
30.736572
 20
79.707741
 30
0.0
 11
30.736221
 21
79.719887
 31
0.0
210
0.0
220
0.0
230
1.0
  0
LINE
  5
C9
100
AcDbEntity
  8
0
370
    35
390
0
 62
     7
 48
0.000258
100
AcDbLine
 10
30.736221
 20
79.719887
 30
0.0
 11
30.739822
 21
79.729546
 31
0.0
210
0.0
220
0.0
230
1.0
  0
LINE
  5
CA
100
AcDbEntity
  8
0
370
    35
390
0
 62
     7
 48
0.000131
100
AcDbLine
 10
30.739822
 20
79.729546
 30
0.0
 11
30.743332
 21
79.733421
 31
0.0
210
0.0
220
0.0
230
1.0
  0
LINE
  5
CB
100
AcDbEntity
  8
0
370
    35
390
0
 62
     7
 48
0.000148
100
AcDbLine
 10
30.743332
 20
79.733421
 30
0.0
 11
30.748428
 21
79.736458
 31
0.0
210
0.0
220
0.0
230
1.0
  0
LINE
  5
CC
100
AcDbEntity
  8
0
370
    35
390
0
 62
     7
 48
0.000234
100
AcDbLine
 10
30.748428
 20
79.736458
 30
0.0
 11
30.757599
 21
79.738289
 31
0.0
210
0.0
220
0.0
230
1.0
  0
LINE
  5
CD
100
AcDbEntity
  8
0
370
    35
390
0
 62
     7
 48
0.003346
100
AcDbLine
 10
30.846359
 20
79.568153
 30
0.0
 11
30.757599
 21
79.668327
 31
0.0
210
0.0
220
0.0
230
1.0
  0
LINE
  5
CE
100
AcDbEntity
  8
0
370
    35
390
0
 62
     7
 48
0.001975
100
AcDbLine
 10
30.846359
 20
79.568153
 30
0.0
 11
30.768112
 21
79.55732
 31
0.0
210
0.0
220
0.0
230
1.0
  0
LINE
  5
CF
100
AcDbEntity
  8
0
370
    35
390
0
 62
     7
 48
0.000265
100
AcDbLine
 10
30.768112
 20
79.55732
 30
0.0
 11
30.757599
 21
79.555885
 31
0.0
210
0.0
220
0.0
230
1.0
  0
LINE
  5
D0
100
AcDbEntity
  8
0
370
    35
390
0
 62
     7
 48
0.000171
100
AcDbLine
 10
30.757599
 20
79.555885
 30
0.0
 11
30.750977
 21
79.554146
 31
0.0
210
0.0
220
0.0
230
1.0
  0
LINE
  5
D1
100
AcDbEntity
  8
0
370
    35
390
0
 62
     7
 48
0.000238
100
AcDbLine
 10
30.750977
 20
79.554146
 30
0.0
 11
30.743042
 21
79.548897
 31
0.0
210
0.0
220
0.0
230
1.0
  0
LINE
  5
D2
100
AcDbEntity
  8
0
370
    35
390
0
 62
     7
 48
0.000171
100
AcDbLine
 10
30.743042
 20
79.548897
 30
0.0
 11
30.739014
 21
79.543388
 31
0.0
210
0.0
220
0.0
230
1.0
  0
LINE
  5
D3
100
AcDbEntity
  8
0
370
    35
390
0
 62
     7
 48
0.000186
100
AcDbLine
 10
30.739014
 20
79.543388
 30
0.0
 11
30.736572
 21
79.536369
 31
0.0
210
0.0
220
0.0
230
1.0
  0
LINE
  5
D4
100
AcDbEntity
  8
0
370
    35
390
0
 62
     7
 48
0.000373
100
AcDbLine
 10
30.736572
 20
79.536369
 30
0.0
 11
30.736588
 21
79.521461
 31
0.0
210
0.0
220
0.0
230
1.0
  0
LINE
  5
D5
100
AcDbEntity
  8
0
370
    35
390
0
 62
     7
 48
0.000465
100
AcDbLine
 10
30.736588
 20
79.521461
 30
0.0
 11
30.742538
 21
79.503822
 31
0.0
210
0.0
220
0.0
230
1.0
  0
LINE
  5
D6
100
AcDbEntity
  8
0
370
    35
390
0
 62
     7
 48
0.000291
100
AcDbLine
 10
30.742538
 20
79.503822
 30
0.0
 11
30.748428
 21
79.493782
 31
0.0
210
0.0
220
0.0
230
1.0
  0
LINE
  5
D7
100
AcDbEntity
  8
0
370
    35
390
0
 62
     7
 48
0.000367
100
AcDbLine
 10
30.748428
 20
79.493782
 30
0.0
 11
30.757599
 21
79.482307
 31
0.0
210
0.0
220
0.0
230
1.0
  0
LINE
  5
D8
100
AcDbEntity
  8
0
370
    35
390
0
 62
     7
 48
0.003269
100
AcDbLine
 10
30.846359
 20
79.386314
 30
0.0
 11
30.757599
 21
79.482307
 31
0.0
210
0.0
220
0.0
230
1.0
  0
LINE
  5
D9
100
AcDbEntity
  8
0
370
    35
390
0
 62
     7
 48
0.002284
100
AcDbLine
 10
30.846359
 20
79.386314
 30
0.0
 11
30.757599
 21
79.364616
 31
0.0
210
0.0
220
0.0
230
1.0
  0
LINE
  5
DA
100
AcDbEntity
  8
0
370
    35
390
0
 62
     7
 48
0.000175
100
AcDbLine
 10
30.757599
 20
79.364616
 30
0.0
 11
30.751022
 21
79.36219
 31
0.0
210
0.0
220
0.0
230
1.0
  0
LINE
  5
DB
100
AcDbEntity
  8
0
370
    35
390
0
 62
     7
 48
0.000251
100
AcDbLine
 10
30.751022
 20
79.36219
 30
0.0
 11
30.743134
 21
79.355995
 31
0.0
210
0.0
220
0.0
230
1.0
  0
LINE
  5
DC
100
AcDbEntity
  8
0
370
    35
390
0
 62
     7
 48
0.000186
100
AcDbLine
 10
30.743134
 20
79.355995
 30
0.0
 11
30.739044
 21
79.3498
 31
0.0
210
0.0
220
0.0
230
1.0
  0
LINE
  5
DD
100
AcDbEntity
  8
0
370
    35
390
0
 62
     7
 48
0.0002
100
AcDbLine
 10
30.739044
 20
79.3498
 30
0.0
 11
30.736572
 21
79.342201
 31
0.0
210
0.0
220
0.0
230
1.0
  0
LINE
  5
DE
100
AcDbEntity
  8
0
370
    35
390
0
 62
     7
 48
0.000388
100
AcDbLine
 10
30.736572
 20
79.342201
 30
0.0
 11
30.736588
 21
79.326668
 31
0.0
210
0.0
220
0.0
230
1.0
  0
LINE
  5
DF
100
AcDbEntity
  8
0
370
    35
390
0
 62
     7
 48
0.000469
100
AcDbLine
 10
30.736588
 20
79.326668
 30
0.0
 11
30.742538
 21
79.308891
 31
0.0
210
0.0
220
0.0
230
1.0
  0
LINE
  5
E0
100
AcDbEntity
  8
0
370
    35
390
0
 62
     7
 48
0.000287
100
AcDbLine
 10
30.742538
 20
79.308891
 30
0.0
 11
30.748428
 21
79.299019
 31
0.0
210
0.0
220
0.0
230
1.0
  0
LINE
  5
E1
100
AcDbEntity
  8
0
370
    35
390
0
 62
     7
 48
0.000359
100
AcDbLine
 10
30.748428
 20
79.299019
 30
0.0
 11
30.757599
 21
79.287971
 31
0.0
210
0.0
220
0.0
230
1.0
  0
LINE
  5
E2
100
AcDbEntity
  8
0
370
    35
390
0
 62
     7
 48
0.003179
100
AcDbLine
 10
30.846359
 20
79.196907
 30
0.0
 11
30.757599
 21
79.287971
 31
0.0
210
0.0
220
0.0
230
1.0
  0
LINE
  5
E3
100
AcDbEntity
  8
0
370
    35
390
0
 62
     7
 48
0.00235
100
AcDbLine
 10
30.846359
 20
79.196907
 30
0.0
 11
30.757599
 21
79.165962
 31
0.0
210
0.0
220
0.0
230
1.0
  0
LINE
  5
E4
100
AcDbEntity
  8
0
370
    35
390
0
 62
     7
 48
0.000181
100
AcDbLine
 10
30.757599
 20
79.165962
 30
0.0
 11
30.751083
 21
79.162849
 31
0.0
210
0.0
220
0.0
230
1.0
  0
LINE
  5
E5
100
AcDbEntity
  8
0
370
    35
390
0
 62
     7
 48
0.000264
100
AcDbLine
 10
30.751083
 20
79.162849
 30
0.0
 11
30.74321
 21
79.155785
 31
0.0
210
0.0
220
0.0
230
1.0
  0
LINE
  5
E6
100
AcDbEntity
  8
0
370
    35
390
0
 62
     7
 48
0.0002
100
AcDbLine
 10
30.74321
 20
79.155785
 30
0.0
 11
30.739059
 21
79.148949
 31
0.0
210
0.0
220
0.0
230
1.0
  0
LINE
  5
E7
100
AcDbEntity
  8
0
370
    35
390
0
 62
     7
 48
0.000213
100
AcDbLine
 10
30.739059
 20
79.148949
 30
0.0
 11
30.736572
 21
79.140785
 31
0.0
210
0.0
220
0.0
230
1.0
  0
LINE
  5
E8
100
AcDbEntity
  8
0
370
    35
390
0
 62
     7
 48
0.000401
100
AcDbLine
 10
30.736572
 20
79.140785
 30
0.0
 11
30.736588
 21
79.124763
 31
0.0
210
0.0
220
0.0
230
1.0
  0
LINE
  5
E9
100
AcDbEntity
  8
0
370
    35
390
0
 62
     7
 48
0.000468
100
AcDbLine
 10
30.736588
 20
79.124763
 30
0.0
 11
30.742538
 21
79.107002
 31
0.0
210
0.0
220
0.0
230
1.0
  0
LINE
  5
EA
100
AcDbEntity
  8
0
370
    35
390
0
 62
     7
 48
0.000282
100
AcDbLine
 10
30.742538
 20
79.107002
 30
0.0
 11
30.748428
 21
79.097374
 31
0.0
210
0.0
220
0.0
230
1.0
  0
LINE
  5
EB
100
AcDbEntity
  8
0
370
    35
390
0
 62
     7
 48
0.000349
100
AcDbLine
 10
30.748428
 20
79.097374
 30
0.0
 11
30.757599
 21
79.086845
 31
0.0
210
0.0
220
0.0
230
1.0
  0
LINE
  5
EC
100
AcDbEntity
  8
0
370
    35
390
0
 62
     7
 48
0.00308
100
AcDbLine
 10
30.846359
 20
79.001381
 30
0.0
 11
30.757599
 21
79.086845
 31
0.0
210
0.0
220
0.0
230
1.0
  0
LINE
  5
ED
100
AcDbEntity
  8
0
370
    35
390
0
 62
     7
 48
0.002434
100
AcDbLine
 10
30.846359
 20
79.001381
 30
0.0
 11
30.757599
 21
78.961418
 31
0.0
210
0.0
220
0.0
230
1.0
  0
LINE
  5
EE
100
AcDbEntity
  8
0
370
    35
390
0
 62
     7
 48
0.000187
100
AcDbLine
 10
30.757599
 20
78.961418
 30
0.0
 11
30.751129
 21
78.95768
 31
0.0
210
0.0
220
0.0
230
1.0
  0
LINE
  5
EF
100
AcDbEntity
  8
0
370
    35
390
0
 62
     7
 48
0.000278
100
AcDbLine
 10
30.751129
 20
78.95768
 30
0.0
 11
30.743301
 21
78.949791
 31
0.0
210
0.0
220
0.0
230
1.0
  0
LINE
  5
F0
100
AcDbEntity
  8
0
370
    35
390
0
 62
     7
 48
0.000214
100
AcDbLine
 10
30.743301
 20
78.949791
 30
0.0
 11
30.73909
 21
78.942345
 31
0.0
210
0.0
220
0.0
230
1.0
  0
LINE
  5
F1
100
AcDbEntity
  8
0
370
    35
390
0
 62
     7
 48
0.000225
100
AcDbLine
 10
30.73909
 20
78.942345
 30
0.0
 11
30.736572
 21
78.933708
 31
0.0
210
0.0
220
0.0
230
1.0
  0
LINE
  5
F2
100
AcDbEntity
  8
0
370
    35
390
0
 62
     7
 48
0.00041
100
AcDbLine
 10
30.736572
 20
78.933708
 30
0.0
 11
30.736588
 21
78.917305
 31
0.0
210
0.0
220
0.0
230
1.0
  0
LINE
  5
F3
100
AcDbEntity
  8
0
370
    35
390
0
 62
     7
 48
0.000465
100
AcDbLine
 10
30.736588
 20
78.917305
 30
0.0
 11
30.742538
 21
78.899666
 31
0.0
210
0.0
220
0.0
230
1.0
  0
LINE
  5
F4
100
AcDbEntity
  8
0
370
    35
390
0
 62
     7
 48
0.000275
100
AcDbLine
 10
30.742538
 20
78.899666
 30
0.0
 11
30.748428
 21
78.890358
 31
0.0
210
0.0
220
0.0
230
1.0
  0
LINE
  5
F5
100
AcDbEntity
  8
0
370
    35
390
0
 62
     7
 48
0.000338
100
AcDbLine
 10
30.748428
 20
78.890358
 30
0.0
 11
30.757599
 21
78.880424
 31
0.0
210
0.0
220
0.0
230
1.0
  0
LINE
  5
F6
100
AcDbEntity
  8
0
370
    35
390
0
 62
     7
 48
0.002974
100
AcDbLine
 10
30.846359
 20
78.801231
 30
0.0
 11
30.757599
 21
78.880424
 31
0.0
210
0.0
220
0.0
230
1.0
  0
LINE
  5
F7
100
AcDbEntity
  8
0
370
    35
390
0
 62
     7
 48
0.002531
100
AcDbLine
 10
30.846359
 20
78.801231
 30
0.0
 11
30.757599
 21
78.752556
 31
0.0
210
0.0
220
0.0
230
1.0
  0
ARC
  5
F8
100
AcDbEntity
  8
0
370
    35
390
0
 62
     7
100
AcDbCircle
 10
30.785645
 20
78.712608
 30
0.0
 40
0.049795
210
0.0
220
0.0
230
1.0
100
AcDbArc
 50
125.068687
 51
236.462164
  0
LINE
  5
F9
100
AcDbEntity
  8
0
370
    35
390
0
 62
     7
 48
0.002862
100
AcDbLine
 10
30.846359
 20
78.597984
 30
0.0
 11
30.757599
 21
78.670311
 31
0.0
210
0.0
220
0.0
230
1.0
  0
LINE
  5
FA
100
AcDbEntity
  8
0
370
    35
390
0
 62
     7
 48
0.002637
100
AcDbLine
 10
30.846359
 20
78.597984
 30
0.0
 11
30.757599
 21
78.540962
 31
0.0
210
0.0
220
0.0
230
1.0
  0
ARC
  5
FB
100
AcDbEntity
  8
0
370
    35
390
0
 62
     7
100
AcDbCircle
 10
30.786301
 20
78.499916
 30
0.0
 40
0.050451
210
0.0
220
0.0
230
1.0
100
AcDbArc
 50
124.970578
 51
235.539596
  0
LINE
  5
FC
100
AcDbEntity
  8
0
370
    35
390
0
 62
     7
 48
0.002749
100
AcDbLine
 10
30.846359
 20
78.39315
 30
0.0
 11
30.757599
 21
78.458076
 31
0.0
210
0.0
220
0.0
230
1.0
  0
LINE
  5
FD
100
AcDbEntity
  8
0
370
    35
390
0
 62
     7
 48
0.002749
100
AcDbLine
 10
30.846359
 20
78.39315
 30
0.0
 11
30.757599
 21
78.328239
 31
0.0
210
0.0
220
0.0
230
1.0
  0
ARC
  5
FE
100
AcDbEntity
  8
0
370
    35
390
0
 62
     7
100
AcDbCircle
 10
30.786301
 20
78.2864
 30
0.0
 40
0.05045
210
0.0
220
0.0
230
1.0
100
AcDbArc
 50
124.459844
 51
235.029217
  0
LINE
  5
FF
100
AcDbEntity
  8
0
370
    35
390
0
 62
     7
 48
0.002637
100
AcDbLine
 10
30.846359
 20
78.188332
 30
0.0
 11
30.757599
 21
78.245354
 31
0.0
210
0.0
220
0.0
230
1.0
  0
LINE
  5
100
100
AcDbEntity
  8
0
370
    35
390
0
 62
     7
 48
0.002862
100
AcDbLine
 10
30.846359
 20
78.188332
 30
0.0
 11
30.757599
 21
78.116005
 31
0.0
210
0.0
220
0.0
230
1.0
  0
ARC
  5
101
100
AcDbEntity
  8
0
370
    35
390
0
 62
     7
100
AcDbCircle
 10
30.785629
 20
78.073692
 30
0.0
 40
0.049795
210
0.0
220
0.0
230
1.0
100
AcDbArc
 50
123.536935
 51
234.931518
  0
LINE
  5
102
100
AcDbEntity
  8
0
370
    35
390
0
 62
     7
 48
0.002531
100
AcDbLine
 10
30.846359
 20
77.985085
 30
0.0
 11
30.757599
 21
78.03376
 31
0.0
210
0.0
220
0.0
230
1.0
  0
LINE
  5
103
100
AcDbEntity
  8
0
370
    35
390
0
 62
     7
 48
0.002974
100
AcDbLine
 10
30.846359
 20
77.985085
 30
0.0
 11
30.757599
 21
77.905891
 31
0.0
210
0.0
220
0.0
230
1.0
  0
LINE
  5
104
100
AcDbEntity
  8
0
370
    35
390
0
 62
     7
 48
0.00022
100
AcDbLine
 10
30.757599
 20
77.905891
 30
0.0
 11
30.751419
 21
77.899635
 31
0.0
210
0.0
220
0.0
230
1.0
  0
LINE
  5
105
100
AcDbEntity
  8
0
370
    35
390
0
 62
     7
 48
0.000333
100
AcDbLine
 10
30.751419
 20
77.899635
 30
0.0
 11
30.743744
 21
77.888756
 31
0.0
210
0.0
220
0.0
230
1.0
  0
LINE
  5
106
100
AcDbEntity
  8
0
370
    35
390
0
 62
     7
 48
0.000527
100
AcDbLine
 10
30.743744
 20
77.888756
 30
0.0
 11
30.736572
 21
77.868919
 31
0.0
210
0.0
220
0.0
230
1.0
  0
LINE
  5
107
100
AcDbEntity
  8
0
370
    35
390
0
 62
     7
 48
0.00041
100
AcDbLine
 10
30.736572
 20
77.868919
 30
0.0
 11
30.736588
 21
77.852531
 31
0.0
210
0.0
220
0.0
230
1.0
  0
LINE
  5
108
100
AcDbEntity
  8
0
370
    35
390
0
 62
     7
 48
0.0002
100
AcDbLine
 10
30.736588
 20
77.852531
 30
0.0
 11
30.738724
 21
77.844826
 31
0.0
210
0.0
220
0.0
230
1.0
  0
LINE
  5
109
100
AcDbEntity
  8
0
370
    35
390
0
 62
     7
 48
0.000206
100
AcDbLine
 10
30.738724
 20
77.844826
 30
0.0
 11
30.742538
 21
77.837517
 31
0.0
210
0.0
220
0.0
230
1.0
  0
LINE
  5
10A
100
AcDbEntity
  8
0
370
    35
390
0
 62
     7
 48
0.000305
100
AcDbLine
 10
30.742538
 20
77.837517
 30
0.0
 11
30.750977
 21
77.828728
 31
0.0
210
0.0
220
0.0
230
1.0
  0
LINE
  5
10B
100
AcDbEntity
  8
0
370
    35
390
0
 62
     7
 48
0.000191
100
AcDbLine
 10
30.750977
 20
77.828728
 30
0.0
 11
30.757599
 21
77.824898
 31
0.0
210
0.0
220
0.0
230
1.0
  0
LINE
  5
10C
100
AcDbEntity
  8
0
370
    35
390
0
 62
     7
 48
0.002434
100
AcDbLine
 10
30.846359
 20
77.784935
 30
0.0
 11
30.757599
 21
77.824898
 31
0.0
210
0.0
220
0.0
230
1.0
  0
LINE
  5
10D
100
AcDbEntity
  8
0
370
    35
390
0
 62
     7
 48
0.00308
100
AcDbLine
 10
30.846359
 20
77.784935
 30
0.0
 11
30.757599
 21
77.699471
 31
0.0
210
0.0
220
0.0
230
1.0
  0
LINE
  5
10E
100
AcDbEntity
  8
0
370
    35
390
0
 62
     7
 48
0.000225
100
AcDbLine
 10
30.757599
 20
77.699471
 30
0.0
 11
30.75148
 21
77.692879
 31
0.0
210
0.0
220
0.0
230
1.0
  0
LINE
  5
10F
100
AcDbEntity
  8
0
370
    35
390
0
 62
     7
 48
0.00034
100
AcDbLine
 10
30.75148
 20
77.692879
 30
0.0
 11
30.743835
 21
77.681648
 31
0.0
210
0.0
220
0.0
230
1.0
  0
LINE
  5
110
100
AcDbEntity
  8
0
370
    35
390
0
 62
     7
 48
0.000537
100
AcDbLine
 10
30.743835
 20
77.681648
 30
0.0
 11
30.736572
 21
77.661446
 31
0.0
210
0.0
220
0.0
230
1.0
  0
LINE
  5
111
100
AcDbEntity
  8
0
370
    35
390
0
 62
     7
 48
0.0004
100
AcDbLine
 10
30.736572
 20
77.661446
 30
0.0
 11
30.736588
 21
77.645454
 31
0.0
210
0.0
220
0.0
230
1.0
  0
LINE
  5
112
100
AcDbEntity
  8
0
370
    35
390
0
 62
     7
 48
0.000191
100
AcDbLine
 10
30.736588
 20
77.645454
 30
0.0
 11
30.738724
 21
77.63813
 31
0.0
210
0.0
220
0.0
230
1.0
  0
LINE
  5
113
100
AcDbEntity
  8
0
370
    35
390
0
 62
     7
 48
0.000195
100
AcDbLine
 10
30.738724
 20
77.63813
 30
0.0
 11
30.742538
 21
77.63131
 31
0.0
210
0.0
220
0.0
230
1.0
  0
LINE
  5
114
100
AcDbEntity
  8
0
370
    35
390
0
 62
     7
 48
0.00021
100
AcDbLine
 10
30.742538
 20
77.63131
 30
0.0
 11
30.748413
 21
77.625282
 31
0.0
210
0.0
220
0.0
230
1.0
  0
LINE
  5
115
100
AcDbEntity
  8
0
370
    35
390
0
 62
     7
 48
0.000261
100
AcDbLine
 10
30.748413
 20
77.625282
 30
0.0
 11
30.757599
 21
77.620354
 31
0.0
210
0.0
220
0.0
230
1.0
  0
LINE
  5
116
100
AcDbEntity
  8
0
370
    35
390
0
 62
     7
 48
0.00235
100
AcDbLine
 10
30.846359
 20
77.589409
 30
0.0
 11
30.757599
 21
77.620354
 31
0.0
210
0.0
220
0.0
230
1.0
  0
LINE
  5
117
100
AcDbEntity
  8
0
370
    35
390
0
 62
     7
 48
0.003179
100
AcDbLine
 10
30.846359
 20
77.589409
 30
0.0
 11
30.757599
 21
77.498344
 31
0.0
210
0.0
220
0.0
230
1.0
  0
LINE
  5
118
100
AcDbEntity
  8
0
370
    35
390
0
 62
     7
 48
0.000229
100
AcDbLine
 10
30.757599
 20
77.498344
 30
0.0
 11
30.751541
 21
77.491463
 31
0.0
210
0.0
220
0.0
230
1.0
  0
LINE
  5
119
100
AcDbEntity
  8
0
370
    35
390
0
 62
     7
 48
0.000344
100
AcDbLine
 10
30.751541
 20
77.491463
 30
0.0
 11
30.743942
 21
77.479988
 31
0.0
210
0.0
220
0.0
230
1.0
  0
LINE
  5
11A
100
AcDbEntity
  8
0
370
    35
390
0
 62
     7
 48
0.000543
100
AcDbLine
 10
30.743942
 20
77.479988
 30
0.0
 11
30.736557
 21
77.459557
 31
0.0
210
0.0
220
0.0
230
1.0
  0
LINE
  5
11B
100
AcDbEntity
  8
0
370
    35
390
0
 62
     7
 48
0.00033
100
AcDbLine
 10
30.736557
 20
77.459557
 30
0.0
 11
30.736206
 21
77.446342
 31
0.0
210
0.0
220
0.0
230
1.0
  0
LINE
  5
11C
100
AcDbEntity
  8
0
370
    35
390
0
 62
     7
 48
0.000298
100
AcDbLine
 10
30.736206
 20
77.446342
 30
0.0
 11
30.739822
 21
77.435005
 31
0.0
210
0.0
220
0.0
230
1.0
  0
LINE
  5
11D
100
AcDbEntity
  8
0
370
    35
390
0
 62
     7
 48
0.000318
100
AcDbLine
 10
30.739822
 20
77.435005
 30
0.0
 11
30.748428
 21
77.425621
 31
0.0
210
0.0
220
0.0
230
1.0
  0
LINE
  5
11E
100
AcDbEntity
  8
0
370
    35
390
0
 62
     7
 48
0.000249
100
AcDbLine
 10
30.748428
 20
77.425621
 30
0.0
 11
30.757599
 21
77.4217
 31
0.0
210
0.0
220
0.0
230
1.0
  0
LINE
  5
11F
100
AcDbEntity
  8
0
370
    35
390
0
 62
     7
 48
0.002284
100
AcDbLine
 10
30.846359
 20
77.400002
 30
0.0
 11
30.757599
 21
77.4217
 31
0.0
210
0.0
220
0.0
230
1.0
  0
LINE
  5
120
100
AcDbEntity
  8
0
370
    35
390
0
 62
     7
 48
0.003269
100
AcDbLine
 10
30.846359
 20
77.400002
 30
0.0
 11
30.757599
 21
77.304008
 31
0.0
210
0.0
220
0.0
230
1.0
  0
LINE
  5
121
100
AcDbEntity
  8
0
370
    35
390
0
 62
     7
 48
0.000232
100
AcDbLine
 10
30.757599
 20
77.304008
 30
0.0
 11
30.751602
 21
77.296928
 31
0.0
210
0.0
220
0.0
230
1.0
  0
LINE
  5
122
100
AcDbEntity
  8
0
370
    35
390
0
 62
     7
 48
0.000347
100
AcDbLine
 10
30.751602
 20
77.296928
 30
0.0
 11
30.744049
 21
77.285301
 31
0.0
210
0.0
220
0.0
230
1.0
  0
LINE
  5
123
100
AcDbEntity
  8
0
370
    35
390
0
 62
     7
 48
0.000547
100
AcDbLine
 10
30.744049
 20
77.285301
 30
0.0
 11
30.736557
 21
77.264763
 31
0.0
210
0.0
220
0.0
230
1.0
  0
LINE
  5
124
100
AcDbEntity
  8
0
370
    35
390
0
 62
     7
 48
0.000318
100
AcDbLine
 10
30.736557
 20
77.264763
 30
0.0
 11
30.736206
 21
77.252037
 31
0.0
210
0.0
220
0.0
230
1.0
  0
LINE
  5
125
100
AcDbEntity
  8
0
370
    35
390
0
 62
     7
 48
0.000279
100
AcDbLine
 10
30.736206
 20
77.252037
 30
0.0
 11
30.739822
 21
77.241493
 31
0.0
210
0.0
220
0.0
230
1.0
  0
LINE
  5
126
100
AcDbEntity
  8
0
370
    35
390
0
 62
     7
 48
0.000142
100
AcDbLine
 10
30.739822
 20
77.241493
 30
0.0
 11
30.743332
 21
77.237038
 31
0.0
210
0.0
220
0.0
230
1.0
  0
LINE
  5
127
100
AcDbEntity
  8
0
370
    35
390
0
 62
     7
 48
0.000158
100
AcDbLine
 10
30.743332
 20
77.237038
 30
0.0
 11
30.748428
 21
77.233315
 31
0.0
210
0.0
220
0.0
230
1.0
  0
LINE
  5
128
100
AcDbEntity
  8
0
370
    35
390
0
 62
     7
 48
0.00024
100
AcDbLine
 10
30.748428
 20
77.233315
 30
0.0
 11
30.757599
 21
77.230431
 31
0.0
210
0.0
220
0.0
230
1.0
  0
LINE
  5
129
100
AcDbEntity
  8
0
370
    35
390
0
 62
     7
 48
0.00224
100
AcDbLine
 10
30.846359
 20
77.218147
 30
0.0
 11
30.757599
 21
77.230431
 31
0.0
210
0.0
220
0.0
230
1.0
  0
LINE
  5
12A
100
AcDbEntity
  8
0
370
    35
390
0
 62
     7
 48
0.003346
100
AcDbLine
 10
30.846359
 20
77.218147
 30
0.0
 11
30.757599
 21
77.117973
 31
0.0
210
0.0
220
0.0
230
1.0
  0
LINE
  5
12B
100
AcDbEntity
  8
0
370
    35
390
0
 62
     7
 48
0.000234
100
AcDbLine
 10
30.757599
 20
77.117973
 30
0.0
 11
30.751663
 21
77.110741
 31
0.0
210
0.0
220
0.0
230
1.0
  0
LINE
  5
12C
100
AcDbEntity
  8
0
370
    35
390
0
 62
     7
 48
0.000347
100
AcDbLine
 10
30.751663
 20
77.110741
 30
0.0
 11
30.744171
 21
77.099037
 31
0.0
210
0.0
220
0.0
230
1.0
  0
LINE
  5
12D
100
AcDbEntity
  8
0
370
    35
390
0
 62
     7
 48
0.000546
100
AcDbLine
 10
30.744171
 20
77.099037
 30
0.0
 11
30.736557
 21
77.07856
 31
0.0
210
0.0
220
0.0
230
1.0
  0
LINE
  5
12E
100
AcDbEntity
  8
0
370
    35
390
0
 62
     7
 48
0.000303
100
AcDbLine
 10
30.736557
 20
77.07856
 30
0.0
 11
30.736206
 21
77.066429
 31
0.0
210
0.0
220
0.0
230
1.0
  0
LINE
  5
12F
100
AcDbEntity
  8
0
370
    35
390
0
 62
     7
 48
0.000258
100
AcDbLine
 10
30.736206
 20
77.066429
 30
0.0
 11
30.739822
 21
77.05677
 31
0.0
210
0.0
220
0.0
230
1.0
  0
LINE
  5
130
100
AcDbEntity
  8
0
370
    35
390
0
 62
     7
 48
0.000131
100
AcDbLine
 10
30.739822
 20
77.05677
 30
0.0
 11
30.743332
 21
77.052879
 31
0.0
210
0.0
220
0.0
230
1.0
  0
LINE
  5
131
100
AcDbEntity
  8
0
370
    35
390
0
 62
     7
 48
0.000148
100
AcDbLine
 10
30.743332
 20
77.052879
 30
0.0
 11
30.748428
 21
77.049843
 31
0.0
210
0.0
220
0.0
230
1.0
  0
LINE
  5
132
100
AcDbEntity
  8
0
370
    35
390
0
 62
     7
 48
0.000234
100
AcDbLine
 10
30.748428
 20
77.049843
 30
0.0
 11
30.757599
 21
77.048027
 31
0.0
210
0.0
220
0.0
230
1.0
  0
LINE
  5
133
100
AcDbEntity
  8
0
370
    35
390
0
 62
     7
 48
0.00222
100
AcDbLine
 10
30.846359
 20
77.04525
 30
0.0
 11
30.757599
 21
77.048027
 31
0.0
210
0.0
220
0.0
230
1.0
  0
LINE
  5
134
100
AcDbEntity
  8
0
370
    35
390
0
 62
     7
 48
0.00341
100
AcDbLine
 10
30.846359
 20
77.04525
 30
0.0
 11
30.757599
 21
76.941658
 31
0.0
210
0.0
220
0.0
230
1.0
  0
LINE
  5
135
100
AcDbEntity
  8
0
370
    35
390
0
 62
     7
 48
0.000235
100
AcDbLine
 10
30.757599
 20
76.941658
 30
0.0
 11
30.75174
 21
76.934319
 31
0.0
210
0.0
220
0.0
230
1.0
  0
LINE
  5
136
100
AcDbEntity
  8
0
370
    35
390
0
 62
     7
 48
0.000346
100
AcDbLine
 10
30.75174
 20
76.934319
 30
0.0
 11
30.744293
 21
76.922661
 31
0.0
210
0.0
220
0.0
230
1.0
  0
LINE
  5
137
100
AcDbEntity
  8
0
370
    35
390
0
 62
     7
 48
0.000543
100
AcDbLine
 10
30.744293
 20
76.922661
 30
0.0
 11
30.736557
 21
76.902367
 31
0.0
210
0.0
220
0.0
230
1.0
  0
LINE
  5
138
100
AcDbEntity
  8
0
370
    35
390
0
 62
     7
 48
0.000287
100
AcDbLine
 10
30.736557
 20
76.902367
 30
0.0
 11
30.736206
 21
76.890907
 31
0.0
210
0.0
220
0.0
230
1.0
  0
LINE
  5
139
100
AcDbEntity
  8
0
370
    35
390
0
 62
     7
 48
0.000236
100
AcDbLine
 10
30.736206
 20
76.890907
 30
0.0
 11
30.739822
 21
76.882195
 31
0.0
210
0.0
220
0.0
230
1.0
  0
LINE
  5
13A
100
AcDbEntity
  8
0
370
    35
390
0
 62
     7
 48
0.000256
100
AcDbLine
 10
30.739822
 20
76.882195
 30
0.0
 11
30.748428
 21
76.87661
 31
0.0
210
0.0
220
0.0
230
1.0
  0
LINE
  5
13B
100
AcDbEntity
  8
0
370
    35
390
0
 62
     7
 48
0.00023
100
AcDbLine
 10
30.748428
 20
76.87661
 30
0.0
 11
30.757599
 21
76.875847
 31
0.0
210
0.0
220
0.0
230
1.0
  0
LINE
  5
13C
100
AcDbEntity
  8
0
370
    35
390
0
 62
     7
 48
0.002225
100
AcDbLine
 10
30.846359
 20
76.882607
 30
0.0
 11
30.757599
 21
76.875847
 31
0.0
210
0.0
220
0.0
230
1.0
  0
LINE
  5
13D
100
AcDbEntity
  8
0
370
    35
390
0
 62
     7
 48
0.003461
100
AcDbLine
 10
30.846359
 20
76.882607
 30
0.0
 11
30.757599
 21
76.776375
 31
0.0
210
0.0
220
0.0
230
1.0
  0
LINE
  5
13E
100
AcDbEntity
  8
0
370
    35
390
0
 62
     7
 48
0.000283
100
AcDbLine
 10
30.757599
 20
76.776375
 30
0.0
 11
30.750671
 21
76.767403
 31
0.0
210
0.0
220
0.0
230
1.0
  0
LINE
  5
13F
100
AcDbEntity
  8
0
370
    35
390
0
 62
     7
 48
0.000394
100
AcDbLine
 10
30.750671
 20
76.767403
 30
0.0
 11
30.742523
 21
76.753899
 31
0.0
210
0.0
220
0.0
230
1.0
  0
LINE
  5
140
100
AcDbEntity
  8
0
370
    35
390
0
 62
     7
 48
0.000436
100
AcDbLine
 10
30.742523
 20
76.753899
 30
0.0
 11
30.736557
 21
76.737511
 31
0.0
210
0.0
220
0.0
230
1.0
  0
LINE
  5
141
100
AcDbEntity
  8
0
370
    35
390
0
 62
     7
 48
0.00018
100
AcDbLine
 10
30.736557
 20
76.737511
 30
0.0
 11
30.73587
 21
76.730354
 31
0.0
210
0.0
220
0.0
230
1.0
  0
LINE
  5
142
100
AcDbEntity
  8
0
370
    35
390
0
 62
     7
 48
0.000153
100
AcDbLine
 10
30.73587
 20
76.730354
 30
0.0
 11
30.736816
 21
76.724312
 31
0.0
210
0.0
220
0.0
230
1.0
  0
LINE
  5
143
100
AcDbEntity
  8
0
370
    35
390
0
 62
     7
 48
0.000139
100
AcDbLine
 10
30.736816
 20
76.724312
 30
0.0
 11
30.739502
 21
76.719444
 31
0.0
210
0.0
220
0.0
230
1.0
  0
LINE
  5
144
100
AcDbEntity
  8
0
370
    35
390
0
 62
     7
 48
0.000146
100
AcDbLine
 10
30.739502
 20
76.719444
 30
0.0
 11
30.744247
 21
76.716042
 31
0.0
210
0.0
220
0.0
230
1.0
  0
LINE
  5
145
100
AcDbEntity
  8
0
370
    35
390
0
 62
     7
 48
0.000139
100
AcDbLine
 10
30.744247
 20
76.716042
 30
0.0
 11
30.749664
 21
76.71476
 31
0.0
210
0.0
220
0.0
230
1.0
  0
LINE
  5
146
100
AcDbEntity
  8
0
370
    35
390
0
 62
     7
 48
0.000199
100
AcDbLine
 10
30.749664
 20
76.71476
 30
0.0
 11
30.757599
 21
76.715218
 31
0.0
210
0.0
220
0.0
230
1.0
  0
LINE
  5
147
100
AcDbEntity
  8
0
370
    35
390
0
 62
     7
 48
0.002256
100
AcDbLine
 10
30.846359
 20
76.731468
 30
0.0
 11
30.757599
 21
76.715218
 31
0.0
210
0.0
220
0.0
230
1.0
  0
LINE
  5
148
100
AcDbEntity
  8
0
370
    35
390
0
 62
     7
 48
0.003496
100
AcDbLine
 10
30.846359
 20
76.731468
 30
0.0
 11
30.757599
 21
76.623405
 31
0.0
210
0.0
220
0.0
230
1.0
  0
LINE
  5
149
100
AcDbEntity
  8
0
370
    35
390
0
 62
     7
 48
0.000257
100
AcDbLine
 10
30.757599
 20
76.623405
 30
0.0
 11
30.751312
 21
76.615257
 31
0.0
210
0.0
220
0.0
230
1.0
  0
LINE
  5
14A
100
AcDbEntity
  8
0
370
    35
390
0
 62
     7
 48
0.00037
100
AcDbLine
 10
30.751312
 20
76.615257
 30
0.0
 11
30.743439
 21
76.602745
 31
0.0
210
0.0
220
0.0
230
1.0
  0
LINE
  5
14B
100
AcDbEntity
  8
0
370
    35
390
0
 62
     7
 48
0.000403
100
AcDbLine
 10
30.743439
 20
76.602745
 30
0.0
 11
30.737198
 21
76.587898
 31
0.0
210
0.0
220
0.0
230
1.0
  0
LINE
  5
14C
100
AcDbEntity
  8
0
370
    35
390
0
 62
     7
 48
0.000284
100
AcDbLine
 10
30.737198
 20
76.587898
 30
0.0
 11
30.736023
 21
76.576591
 31
0.0
210
0.0
220
0.0
230
1.0
  0
LINE
  5
14D
100
AcDbEntity
  8
0
370
    35
390
0
 62
     7
 48
0.000109
100
AcDbLine
 10
30.736023
 20
76.576591
 30
0.0
 11
30.737183
 21
76.572395
 31
0.0
210
0.0
220
0.0
230
1.0
  0
LINE
  5
14E
100
AcDbEntity
  8
0
370
    35
390
0
 62
     7
 48
0.0001
100
AcDbLine
 10
30.737183
 20
76.572395
 30
0.0
 11
30.739487
 21
76.56913
 31
0.0
210
0.0
220
0.0
230
1.0
  0
LINE
  5
14F
100
AcDbEntity
  8
0
370
    35
390
0
 62
     7
 48
0.000108
100
AcDbLine
 10
30.739487
 20
76.56913
 30
0.0
 11
30.743179
 21
76.566856
 31
0.0
210
0.0
220
0.0
230
1.0
  0
LINE
  5
150
100
AcDbEntity
  8
0
370
    35
390
0
 62
     7
 48
0.000142
100
AcDbLine
 10
30.743179
 20
76.566856
 30
0.0
 11
30.748779
 21
76.565971
 31
0.0
210
0.0
220
0.0
230
1.0
  0
LINE
  5
151
100
AcDbEntity
  8
0
370
    35
390
0
 62
     7
 48
0.000223
100
AcDbLine
 10
30.748779
 20
76.565971
 30
0.0
 11
30.757599
 21
76.56736
 31
0.0
210
0.0
220
0.0
230
1.0
  0
LINE
  5
152
100
AcDbEntity
  8
0
370
    35
390
0
 62
     7
 48
0.002309
100
AcDbLine
 10
30.846359
 20
76.592964
 30
0.0
 11
30.757599
 21
76.56736
 31
0.0
210
0.0
220
0.0
230
1.0
  0
LINE
  5
153
100
AcDbEntity
  8
0
370
    35
390
0
 62
     7
 48
0.003516
100
AcDbLine
 10
30.846359
 20
76.592964
 30
0.0
 11
30.757599
 21
76.483894
 31
0.0
210
0.0
220
0.0
230
1.0
  0
LINE
  5
154
100
AcDbEntity
  8
0
370
    35
390
0
 62
     7
 48
0.000282
100
AcDbLine
 10
30.757599
 20
76.483894
 30
0.0
 11
30.750748
 21
76.474937
 31
0.0
210
0.0
220
0.0
230
1.0
  0
LINE
  5
155
100
AcDbEntity
  8
0
370
    35
390
0
 62
     7
 48
0.000379
100
AcDbLine
 10
30.750748
 20
76.474937
 30
0.0
 11
30.742722
 21
76.462074
 31
0.0
210
0.0
220
0.0
230
1.0
  0
LINE
  5
156
100
AcDbEntity
  8
0
370
    35
390
0
 62
     7
 48
0.000461
100
AcDbLine
 10
30.742722
 20
76.462074
 30
0.0
 11
30.736191
 21
76.444832
 31
0.0
210
0.0
220
0.0
230
1.0
  0
LINE
  5
157
100
AcDbEntity
  8
0
370
    35
390
0
 62
     7
 48
0.000182
100
AcDbLine
 10
30.736191
 20
76.444832
 30
0.0
 11
30.736282
 21
76.437553
 31
0.0
210
0.0
220
0.0
230
1.0
  0
LINE
  5
158
100
AcDbEntity
  8
0
370
    35
390
0
 62
     7
 48
0.000075
100
AcDbLine
 10
30.736282
 20
76.437553
 30
0.0
 11
30.737411
 21
76.434792
 31
0.0
210
0.0
220
0.0
230
1.0
  0
LINE
  5
159
100
AcDbEntity
  8
0
370
    35
390
0
 62
     7
 48
0.000108
100
AcDbLine
 10
30.737411
 20
76.434792
 30
0.0
 11
30.740631
 21
76.431892
 31
0.0
210
0.0
220
0.0
230
1.0
  0
LINE
  5
15A
100
AcDbEntity
  8
0
370
    35
390
0
 62
     7
 48
0.000137
100
AcDbLine
 10
30.740631
 20
76.431892
 30
0.0
 11
30.746017
 21
76.430794
 31
0.0
210
0.0
220
0.0
230
1.0
  0
LINE
  5
15B
100
AcDbEntity
  8
0
370
    35
390
0
 62
     7
 48
0.000297
100
AcDbLine
 10
30.746017
 20
76.430794
 30
0.0
 11
30.757599
 21
76.433388
 31
0.0
210
0.0
220
0.0
230
1.0
  0
LINE
  5
15C
100
AcDbEntity
  8
0
370
    35
390
0
 62
     7
 48
0.002383
100
AcDbLine
 10
30.846359
 20
76.468147
 30
0.0
 11
30.757599
 21
76.433388
 31
0.0
210
0.0
220
0.0
230
1.0
  0
LINE
  5
15D
100
AcDbEntity
  8
0
370
    35
390
0
 62
     7
 48
0.003519
100
AcDbLine
 10
30.846359
 20
76.468147
 30
0.0
 11
30.757599
 21
76.35891
 31
0.0
210
0.0
220
0.0
230
1.0
  0
LINE
  5
15E
100
AcDbEntity
  8
0
370
    35
390
0
 62
     7
 48
0.000366
100
AcDbLine
 10
30.757599
 20
76.314339
 30
0.0
 11
30.743561
 21
76.310188
 31
0.0
210
0.0
220
0.0
230
1.0
  0
LINE
  5
15F
100
AcDbEntity
  8
0
370
    35
390
0
 62
     7
 48
0.000115
100
AcDbLine
 10
30.743561
 20
76.310188
 30
0.0
 11
30.739075
 21
76.311226
 31
0.0
210
0.0
220
0.0
230
1.0
  0
LINE
  5
160
100
AcDbEntity
  8
0
370
    35
390
0
 62
     7
 48
0.000093
100
AcDbLine
 10
30.739075
 20
76.311226
 30
0.0
 11
30.736649
 21
76.314034
 31
0.0
210
0.0
220
0.0
230
1.0
  0
LINE
  5
161
100
AcDbEntity
  8
0
370
    35
390
0
 62
     7
 48
0.000069
100
AcDbLine
 10
30.736649
 20
76.314034
 30
0.0
 11
30.735992
 21
76.316734
 31
0.0
210
0.0
220
0.0
230
1.0
  0
LINE
  5
162
100
AcDbEntity
  8
0
370
    35
390
0
 62
     7
 48
0.000184
100
AcDbLine
 10
30.735992
 20
76.316734
 30
0.0
 11
30.736832
 21
76.324028
 31
0.0
210
0.0
220
0.0
230
1.0
  0
LINE
  5
163
100
AcDbEntity
  8
0
370
    35
390
0
 62
     7
 48
0.000451
100
AcDbLine
 10
30.736832
 20
76.324028
 30
0.0
 11
30.74437
 21
76.340431
 31
0.0
210
0.0
220
0.0
230
1.0
  0
LINE
  5
164
100
AcDbEntity
  8
0
370
    35
390
0
 62
     7
 48
0.000568
100
AcDbLine
 10
30.74437
 20
76.340431
 30
0.0
 11
30.757599
 21
76.35891
 31
0.0
210
0.0
220
0.0
230
1.0
  0
LINE
  5
165
100
AcDbEntity
  8
0
370
    35
390
0
 62
     7
 48
0.002473
100
AcDbLine
 10
30.846359
 20
76.358009
 30
0.0
 11
30.757599
 21
76.314339
 31
0.0
210
0.0
220
0.0
230
1.0
  0
LINE
  5
166
100
AcDbEntity
  8
0
370
    35
390
0
 62
     7
 48
0.003506
100
AcDbLine
 10
30.846359
 20
76.358009
 30
0.0
 11
30.757599
 21
76.249413
 31
0.0
210
0.0
220
0.0
230
1.0
  0
LINE
  5
167
100
AcDbEntity
  8
0
370
    35
390
0
 62
     7
 48
0.000432
100
AcDbLine
 10
30.757599
 20
76.211113
 30
0.0
 11
30.741409
 21
76.20504
 31
0.0
210
0.0
220
0.0
230
1.0
  0
LINE
  5
168
100
AcDbEntity
  8
0
370
    35
390
0
 62
     7
 48
0.000084
100
AcDbLine
 10
30.741409
 20
76.20504
 30
0.0
 11
30.738129
 21
76.205818
 31
0.0
210
0.0
220
0.0
230
1.0
  0
LINE
  5
169
100
AcDbEntity
  8
0
370
    35
390
0
 62
     7
 48
0.000069
100
AcDbLine
 10
30.738129
 20
76.205818
 30
0.0
 11
30.736359
 21
76.207954
 31
0.0
210
0.0
220
0.0
230
1.0
  0
LINE
  5
16A
100
AcDbEntity
  8
0
370
    35
390
0
 62
     7
 48
0.000085
100
AcDbLine
 10
30.736359
 20
76.207954
 30
0.0
 11
30.735916
 21
76.211327
 31
0.0
210
0.0
220
0.0
230
1.0
  0
LINE
  5
16B
100
AcDbEntity
  8
0
370
    35
390
0
 62
     7
 48
0.000196
100
AcDbLine
 10
30.735916
 20
76.211327
 30
0.0
 11
30.737854
 21
76.218941
 31
0.0
210
0.0
220
0.0
230
1.0
  0
LINE
  5
16C
100
AcDbEntity
  8
0
370
    35
390
0
 62
     7
 48
0.000308
100
AcDbLine
 10
30.737854
 20
76.218941
 30
0.0
 11
30.743469
 21
76.229897
 31
0.0
210
0.0
220
0.0
230
1.0
  0
LINE
  5
16D
100
AcDbEntity
  8
0
370
    35
390
0
 62
     7
 48
0.000602
100
AcDbLine
 10
30.743469
 20
76.229897
 30
0.0
 11
30.757599
 21
76.249413
 31
0.0
210
0.0
220
0.0
230
1.0
  0
LINE
  5
16E
100
AcDbEntity
  8
0
370
    35
390
0
 62
     7
 48
0.002574
100
AcDbLine
 10
30.846359
 20
76.263329
 30
0.0
 11
30.757599
 21
76.211113
 31
0.0
210
0.0
220
0.0
230
1.0
  0
LINE
  5
16F
100
AcDbEntity
  8
0
370
    35
390
0
 62
     7
 48
0.003477
100
AcDbLine
 10
30.846359
 20
76.263329
 30
0.0
 11
30.757599
 21
76.156242
 31
0.0
210
0.0
220
0.0
230
1.0
  0
ARC
  5
170
100
AcDbEntity
  8
0
370
    35
390
0
 62
     7
100
AcDbCircle
 10
30.731018
 20
76.156853
 30
0.0
 40
0.041731
210
0.0
220
0.0
230
1.0
100
AcDbArc
 50
281.916738
 51
309.394975
  0
LINE
  5
171
100
AcDbEntity
  8
0
370
    35
390
0
 62
     7
 48
0.00005
100
AcDbLine
 10
30.739609
 20
76.116158
 30
0.0
 11
30.73764
 21
76.116554
 31
0.0
210
0.0
220
0.0
230
1.0
  0
LINE
  5
172
100
AcDbEntity
  8
0
370
    35
390
0
 62
     7
 48
0.00002
100
AcDbLine
 10
30.73764
 20
76.116554
 30
0.0
 11
30.736954
 21
76.116997
 31
0.0
210
0.0
220
0.0
230
1.0
  0
LINE
  5
173
100
AcDbEntity
  8
0
370
    35
390
0
 62
     7
 48
0.000041
100
AcDbLine
 10
30.736954
 20
76.116997
 30
0.0
 11
30.736084
 21
76.118385
 31
0.0
210
0.0
220
0.0
230
1.0
  0
LINE
  5
174
100
AcDbEntity
  8
0
370
    35
390
0
 62
     7
 48
0.000032
100
AcDbLine
 10
30.736084
 20
76.118385
 30
0.0
 11
30.735886
 21
76.119637
 31
0.0
210
0.0
220
0.0
230
1.0
  0
LINE
  5
175
100
AcDbEntity
  8
0
370
    35
390
0
 62
     7
 48
0.000083
100
AcDbLine
 10
30.735886
 20
76.119637
 30
0.0
 11
30.736328
 21
76.122932
 31
0.0
210
0.0
220
0.0
230
1.0
  0
LINE
  5
176
100
AcDbEntity
  8
0
370
    35
390
0
 62
     7
 48
0.000219
100
AcDbLine
 10
30.736328
 20
76.122932
 30
0.0
 11
30.739731
 21
76.13102
 31
0.0
210
0.0
220
0.0
230
1.0
  0
LINE
  5
177
100
AcDbEntity
  8
0
370
    35
390
0
 62
     7
 48
0.000362
100
AcDbLine
 10
30.739731
 20
76.13102
 30
0.0
 11
30.747498
 21
76.143257
 31
0.0
210
0.0
220
0.0
230
1.0
  0
LINE
  5
178
100
AcDbEntity
  8
0
370
    35
390
0
 62
     7
 48
0.000411
100
AcDbLine
 10
30.747498
 20
76.143257
 30
0.0
 11
30.757599
 21
76.156242
 31
0.0
210
0.0
220
0.0
230
1.0
  0
LINE
  5
179
100
AcDbEntity
  8
0
370
    35
390
0
 62
     7
 48
0.002684
100
AcDbLine
 10
30.846359
 20
76.184883
 30
0.0
 11
30.757599
 21
76.124489
 31
0.0
210
0.0
220
0.0
230
1.0
  0
LINE
  5
17A
100
AcDbEntity
  8
0
370
    35
390
0
 62
     7
 48
0.003433
100
AcDbLine
 10
30.846359
 20
76.184883
 30
0.0
 11
30.757599
 21
76.080086
 31
0.0
210
0.0
220
0.0
230
1.0
  0
ARC
  5
17B
100
AcDbEntity
  8
0
370
    35
390
0
 62
     7
100
AcDbCircle
 10
30.723557
 20
76.091179
 30
0.0
 40
0.049358
210
0.0
220
0.0
230
1.0
100
AcDbArc
 50
287.257734
 51
313.356949
  0
LINE
  5
17C
100
AcDbEntity
  8
0
370
    35
390
0
 62
     7
 48
0.000031
100
AcDbLine
 10
30.738144
 20
76.044243
 30
0.0
 11
30.736923
 21
76.044487
 31
0.0
210
0.0
220
0.0
230
1.0
  0
LINE
  5
17D
100
AcDbEntity
  8
0
370
    35
390
0
 62
     7
 48
0.000026
100
AcDbLine
 10
30.736923
 20
76.044487
 30
0.0
 11
30.736176
 21
76.045219
 31
0.0
210
0.0
220
0.0
230
1.0
  0
LINE
  5
17E
100
AcDbEntity
  8
0
370
    35
390
0
 62
     7
 48
0.00003
100
AcDbLine
 10
30.736176
 20
76.045219
 30
0.0
 11
30.735901
 21
76.046394
 31
0.0
210
0.0
220
0.0
230
1.0
  0
LINE
  5
17F
100
AcDbEntity
  8
0
370
    35
390
0
 62
     7
 48
0.000097
100
AcDbLine
 10
30.735901
 20
76.046394
 30
0.0
 11
30.73674
 21
76.050163
 31
0.0
210
0.0
220
0.0
230
1.0
  0
LINE
  5
180
100
AcDbEntity
  8
0
370
    35
390
0
 62
     7
 48
0.000393
100
AcDbLine
 10
30.73674
 20
76.050163
 30
0.0
 11
30.74469
 21
76.063728
 31
0.0
210
0.0
220
0.0
230
1.0
  0
LINE
  5
181
100
AcDbEntity
  8
0
370
    35
390
0
 62
     7
 48
0.000521
100
AcDbLine
 10
30.74469
 20
76.063728
 30
0.0
 11
30.757599
 21
76.080086
 31
0.0
210
0.0
220
0.0
230
1.0
  0
LINE
  5
182
100
AcDbEntity
  8
0
370
    35
390
0
 62
     7
 48
0.002797
100
AcDbLine
 10
30.846359
 20
76.123222
 30
0.0
 11
30.757599
 21
76.055138
 31
0.0
210
0.0
220
0.0
230
1.0
  0
LINE
  5
183
100
AcDbEntity
  8
0
370
    35
390
0
 62
     7
 48
0.003375
100
AcDbLine
 10
30.846359
 20
76.123222
 30
0.0
 11
30.757599
 21
76.021523
 31
0.0
210
0.0
220
0.0
230
1.0
  0
ARC
  5
184
100
AcDbEntity
  8
0
370
    35
390
0
 62
     7
100
AcDbCircle
 10
30.712067
 20
76.047096
 30
0.0
 40
0.062691
210
0.0
220
0.0
230
1.0
100
AcDbArc
 50
293.491566
 51
316.298848
  0
LINE
  5
185
100
AcDbEntity
  8
0
370
    35
390
0
 62
     7
 48
0.000015
100
AcDbLine
 10
30.736954
 20
75.989815
 30
0.0
 11
30.736389
 21
75.989952
 31
0.0
210
0.0
220
0.0
230
1.0
  0
LINE
  5
186
100
AcDbEntity
  8
0
370
    35
390
0
 62
     7
 48
0.000006
100
AcDbLine
 10
30.736389
 20
75.989952
 30
0.0
 11
30.736191
 21
75.990089
 31
0.0
210
0.0
220
0.0
230
1.0
  0
LINE
  5
187
100
AcDbEntity
  8
0
370
    35
390
0
 62
     7
 48
0.000013
100
AcDbLine
 10
30.736191
 20
75.990089
 30
0.0
 11
30.735931
 21
75.990532
 31
0.0
210
0.0
220
0.0
230
1.0
  0
LINE
  5
188
100
AcDbEntity
  8
0
370
    35
390
0
 62
     7
 48
0.00001
100
AcDbLine
 10
30.735931
 20
75.990532
 30
0.0
 11
30.73587
 21
75.990929
 31
0.0
210
0.0
220
0.0
230
1.0
  0
LINE
  5
189
100
AcDbEntity
  8
0
370
    35
390
0
 62
     7
 48
0.000027
100
AcDbLine
 10
30.73587
 20
75.990929
 30
0.0
 11
30.736023
 21
75.991982
 31
0.0
210
0.0
220
0.0
230
1.0
  0
LINE
  5
18A
100
AcDbEntity
  8
0
370
    35
390
0
 62
     7
 48
0.0001
100
AcDbLine
 10
30.736023
 20
75.991982
 30
0.0
 11
30.73764
 21
75.995628
 31
0.0
210
0.0
220
0.0
230
1.0
  0
LINE
  5
18B
100
AcDbEntity
  8
0
370
    35
390
0
 62
     7
 48
0.00042
100
AcDbLine
 10
30.73764
 20
75.995628
 30
0.0
 11
30.74733
 21
76.009346
 31
0.0
210
0.0
220
0.0
230
1.0
  0
LINE
  5
18C
100
AcDbEntity
  8
0
370
    35
390
0
 62
     7
 48
0.000398
100
AcDbLine
 10
30.74733
 20
76.009346
 30
0.0
 11
30.757599
 21
76.021523
 31
0.0
210
0.0
220
0.0
230
1.0
  0
LINE
  5
18D
100
AcDbEntity
  8
0
370
    35
390
0
 62
     7
 48
0.002909
100
AcDbLine
 10
30.846359
 20
76.07885
 30
0.0
 11
30.757599
 21
76.003578
 31
0.0
210
0.0
220
0.0
230
1.0
  0
LINE
  5
18E
100
AcDbEntity
  8
0
370
    35
390
0
 62
     7
 48
0.003302
100
AcDbLine
 10
30.846359
 20
76.07885
 30
0.0
 11
30.757599
 21
75.981026
 31
0.0
210
0.0
220
0.0
230
1.0
  0
LINE
  5
18F
100
AcDbEntity
  8
0
370
    35
390
0
 62
     7
 48
0.00068
100
AcDbLine
 10
30.757599
 20
75.970207
 30
0.0
 11
30.736298
 21
75.9533
 31
0.0
210
0.0
220
0.0
230
1.0
  0
ARC
  5
190
100
AcDbEntity
  8
0
370
    35
390
0
 62
     7
100
AcDbCircle
 10
30.816727
 20
75.909569
 30
0.0
 40
0.092066
210
0.0
220
0.0
230
1.0
100
AcDbArc
 50
129.603523
 51
151.507502
  0
LINE
  5
191
100
AcDbEntity
  8
0
370
    35
390
0
 62
     7
 48
0.003019
100
AcDbLine
 10
30.846359
 20
76.052101
 30
0.0
 11
30.757599
 21
75.970207
 31
0.0
210
0.0
220
0.0
230
1.0
  0
LINE
  5
192
100
AcDbEntity
  8
0
370
    35
390
0
 62
     7
 48
0.003218
100
AcDbLine
 10
30.846359
 20
76.052101
 30
0.0
 11
30.757599
 21
75.958885
 31
0.0
210
0.0
220
0.0
230
1.0
  0
LINE
  5
193
100
AcDbEntity
  8
0
370
    35
390
0
 62
     7
 48
0.000742
100
AcDbLine
 10
30.757599
 20
75.955269
 30
0.0
 11
30.735916
 21
75.934975
 31
0.0
210
0.0
220
0.0
230
1.0
  0
LINE
  5
194
100
AcDbEntity
  8
0
370
    35
390
0
 62
     7
 48
0.000807
100
AcDbLine
 10
30.735916
 20
75.934975
 30
0.0
 11
30.757599
 21
75.958885
 31
0.0
210
0.0
220
0.0
230
1.0
  0
LINE
  5
195
100
AcDbEntity
  8
0
370
    35
390
0
 62
     7
 48
0.003123
100
AcDbLine
 10
30.846359
 20
76.043159
 30
0.0
 11
30.757599
 21
75.955269
 31
0.0
210
0.0
220
0.0
230
1.0
  0
LINE
  5
196
100
AcDbEntity
  8
0
370
    35
390
0
 62
     7
 48
0.003123
100
AcDbLine
 10
30.846359
 20
76.043159
 30
0.0
 11
30.757599
 21
75.955269
 31
0.0
210
0.0
220
0.0
230
1.0
  0
LINE
  5
197
100
AcDbEntity
  8
0
370
    35
390
0
 62
     7
 48
0.000202
100
AcDbLine
 10
30.735916
 20
75.934975
 30
0.0
 11
30.742035
 21
75.940224
 31
0.0
210
0.0
220
0.0
230
1.0
  0
LINE
  5
198
100
AcDbEntity
  8
0
370
    35
390
0
 62
     7
 48
0.000905
100
AcDbLine
 10
27.381531
 20
80.831047
 30
0.0
 11
27.413727
 21
80.847572
 31
0.0
210
0.0
220
0.0
230
1.0
  0
LINE
  5
199
100
AcDbEntity
  8
0
370
    35
390
0
 62
     7
 48
0.004705
100
AcDbLine
 10
27.215103
 20
80.743156
 30
0.0
 11
27.381531
 21
80.831047
 31
0.0
210
0.0
220
0.0
230
1.0
  0
LINE
  5
19A
100
AcDbEntity
  8
0
370
    35
390
0
 62
     7
 48
0.004705
100
AcDbLine
 10
27.215103
 20
80.743156
 30
0.0
 11
27.381531
 21
80.831047
 31
0.0
210
0.0
220
0.0
230
1.0
  0
LINE
  5
19B
100
AcDbEntity
  8
0
370
    35
390
0
 62
     7
 48
0.00118
100
AcDbLine
 10
27.381531
 20
80.827431
 30
0.0
 11
27.422256
 21
80.851295
 31
0.0
210
0.0
220
0.0
230
1.0
  0
LINE
  5
19C
100
AcDbEntity
  8
0
370
    35
390
0
 62
     7
 48
0.001136
100
AcDbLine
 10
27.422165
 20
80.851341
 30
0.0
 11
27.381531
 21
80.831047
 31
0.0
210
0.0
220
0.0
230
1.0
  0
LINE
  5
19D
100
AcDbEntity
  8
0
370
    35
390
0
 62
     7
 48
0.000323
100
AcDbLine
 10
30.757599
 20
80.827431
 30
0.0
 11
30.744675
 21
80.827431
 31
0.0
210
0.0
220
0.0
230
1.0
  0
LINE
  5
19E
100
AcDbEntity
  8
0
370
    35
390
0
 62
     7
 48
0.000606
100
AcDbLine
 10
27.405762
 20
80.827431
 30
0.0
 11
27.381531
 21
80.827431
 31
0.0
210
0.0
220
0.0
230
1.0
  0
LINE
  5
19F
100
AcDbEntity
  8
0
370
    35
390
0
 62
     7
 48
0.004769
100
AcDbLine
 10
27.215103
 20
80.734215
 30
0.0
 11
27.381531
 21
80.827431
 31
0.0
210
0.0
220
0.0
230
1.0
  0
LINE
  5
1A0
100
AcDbEntity
  8
0
370
    35
390
0
 62
     7
 48
0.004637
100
AcDbLine
 10
27.215103
 20
80.734215
 30
0.0
 11
27.381531
 21
80.816109
 31
0.0
210
0.0
220
0.0
230
1.0
  0
LINE
  5
1A1
100
AcDbEntity
  8
0
370
    35
390
0
 62
     7
 48
0.000834
100
AcDbLine
 10
27.381531
 20
80.80529
 30
0.0
 11
27.409973
 21
80.822716
 31
0.0
210
0.0
220
0.0
230
1.0
  0
LINE
  5
1A2
100
AcDbEntity
  8
0
370
    35
390
0
 62
     7
 48
0.000345
100
AcDbLine
 10
27.409973
 20
80.822716
 30
0.0
 11
27.421066
 21
80.830894
 31
0.0
210
0.0
220
0.0
230
1.0
  0
LINE
  5
1A3
100
AcDbEntity
  8
0
370
    35
390
0
 62
     7
 48
0.000035
100
AcDbLine
 10
27.421066
 20
80.830894
 30
0.0
 11
27.421997
 21
80.831963
 31
0.0
210
0.0
220
0.0
230
1.0
  0
LINE
  5
1A4
100
AcDbEntity
  8
0
370
    35
390
0
 62
     7
 48
0.000011
100
AcDbLine
 10
27.421997
 20
80.831963
 30
0.0
 11
27.422211
 21
80.832359
 31
0.0
210
0.0
220
0.0
230
1.0
  0
LINE
  5
1A5
100
AcDbEntity
  8
0
370
    35
390
0
 62
     7
 48
0.000008
100
AcDbLine
 10
27.422211
 20
80.832359
 30
0.0
 11
27.422241
 21
80.832664
 31
0.0
210
0.0
220
0.0
230
1.0
  0
LINE
  5
1A6
100
AcDbEntity
  8
0
370
    35
390
0
 62
     7
 48
0.000003
100
AcDbLine
 10
27.422241
 20
80.832664
 30
0.0
 11
27.422211
 21
80.832771
 31
0.0
210
0.0
220
0.0
230
1.0
  0
LINE
  5
1A7
100
AcDbEntity
  8
0
370
    35
390
0
 62
     7
 48
0.000005
100
AcDbLine
 10
27.422211
 20
80.832771
 30
0.0
 11
27.422043
 21
80.832909
 31
0.0
210
0.0
220
0.0
230
1.0
  0
LINE
  5
1A8
100
AcDbEntity
  8
0
370
    35
390
0
 62
     7
 48
0.000004
100
AcDbLine
 10
27.422043
 20
80.832909
 30
0.0
 11
27.421906
 21
80.83297
 31
0.0
210
0.0
220
0.0
230
1.0
  0
LINE
  5
1A9
100
AcDbEntity
  8
0
370
    35
390
0
 62
     7
 48
0.000011
100
AcDbLine
 10
27.421906
 20
80.83297
 30
0.0
 11
27.421463
 21
80.833015
 31
0.0
210
0.0
220
0.0
230
1.0
  0
LINE
  5
1AA
100
AcDbEntity
  8
0
370
    35
390
0
 62
     7
 48
0.001084
100
AcDbLine
 10
27.421463
 20
80.833015
 30
0.0
 11
27.381531
 21
80.816109
 31
0.0
210
0.0
220
0.0
230
1.0
  0
LINE
  5
1AB
100
AcDbEntity
  8
0
370
    35
390
0
 62
     7
 48
0.084402
100
AcDbLine
 10
30.757599
 20
80.80529
 30
0.0
 11
27.381531
 21
80.80529
 31
0.0
210
0.0
220
0.0
230
1.0
  0
LINE
  5
1AC
100
AcDbEntity
  8
0
370
    35
390
0
 62
     7
 48
0.004826
100
AcDbLine
 10
27.215103
 20
80.707451
 30
0.0
 11
27.381531
 21
80.80529
 31
0.0
210
0.0
220
0.0
230
1.0
  0
LINE
  5
1AD
100
AcDbEntity
  8
0
370
    35
390
0
 62
     7
 48
0.004567
100
AcDbLine
 10
27.215103
 20
80.707451
 30
0.0
 11
27.381531
 21
80.782738
 31
0.0
210
0.0
220
0.0
230
1.0
  0
LINE
  5
1AE
100
AcDbEntity
  8
0
370
    35
390
0
 62
     7
 48
0.00081
100
AcDbLine
 10
27.381531
 20
80.764793
 30
0.0
 11
27.408691
 21
80.782478
 31
0.0
210
0.0
220
0.0
230
1.0
  0
LINE
  5
1AF
100
AcDbEntity
  8
0
370
    35
390
0
 62
     7
 48
0.000373
100
AcDbLine
 10
27.408691
 20
80.782478
 30
0.0
 11
27.420227
 21
80.791969
 31
0.0
210
0.0
220
0.0
230
1.0
  0
LINE
  5
1B0
100
AcDbEntity
  8
0
370
    35
390
0
 62
     7
 48
0.00007
100
AcDbLine
 10
27.420227
 20
80.791969
 30
0.0
 11
27.421921
 21
80.794212
 31
0.0
210
0.0
220
0.0
230
1.0
  0
LINE
  5
1B1
100
AcDbEntity
  8
0
370
    35
390
0
 62
     7
 48
0.000022
100
AcDbLine
 10
27.421921
 20
80.794212
 30
0.0
 11
27.422226
 21
80.795052
 31
0.0
210
0.0
220
0.0
230
1.0
  0
LINE
  5
1B2
100
AcDbEntity
  8
0
370
    35
390
0
 62
     7
 48
0.000016
100
AcDbLine
 10
27.422226
 20
80.795052
 30
0.0
 11
27.42218
 21
80.795708
 31
0.0
210
0.0
220
0.0
230
1.0
  0
LINE
  5
1B3
100
AcDbEntity
  8
0
370
    35
390
0
 62
     7
 48
0.000007
100
AcDbLine
 10
27.42218
 20
80.795708
 30
0.0
 11
27.422028
 21
80.795952
 31
0.0
210
0.0
220
0.0
230
1.0
  0
LINE
  5
1B4
100
AcDbEntity
  8
0
370
    35
390
0
 62
     7
 48
0.000013
100
AcDbLine
 10
27.422028
 20
80.795952
 30
0.0
 11
27.421616
 21
80.796242
 31
0.0
210
0.0
220
0.0
230
1.0
  0
LINE
  5
1B5
100
AcDbEntity
  8
0
370
    35
390
0
 62
     7
 48
0.000036
100
AcDbLine
 10
27.421616
 20
80.796242
 30
0.0
 11
27.420197
 21
80.796486
 31
0.0
210
0.0
220
0.0
230
1.0
  0
ARC
  5
1B6
100
AcDbEntity
  8
0
370
    35
390
0
 62
     7
100
AcDbCircle
 10
27.453842
 20
80.64698
 30
0.0
 40
0.153505
210
0.0
220
0.0
230
1.0
100
AcDbArc
 50
102.687899
 51
118.047444
  0
LINE
  5
1B7
100
AcDbEntity
  8
0
370
    35
390
0
 62
     7
 48
0.084402
100
AcDbLine
 10
30.757599
 20
80.764793
 30
0.0
 11
27.381531
 21
80.764793
 31
0.0
210
0.0
220
0.0
230
1.0
  0
LINE
  5
1B8
100
AcDbEntity
  8
0
370
    35
390
0
 62
     7
 48
0.004876
100
AcDbLine
 10
27.215103
 20
80.663078
 30
0.0
 11
27.381531
 21
80.764793
 31
0.0
210
0.0
220
0.0
230
1.0
  0
LINE
  5
1B9
100
AcDbEntity
  8
0
370
    35
390
0
 62
     7
 48
0.004496
100
AcDbLine
 10
27.215103
 20
80.663078
 30
0.0
 11
27.381531
 21
80.731178
 31
0.0
210
0.0
220
0.0
230
1.0
  0
LINE
  5
1BA
100
AcDbEntity
  8
0
370
    35
390
0
 62
     7
 48
0.000869
100
AcDbLine
 10
27.381531
 20
80.70623
 30
0.0
 11
27.410126
 21
80.726021
 31
0.0
210
0.0
220
0.0
230
1.0
  0
LINE
  5
1BB
100
AcDbEntity
  8
0
370
    35
390
0
 62
     7
 48
0.000386
100
AcDbLine
 10
27.410126
 20
80.726021
 30
0.0
 11
27.421143
 21
80.736855
 31
0.0
210
0.0
220
0.0
230
1.0
  0
LINE
  5
1BC
100
AcDbEntity
  8
0
370
    35
390
0
 62
     7
 48
0.000056
100
AcDbLine
 10
27.421143
 20
80.736855
 30
0.0
 11
27.422119
 21
80.738884
 31
0.0
210
0.0
220
0.0
230
1.0
  0
LINE
  5
1BD
100
AcDbEntity
  8
0
370
    35
390
0
 62
     7
 48
0.000021
100
AcDbLine
 10
27.422119
 20
80.738884
 30
0.0
 11
27.422256
 21
80.739723
 31
0.0
210
0.0
220
0.0
230
1.0
  0
LINE
  5
1BE
100
AcDbEntity
  8
0
370
    35
390
0
 62
     7
 48
0.000026
100
AcDbLine
 10
27.422256
 20
80.739723
 30
0.0
 11
27.421997
 21
80.74073
 31
0.0
210
0.0
220
0.0
230
1.0
  0
LINE
  5
1BF
100
AcDbEntity
  8
0
370
    35
390
0
 62
     7
 48
0.000027
100
AcDbLine
 10
27.421997
 20
80.74073
 30
0.0
 11
27.421219
 21
80.741463
 31
0.0
210
0.0
220
0.0
230
1.0
  0
LINE
  5
1C0
100
AcDbEntity
  8
0
370
    35
390
0
 62
     7
 48
0.000022
100
AcDbLine
 10
27.421219
 20
80.741463
 30
0.0
 11
27.420395
 21
80.741798
 31
0.0
210
0.0
220
0.0
230
1.0
  0
LINE
  5
1C1
100
AcDbEntity
  8
0
370
    35
390
0
 62
     7
 48
0.00006
100
AcDbLine
 10
27.420395
 20
80.741798
 30
0.0
 11
27.418015
 21
80.742073
 31
0.0
210
0.0
220
0.0
230
1.0
  0
ARC
  5
1C2
100
AcDbEntity
  8
0
370
    35
390
0
 62
     7
100
AcDbCircle
 10
27.43837
 20
80.612648
 30
0.0
 40
0.131223
210
0.0
220
0.0
230
1.0
100
AcDbArc
 50
98.942271
 51
115.620363
  0
LINE
  5
1C3
100
AcDbEntity
  8
0
370
    35
390
0
 62
     7
 48
0.084402
100
AcDbLine
 10
30.757599
 20
80.70623
 30
0.0
 11
27.381531
 21
80.70623
 31
0.0
210
0.0
220
0.0
230
1.0
  0
LINE
  5
1C4
100
AcDbEntity
  8
0
370
    35
390
0
 62
     7
 48
0.004917
100
AcDbLine
 10
27.215103
 20
80.601433
 30
0.0
 11
27.381531
 21
80.70623
 31
0.0
210
0.0
220
0.0
230
1.0
  0
LINE
  5
1C5
100
AcDbEntity
  8
0
370
    35
390
0
 62
     7
 48
0.004426
100
AcDbLine
 10
27.215103
 20
80.601433
 30
0.0
 11
27.381531
 21
80.661812
 31
0.0
210
0.0
220
0.0
230
1.0
  0
LINE
  5
1C6
100
AcDbEntity
  8
0
370
    35
390
0
 62
     7
 48
0.000819
100
AcDbLine
 10
27.381531
 20
80.630074
 30
0.0
 11
27.408173
 21
80.649117
 31
0.0
210
0.0
220
0.0
230
1.0
  0
LINE
  5
1C7
100
AcDbEntity
  8
0
370
    35
390
0
 62
     7
 48
0.000412
100
AcDbLine
 10
27.408173
 20
80.649117
 30
0.0
 11
27.419846
 21
80.660774
 31
0.0
210
0.0
220
0.0
230
1.0
  0
LINE
  5
1C8
100
AcDbEntity
  8
0
370
    35
390
0
 62
     7
 48
0.000103
100
AcDbLine
 10
27.419846
 20
80.660774
 30
0.0
 11
27.42186
 21
80.664391
 31
0.0
210
0.0
220
0.0
230
1.0
  0
LINE
  5
1C9
100
AcDbEntity
  8
0
370
    35
390
0
 62
     7
 48
0.000038
100
AcDbLine
 10
27.42186
 20
80.664391
 30
0.0
 11
27.422211
 21
80.665871
 31
0.0
210
0.0
220
0.0
230
1.0
  0
LINE
  5
1CA
100
AcDbEntity
  8
0
370
    35
390
0
 62
     7
 48
0.000046
100
AcDbLine
 10
27.422211
 20
80.665871
 30
0.0
 11
27.421967
 21
80.667686
 31
0.0
210
0.0
220
0.0
230
1.0
  0
LINE
  5
1CB
100
AcDbEntity
  8
0
370
    35
390
0
 62
     7
 48
0.000045
100
AcDbLine
 10
27.421967
 20
80.667686
 30
0.0
 11
27.420746
 21
80.669029
 31
0.0
210
0.0
220
0.0
230
1.0
  0
LINE
  5
1CC
100
AcDbEntity
  8
0
370
    35
390
0
 62
     7
 48
0.000037
100
AcDbLine
 10
27.420746
 20
80.669029
 30
0.0
 11
27.419388
 21
80.66964
 31
0.0
210
0.0
220
0.0
230
1.0
  0
LINE
  5
1CD
100
AcDbEntity
  8
0
370
    35
390
0
 62
     7
 48
0.000104
100
AcDbLine
 10
27.419388
 20
80.66964
 30
0.0
 11
27.415253
 21
80.670158
 31
0.0
210
0.0
220
0.0
230
1.0
  0
ARC
  5
1CE
100
AcDbEntity
  8
0
370
    35
390
0
 62
     7
100
AcDbCircle
 10
27.427719
 20
80.551384
 30
0.0
 40
0.119557
210
0.0
220
0.0
230
1.0
100
AcDbArc
 50
95.990283
 51
112.699207
  0
LINE
  5
1CF
100
AcDbEntity
  8
0
370
    35
390
0
 62
     7
 48
0.084402
100
AcDbLine
 10
30.757599
 20
80.630074
 30
0.0
 11
27.381531
 21
80.630074
 31
0.0
210
0.0
220
0.0
230
1.0
  0
LINE
  5
1D0
100
AcDbEntity
  8
0
370
    35
390
0
 62
     7
 48
0.004948
100
AcDbLine
 10
27.215103
 20
80.522987
 30
0.0
 11
27.381531
 21
80.630074
 31
0.0
210
0.0
220
0.0
230
1.0
  0
LINE
  5
1D1
100
AcDbEntity
  8
0
370
    35
390
0
 62
     7
 48
0.004361
100
AcDbLine
 10
27.215103
 20
80.522987
 30
0.0
 11
27.381531
 21
80.575203
 31
0.0
210
0.0
220
0.0
230
1.0
  0
LINE
  5
1D2
100
AcDbEntity
  8
0
370
    35
390
0
 62
     7
 48
0.000528
100
AcDbLine
 10
27.381531
 20
80.536903
 30
0.0
 11
27.398834
 21
80.548988
 31
0.0
210
0.0
220
0.0
230
1.0
  0
LINE
  5
1D3
100
AcDbEntity
  8
0
370
    35
390
0
 62
     7
 48
0.000337
100
AcDbLine
 10
27.398834
 20
80.548988
 30
0.0
 11
27.409256
 21
80.557564
 31
0.0
210
0.0
220
0.0
230
1.0
  0
LINE
  5
1D4
100
AcDbEntity
  8
0
370
    35
390
0
 62
     7
 48
0.000431
100
AcDbLine
 10
27.409256
 20
80.557564
 30
0.0
 11
27.420624
 21
80.570503
 31
0.0
210
0.0
220
0.0
230
1.0
  0
LINE
  5
1D5
100
AcDbEntity
  8
0
370
    35
390
0
 62
     7
 48
0.000109
100
AcDbLine
 10
27.420624
 20
80.570503
 30
0.0
 11
27.422165
 21
80.574577
 31
0.0
210
0.0
220
0.0
230
1.0
  0
LINE
  5
1D6
100
AcDbEntity
  8
0
370
    35
390
0
 62
     7
 48
0.000043
100
AcDbLine
 10
27.422165
 20
80.574577
 30
0.0
 11
27.422211
 21
80.576286
 31
0.0
210
0.0
220
0.0
230
1.0
  0
LINE
  5
1D7
100
AcDbEntity
  8
0
370
    35
390
0
 62
     7
 48
0.000056
100
AcDbLine
 10
27.422211
 20
80.576286
 30
0.0
 11
27.421371
 21
80.578377
 31
0.0
210
0.0
220
0.0
230
1.0
  0
LINE
  5
1D8
100
AcDbEntity
  8
0
370
    35
390
0
 62
     7
 48
0.000062
100
AcDbLine
 10
27.421371
 20
80.578377
 30
0.0
 11
27.419434
 21
80.579948
 31
0.0
210
0.0
220
0.0
230
1.0
  0
LINE
  5
1D9
100
AcDbEntity
  8
0
370
    35
390
0
 62
     7
 48
0.000192
100
AcDbLine
 10
27.419434
 20
80.579948
 30
0.0
 11
27.411865
 21
80.581276
 31
0.0
210
0.0
220
0.0
230
1.0
  0
ARC
  5
1DA
100
AcDbEntity
  8
0
370
    35
390
0
 62
     7
100
AcDbCircle
 10
27.419434
 20
80.467934
 30
0.0
 40
0.113681
210
0.0
220
0.0
230
1.0
100
AcDbArc
 50
93.820291
 51
109.465154
  0
LINE
  5
1DB
100
AcDbEntity
  8
0
370
    35
390
0
 62
     7
 48
0.084402
100
AcDbLine
 10
30.757599
 20
80.536903
 30
0.0
 11
27.381531
 21
80.536903
 31
0.0
210
0.0
220
0.0
230
1.0
  0
LINE
  5
1DC
100
AcDbEntity
  8
0
370
    35
390
0
 62
     7
 48
0.004968
100
AcDbLine
 10
27.215103
 20
80.428307
 30
0.0
 11
27.381531
 21
80.536903
 31
0.0
210
0.0
220
0.0
230
1.0
  0
LINE
  5
1DD
100
AcDbEntity
  8
0
370
    35
390
0
 62
     7
 48
0.004302
100
AcDbLine
 10
27.215103
 20
80.428307
 30
0.0
 11
27.381531
 21
80.471977
 31
0.0
210
0.0
220
0.0
230
1.0
  0
LINE
  5
1DE
100
AcDbEntity
  8
0
370
    35
390
0
 62
     7
 48
0.00069
100
AcDbLine
 10
27.381531
 20
80.427406
 30
0.0
 11
27.403763
 21
80.443733
 31
0.0
210
0.0
220
0.0
230
1.0
  0
LINE
  5
1DF
100
AcDbEntity
  8
0
370
    35
390
0
 62
     7
 48
0.000395
100
AcDbLine
 10
27.403763
 20
80.443733
 30
0.0
 11
27.415146
 21
80.454704
 31
0.0
210
0.0
220
0.0
230
1.0
  0
LINE
  5
1E0
100
AcDbEntity
  8
0
370
    35
390
0
 62
     7
 48
0.000273
100
AcDbLine
 10
27.415146
 20
80.454704
 30
0.0
 11
27.421219
 21
80.463799
 31
0.0
210
0.0
220
0.0
230
1.0
  0
LINE
  5
1E1
100
AcDbEntity
  8
0
370
    35
390
0
 62
     7
 48
0.000117
100
AcDbLine
 10
27.421219
 20
80.463799
 30
0.0
 11
27.422241
 21
80.468361
 31
0.0
210
0.0
220
0.0
230
1.0
  0
LINE
  5
1E2
100
AcDbEntity
  8
0
370
    35
390
0
 62
     7
 48
0.000094
100
AcDbLine
 10
27.422241
 20
80.468361
 30
0.0
 11
27.421127
 21
80.471962
 31
0.0
210
0.0
220
0.0
230
1.0
  0
LINE
  5
1E3
100
AcDbEntity
  8
0
370
    35
390
0
 62
     7
 48
0.000106
100
AcDbLine
 10
27.421127
 20
80.471962
 30
0.0
 11
27.417755
 21
80.474525
 31
0.0
210
0.0
220
0.0
230
1.0
  0
LINE
  5
1E4
100
AcDbEntity
  8
0
370
    35
390
0
 62
     7
 48
0.000251
100
AcDbLine
 10
27.417755
 20
80.474525
 30
0.0
 11
27.407852
 21
80.476128
 31
0.0
210
0.0
220
0.0
230
1.0
  0
LINE
  5
1E5
100
AcDbEntity
  8
0
370
    35
390
0
 62
     7
 48
0.000666
100
AcDbLine
 10
27.407852
 20
80.476128
 30
0.0
 11
27.381531
 21
80.471977
 31
0.0
210
0.0
220
0.0
230
1.0
  0
LINE
  5
1E6
100
AcDbEntity
  8
0
370
    35
390
0
 62
     7
 48
0.084402
100
AcDbLine
 10
30.757599
 20
80.427406
 30
0.0
 11
27.381531
 21
80.427406
 31
0.0
210
0.0
220
0.0
230
1.0
  0
LINE
  5
1E7
100
AcDbEntity
  8
0
370
    35
390
0
 62
     7
 48
0.004977
100
AcDbLine
 10
27.215103
 20
80.318169
 30
0.0
 11
27.381531
 21
80.427406
 31
0.0
210
0.0
220
0.0
230
1.0
  0
LINE
  5
1E8
100
AcDbEntity
  8
0
370
    35
390
0
 62
     7
 48
0.00425
100
AcDbLine
 10
27.215103
 20
80.318169
 30
0.0
 11
27.381531
 21
80.352928
 31
0.0
210
0.0
220
0.0
230
1.0
  0
LINE
  5
1E9
100
AcDbEntity
  8
0
370
    35
390
0
 62
     7
 48
0.00048
100
AcDbLine
 10
27.381531
 20
80.302422
 30
0.0
 11
27.397202
 21
80.313545
 31
0.0
210
0.0
220
0.0
230
1.0
  0
LINE
  5
1EA
100
AcDbEntity
  8
0
370
    35
390
0
 62
     7
 48
0.000331
100
AcDbLine
 10
27.397202
 20
80.313545
 30
0.0
 11
27.407272
 21
80.322121
 31
0.0
210
0.0
220
0.0
230
1.0
  0
LINE
  5
1EB
100
AcDbEntity
  8
0
370
    35
390
0
 62
     7
 48
0.000456
100
AcDbLine
 10
27.407272
 20
80.322121
 30
0.0
 11
27.419144
 21
80.335976
 31
0.0
210
0.0
220
0.0
230
1.0
  0
LINE
  5
1EC
100
AcDbEntity
  8
0
370
    35
390
0
 62
     7
 48
0.000151
100
AcDbLine
 10
27.419144
 20
80.335976
 30
0.0
 11
27.421646
 21
80.341469
 31
0.0
210
0.0
220
0.0
230
1.0
  0
LINE
  5
1ED
100
AcDbEntity
  8
0
370
    35
390
0
 62
     7
 48
0.000117
100
AcDbLine
 10
27.421646
 20
80.341469
 30
0.0
 11
27.422211
 21
80.346107
 31
0.0
210
0.0
220
0.0
230
1.0
  0
LINE
  5
1EE
100
AcDbEntity
  8
0
370
    35
390
0
 62
     7
 48
0.000089
100
AcDbLine
 10
27.422211
 20
80.346107
 30
0.0
 11
27.421097
 21
80.34948
 31
0.0
210
0.0
220
0.0
230
1.0
  0
LINE
  5
1EF
100
AcDbEntity
  8
0
370
    35
390
0
 62
     7
 48
0.000095
100
AcDbLine
 10
27.421097
 20
80.34948
 30
0.0
 11
27.418442
 21
80.352211
 31
0.0
210
0.0
220
0.0
230
1.0
  0
LINE
  5
1F0
100
AcDbEntity
  8
0
370
    35
390
0
 62
     7
 48
0.00016
100
AcDbLine
 10
27.418442
 20
80.352211
 30
0.0
 11
27.412521
 21
80.354607
 31
0.0
210
0.0
220
0.0
230
1.0
  0
LINE
  5
1F1
100
AcDbEntity
  8
0
370
    35
390
0
 62
     7
 48
0.000233
100
AcDbLine
 10
27.412521
 20
80.354607
 30
0.0
 11
27.403229
 21
80.355522
 31
0.0
210
0.0
220
0.0
230
1.0
  0
LINE
  5
1F2
100
AcDbEntity
  8
0
370
    35
390
0
 62
     7
 48
0.000546
100
AcDbLine
 10
27.403229
 20
80.355522
 30
0.0
 11
27.381531
 21
80.352928
 31
0.0
210
0.0
220
0.0
230
1.0
  0
LINE
  5
1F3
100
AcDbEntity
  8
0
370
    35
390
0
 62
     7
 48
0.084402
100
AcDbLine
 10
30.757599
 20
80.302422
 30
0.0
 11
27.381531
 21
80.302422
 31
0.0
210
0.0
220
0.0
230
1.0
  0
LINE
  5
1F4
100
AcDbEntity
  8
0
370
    35
390
0
 62
     7
 48
0.004975
100
AcDbLine
 10
27.215103
 20
80.193352
 30
0.0
 11
27.381531
 21
80.302422
 31
0.0
210
0.0
220
0.0
230
1.0
  0
LINE
  5
1F5
100
AcDbEntity
  8
0
370
    35
390
0
 62
     7
 48
0.00421
100
AcDbLine
 10
27.215103
 20
80.193352
 30
0.0
 11
27.381531
 21
80.218956
 31
0.0
210
0.0
220
0.0
230
1.0
  0
LINE
  5
1F6
100
AcDbEntity
  8
0
370
    35
390
0
 62
     7
 48
0.000477
100
AcDbLine
 10
27.381531
 20
80.16291
 30
0.0
 11
27.397095
 21
80.173958
 31
0.0
210
0.0
220
0.0
230
1.0
  0
LINE
  5
1F7
100
AcDbEntity
  8
0
370
    35
390
0
 62
     7
 48
0.000329
100
AcDbLine
 10
27.397095
 20
80.173958
 30
0.0
 11
27.407059
 21
80.182579
 31
0.0
210
0.0
220
0.0
230
1.0
  0
LINE
  5
1F8
100
AcDbEntity
  8
0
370
    35
390
0
 62
     7
 48
0.000508
100
AcDbLine
 10
27.407059
 20
80.182579
 30
0.0
 11
27.419785
 21
80.198418
 31
0.0
210
0.0
220
0.0
230
1.0
  0
LINE
  5
1F9
100
AcDbEntity
  8
0
370
    35
390
0
 62
     7
 48
0.000153
100
AcDbLine
 10
27.419785
 20
80.198418
 30
0.0
 11
27.421921
 21
80.20414
 31
0.0
210
0.0
220
0.0
230
1.0
  0
LINE
  5
1FA
100
AcDbEntity
  8
0
370
    35
390
0
 62
     7
 48
0.000123
100
AcDbLine
 10
27.421921
 20
80.20414
 30
0.0
 11
27.422104
 21
80.209068
 31
0.0
210
0.0
220
0.0
230
1.0
  0
LINE
  5
1FB
100
AcDbEntity
  8
0
370
    35
390
0
 62
     7
 48
0.000104
100
AcDbLine
 10
27.422104
 20
80.209068
 30
0.0
 11
27.420578
 21
80.212959
 31
0.0
210
0.0
220
0.0
230
1.0
  0
LINE
  5
1FC
100
AcDbEntity
  8
0
370
    35
390
0
 62
     7
 48
0.000113
100
AcDbLine
 10
27.420578
 20
80.212959
 30
0.0
 11
27.417358
 21
80.216118
 31
0.0
210
0.0
220
0.0
230
1.0
  0
LINE
  5
1FD
100
AcDbEntity
  8
0
370
    35
390
0
 62
     7
 48
0.000168
100
AcDbLine
 10
27.417358
 20
80.216118
 30
0.0
 11
27.411209
 21
80.218834
 31
0.0
210
0.0
220
0.0
230
1.0
  0
LINE
  5
1FE
100
AcDbEntity
  8
0
370
    35
390
0
 62
     7
 48
0.000331
100
AcDbLine
 10
27.411209
 20
80.218834
 30
0.0
 11
27.398071
 21
80.220345
 31
0.0
210
0.0
220
0.0
230
1.0
  0
LINE
  5
1FF
100
AcDbEntity
  8
0
370
    35
390
0
 62
     7
 48
0.000415
100
AcDbLine
 10
27.398071
 20
80.220345
 30
0.0
 11
27.381531
 21
80.218956
 31
0.0
210
0.0
220
0.0
230
1.0
  0
LINE
  5
200
100
AcDbEntity
  8
0
370
    35
390
0
 62
     7
 48
0.084402
100
AcDbLine
 10
30.757599
 20
80.16291
 30
0.0
 11
27.381531
 21
80.16291
 31
0.0
210
0.0
220
0.0
230
1.0
  0
LINE
  5
201
100
AcDbEntity
  8
0
370
    35
390
0
 62
     7
 48
0.004961
100
AcDbLine
 10
27.215103
 20
80.054848
 30
0.0
 11
27.381531
 21
80.16291
 31
0.0
210
0.0
220
0.0
230
1.0
  0
LINE
  5
202
100
AcDbEntity
  8
0
370
    35
390
0
 62
     7
 48
0.00418
100
AcDbLine
 10
27.215103
 20
80.054848
 30
0.0
 11
27.381531
 21
80.071098
 31
0.0
210
0.0
220
0.0
230
1.0
  0
LINE
  5
203
100
AcDbEntity
  8
0
370
    35
390
0
 62
     7
 48
0.000648
100
AcDbLine
 10
27.381531
 20
80.009941
 30
0.0
 11
27.402405
 21
80.025322
 31
0.0
210
0.0
220
0.0
230
1.0
  0
LINE
  5
204
100
AcDbEntity
  8
0
370
    35
390
0
 62
     7
 48
0.000404
100
AcDbLine
 10
27.402405
 20
80.025322
 30
0.0
 11
27.413742
 21
80.036842
 31
0.0
210
0.0
220
0.0
230
1.0
  0
LINE
  5
205
100
AcDbEntity
  8
0
370
    35
390
0
 62
     7
 48
0.000306
100
AcDbLine
 10
27.413742
 20
80.036842
 30
0.0
 11
27.420303
 21
80.047157
 31
0.0
210
0.0
220
0.0
230
1.0
  0
LINE
  5
206
100
AcDbEntity
  8
0
370
    35
390
0
 62
     7
 48
0.000262
100
AcDbLine
 10
27.420303
 20
80.047157
 30
0.0
 11
27.422104
 21
80.057487
 31
0.0
210
0.0
220
0.0
230
1.0
  0
LINE
  5
207
100
AcDbEntity
  8
0
370
    35
390
0
 62
     7
 48
0.000233
100
AcDbLine
 10
27.422104
 20
80.057487
 30
0.0
 11
27.417343
 21
80.065514
 31
0.0
210
0.0
220
0.0
230
1.0
  0
LINE
  5
208
100
AcDbEntity
  8
0
370
    35
390
0
 62
     7
 48
0.000336
100
AcDbLine
 10
27.417343
 20
80.065514
 30
0.0
 11
27.404892
 21
80.07061
 31
0.0
210
0.0
220
0.0
230
1.0
  0
LINE
  5
209
100
AcDbEntity
  8
0
370
    35
390
0
 62
     7
 48
0.000314
100
AcDbLine
 10
27.404892
 20
80.07061
 30
0.0
 11
27.39238
 21
80.071648
 31
0.0
210
0.0
220
0.0
230
1.0
  0
LINE
  5
20A
100
AcDbEntity
  8
0
370
    35
390
0
 62
     7
 48
0.000272
100
AcDbLine
 10
27.39238
 20
80.071648
 30
0.0
 11
27.381531
 21
80.071098
 31
0.0
210
0.0
220
0.0
230
1.0
  0
LINE
  5
20B
100
AcDbEntity
  8
0
370
    35
390
0
 62
     7
 48
0.084402
100
AcDbLine
 10
30.757599
 20
80.009941
 30
0.0
 11
27.381531
 21
80.009941
 31
0.0
210
0.0
220
0.0
230
1.0
  0
LINE
  5
20C
100
AcDbEntity
  8
0
370
    35
390
0
 62
     7
 48
0.004936
100
AcDbLine
 10
27.215103
 20
79.903709
 30
0.0
 11
27.381531
 21
80.009941
 31
0.0
210
0.0
220
0.0
230
1.0
  0
LINE
  5
20D
100
AcDbEntity
  8
0
370
    35
390
0
 62
     7
 48
0.004164
100
AcDbLine
 10
27.215103
 20
79.903709
 30
0.0
 11
27.381531
 21
79.910469
 31
0.0
210
0.0
220
0.0
230
1.0
  0
LINE
  5
20E
100
AcDbEntity
  8
0
370
    35
390
0
 62
     7
 48
0.000678
100
AcDbLine
 10
27.381531
 20
79.844658
 30
0.0
 11
27.403351
 21
79.860741
 31
0.0
210
0.0
220
0.0
230
1.0
  0
LINE
  5
20F
100
AcDbEntity
  8
0
370
    35
390
0
 62
     7
 48
0.000415
100
AcDbLine
 10
27.403351
 20
79.860741
 30
0.0
 11
27.414734
 21
79.872826
 31
0.0
210
0.0
220
0.0
230
1.0
  0
LINE
  5
210
100
AcDbEntity
  8
0
370
    35
390
0
 62
     7
 48
0.000319
100
AcDbLine
 10
27.414734
 20
79.872826
 30
0.0
 11
27.420975
 21
79.883949
 31
0.0
210
0.0
220
0.0
230
1.0
  0
LINE
  5
211
100
AcDbEntity
  8
0
370
    35
390
0
 62
     7
 48
0.000233
100
AcDbLine
 10
27.420975
 20
79.883949
 30
0.0
 11
27.422104
 21
79.893211
 31
0.0
210
0.0
220
0.0
230
1.0
  0
LINE
  5
212
100
AcDbEntity
  8
0
370
    35
390
0
 62
     7
 48
0.000212
100
AcDbLine
 10
27.422104
 20
79.893211
 30
0.0
 11
27.418564
 21
79.900917
 31
0.0
210
0.0
220
0.0
230
1.0
  0
LINE
  5
213
100
AcDbEntity
  8
0
370
    35
390
0
 62
     7
 48
0.000266
100
AcDbLine
 10
27.418564
 20
79.900917
 30
0.0
 11
27.409729
 21
79.906837
 31
0.0
210
0.0
220
0.0
230
1.0
  0
LINE
  5
214
100
AcDbEntity
  8
0
370
    35
390
0
 62
     7
 48
0.000285
100
AcDbLine
 10
27.409729
 20
79.906837
 30
0.0
 11
27.398712
 21
79.909706
 31
0.0
210
0.0
220
0.0
230
1.0
  0
LINE
  5
215
100
AcDbEntity
  8
0
370
    35
390
0
 62
     7
 48
0.00043
100
AcDbLine
 10
27.398712
 20
79.909706
 30
0.0
 11
27.381531
 21
79.910469
 31
0.0
210
0.0
220
0.0
230
1.0
  0
LINE
  5
216
100
AcDbEntity
  8
0
370
    35
390
0
 62
     7
 48
0.084402
100
AcDbLine
 10
30.757599
 20
79.844658
 30
0.0
 11
27.381531
 21
79.844658
 31
0.0
210
0.0
220
0.0
230
1.0
  0
LINE
  5
217
100
AcDbEntity
  8
0
370
    35
390
0
 62
     7
 48
0.004901
100
AcDbLine
 10
27.215103
 20
79.741066
 30
0.0
 11
27.381531
 21
79.844658
 31
0.0
210
0.0
220
0.0
230
1.0
  0
LINE
  5
218
100
AcDbEntity
  8
0
370
    35
390
0
 62
     7
 48
0.090781
100
AcDbLine
 10
30.846359
 20
79.741066
 30
0.0
 11
27.215103
 21
79.741066
 31
0.0
210
0.0
220
0.0
230
1.0
  0
LINE
  5
219
100
AcDbEntity
  8
0
370
    35
390
0
 62
     7
 48
0.004161
100
AcDbLine
 10
27.215103
 20
79.741066
 30
0.0
 11
27.381531
 21
79.738289
 31
0.0
210
0.0
220
0.0
230
1.0
  0
LINE
  5
21A
100
AcDbEntity
  8
0
370
    35
390
0
 62
     7
 48
0.084402
100
AcDbLine
 10
30.757599
 20
79.738289
 30
0.0
 11
27.381531
 21
79.738289
 31
0.0
210
0.0
220
0.0
230
1.0
  0
LINE
  5
21B
100
AcDbEntity
  8
0
370
    35
390
0
 62
     7
 48
0.000674
100
AcDbLine
 10
27.381531
 20
79.668327
 30
0.0
 11
27.403351
 21
79.684135
 31
0.0
210
0.0
220
0.0
230
1.0
  0
LINE
  5
21C
100
AcDbEntity
  8
0
370
    35
390
0
 62
     7
 48
0.000416
100
AcDbLine
 10
27.403351
 20
79.684135
 30
0.0
 11
27.414734
 21
79.696297
 31
0.0
210
0.0
220
0.0
230
1.0
  0
LINE
  5
21D
100
AcDbEntity
  8
0
370
    35
390
0
 62
     7
 48
0.000326
100
AcDbLine
 10
27.414734
 20
79.696297
 30
0.0
 11
27.420975
 21
79.707756
 31
0.0
210
0.0
220
0.0
230
1.0
  0
LINE
  5
21E
100
AcDbEntity
  8
0
370
    35
390
0
 62
     7
 48
0.000263
100
AcDbLine
 10
27.420975
 20
79.707756
 30
0.0
 11
27.421997
 21
79.718224
 31
0.0
210
0.0
220
0.0
230
1.0
  0
LINE
  5
21F
100
AcDbEntity
  8
0
370
    35
390
0
 62
     7
 48
0.000251
100
AcDbLine
 10
27.421997
 20
79.718224
 30
0.0
 11
27.41748
 21
79.72718
 31
0.0
210
0.0
220
0.0
230
1.0
  0
LINE
  5
220
100
AcDbEntity
  8
0
370
    35
390
0
 62
     7
 48
0.000325
100
AcDbLine
 10
27.41748
 20
79.72718
 30
0.0
 11
27.406525
 21
79.734154
 31
0.0
210
0.0
220
0.0
230
1.0
  0
LINE
  5
221
100
AcDbEntity
  8
0
370
    35
390
0
 62
     7
 48
0.000263
100
AcDbLine
 10
27.406525
 20
79.734154
 30
0.0
 11
27.396393
 21
79.736931
 31
0.0
210
0.0
220
0.0
230
1.0
  0
LINE
  5
222
100
AcDbEntity
  8
0
370
    35
390
0
 62
     7
 48
0.000373
100
AcDbLine
 10
27.396393
 20
79.736931
 30
0.0
 11
27.381531
 21
79.738289
 31
0.0
210
0.0
220
0.0
230
1.0
  0
LINE
  5
223
100
AcDbEntity
  8
0
370
    35
390
0
 62
     7
 48
0.084402
100
AcDbLine
 10
30.757599
 20
79.668327
 30
0.0
 11
27.381531
 21
79.668327
 31
0.0
210
0.0
220
0.0
230
1.0
  0
LINE
  5
224
100
AcDbEntity
  8
0
370
    35
390
0
 62
     7
 48
0.004856
100
AcDbLine
 10
27.215103
 20
79.568153
 30
0.0
 11
27.381531
 21
79.668327
 31
0.0
210
0.0
220
0.0
230
1.0
  0
LINE
  5
225
100
AcDbEntity
  8
0
370
    35
390
0
 62
     7
 48
0.090781
100
AcDbLine
 10
30.846359
 20
79.568153
 30
0.0
 11
27.215103
 21
79.568153
 31
0.0
210
0.0
220
0.0
230
1.0
  0
LINE
  5
226
100
AcDbEntity
  8
0
370
    35
390
0
 62
     7
 48
0.003677
100
AcDbLine
 10
27.215103
 20
79.568153
 30
0.0
 11
27.361801
 21
79.55732
 31
0.0
210
0.0
220
0.0
230
1.0
  0
LINE
  5
227
100
AcDbEntity
  8
0
370
    35
390
0
 62
     7
 48
0.000495
100
AcDbLine
 10
27.361801
 20
79.55732
 30
0.0
 11
27.381531
 21
79.555885
 31
0.0
210
0.0
220
0.0
230
1.0
  0
LINE
  5
228
100
AcDbEntity
  8
0
370
    35
390
0
 62
     7
 48
0.084402
100
AcDbLine
 10
30.757599
 20
79.555885
 30
0.0
 11
27.381531
 21
79.555885
 31
0.0
210
0.0
220
0.0
230
1.0
  0
LINE
  5
229
100
AcDbEntity
  8
0
370
    35
390
0
 62
     7
 48
0.000667
100
AcDbLine
 10
27.381531
 20
79.482307
 30
0.0
 11
27.403351
 21
79.497688
 31
0.0
210
0.0
220
0.0
230
1.0
  0
LINE
  5
22A
100
AcDbEntity
  8
0
370
    35
390
0
 62
     7
 48
0.000417
100
AcDbLine
 10
27.403351
 20
79.497688
 30
0.0
 11
27.414734
 21
79.509865
 31
0.0
210
0.0
220
0.0
230
1.0
  0
LINE
  5
22B
100
AcDbEntity
  8
0
370
    35
390
0
 62
     7
 48
0.000331
100
AcDbLine
 10
27.414734
 20
79.509865
 30
0.0
 11
27.420975
 21
79.521553
 31
0.0
210
0.0
220
0.0
230
1.0
  0
LINE
  5
22C
100
AcDbEntity
  8
0
370
    35
390
0
 62
     7
 48
0.000257
100
AcDbLine
 10
27.420975
 20
79.521553
 30
0.0
 11
27.422104
 21
79.531776
 31
0.0
210
0.0
220
0.0
230
1.0
  0
LINE
  5
22D
100
AcDbEntity
  8
0
370
    35
390
0
 62
     7
 48
0.000242
100
AcDbLine
 10
27.422104
 20
79.531776
 30
0.0
 11
27.418564
 21
79.540794
 31
0.0
210
0.0
220
0.0
230
1.0
  0
LINE
  5
22E
100
AcDbEntity
  8
0
370
    35
390
0
 62
     7
 48
0.000293
100
AcDbLine
 10
27.418564
 20
79.540794
 30
0.0
 11
27.409729
 21
79.54847
 31
0.0
210
0.0
220
0.0
230
1.0
  0
LINE
  5
22F
100
AcDbEntity
  8
0
370
    35
390
0
 62
     7
 48
0.000298
100
AcDbLine
 10
27.409729
 20
79.54847
 30
0.0
 11
27.398712
 21
79.553001
 31
0.0
210
0.0
220
0.0
230
1.0
  0
LINE
  5
230
100
AcDbEntity
  8
0
370
    35
390
0
 62
     7
 48
0.000436
100
AcDbLine
 10
27.398712
 20
79.553001
 30
0.0
 11
27.381531
 21
79.555885
 31
0.0
210
0.0
220
0.0
230
1.0
  0
LINE
  5
231
100
AcDbEntity
  8
0
370
    35
390
0
 62
     7
 48
0.084402
100
AcDbLine
 10
30.757599
 20
79.482307
 30
0.0
 11
27.381531
 21
79.482307
 31
0.0
210
0.0
220
0.0
230
1.0
  0
LINE
  5
232
100
AcDbEntity
  8
0
370
    35
390
0
 62
     7
 48
0.004803
100
AcDbLine
 10
27.215103
 20
79.386314
 30
0.0
 11
27.381531
 21
79.482307
 31
0.0
210
0.0
220
0.0
230
1.0
  0
LINE
  5
233
100
AcDbEntity
  8
0
370
    35
390
0
 62
     7
 48
0.090781
100
AcDbLine
 10
30.846359
 20
79.386314
 30
0.0
 11
27.215103
 21
79.386314
 31
0.0
210
0.0
220
0.0
230
1.0
  0
LINE
  5
234
100
AcDbEntity
  8
0
370
    35
390
0
 62
     7
 48
0.004196
100
AcDbLine
 10
27.215103
 20
79.386314
 30
0.0
 11
27.381531
 21
79.364616
 31
0.0
210
0.0
220
0.0
230
1.0
  0
LINE
  5
235
100
AcDbEntity
  8
0
370
    35
390
0
 62
     7
 48
0.084402
100
AcDbLine
 10
30.757599
 20
79.364616
 30
0.0
 11
27.381531
 21
79.364616
 31
0.0
210
0.0
220
0.0
230
1.0
  0
LINE
  5
236
100
AcDbEntity
  8
0
370
    35
390
0
 62
     7
 48
0.000381
100
AcDbLine
 10
27.381531
 20
79.287971
 30
0.0
 11
27.394501
 21
79.295952
 31
0.0
210
0.0
220
0.0
230
1.0
  0
LINE
  5
237
100
AcDbEntity
  8
0
370
    35
390
0
 62
     7
 48
0.000281
100
AcDbLine
 10
27.394501
 20
79.295952
 30
0.0
 11
27.403366
 21
79.302849
 31
0.0
210
0.0
220
0.0
230
1.0
  0
LINE
  5
238
100
AcDbEntity
  8
0
370
    35
390
0
 62
     7
 48
0.000415
100
AcDbLine
 10
27.403366
 20
79.302849
 30
0.0
 11
27.414734
 21
79.314919
 31
0.0
210
0.0
220
0.0
230
1.0
  0
LINE
  5
239
100
AcDbEntity
  8
0
370
    35
390
0
 62
     7
 48
0.000335
100
AcDbLine
 10
27.414734
 20
79.314919
 30
0.0
 11
27.420975
 21
79.326759
 31
0.0
210
0.0
220
0.0
230
1.0
  0
LINE
  5
23A
100
AcDbEntity
  8
0
370
    35
390
0
 62
     7
 48
0.000266
100
AcDbLine
 10
27.420975
 20
79.326759
 30
0.0
 11
27.422104
 21
79.337349
 31
0.0
210
0.0
220
0.0
230
1.0
  0
LINE
  5
23B
100
AcDbEntity
  8
0
370
    35
390
0
 62
     7
 48
0.000255
100
AcDbLine
 10
27.422104
 20
79.337349
 30
0.0
 11
27.418564
 21
79.346931
 31
0.0
210
0.0
220
0.0
230
1.0
  0
LINE
  5
23C
100
AcDbEntity
  8
0
370
    35
390
0
 62
     7
 48
0.000306
100
AcDbLine
 10
27.418564
 20
79.346931
 30
0.0
 11
27.409729
 21
79.3554
 31
0.0
210
0.0
220
0.0
230
1.0
  0
LINE
  5
23D
100
AcDbEntity
  8
0
370
    35
390
0
 62
     7
 48
0.000306
100
AcDbLine
 10
27.409729
 20
79.3554
 30
0.0
 11
27.398712
 21
79.360695
 31
0.0
210
0.0
220
0.0
230
1.0
  0
LINE
  5
23E
100
AcDbEntity
  8
0
370
    35
390
0
 62
     7
 48
0.000441
100
AcDbLine
 10
27.398712
 20
79.360695
 30
0.0
 11
27.381531
 21
79.364616
 31
0.0
210
0.0
220
0.0
230
1.0
  0
LINE
  5
23F
100
AcDbEntity
  8
0
370
    35
390
0
 62
     7
 48
0.084402
100
AcDbLine
 10
30.757599
 20
79.287971
 30
0.0
 11
27.381531
 21
79.287971
 31
0.0
210
0.0
220
0.0
230
1.0
  0
LINE
  5
240
100
AcDbEntity
  8
0
370
    35
390
0
 62
     7
 48
0.004743
100
AcDbLine
 10
27.215103
 20
79.196907
 30
0.0
 11
27.381531
 21
79.287971
 31
0.0
210
0.0
220
0.0
230
1.0
  0
LINE
  5
241
100
AcDbEntity
  8
0
370
    35
390
0
 62
     7
 48
0.090781
100
AcDbLine
 10
30.846359
 20
79.196907
 30
0.0
 11
27.215103
 21
79.196907
 31
0.0
210
0.0
220
0.0
230
1.0
  0
LINE
  5
242
100
AcDbEntity
  8
0
370
    35
390
0
 62
     7
 48
0.004232
100
AcDbLine
 10
27.215103
 20
79.196907
 30
0.0
 11
27.381531
 21
79.165962
 31
0.0
210
0.0
220
0.0
230
1.0
  0
LINE
  5
243
100
AcDbEntity
  8
0
370
    35
390
0
 62
     7
 48
0.084402
100
AcDbLine
 10
30.757599
 20
79.165962
 30
0.0
 11
27.381531
 21
79.165962
 31
0.0
210
0.0
220
0.0
230
1.0
  0
LINE
  5
244
100
AcDbEntity
  8
0
370
    35
390
0
 62
     7
 48
0.000375
100
AcDbLine
 10
27.381531
 20
79.086845
 30
0.0
 11
27.394501
 21
79.094414
 31
0.0
210
0.0
220
0.0
230
1.0
  0
LINE
  5
245
100
AcDbEntity
  8
0
370
    35
390
0
 62
     7
 48
0.000277
100
AcDbLine
 10
27.394501
 20
79.094414
 30
0.0
 11
27.403366
 21
79.101082
 31
0.0
210
0.0
220
0.0
230
1.0
  0
LINE
  5
246
100
AcDbEntity
  8
0
370
    35
390
0
 62
     7
 48
0.000411
100
AcDbLine
 10
27.403366
 20
79.101082
 30
0.0
 11
27.414734
 21
79.112968
 31
0.0
210
0.0
220
0.0
230
1.0
  0
LINE
  5
247
100
AcDbEntity
  8
0
370
    35
390
0
 62
     7
 48
0.000336
100
AcDbLine
 10
27.414734
 20
79.112968
 30
0.0
 11
27.420975
 21
79.12487
 31
0.0
210
0.0
220
0.0
230
1.0
  0
LINE
  5
248
100
AcDbEntity
  8
0
370
    35
390
0
 62
     7
 48
0.000273
100
AcDbLine
 10
27.420975
 20
79.12487
 30
0.0
 11
27.422104
 21
79.135735
 31
0.0
210
0.0
220
0.0
230
1.0
  0
LINE
  5
249
100
AcDbEntity
  8
0
370
    35
390
0
 62
     7
 48
0.000267
100
AcDbLine
 10
27.422104
 20
79.135735
 30
0.0
 11
27.418564
 21
79.145821
 31
0.0
210
0.0
220
0.0
230
1.0
  0
LINE
  5
24A
100
AcDbEntity
  8
0
370
    35
390
0
 62
     7
 48
0.000319
100
AcDbLine
 10
27.418564
 20
79.145821
 30
0.0
 11
27.409729
 21
79.155006
 31
0.0
210
0.0
220
0.0
230
1.0
  0
LINE
  5
24B
100
AcDbEntity
  8
0
370
    35
390
0
 62
     7
 48
0.000314
100
AcDbLine
 10
27.409729
 20
79.155006
 30
0.0
 11
27.398712
 21
79.161034
 31
0.0
210
0.0
220
0.0
230
1.0
  0
LINE
  5
24C
100
AcDbEntity
  8
0
370
    35
390
0
 62
     7
 48
0.000447
100
AcDbLine
 10
27.398712
 20
79.161034
 30
0.0
 11
27.381531
 21
79.165962
 31
0.0
210
0.0
220
0.0
230
1.0
  0
LINE
  5
24D
100
AcDbEntity
  8
0
370
    35
390
0
 62
     7
 48
0.084402
100
AcDbLine
 10
30.757599
 20
79.086845
 30
0.0
 11
27.381531
 21
79.086845
 31
0.0
210
0.0
220
0.0
230
1.0
  0
LINE
  5
24E
100
AcDbEntity
  8
0
370
    35
390
0
 62
     7
 48
0.004677
100
AcDbLine
 10
27.215103
 20
79.001381
 30
0.0
 11
27.381531
 21
79.086845
 31
0.0
210
0.0
220
0.0
230
1.0
  0
LINE
  5
24F
100
AcDbEntity
  8
0
370
    35
390
0
 62
     7
 48
0.090781
100
AcDbLine
 10
30.846359
 20
79.001381
 30
0.0
 11
27.215103
 21
79.001381
 31
0.0
210
0.0
220
0.0
230
1.0
  0
LINE
  5
250
100
AcDbEntity
  8
0
370
    35
390
0
 62
     7
 48
0.004279
100
AcDbLine
 10
27.215103
 20
79.001381
 30
0.0
 11
27.381531
 21
78.961418
 31
0.0
210
0.0
220
0.0
230
1.0
  0
LINE
  5
251
100
AcDbEntity
  8
0
370
    35
390
0
 62
     7
 48
0.084402
100
AcDbLine
 10
30.757599
 20
78.961418
 30
0.0
 11
27.381531
 21
78.961418
 31
0.0
210
0.0
220
0.0
230
1.0
  0
LINE
  5
252
100
AcDbEntity
  8
0
370
    35
390
0
 62
     7
 48
0.00037
100
AcDbLine
 10
27.381531
 20
78.880424
 30
0.0
 11
27.394501
 21
78.88755
 31
0.0
210
0.0
220
0.0
230
1.0
  0
LINE
  5
253
100
AcDbEntity
  8
0
370
    35
390
0
 62
     7
 48
0.000273
100
AcDbLine
 10
27.394501
 20
78.88755
 30
0.0
 11
27.403366
 21
78.893929
 31
0.0
210
0.0
220
0.0
230
1.0
  0
LINE
  5
254
100
AcDbEntity
  8
0
370
    35
390
0
 62
     7
 48
0.000406
100
AcDbLine
 10
27.403366
 20
78.893929
 30
0.0
 11
27.414734
 21
78.905525
 31
0.0
210
0.0
220
0.0
230
1.0
  0
LINE
  5
255
100
AcDbEntity
  8
0
370
    35
390
0
 62
     7
 48
0.000335
100
AcDbLine
 10
27.414734
 20
78.905525
 30
0.0
 11
27.420975
 21
78.917397
 31
0.0
210
0.0
220
0.0
230
1.0
  0
LINE
  5
256
100
AcDbEntity
  8
0
370
    35
390
0
 62
     7
 48
0.000278
100
AcDbLine
 10
27.420975
 20
78.917397
 30
0.0
 11
27.422104
 21
78.928474
 31
0.0
210
0.0
220
0.0
230
1.0
  0
LINE
  5
257
100
AcDbEntity
  8
0
370
    35
390
0
 62
     7
 48
0.000277
100
AcDbLine
 10
27.422104
 20
78.928474
 30
0.0
 11
27.418564
 21
78.938972
 31
0.0
210
0.0
220
0.0
230
1.0
  0
LINE
  5
258
100
AcDbEntity
  8
0
370
    35
390
0
 62
     7
 48
0.000331
100
AcDbLine
 10
27.418564
 20
78.938972
 30
0.0
 11
27.409729
 21
78.948814
 31
0.0
210
0.0
220
0.0
230
1.0
  0
LINE
  5
259
100
AcDbEntity
  8
0
370
    35
390
0
 62
     7
 48
0.000323
100
AcDbLine
 10
27.409729
 20
78.948814
 30
0.0
 11
27.398712
 21
78.955528
 31
0.0
210
0.0
220
0.0
230
1.0
  0
LINE
  5
25A
100
AcDbEntity
  8
0
370
    35
390
0
 62
     7
 48
0.000454
100
AcDbLine
 10
27.398712
 20
78.955528
 30
0.0
 11
27.381531
 21
78.961418
 31
0.0
210
0.0
220
0.0
230
1.0
  0
LINE
  5
25B
100
AcDbEntity
  8
0
370
    35
390
0
 62
     7
 48
0.084402
100
AcDbLine
 10
30.757599
 20
78.880424
 30
0.0
 11
27.381531
 21
78.880424
 31
0.0
210
0.0
220
0.0
230
1.0
  0
LINE
  5
25C
100
AcDbEntity
  8
0
370
    35
390
0
 62
     7
 48
0.004608
100
AcDbLine
 10
27.215103
 20
78.801231
 30
0.0
 11
27.381531
 21
78.880424
 31
0.0
210
0.0
220
0.0
230
1.0
  0
LINE
  5
25D
100
AcDbEntity
  8
0
370
    35
390
0
 62
     7
 48
0.090781
100
AcDbLine
 10
30.846359
 20
78.801231
 30
0.0
 11
27.215103
 21
78.801231
 31
0.0
210
0.0
220
0.0
230
1.0
  0
LINE
  5
25E
100
AcDbEntity
  8
0
370
    35
390
0
 62
     7
 48
0.004335
100
AcDbLine
 10
27.215103
 20
78.801231
 30
0.0
 11
27.381531
 21
78.752556
 31
0.0
210
0.0
220
0.0
230
1.0
  0
LINE
  5
25F
100
AcDbEntity
  8
0
370
    35
390
0
 62
     7
 48
0.084402
100
AcDbLine
 10
30.757599
 20
78.752556
 30
0.0
 11
27.381531
 21
78.752556
 31
0.0
210
0.0
220
0.0
230
1.0
  0
LINE
  5
260
100
AcDbEntity
  8
0
370
    35
390
0
 62
     7
 48
0.000364
100
AcDbLine
 10
27.381531
 20
78.670311
 30
0.0
 11
27.394501
 21
78.676903
 31
0.0
210
0.0
220
0.0
230
1.0
  0
LINE
  5
261
100
AcDbEntity
  8
0
370
    35
390
0
 62
     7
 48
0.000268
100
AcDbLine
 10
27.394501
 20
78.676903
 30
0.0
 11
27.403366
 21
78.682961
 31
0.0
210
0.0
220
0.0
230
1.0
  0
LINE
  5
262
100
AcDbEntity
  8
0
370
    35
390
0
 62
     7
 48
0.000399
100
AcDbLine
 10
27.403366
 20
78.682961
 30
0.0
 11
27.414734
 21
78.694176
 31
0.0
210
0.0
220
0.0
230
1.0
  0
LINE
  5
263
100
AcDbEntity
  8
0
370
    35
390
0
 62
     7
 48
0.000333
100
AcDbLine
 10
27.414734
 20
78.694176
 30
0.0
 11
27.420975
 21
78.70594
 31
0.0
210
0.0
220
0.0
230
1.0
  0
LINE
  5
264
100
AcDbEntity
  8
0
370
    35
390
0
 62
     7
 48
0.000281
100
AcDbLine
 10
27.420975
 20
78.70594
 30
0.0
 11
27.422104
 21
78.71714
 31
0.0
210
0.0
220
0.0
230
1.0
  0
LINE
  5
265
100
AcDbEntity
  8
0
370
    35
390
0
 62
     7
 48
0.000285
100
AcDbLine
 10
27.422104
 20
78.71714
 30
0.0
 11
27.418564
 21
78.727959
 31
0.0
210
0.0
220
0.0
230
1.0
  0
LINE
  5
266
100
AcDbEntity
  8
0
370
    35
390
0
 62
     7
 48
0.000342
100
AcDbLine
 10
27.418564
 20
78.727959
 30
0.0
 11
27.409729
 21
78.738396
 31
0.0
210
0.0
220
0.0
230
1.0
  0
LINE
  5
267
100
AcDbEntity
  8
0
370
    35
390
0
 62
     7
 48
0.000331
100
AcDbLine
 10
27.409729
 20
78.738396
 30
0.0
 11
27.398712
 21
78.74575
 31
0.0
210
0.0
220
0.0
230
1.0
  0
LINE
  5
268
100
AcDbEntity
  8
0
370
    35
390
0
 62
     7
 48
0.000462
100
AcDbLine
 10
27.398712
 20
78.74575
 30
0.0
 11
27.381531
 21
78.752556
 31
0.0
210
0.0
220
0.0
230
1.0
  0
LINE
  5
269
100
AcDbEntity
  8
0
370
    35
390
0
 62
     7
 48
0.084402
100
AcDbLine
 10
30.757599
 20
78.670311
 30
0.0
 11
27.381531
 21
78.670311
 31
0.0
210
0.0
220
0.0
230
1.0
  0
LINE
  5
26A
100
AcDbEntity
  8
0
370
    35
390
0
 62
     7
 48
0.004537
100
AcDbLine
 10
27.215103
 20
78.597984
 30
0.0
 11
27.381531
 21
78.670311
 31
0.0
210
0.0
220
0.0
230
1.0
  0
LINE
  5
26B
100
AcDbEntity
  8
0
370
    35
390
0
 62
     7
 48
0.090781
100
AcDbLine
 10
30.846359
 20
78.597984
 30
0.0
 11
27.215103
 21
78.597984
 31
0.0
210
0.0
220
0.0
230
1.0
  0
LINE
  5
26C
100
AcDbEntity
  8
0
370
    35
390
0
 62
     7
 48
0.004398
100
AcDbLine
 10
27.215103
 20
78.597984
 30
0.0
 11
27.381531
 21
78.540962
 31
0.0
210
0.0
220
0.0
230
1.0
  0
LINE
  5
26D
100
AcDbEntity
  8
0
370
    35
390
0
 62
     7
 48
0.084402
100
AcDbLine
 10
30.757599
 20
78.540962
 30
0.0
 11
27.381531
 21
78.540962
 31
0.0
210
0.0
220
0.0
230
1.0
  0
LINE
  5
26E
100
AcDbEntity
  8
0
370
    35
390
0
 62
     7
 48
0.000358
100
AcDbLine
 10
27.381531
 20
78.458076
 30
0.0
 11
27.394501
 21
78.464119
 31
0.0
210
0.0
220
0.0
230
1.0
  0
LINE
  5
26F
100
AcDbEntity
  8
0
370
    35
390
0
 62
     7
 48
0.000263
100
AcDbLine
 10
27.394501
 20
78.464119
 30
0.0
 11
27.403366
 21
78.469795
 31
0.0
210
0.0
220
0.0
230
1.0
  0
LINE
  5
270
100
AcDbEntity
  8
0
370
    35
390
0
 62
     7
 48
0.000391
100
AcDbLine
 10
27.403366
 20
78.469795
 30
0.0
 11
27.414734
 21
78.480553
 31
0.0
210
0.0
220
0.0
230
1.0
  0
LINE
  5
271
100
AcDbEntity
  8
0
370
    35
390
0
 62
     7
 48
0.000328
100
AcDbLine
 10
27.414734
 20
78.480553
 30
0.0
 11
27.420975
 21
78.492104
 31
0.0
210
0.0
220
0.0
230
1.0
  0
LINE
  5
272
100
AcDbEntity
  8
0
370
    35
390
0
 62
     7
 48
0.000282
100
AcDbLine
 10
27.420975
 20
78.492104
 30
0.0
 11
27.422104
 21
78.503334
 31
0.0
210
0.0
220
0.0
230
1.0
  0
LINE
  5
273
100
AcDbEntity
  8
0
370
    35
390
0
 62
     7
 48
0.000291
100
AcDbLine
 10
27.422104
 20
78.503334
 30
0.0
 11
27.418564
 21
78.514427
 31
0.0
210
0.0
220
0.0
230
1.0
  0
LINE
  5
274
100
AcDbEntity
  8
0
370
    35
390
0
 62
     7
 48
0.000351
100
AcDbLine
 10
27.418564
 20
78.514427
 30
0.0
 11
27.409729
 21
78.525337
 31
0.0
210
0.0
220
0.0
230
1.0
  0
LINE
  5
275
100
AcDbEntity
  8
0
370
    35
390
0
 62
     7
 48
0.000339
100
AcDbLine
 10
27.409729
 20
78.525337
 30
0.0
 11
27.398712
 21
78.533272
 31
0.0
210
0.0
220
0.0
230
1.0
  0
LINE
  5
276
100
AcDbEntity
  8
0
370
    35
390
0
 62
     7
 48
0.000471
100
AcDbLine
 10
27.398712
 20
78.533272
 30
0.0
 11
27.381531
 21
78.540962
 31
0.0
210
0.0
220
0.0
230
1.0
  0
LINE
  5
277
100
AcDbEntity
  8
0
370
    35
390
0
 62
     7
 48
0.084402
100
AcDbLine
 10
30.757599
 20
78.458076
 30
0.0
 11
27.381531
 21
78.458076
 31
0.0
210
0.0
220
0.0
230
1.0
  0
LINE
  5
278
100
AcDbEntity
  8
0
370
    35
390
0
 62
     7
 48
0.004466
100
AcDbLine
 10
27.215103
 20
78.39315
 30
0.0
 11
27.381531
 21
78.458076
 31
0.0
210
0.0
220
0.0
230
1.0
  0
LINE
  5
279
100
AcDbEntity
  8
0
370
    35
390
0
 62
     7
 48
0.090781
100
AcDbLine
 10
30.846359
 20
78.39315
 30
0.0
 11
27.215103
 21
78.39315
 31
0.0
210
0.0
220
0.0
230
1.0
  0
LINE
  5
27A
100
AcDbEntity
  8
0
370
    35
390
0
 62
     7
 48
0.004466
100
AcDbLine
 10
27.215103
 20
78.39315
 30
0.0
 11
27.381531
 21
78.328239
 31
0.0
210
0.0
220
0.0
230
1.0
  0
LINE
  5
27B
100
AcDbEntity
  8
0
370
    35
390
0
 62
     7
 48
0.084402
100
AcDbLine
 10
30.757599
 20
78.328239
 30
0.0
 11
27.381531
 21
78.328239
 31
0.0
210
0.0
220
0.0
230
1.0
  0
LINE
  5
27C
100
AcDbEntity
  8
0
370
    35
390
0
 62
     7
 48
0.000351
100
AcDbLine
 10
27.381531
 20
78.245354
 30
0.0
 11
27.394501
 21
78.250771
 31
0.0
210
0.0
220
0.0
230
1.0
  0
LINE
  5
27D
100
AcDbEntity
  8
0
370
    35
390
0
 62
     7
 48
0.000258
100
AcDbLine
 10
27.394501
 20
78.250771
 30
0.0
 11
27.403366
 21
78.25605
 31
0.0
210
0.0
220
0.0
230
1.0
  0
LINE
  5
27E
100
AcDbEntity
  8
0
370
    35
390
0
 62
     7
 48
0.000382
100
AcDbLine
 10
27.403366
 20
78.25605
 30
0.0
 11
27.414734
 21
78.266258
 31
0.0
210
0.0
220
0.0
230
1.0
  0
LINE
  5
27F
100
AcDbEntity
  8
0
370
    35
390
0
 62
     7
 48
0.000322
100
AcDbLine
 10
27.414734
 20
78.266258
 30
0.0
 11
27.420959
 21
78.277519
 31
0.0
210
0.0
220
0.0
230
1.0
  0
LINE
  5
280
100
AcDbEntity
  8
0
370
    35
390
0
 62
     7
 48
0.000281
100
AcDbLine
 10
27.420959
 20
78.277519
 30
0.0
 11
27.422104
 21
78.288689
 31
0.0
210
0.0
220
0.0
230
1.0
  0
LINE
  5
281
100
AcDbEntity
  8
0
370
    35
390
0
 62
     7
 48
0.000295
100
AcDbLine
 10
27.422104
 20
78.288689
 30
0.0
 11
27.418549
 21
78.299934
 31
0.0
210
0.0
220
0.0
230
1.0
  0
LINE
  5
282
100
AcDbEntity
  8
0
370
    35
390
0
 62
     7
 48
0.000359
100
AcDbLine
 10
27.418549
 20
78.299934
 30
0.0
 11
27.409729
 21
78.311287
 31
0.0
210
0.0
220
0.0
230
1.0
  0
LINE
  5
283
100
AcDbEntity
  8
0
370
    35
390
0
 62
     7
 48
0.000347
100
AcDbLine
 10
27.409729
 20
78.311287
 30
0.0
 11
27.398712
 21
78.31974
 31
0.0
210
0.0
220
0.0
230
1.0
  0
LINE
  5
284
100
AcDbEntity
  8
0
370
    35
390
0
 62
     7
 48
0.000479
100
AcDbLine
 10
27.398712
 20
78.31974
 30
0.0
 11
27.381531
 21
78.328239
 31
0.0
210
0.0
220
0.0
230
1.0
  0
LINE
  5
285
100
AcDbEntity
  8
0
370
    35
390
0
 62
     7
 48
0.084402
100
AcDbLine
 10
30.757599
 20
78.245354
 30
0.0
 11
27.381531
 21
78.245354
 31
0.0
210
0.0
220
0.0
230
1.0
  0
LINE
  5
286
100
AcDbEntity
  8
0
370
    35
390
0
 62
     7
 48
0.004398
100
AcDbLine
 10
27.215103
 20
78.188332
 30
0.0
 11
27.381531
 21
78.245354
 31
0.0
210
0.0
220
0.0
230
1.0
  0
LINE
  5
287
100
AcDbEntity
  8
0
370
    35
390
0
 62
     7
 48
0.090781
100
AcDbLine
 10
30.846359
 20
78.188332
 30
0.0
 11
27.215103
 21
78.188332
 31
0.0
210
0.0
220
0.0
230
1.0
  0
LINE
  5
288
100
AcDbEntity
  8
0
370
    35
390
0
 62
     7
 48
0.004537
100
AcDbLine
 10
27.215103
 20
78.188332
 30
0.0
 11
27.381531
 21
78.116005
 31
0.0
210
0.0
220
0.0
230
1.0
  0
LINE
  5
289
100
AcDbEntity
  8
0
370
    35
390
0
 62
     7
 48
0.084402
100
AcDbLine
 10
30.757599
 20
78.116005
 30
0.0
 11
27.381531
 21
78.116005
 31
0.0
210
0.0
220
0.0
230
1.0
  0
LINE
  5
28A
100
AcDbEntity
  8
0
370
    35
390
0
 62
     7
 48
0.000345
100
AcDbLine
 10
27.381531
 20
78.03376
 30
0.0
 11
27.394501
 21
78.038521
 31
0.0
210
0.0
220
0.0
230
1.0
  0
LINE
  5
28B
100
AcDbEntity
  8
0
370
    35
390
0
 62
     7
 48
0.000252
100
AcDbLine
 10
27.394501
 20
78.038521
 30
0.0
 11
27.403366
 21
78.043327
 31
0.0
210
0.0
220
0.0
230
1.0
  0
LINE
  5
28C
100
AcDbEntity
  8
0
370
    35
390
0
 62
     7
 48
0.000372
100
AcDbLine
 10
27.403366
 20
78.043327
 30
0.0
 11
27.414734
 21
78.05294
 31
0.0
210
0.0
220
0.0
230
1.0
  0
LINE
  5
28D
100
AcDbEntity
  8
0
370
    35
390
0
 62
     7
 48
0.000313
100
AcDbLine
 10
27.414734
 20
78.05294
 30
0.0
 11
27.420959
 21
78.063805
 31
0.0
210
0.0
220
0.0
230
1.0
  0
LINE
  5
28E
100
AcDbEntity
  8
0
370
    35
390
0
 62
     7
 48
0.000277
100
AcDbLine
 10
27.420959
 20
78.063805
 30
0.0
 11
27.422104
 21
78.074837
 31
0.0
210
0.0
220
0.0
230
1.0
  0
LINE
  5
28F
100
AcDbEntity
  8
0
370
    35
390
0
 62
     7
 48
0.000297
100
AcDbLine
 10
27.422104
 20
78.074837
 30
0.0
 11
27.418549
 21
78.086189
 31
0.0
210
0.0
220
0.0
230
1.0
  0
LINE
  5
290
100
AcDbEntity
  8
0
370
    35
390
0
 62
     7
 48
0.000366
100
AcDbLine
 10
27.418549
 20
78.086189
 30
0.0
 11
27.409729
 21
78.097862
 31
0.0
210
0.0
220
0.0
230
1.0
  0
LINE
  5
291
100
AcDbEntity
  8
0
370
    35
390
0
 62
     7
 48
0.000354
100
AcDbLine
 10
27.409729
 20
78.097862
 30
0.0
 11
27.398712
 21
78.106773
 31
0.0
210
0.0
220
0.0
230
1.0
  0
LINE
  5
292
100
AcDbEntity
  8
0
370
    35
390
0
 62
     7
 48
0.000488
100
AcDbLine
 10
27.398712
 20
78.106773
 30
0.0
 11
27.381531
 21
78.116005
 31
0.0
210
0.0
220
0.0
230
1.0
  0
LINE
  5
293
100
AcDbEntity
  8
0
370
    35
390
0
 62
     7
 48
0.084402
100
AcDbLine
 10
30.757599
 20
78.03376
 30
0.0
 11
27.381531
 21
78.03376
 31
0.0
210
0.0
220
0.0
230
1.0
  0
LINE
  5
294
100
AcDbEntity
  8
0
370
    35
390
0
 62
     7
 48
0.004335
100
AcDbLine
 10
27.215103
 20
77.985085
 30
0.0
 11
27.381531
 21
78.03376
 31
0.0
210
0.0
220
0.0
230
1.0
  0
LINE
  5
295
100
AcDbEntity
  8
0
370
    35
390
0
 62
     7
 48
0.090781
100
AcDbLine
 10
30.846359
 20
77.985085
 30
0.0
 11
27.215103
 21
77.985085
 31
0.0
210
0.0
220
0.0
230
1.0
  0
LINE
  5
296
100
AcDbEntity
  8
0
370
    35
390
0
 62
     7
 48
0.004608
100
AcDbLine
 10
27.215103
 20
77.985085
 30
0.0
 11
27.381531
 21
77.905891
 31
0.0
210
0.0
220
0.0
230
1.0
  0
LINE
  5
297
100
AcDbEntity
  8
0
370
    35
390
0
 62
     7
 48
0.084402
100
AcDbLine
 10
30.757599
 20
77.905891
 30
0.0
 11
27.381531
 21
77.905891
 31
0.0
210
0.0
220
0.0
230
1.0
  0
LINE
  5
298
100
AcDbEntity
  8
0
370
    35
390
0
 62
     7
 48
0.00034
100
AcDbLine
 10
27.381531
 20
77.824898
 30
0.0
 11
27.394501
 21
77.828972
 31
0.0
210
0.0
220
0.0
230
1.0
  0
LINE
  5
299
100
AcDbEntity
  8
0
370
    35
390
0
 62
     7
 48
0.000247
100
AcDbLine
 10
27.394501
 20
77.828972
 30
0.0
 11
27.403366
 21
77.83329
 31
0.0
210
0.0
220
0.0
230
1.0
  0
LINE
  5
29A
100
AcDbEntity
  8
0
370
    35
390
0
 62
     7
 48
0.000361
100
AcDbLine
 10
27.403366
 20
77.83329
 30
0.0
 11
27.414734
 21
77.842201
 31
0.0
210
0.0
220
0.0
230
1.0
  0
LINE
  5
29B
100
AcDbEntity
  8
0
370
    35
390
0
 62
     7
 48
0.000303
100
AcDbLine
 10
27.414734
 20
77.842201
 30
0.0
 11
27.420959
 21
77.852608
 31
0.0
210
0.0
220
0.0
230
1.0
  0
LINE
  5
29C
100
AcDbEntity
  8
0
370
    35
390
0
 62
     7
 48
0.000272
100
AcDbLine
 10
27.420959
 20
77.852608
 30
0.0
 11
27.422104
 21
77.863426
 31
0.0
210
0.0
220
0.0
230
1.0
  0
LINE
  5
29D
100
AcDbEntity
  8
0
370
    35
390
0
 62
     7
 48
0.000297
100
AcDbLine
 10
27.422104
 20
77.863426
 30
0.0
 11
27.418549
 21
77.874748
 31
0.0
210
0.0
220
0.0
230
1.0
  0
LINE
  5
29E
100
AcDbEntity
  8
0
370
    35
390
0
 62
     7
 48
0.000371
100
AcDbLine
 10
27.418549
 20
77.874748
 30
0.0
 11
27.409729
 21
77.886665
 31
0.0
210
0.0
220
0.0
230
1.0
  0
LINE
  5
29F
100
AcDbEntity
  8
0
370
    35
390
0
 62
     7
 48
0.000361
100
AcDbLine
 10
27.409729
 20
77.886665
 30
0.0
 11
27.398712
 21
77.895973
 31
0.0
210
0.0
220
0.0
230
1.0
  0
LINE
  5
2A0
100
AcDbEntity
  8
0
370
    35
390
0
 62
     7
 48
0.000496
100
AcDbLine
 10
27.398712
 20
77.895973
 30
0.0
 11
27.381531
 21
77.905891
 31
0.0
210
0.0
220
0.0
230
1.0
  0
LINE
  5
2A1
100
AcDbEntity
  8
0
370
    35
390
0
 62
     7
 48
0.084402
100
AcDbLine
 10
30.757599
 20
77.824898
 30
0.0
 11
27.381531
 21
77.824898
 31
0.0
210
0.0
220
0.0
230
1.0
  0
LINE
  5
2A2
100
AcDbEntity
  8
0
370
    35
390
0
 62
     7
 48
0.004279
100
AcDbLine
 10
27.215103
 20
77.784935
 30
0.0
 11
27.381531
 21
77.824898
 31
0.0
210
0.0
220
0.0
230
1.0
  0
LINE
  5
2A3
100
AcDbEntity
  8
0
370
    35
390
0
 62
     7
 48
0.090781
100
AcDbLine
 10
30.846359
 20
77.784935
 30
0.0
 11
27.215103
 21
77.784935
 31
0.0
210
0.0
220
0.0
230
1.0
  0
LINE
  5
2A4
100
AcDbEntity
  8
0
370
    35
390
0
 62
     7
 48
0.004677
100
AcDbLine
 10
27.215103
 20
77.784935
 30
0.0
 11
27.381531
 21
77.699471
 31
0.0
210
0.0
220
0.0
230
1.0
  0
LINE
  5
2A5
100
AcDbEntity
  8
0
370
    35
390
0
 62
     7
 48
0.084402
100
AcDbLine
 10
30.757599
 20
77.699471
 30
0.0
 11
27.381531
 21
77.699471
 31
0.0
210
0.0
220
0.0
230
1.0
  0
LINE
  5
2A6
100
AcDbEntity
  8
0
370
    35
390
0
 62
     7
 48
0.000335
100
AcDbLine
 10
27.381531
 20
77.620354
 30
0.0
 11
27.394516
 21
77.623711
 31
0.0
210
0.0
220
0.0
230
1.0
  0
LINE
  5
2A7
100
AcDbEntity
  8
0
370
    35
390
0
 62
     7
 48
0.000241
100
AcDbLine
 10
27.394516
 20
77.623711
 30
0.0
 11
27.403366
 21
77.627495
 31
0.0
210
0.0
220
0.0
230
1.0
  0
LINE
  5
2A8
100
AcDbEntity
  8
0
370
    35
390
0
 62
     7
 48
0.00035
100
AcDbLine
 10
27.403366
 20
77.627495
 30
0.0
 11
27.414734
 21
77.635658
 31
0.0
210
0.0
220
0.0
230
1.0
  0
LINE
  5
2A9
100
AcDbEntity
  8
0
370
    35
390
0
 62
     7
 48
0.000291
100
AcDbLine
 10
27.414734
 20
77.635658
 30
0.0
 11
27.420959
 21
77.645515
 31
0.0
210
0.0
220
0.0
230
1.0
  0
LINE
  5
2AA
100
AcDbEntity
  8
0
370
    35
390
0
 62
     7
 48
0.000264
100
AcDbLine
 10
27.420959
 20
77.645515
 30
0.0
 11
27.422104
 21
77.656029
 31
0.0
210
0.0
220
0.0
230
1.0
  0
LINE
  5
2AB
100
AcDbEntity
  8
0
370
    35
390
0
 62
     7
 48
0.000294
100
AcDbLine
 10
27.422104
 20
77.656029
 30
0.0
 11
27.418549
 21
77.667259
 31
0.0
210
0.0
220
0.0
230
1.0
  0
LINE
  5
2AC
100
AcDbEntity
  8
0
370
    35
390
0
 62
     7
 48
0.000374
100
AcDbLine
 10
27.418549
 20
77.667259
 30
0.0
 11
27.409729
 21
77.679344
 31
0.0
210
0.0
220
0.0
230
1.0
  0
LINE
  5
2AD
100
AcDbEntity
  8
0
370
    35
390
0
 62
     7
 48
0.000366
100
AcDbLine
 10
27.409729
 20
77.679344
 30
0.0
 11
27.398712
 21
77.688972
 31
0.0
210
0.0
220
0.0
230
1.0
  0
LINE
  5
2AE
100
AcDbEntity
  8
0
370
    35
390
0
 62
     7
 48
0.000503
100
AcDbLine
 10
27.398712
 20
77.688972
 30
0.0
 11
27.381531
 21
77.699471
 31
0.0
210
0.0
220
0.0
230
1.0
  0
LINE
  5
2AF
100
AcDbEntity
  8
0
370
    35
390
0
 62
     7
 48
0.084402
100
AcDbLine
 10
30.757599
 20
77.620354
 30
0.0
 11
27.381531
 21
77.620354
 31
0.0
210
0.0
220
0.0
230
1.0
  0
LINE
  5
2B0
100
AcDbEntity
  8
0
370
    35
390
0
 62
     7
 48
0.004232
100
AcDbLine
 10
27.215103
 20
77.589409
 30
0.0
 11
27.381531
 21
77.620354
 31
0.0
210
0.0
220
0.0
230
1.0
  0
LINE
  5
2B1
100
AcDbEntity
  8
0
370
    35
390
0
 62
     7
 48
0.090781
100
AcDbLine
 10
30.846359
 20
77.589409
 30
0.0
 11
27.215103
 21
77.589409
 31
0.0
210
0.0
220
0.0
230
1.0
  0
LINE
  5
2B2
100
AcDbEntity
  8
0
370
    35
390
0
 62
     7
 48
0.004743
100
AcDbLine
 10
27.215103
 20
77.589409
 30
0.0
 11
27.381531
 21
77.498344
 31
0.0
210
0.0
220
0.0
230
1.0
  0
LINE
  5
2B3
100
AcDbEntity
  8
0
370
    35
390
0
 62
     7
 48
0.084402
100
AcDbLine
 10
30.757599
 20
77.498344
 30
0.0
 11
27.381531
 21
77.498344
 31
0.0
210
0.0
220
0.0
230
1.0
  0
LINE
  5
2B4
100
AcDbEntity
  8
0
370
    35
390
0
 62
     7
 48
0.000331
100
AcDbLine
 10
27.381531
 20
77.4217
 30
0.0
 11
27.394516
 21
77.424309
 31
0.0
210
0.0
220
0.0
230
1.0
  0
LINE
  5
2B5
100
AcDbEntity
  8
0
370
    35
390
0
 62
     7
 48
0.000236
100
AcDbLine
 10
27.394516
 20
77.424309
 30
0.0
 11
27.403381
 21
77.427544
 31
0.0
210
0.0
220
0.0
230
1.0
  0
LINE
  5
2B6
100
AcDbEntity
  8
0
370
    35
390
0
 62
     7
 48
0.000338
100
AcDbLine
 10
27.403381
 20
77.427544
 30
0.0
 11
27.414734
 21
77.434868
 31
0.0
210
0.0
220
0.0
230
1.0
  0
LINE
  5
2B7
100
AcDbEntity
  8
0
370
    35
390
0
 62
     7
 48
0.000279
100
AcDbLine
 10
27.414734
 20
77.434868
 30
0.0
 11
27.420959
 21
77.44413
 31
0.0
210
0.0
220
0.0
230
1.0
  0
LINE
  5
2B8
100
AcDbEntity
  8
0
370
    35
390
0
 62
     7
 48
0.000255
100
AcDbLine
 10
27.420959
 20
77.44413
 30
0.0
 11
27.422104
 21
77.454247
 31
0.0
210
0.0
220
0.0
230
1.0
  0
LINE
  5
2B9
100
AcDbEntity
  8
0
370
    35
390
0
 62
     7
 48
0.00029
100
AcDbLine
 10
27.422104
 20
77.454247
 30
0.0
 11
27.418549
 21
77.465309
 31
0.0
210
0.0
220
0.0
230
1.0
  0
LINE
  5
2BA
100
AcDbEntity
  8
0
370
    35
390
0
 62
     7
 48
0.000375
100
AcDbLine
 10
27.418549
 20
77.465309
 30
0.0
 11
27.409729
 21
77.47744
 31
0.0
210
0.0
220
0.0
230
1.0
  0
LINE
  5
2BB
100
AcDbEntity
  8
0
370
    35
390
0
 62
     7
 48
0.00037
100
AcDbLine
 10
27.409729
 20
77.47744
 30
0.0
 11
27.398712
 21
77.487312
 31
0.0
210
0.0
220
0.0
230
1.0
  0
LINE
  5
2BC
100
AcDbEntity
  8
0
370
    35
390
0
 62
     7
 48
0.00051
100
AcDbLine
 10
27.398712
 20
77.487312
 30
0.0
 11
27.381531
 21
77.498344
 31
0.0
210
0.0
220
0.0
230
1.0
  0
LINE
  5
2BD
100
AcDbEntity
  8
0
370
    35
390
0
 62
     7
 48
0.084402
100
AcDbLine
 10
30.757599
 20
77.4217
 30
0.0
 11
27.381531
 21
77.4217
 31
0.0
210
0.0
220
0.0
230
1.0
  0
LINE
  5
2BE
100
AcDbEntity
  8
0
370
    35
390
0
 62
     7
 48
0.004196
100
AcDbLine
 10
27.215103
 20
77.400002
 30
0.0
 11
27.381531
 21
77.4217
 31
0.0
210
0.0
220
0.0
230
1.0
  0
LINE
  5
2BF
100
AcDbEntity
  8
0
370
    35
390
0
 62
     7
 48
0.090781
100
AcDbLine
 10
30.846359
 20
77.400002
 30
0.0
 11
27.215103
 21
77.400002
 31
0.0
210
0.0
220
0.0
230
1.0
  0
LINE
  5
2C0
100
AcDbEntity
  8
0
370
    35
390
0
 62
     7
 48
0.004803
100
AcDbLine
 10
27.215103
 20
77.400002
 30
0.0
 11
27.381531
 21
77.304008
 31
0.0
210
0.0
220
0.0
230
1.0
  0
LINE
  5
2C1
100
AcDbEntity
  8
0
370
    35
390
0
 62
     7
 48
0.084402
100
AcDbLine
 10
30.757599
 20
77.304008
 30
0.0
 11
27.381531
 21
77.304008
 31
0.0
210
0.0
220
0.0
230
1.0
  0
LINE
  5
2C2
100
AcDbEntity
  8
0
370
    35
390
0
 62
     7
 48
0.000328
100
AcDbLine
 10
27.381531
 20
77.230431
 30
0.0
 11
27.394516
 21
77.232292
 31
0.0
210
0.0
220
0.0
230
1.0
  0
LINE
  5
2C3
100
AcDbEntity
  8
0
370
    35
390
0
 62
     7
 48
0.000231
100
AcDbLine
 10
27.394516
 20
77.232292
 30
0.0
 11
27.403381
 21
77.234932
 31
0.0
210
0.0
220
0.0
230
1.0
  0
LINE
  5
2C4
100
AcDbEntity
  8
0
370
    35
390
0
 62
     7
 48
0.000326
100
AcDbLine
 10
27.403381
 20
77.234932
 30
0.0
 11
27.414734
 21
77.241386
 31
0.0
210
0.0
220
0.0
230
1.0
  0
LINE
  5
2C5
100
AcDbEntity
  8
0
370
    35
390
0
 62
     7
 48
0.000265
100
AcDbLine
 10
27.414734
 20
77.241386
 30
0.0
 11
27.420959
 21
77.249947
 31
0.0
210
0.0
220
0.0
230
1.0
  0
LINE
  5
2C6
100
AcDbEntity
  8
0
370
    35
390
0
 62
     7
 48
0.000243
100
AcDbLine
 10
27.420959
 20
77.249947
 30
0.0
 11
27.422104
 21
77.259605
 31
0.0
210
0.0
220
0.0
230
1.0
  0
LINE
  5
2C7
100
AcDbEntity
  8
0
370
    35
390
0
 62
     7
 48
0.000284
100
AcDbLine
 10
27.422104
 20
77.259605
 30
0.0
 11
27.418549
 21
77.270409
 31
0.0
210
0.0
220
0.0
230
1.0
  0
LINE
  5
2C8
100
AcDbEntity
  8
0
370
    35
390
0
 62
     7
 48
0.000374
100
AcDbLine
 10
27.418549
 20
77.270409
 30
0.0
 11
27.409729
 21
77.282509
 31
0.0
210
0.0
220
0.0
230
1.0
  0
LINE
  5
2C9
100
AcDbEntity
  8
0
370
    35
390
0
 62
     7
 48
0.000373
100
AcDbLine
 10
27.409729
 20
77.282509
 30
0.0
 11
27.398712
 21
77.292549
 31
0.0
210
0.0
220
0.0
230
1.0
  0
LINE
  5
2CA
100
AcDbEntity
  8
0
370
    35
390
0
 62
     7
 48
0.000516
100
AcDbLine
 10
27.398712
 20
77.292549
 30
0.0
 11
27.381531
 21
77.304008
 31
0.0
210
0.0
220
0.0
230
1.0
  0
LINE
  5
2CB
100
AcDbEntity
  8
0
370
    35
390
0
 62
     7
 48
0.084402
100
AcDbLine
 10
30.757599
 20
77.230431
 30
0.0
 11
27.381531
 21
77.230431
 31
0.0
210
0.0
220
0.0
230
1.0
  0
LINE
  5
2CC
100
AcDbEntity
  8
0
370
    35
390
0
 62
     7
 48
0.004172
100
AcDbLine
 10
27.215103
 20
77.218147
 30
0.0
 11
27.381531
 21
77.230431
 31
0.0
210
0.0
220
0.0
230
1.0
  0
LINE
  5
2CD
100
AcDbEntity
  8
0
370
    35
390
0
 62
     7
 48
0.090781
100
AcDbLine
 10
30.846359
 20
77.218147
 30
0.0
 11
27.215103
 21
77.218147
 31
0.0
210
0.0
220
0.0
230
1.0
  0
LINE
  5
2CE
100
AcDbEntity
  8
0
370
    35
390
0
 62
     7
 48
0.004856
100
AcDbLine
 10
27.215103
 20
77.218147
 30
0.0
 11
27.381531
 21
77.117973
 31
0.0
210
0.0
220
0.0
230
1.0
  0
LINE
  5
2CF
100
AcDbEntity
  8
0
370
    35
390
0
 62
     7
 48
0.084402
100
AcDbLine
 10
30.757599
 20
77.117973
 30
0.0
 11
27.381531
 21
77.117973
 31
0.0
210
0.0
220
0.0
230
1.0
  0
LINE
  5
2D0
100
AcDbEntity
  8
0
370
    35
390
0
 62
     7
 48
0.000516
100
AcDbLine
 10
27.381531
 20
77.048027
 30
0.0
 11
27.401978
 21
77.050697
 31
0.0
210
0.0
220
0.0
230
1.0
  0
LINE
  5
2D1
100
AcDbEntity
  8
0
370
    35
390
0
 62
     7
 48
0.000307
100
AcDbLine
 10
27.401978
 20
77.050697
 30
0.0
 11
27.413254
 21
77.055595
 31
0.0
210
0.0
220
0.0
230
1.0
  0
LINE
  5
2D2
100
AcDbEntity
  8
0
370
    35
390
0
 62
     7
 48
0.000239
100
AcDbLine
 10
27.413254
 20
77.055595
 30
0.0
 11
27.419937
 21
77.062431
 31
0.0
210
0.0
220
0.0
230
1.0
  0
LINE
  5
2D3
100
AcDbEntity
  8
0
370
    35
390
0
 62
     7
 48
0.000262
100
AcDbLine
 10
27.419937
 20
77.062431
 30
0.0
 11
27.42215
 21
77.072685
 31
0.0
210
0.0
220
0.0
230
1.0
  0
LINE
  5
2D4
100
AcDbEntity
  8
0
370
    35
390
0
 62
     7
 48
0.000325
100
AcDbLine
 10
27.42215
 20
77.072685
 30
0.0
 11
27.417999
 21
77.085014
 31
0.0
210
0.0
220
0.0
230
1.0
  0
LINE
  5
2D5
100
AcDbEntity
  8
0
370
    35
390
0
 62
     7
 48
0.000458
100
AcDbLine
 10
27.417999
 20
77.085014
 30
0.0
 11
27.406525
 21
77.099312
 31
0.0
210
0.0
220
0.0
230
1.0
  0
LINE
  5
2D6
100
AcDbEntity
  8
0
370
    35
390
0
 62
     7
 48
0.000333
100
AcDbLine
 10
27.406525
 20
77.099312
 30
0.0
 11
27.396393
 21
77.107979
 31
0.0
210
0.0
220
0.0
230
1.0
  0
LINE
  5
2D7
100
AcDbEntity
  8
0
370
    35
390
0
 62
     7
 48
0.000448
100
AcDbLine
 10
27.396393
 20
77.107979
 30
0.0
 11
27.381531
 21
77.117973
 31
0.0
210
0.0
220
0.0
230
1.0
  0
LINE
  5
2D8
100
AcDbEntity
  8
0
370
    35
390
0
 62
     7
 48
0.084402
100
AcDbLine
 10
30.757599
 20
77.048027
 30
0.0
 11
27.381531
 21
77.048027
 31
0.0
210
0.0
220
0.0
230
1.0
  0
LINE
  5
2D9
100
AcDbEntity
  8
0
370
    35
390
0
 62
     7
 48
0.004161
100
AcDbLine
 10
27.215103
 20
77.04525
 30
0.0
 11
27.381531
 21
77.048027
 31
0.0
210
0.0
220
0.0
230
1.0
  0
LINE
  5
2DA
100
AcDbEntity
  8
0
370
    35
390
0
 62
     7
 48
0.090781
100
AcDbLine
 10
30.846359
 20
77.04525
 30
0.0
 11
27.215103
 21
77.04525
 31
0.0
210
0.0
220
0.0
230
1.0
  0
LINE
  5
2DB
100
AcDbEntity
  8
0
370
    35
390
0
 62
     7
 48
0.004901
100
AcDbLine
 10
27.215103
 20
77.04525
 30
0.0
 11
27.381531
 21
76.941658
 31
0.0
210
0.0
220
0.0
230
1.0
  0
LINE
  5
2DC
100
AcDbEntity
  8
0
370
    35
390
0
 62
     7
 48
0.084402
100
AcDbLine
 10
30.757599
 20
76.941658
 30
0.0
 11
27.381531
 21
76.941658
 31
0.0
210
0.0
220
0.0
230
1.0
  0
LINE
  5
2DD
100
AcDbEntity
  8
0
370
    35
390
0
 62
     7
 48
0.000512
100
AcDbLine
 10
27.381531
 20
76.875847
 30
0.0
 11
27.401978
 21
76.87722
 31
0.0
210
0.0
220
0.0
230
1.0
  0
LINE
  5
2DE
100
AcDbEntity
  8
0
370
    35
390
0
 62
     7
 48
0.000299
100
AcDbLine
 10
27.401978
 20
76.87722
 30
0.0
 11
27.413254
 21
76.881203
 31
0.0
210
0.0
220
0.0
230
1.0
  0
LINE
  5
2DF
100
AcDbEntity
  8
0
370
    35
390
0
 62
     7
 48
0.000225
100
AcDbLine
 10
27.413254
 20
76.881203
 30
0.0
 11
27.419937
 21
76.887245
 31
0.0
210
0.0
220
0.0
230
1.0
  0
LINE
  5
2E0
100
AcDbEntity
  8
0
370
    35
390
0
 62
     7
 48
0.000229
100
AcDbLine
 10
27.419937
 20
76.887245
 30
0.0
 11
27.422226
 21
76.896095
 31
0.0
210
0.0
220
0.0
230
1.0
  0
LINE
  5
2E1
100
AcDbEntity
  8
0
370
    35
390
0
 62
     7
 48
0.000279
100
AcDbLine
 10
27.422226
 20
76.896095
 30
0.0
 11
27.419037
 21
76.906776
 31
0.0
210
0.0
220
0.0
230
1.0
  0
LINE
  5
2E2
100
AcDbEntity
  8
0
370
    35
390
0
 62
     7
 48
0.000393
100
AcDbLine
 10
27.419037
 20
76.906776
 30
0.0
 11
27.409729
 21
76.919441
 31
0.0
210
0.0
220
0.0
230
1.0
  0
LINE
  5
2E3
100
AcDbEntity
  8
0
370
    35
390
0
 62
     7
 48
0.000374
100
AcDbLine
 10
27.409729
 20
76.919441
 30
0.0
 11
27.398712
 21
76.929588
 31
0.0
210
0.0
220
0.0
230
1.0
  0
LINE
  5
2E4
100
AcDbEntity
  8
0
370
    35
390
0
 62
     7
 48
0.000525
100
AcDbLine
 10
27.398712
 20
76.929588
 30
0.0
 11
27.381531
 21
76.941658
 31
0.0
210
0.0
220
0.0
230
1.0
  0
LINE
  5
2E5
100
AcDbEntity
  8
0
370
    35
390
0
 62
     7
 48
0.004164
100
AcDbLine
 10
27.215103
 20
76.882607
 30
0.0
 11
27.381531
 21
76.875847
 31
0.0
210
0.0
220
0.0
230
1.0
  0
LINE
  5
2E6
100
AcDbEntity
  8
0
370
    35
390
0
 62
     7
 48
0.004936
100
AcDbLine
 10
27.215103
 20
76.882607
 30
0.0
 11
27.381531
 21
76.776375
 31
0.0
210
0.0
220
0.0
230
1.0
  0
LINE
  5
2E7
100
AcDbEntity
  8
0
370
    35
390
0
 62
     7
 48
0.084402
100
AcDbLine
 10
30.757599
 20
76.776375
 30
0.0
 11
27.381531
 21
76.776375
 31
0.0
210
0.0
220
0.0
230
1.0
  0
LINE
  5
2E8
100
AcDbEntity
  8
0
370
    35
390
0
 62
     7
 48
0.000271
100
AcDbLine
 10
27.381531
 20
76.715218
 30
0.0
 11
27.392365
 21
76.714668
 31
0.0
210
0.0
220
0.0
230
1.0
  0
LINE
  5
2E9
100
AcDbEntity
  8
0
370
    35
390
0
 62
     7
 48
0.000428
100
AcDbLine
 10
27.392365
 20
76.714668
 30
0.0
 11
27.409363
 21
76.716789
 31
0.0
210
0.0
220
0.0
230
1.0
  0
LINE
  5
2EA
100
AcDbEntity
  8
0
370
    35
390
0
 62
     7
 48
0.000254
100
AcDbLine
 10
27.409363
 20
76.716789
 30
0.0
 11
27.41832
 21
76.721626
 31
0.0
210
0.0
220
0.0
230
1.0
  0
LINE
  5
2EB
100
AcDbEntity
  8
0
370
    35
390
0
 62
     7
 48
0.000203
100
AcDbLine
 10
27.41832
 20
76.721626
 30
0.0
 11
27.422104
 21
76.728828
 31
0.0
210
0.0
220
0.0
230
1.0
  0
LINE
  5
2EC
100
AcDbEntity
  8
0
370
    35
390
0
 62
     7
 48
0.000132
100
AcDbLine
 10
27.422104
 20
76.728828
 30
0.0
 11
27.421921
 21
76.734123
 31
0.0
210
0.0
220
0.0
230
1.0
  0
LINE
  5
2ED
100
AcDbEntity
  8
0
370
    35
390
0
 62
     7
 48
0.00016
100
AcDbLine
 10
27.421921
 20
76.734123
 30
0.0
 11
27.419815
 21
76.740166
 31
0.0
210
0.0
220
0.0
230
1.0
  0
LINE
  5
2EE
100
AcDbEntity
  8
0
370
    35
390
0
 62
     7
 48
0.00025
100
AcDbLine
 10
27.419815
 20
76.740166
 30
0.0
 11
27.414459
 21
76.748589
 31
0.0
210
0.0
220
0.0
230
1.0
  0
LINE
  5
2EF
100
AcDbEntity
  8
0
370
    35
390
0
 62
     7
 48
0.000327
100
AcDbLine
 10
27.414459
 20
76.748589
 30
0.0
 11
27.405548
 21
76.758186
 31
0.0
210
0.0
220
0.0
230
1.0
  0
LINE
  5
2F0
100
AcDbEntity
  8
0
370
    35
390
0
 62
     7
 48
0.000753
100
AcDbLine
 10
27.405548
 20
76.758186
 30
0.0
 11
27.381531
 21
76.776375
 31
0.0
210
0.0
220
0.0
230
1.0
  0
LINE
  5
2F1
100
AcDbEntity
  8
0
370
    35
390
0
 62
     7
 48
0.00418
100
AcDbLine
 10
27.215103
 20
76.731468
 30
0.0
 11
27.381531
 21
76.715218
 31
0.0
210
0.0
220
0.0
230
1.0
  0
LINE
  5
2F2
100
AcDbEntity
  8
0
370
    35
390
0
 62
     7
 48
0.004961
100
AcDbLine
 10
27.215103
 20
76.731468
 30
0.0
 11
27.381531
 21
76.623405
 31
0.0
210
0.0
220
0.0
230
1.0
  0
LINE
  5
2F3
100
AcDbEntity
  8
0
370
    35
390
0
 62
     7
 48
0.084402
100
AcDbLine
 10
30.757599
 20
76.623405
 30
0.0
 11
27.381531
 21
76.623405
 31
0.0
210
0.0
220
0.0
230
1.0
  0
LINE
  5
2F4
100
AcDbEntity
  8
0
370
    35
390
0
 62
     7
 48
0.000415
100
AcDbLine
 10
27.381531
 20
76.56736
 30
0.0
 11
27.398056
 21
76.565971
 31
0.0
210
0.0
220
0.0
230
1.0
  0
LINE
  5
2F5
100
AcDbEntity
  8
0
370
    35
390
0
 62
     7
 48
0.000327
100
AcDbLine
 10
27.398056
 20
76.565971
 30
0.0
 11
27.411041
 21
76.567451
 31
0.0
210
0.0
220
0.0
230
1.0
  0
LINE
  5
2F6
100
AcDbEntity
  8
0
370
    35
390
0
 62
     7
 48
0.000205
100
AcDbLine
 10
27.411041
 20
76.567451
 30
0.0
 11
27.418396
 21
76.571037
 31
0.0
210
0.0
220
0.0
230
1.0
  0
LINE
  5
2F7
100
AcDbEntity
  8
0
370
    35
390
0
 62
     7
 48
0.000151
100
AcDbLine
 10
27.418396
 20
76.571037
 30
0.0
 11
27.421783
 21
76.576042
 31
0.0
210
0.0
220
0.0
230
1.0
  0
LINE
  5
2F8
100
AcDbEntity
  8
0
370
    35
390
0
 62
     7
 48
0.000116
100
AcDbLine
 10
27.421783
 20
76.576042
 30
0.0
 11
27.42215
 21
76.58065
 31
0.0
210
0.0
220
0.0
230
1.0
  0
LINE
  5
2F9
100
AcDbEntity
  8
0
370
    35
390
0
 62
     7
 48
0.000141
100
AcDbLine
 10
27.42215
 20
76.58065
 30
0.0
 11
27.420624
 21
76.586082
 31
0.0
210
0.0
220
0.0
230
1.0
  0
LINE
  5
2FA
100
AcDbEntity
  8
0
370
    35
390
0
 62
     7
 48
0.000429
100
AcDbLine
 10
27.420624
 20
76.586082
 30
0.0
 11
27.410721
 21
76.60009
 31
0.0
210
0.0
220
0.0
230
1.0
  0
LINE
  5
2FB
100
AcDbEntity
  8
0
370
    35
390
0
 62
     7
 48
0.000383
100
AcDbLine
 10
27.410721
 20
76.60009
 30
0.0
 11
27.39946
 21
76.610466
 31
0.0
210
0.0
220
0.0
230
1.0
  0
LINE
  5
2FC
100
AcDbEntity
  8
0
370
    35
390
0
 62
     7
 48
0.000553
100
AcDbLine
 10
27.39946
 20
76.610466
 30
0.0
 11
27.381531
 21
76.623405
 31
0.0
210
0.0
220
0.0
230
1.0
  0
LINE
  5
2FD
100
AcDbEntity
  8
0
370
    35
390
0
 62
     7
 48
0.00421
100
AcDbLine
 10
27.215103
 20
76.592964
 30
0.0
 11
27.381531
 21
76.56736
 31
0.0
210
0.0
220
0.0
230
1.0
  0
LINE
  5
2FE
100
AcDbEntity
  8
0
370
    35
390
0
 62
     7
 48
0.004975
100
AcDbLine
 10
27.215103
 20
76.592964
 30
0.0
 11
27.381531
 21
76.483894
 31
0.0
210
0.0
220
0.0
230
1.0
  0
LINE
  5
2FF
100
AcDbEntity
  8
0
370
    35
390
0
 62
     7
 48
0.084402
100
AcDbLine
 10
30.757599
 20
76.483894
 30
0.0
 11
27.381531
 21
76.483894
 31
0.0
210
0.0
220
0.0
230
1.0
  0
LINE
  5
300
100
AcDbEntity
  8
0
370
    35
390
0
 62
     7
 48
0.000546
100
AcDbLine
 10
27.381531
 20
76.433388
 30
0.0
 11
27.403229
 21
76.430794
 31
0.0
210
0.0
220
0.0
230
1.0
  0
LINE
  5
301
100
AcDbEntity
  8
0
370
    35
390
0
 62
     7
 48
0.000232
100
AcDbLine
 10
27.403229
 20
76.430794
 30
0.0
 11
27.412476
 21
76.431694
 31
0.0
210
0.0
220
0.0
230
1.0
  0
LINE
  5
302
100
AcDbEntity
  8
0
370
    35
390
0
 62
     7
 48
0.000157
100
AcDbLine
 10
27.412476
 20
76.431694
 30
0.0
 11
27.41832
 21
76.434044
 31
0.0
210
0.0
220
0.0
230
1.0
  0
LINE
  5
303
100
AcDbEntity
  8
0
370
    35
390
0
 62
     7
 48
0.000097
100
AcDbLine
 10
27.41832
 20
76.434044
 30
0.0
 11
27.421051
 21
76.43679
 31
0.0
210
0.0
220
0.0
230
1.0
  0
LINE
  5
304
100
AcDbEntity
  8
0
370
    35
390
0
 62
     7
 48
0.00009
100
AcDbLine
 10
27.421051
 20
76.43679
 30
0.0
 11
27.422211
 21
76.440208
 31
0.0
210
0.0
220
0.0
230
1.0
  0
LINE
  5
305
100
AcDbEntity
  8
0
370
    35
390
0
 62
     7
 48
0.000161
100
AcDbLine
 10
27.422211
 20
76.440208
 30
0.0
 11
27.421066
 21
76.446541
 31
0.0
210
0.0
220
0.0
230
1.0
  0
LINE
  5
306
100
AcDbEntity
  8
0
370
    35
390
0
 62
     7
 48
0.000232
100
AcDbLine
 10
27.421066
 20
76.446541
 30
0.0
 11
27.41629
 21
76.454491
 31
0.0
210
0.0
220
0.0
230
1.0
  0
LINE
  5
307
100
AcDbEntity
  8
0
370
    35
390
0
 62
     7
 48
0.000335
100
AcDbLine
 10
27.41629
 20
76.454491
 30
0.0
 11
27.407181
 21
76.464317
 31
0.0
210
0.0
220
0.0
230
1.0
  0
LINE
  5
308
100
AcDbEntity
  8
0
370
    35
390
0
 62
     7
 48
0.000807
100
AcDbLine
 10
27.407181
 20
76.464317
 30
0.0
 11
27.381531
 21
76.483894
 31
0.0
210
0.0
220
0.0
230
1.0
  0
LINE
  5
309
100
AcDbEntity
  8
0
370
    35
390
0
 62
     7
 48
0.00425
100
AcDbLine
 10
27.215103
 20
76.468147
 30
0.0
 11
27.381531
 21
76.433388
 31
0.0
210
0.0
220
0.0
230
1.0
  0
LINE
  5
30A
100
AcDbEntity
  8
0
370
    35
390
0
 62
     7
 48
0.004977
100
AcDbLine
 10
27.215103
 20
76.468147
 30
0.0
 11
27.381531
 21
76.35891
 31
0.0
210
0.0
220
0.0
230
1.0
  0
LINE
  5
30B
100
AcDbEntity
  8
0
370
    35
390
0
 62
     7
 48
0.084402
100
AcDbLine
 10
30.757599
 20
76.35891
 30
0.0
 11
27.381531
 21
76.35891
 31
0.0
210
0.0
220
0.0
230
1.0
  0
LINE
  5
30C
100
AcDbEntity
  8
0
370
    35
390
0
 62
     7
 48
0.000666
100
AcDbLine
 10
27.381531
 20
76.314339
 30
0.0
 11
27.407837
 21
76.310188
 31
0.0
210
0.0
220
0.0
230
1.0
  0
LINE
  5
30D
100
AcDbEntity
  8
0
370
    35
390
0
 62
     7
 48
0.000241
100
AcDbLine
 10
27.407837
 20
76.310188
 30
0.0
 11
27.417374
 21
76.311607
 31
0.0
210
0.0
220
0.0
230
1.0
  0
LINE
  5
30E
100
AcDbEntity
  8
0
370
    35
390
0
 62
     7
 48
0.000079
100
AcDbLine
 10
27.417374
 20
76.311607
 30
0.0
 11
27.42009
 21
76.313225
 31
0.0
210
0.0
220
0.0
230
1.0
  0
LINE
  5
30F
100
AcDbEntity
  8
0
370
    35
390
0
 62
     7
 48
0.000108
100
AcDbLine
 10
27.42009
 20
76.313225
 30
0.0
 11
27.42218
 21
76.317009
 31
0.0
210
0.0
220
0.0
230
1.0
  0
LINE
  5
310
100
AcDbEntity
  8
0
370
    35
390
0
 62
     7
 48
0.0001
100
AcDbLine
 10
27.42218
 20
76.317009
 30
0.0
 11
27.421768
 21
76.320992
 31
0.0
210
0.0
220
0.0
230
1.0
  0
LINE
  5
311
100
AcDbEntity
  8
0
370
    35
390
0
 62
     7
 48
0.000374
100
AcDbLine
 10
27.421768
 20
76.320992
 30
0.0
 11
27.413498
 21
76.333458
 31
0.0
210
0.0
220
0.0
230
1.0
  0
LINE
  5
312
100
AcDbEntity
  8
0
370
    35
390
0
 62
     7
 48
0.000402
100
AcDbLine
 10
27.413498
 20
76.333458
 30
0.0
 11
27.401657
 21
76.344337
 31
0.0
210
0.0
220
0.0
230
1.0
  0
LINE
  5
313
100
AcDbEntity
  8
0
370
    35
390
0
 62
     7
 48
0.000621
100
AcDbLine
 10
27.401657
 20
76.344337
 30
0.0
 11
27.381531
 21
76.35891
 31
0.0
210
0.0
220
0.0
230
1.0
  0
LINE
  5
314
100
AcDbEntity
  8
0
370
    35
390
0
 62
     7
 48
0.004302
100
AcDbLine
 10
27.215103
 20
76.358009
 30
0.0
 11
27.381531
 21
76.314339
 31
0.0
210
0.0
220
0.0
230
1.0
  0
LINE
  5
315
100
AcDbEntity
  8
0
370
    35
390
0
 62
     7
 48
0.004968
100
AcDbLine
 10
27.215103
 20
76.358009
 30
0.0
 11
27.381531
 21
76.249413
 31
0.0
210
0.0
220
0.0
230
1.0
  0
LINE
  5
316
100
AcDbEntity
  8
0
370
    35
390
0
 62
     7
 48
0.084402
100
AcDbLine
 10
30.757599
 20
76.249413
 30
0.0
 11
27.381531
 21
76.249413
 31
0.0
210
0.0
220
0.0
230
1.0
  0
ARC
  5
317
100
AcDbEntity
  8
0
370
    35
390
0
 62
     7
100
AcDbCircle
 10
27.419434
 20
76.318336
 30
0.0
 40
0.113645
210
0.0
220
0.0
230
1.0
100
AcDbArc
 50
250.531998
 51
266.180364
  0
LINE
  5
318
100
AcDbEntity
  8
0
370
    35
390
0
 62
     7
 48
0.000146
100
AcDbLine
 10
27.411865
 20
76.20504
 30
0.0
 11
27.417679
 21
76.205711
 31
0.0
210
0.0
220
0.0
230
1.0
  0
LINE
  5
319
100
AcDbEntity
  8
0
370
    35
390
0
 62
     7
 48
0.000053
100
AcDbLine
 10
27.417679
 20
76.205711
 30
0.0
 11
27.419647
 21
76.206505
 31
0.0
210
0.0
220
0.0
230
1.0
  0
LINE
  5
31A
100
AcDbEntity
  8
0
370
    35
390
0
 62
     7
 48
0.000063
100
AcDbLine
 10
27.419647
 20
76.206505
 30
0.0
 11
27.421524
 21
76.208214
 31
0.0
210
0.0
220
0.0
230
1.0
  0
LINE
  5
31B
100
AcDbEntity
  8
0
370
    35
390
0
 62
     7
 48
0.00006
100
AcDbLine
 10
27.421524
 20
76.208214
 30
0.0
 11
27.422211
 21
76.210503
 31
0.0
210
0.0
220
0.0
230
1.0
  0
LINE
  5
31C
100
AcDbEntity
  8
0
370
    35
390
0
 62
     7
 48
0.000047
100
AcDbLine
 10
27.422211
 20
76.210503
 30
0.0
 11
27.421997
 21
76.212364
 31
0.0
210
0.0
220
0.0
230
1.0
  0
LINE
  5
31D
100
AcDbEntity
  8
0
370
    35
390
0
 62
     7
 48
0.000123
100
AcDbLine
 10
27.421997
 20
76.212364
 30
0.0
 11
27.419968
 21
76.216866
 31
0.0
210
0.0
220
0.0
230
1.0
  0
LINE
  5
31E
100
AcDbEntity
  8
0
370
    35
390
0
 62
     7
 48
0.0005
100
AcDbLine
 10
27.419968
 20
76.216866
 30
0.0
 11
27.40625
 21
76.231407
 31
0.0
210
0.0
220
0.0
230
1.0
  0
LINE
  5
31F
100
AcDbEntity
  8
0
370
    35
390
0
 62
     7
 48
0.000765
100
AcDbLine
 10
27.40625
 20
76.231407
 30
0.0
 11
27.381531
 21
76.249413
 31
0.0
210
0.0
220
0.0
230
1.0
  0
LINE
  5
320
100
AcDbEntity
  8
0
370
    35
390
0
 62
     7
 48
0.004361
100
AcDbLine
 10
27.215103
 20
76.263329
 30
0.0
 11
27.381531
 21
76.211113
 31
0.0
210
0.0
220
0.0
230
1.0
  0
LINE
  5
321
100
AcDbEntity
  8
0
370
    35
390
0
 62
     7
 48
0.004948
100
AcDbLine
 10
27.215103
 20
76.263329
 30
0.0
 11
27.381531
 21
76.156242
 31
0.0
210
0.0
220
0.0
230
1.0
  0
LINE
  5
322
100
AcDbEntity
  8
0
370
    35
390
0
 62
     7
 48
0.084402
100
AcDbLine
 10
30.757599
 20
76.156242
 30
0.0
 11
27.381531
 21
76.156242
 31
0.0
210
0.0
220
0.0
230
1.0
  0
ARC
  5
323
100
AcDbEntity
  8
0
370
    35
390
0
 62
     7
100
AcDbCircle
 10
27.427673
 20
76.234917
 30
0.0
 40
0.119545
210
0.0
220
0.0
230
1.0
100
AcDbArc
 50
247.3203
 51
264.031614
  0
LINE
  5
324
100
AcDbEntity
  8
0
370
    35
390
0
 62
     7
 48
0.000105
100
AcDbLine
 10
27.415253
 20
76.116158
 30
0.0
 11
27.419434
 21
76.116692
 31
0.0
210
0.0
220
0.0
230
1.0
  0
LINE
  5
325
100
AcDbEntity
  8
0
370
    35
390
0
 62
     7
 48
0.000038
100
AcDbLine
 10
27.419434
 20
76.116692
 30
0.0
 11
27.420792
 21
76.117332
 31
0.0
210
0.0
220
0.0
230
1.0
  0
LINE
  5
326
100
AcDbEntity
  8
0
370
    35
390
0
 62
     7
 48
0.000045
100
AcDbLine
 10
27.420792
 20
76.117332
 30
0.0
 11
27.421982
 21
76.118706
 31
0.0
210
0.0
220
0.0
230
1.0
  0
LINE
  5
327
100
AcDbEntity
  8
0
370
    35
390
0
 62
     7
 48
0.000048
100
AcDbLine
 10
27.421982
 20
76.118706
 30
0.0
 11
27.422165
 21
76.120613
 31
0.0
210
0.0
220
0.0
230
1.0
  0
LINE
  5
328
100
AcDbEntity
  8
0
370
    35
390
0
 62
     7
 48
0.00004
100
AcDbLine
 10
27.422165
 20
76.120613
 30
0.0
 11
27.421738
 21
76.122154
 31
0.0
210
0.0
220
0.0
230
1.0
  0
LINE
  5
329
100
AcDbEntity
  8
0
370
    35
390
0
 62
     7
 48
0.00011
100
AcDbLine
 10
27.421738
 20
76.122154
 30
0.0
 11
27.419525
 21
76.125938
 31
0.0
210
0.0
220
0.0
230
1.0
  0
LINE
  5
32A
100
AcDbEntity
  8
0
370
    35
390
0
 62
     7
 48
0.000441
100
AcDbLine
 10
27.419525
 20
76.125938
 30
0.0
 11
27.406891
 21
76.138268
 31
0.0
210
0.0
220
0.0
230
1.0
  0
LINE
  5
32B
100
AcDbEntity
  8
0
370
    35
390
0
 62
     7
 48
0.000777
100
AcDbLine
 10
27.406891
 20
76.138268
 30
0.0
 11
27.381531
 21
76.156242
 31
0.0
210
0.0
220
0.0
230
1.0
  0
LINE
  5
32C
100
AcDbEntity
  8
0
370
    35
390
0
 62
     7
 48
0.004426
100
AcDbLine
 10
27.215103
 20
76.184883
 30
0.0
 11
27.381531
 21
76.124489
 31
0.0
210
0.0
220
0.0
230
1.0
  0
LINE
  5
32D
100
AcDbEntity
  8
0
370
    35
390
0
 62
     7
 48
0.004917
100
AcDbLine
 10
27.215103
 20
76.184883
 30
0.0
 11
27.381531
 21
76.080086
 31
0.0
210
0.0
220
0.0
230
1.0
  0
LINE
  5
32E
100
AcDbEntity
  8
0
370
    35
390
0
 62
     7
 48
0.084402
100
AcDbLine
 10
30.757599
 20
76.080086
 30
0.0
 11
27.381531
 21
76.080086
 31
0.0
210
0.0
220
0.0
230
1.0
  0
ARC
  5
32F
100
AcDbEntity
  8
0
370
    35
390
0
 62
     7
100
AcDbCircle
 10
27.438324
 20
76.173546
 30
0.0
 40
0.131097
210
0.0
220
0.0
230
1.0
100
AcDbArc
 50
244.372069
 51
261.066493
  0
LINE
  5
330
100
AcDbEntity
  8
0
370
    35
390
0
 62
     7
 48
0.000077
100
AcDbLine
 10
27.417999
 20
76.044243
 30
0.0
 11
27.421051
 21
76.044762
 31
0.0
210
0.0
220
0.0
230
1.0
  0
LINE
  5
331
100
AcDbEntity
  8
0
370
    35
390
0
 62
     7
 48
0.000026
100
AcDbLine
 10
27.421051
 20
76.044762
 30
0.0
 11
27.42186
 21
76.045403
 31
0.0
210
0.0
220
0.0
230
1.0
  0
LINE
  5
332
100
AcDbEntity
  8
0
370
    35
390
0
 62
     7
 48
0.000024
100
AcDbLine
 10
27.42186
 20
76.045403
 30
0.0
 11
27.422211
 21
76.046288
 31
0.0
210
0.0
220
0.0
230
1.0
  0
LINE
  5
333
100
AcDbEntity
  8
0
370
    35
390
0
 62
     7
 48
0.000018
100
AcDbLine
 10
27.422211
 20
76.046288
 30
0.0
 11
27.42218
 21
76.047005
 31
0.0
210
0.0
220
0.0
230
1.0
  0
LINE
  5
334
100
AcDbEntity
  8
0
370
    35
390
0
 62
     7
 48
0.000047
100
AcDbLine
 10
27.42218
 20
76.047005
 30
0.0
 11
27.421524
 21
76.048775
 31
0.0
210
0.0
220
0.0
230
1.0
  0
LINE
  5
335
100
AcDbEntity
  8
0
370
    35
390
0
 62
     7
 48
0.000108
100
AcDbLine
 10
27.421524
 20
76.048775
 30
0.0
 11
27.418945
 21
76.052254
 31
0.0
210
0.0
220
0.0
230
1.0
  0
LINE
  5
336
100
AcDbEntity
  8
0
370
    35
390
0
 62
     7
 48
0.000389
100
AcDbLine
 10
27.418945
 20
76.052254
 30
0.0
 11
27.407257
 21
76.062553
 31
0.0
210
0.0
220
0.0
230
1.0
  0
LINE
  5
337
100
AcDbEntity
  8
0
370
    35
390
0
 62
     7
 48
0.000778
100
AcDbLine
 10
27.407257
 20
76.062553
 30
0.0
 11
27.381531
 21
76.080086
 31
0.0
210
0.0
220
0.0
230
1.0
  0
LINE
  5
338
100
AcDbEntity
  8
0
370
    35
390
0
 62
     7
 48
0.004495
100
AcDbLine
 10
27.215103
 20
76.123222
 30
0.0
 11
27.381531
 21
76.055138
 31
0.0
210
0.0
220
0.0
230
1.0
  0
LINE
  5
339
100
AcDbEntity
  8
0
370
    35
390
0
 62
     7
 48
0.004876
100
AcDbLine
 10
27.215103
 20
76.123222
 30
0.0
 11
27.381531
 21
76.021523
 31
0.0
210
0.0
220
0.0
230
1.0
  0
LINE
  5
33A
100
AcDbEntity
  8
0
370
    35
390
0
 62
     7
 48
0.084402
100
AcDbLine
 10
30.757599
 20
76.021523
 30
0.0
 11
27.381531
 21
76.021523
 31
0.0
210
0.0
220
0.0
230
1.0
  0
ARC
  5
33B
100
AcDbEntity
  8
0
370
    35
390
0
 62
     7
100
AcDbCircle
 10
27.453537
 20
76.138542
 30
0.0
 40
0.152661
210
0.0
220
0.0
230
1.0
100
AcDbArc
 50
241.913501
 51
257.369858
  0
LINE
  5
33C
100
AcDbEntity
  8
0
370
    35
390
0
 62
     7
 48
0.000031
100
AcDbLine
 10
27.420212
 20
75.989815
 30
0.0
 11
27.421432
 21
75.989998
 31
0.0
210
0.0
220
0.0
230
1.0
  0
LINE
  5
33D
100
AcDbEntity
  8
0
370
    35
390
0
 62
     7
 48
0.000011
100
AcDbLine
 10
27.421432
 20
75.989998
 30
0.0
 11
27.421829
 21
75.990196
 31
0.0
210
0.0
220
0.0
230
1.0
  0
LINE
  5
33E
100
AcDbEntity
  8
0
370
    35
390
0
 62
     7
 48
0.000014
100
AcDbLine
 10
27.421829
 20
75.990196
 30
0.0
 11
27.422165
 21
75.990639
 31
0.0
210
0.0
220
0.0
230
1.0
  0
LINE
  5
33F
100
AcDbEntity
  8
0
370
    35
390
0
 62
     7
 48
0.000007
100
AcDbLine
 10
27.422165
 20
75.990639
 30
0.0
 11
27.422226
 21
75.990913
 31
0.0
210
0.0
220
0.0
230
1.0
  0
LINE
  5
340
100
AcDbEntity
  8
0
370
    35
390
0
 62
     7
 48
0.000018
100
AcDbLine
 10
27.422226
 20
75.990913
 30
0.0
 11
27.422119
 21
75.991615
 31
0.0
210
0.0
220
0.0
230
1.0
  0
LINE
  5
341
100
AcDbEntity
  8
0
370
    35
390
0
 62
     7
 48
0.000024
100
AcDbLine
 10
27.422119
 20
75.991615
 30
0.0
 11
27.421692
 21
75.992455
 31
0.0
210
0.0
220
0.0
230
1.0
  0
LINE
  5
342
100
AcDbEntity
  8
0
370
    35
390
0
 62
     7
 48
0.000072
100
AcDbLine
 10
27.421692
 20
75.992455
 30
0.0
 11
27.419876
 21
75.994682
 31
0.0
210
0.0
220
0.0
230
1.0
  0
LINE
  5
343
100
AcDbEntity
  8
0
370
    35
390
0
 62
     7
 48
0.000449
100
AcDbLine
 10
27.419876
 20
75.994682
 30
0.0
 11
27.405823
 21
76.005882
 31
0.0
210
0.0
220
0.0
230
1.0
  0
LINE
  5
344
100
AcDbEntity
  8
0
370
    35
390
0
 62
     7
 48
0.000722
100
AcDbLine
 10
27.405823
 20
76.005882
 30
0.0
 11
27.381531
 21
76.021523
 31
0.0
210
0.0
220
0.0
230
1.0
  0
LINE
  5
345
100
AcDbEntity
  8
0
370
    35
390
0
 62
     7
 48
0.004566
100
AcDbLine
 10
27.215103
 20
76.07885
 30
0.0
 11
27.381531
 21
76.003578
 31
0.0
210
0.0
220
0.0
230
1.0
  0
LINE
  5
346
100
AcDbEntity
  8
0
370
    35
390
0
 62
     7
 48
0.004826
100
AcDbLine
 10
27.215103
 20
76.07885
 30
0.0
 11
27.381531
 21
75.981026
 31
0.0
210
0.0
220
0.0
230
1.0
  0
LINE
  5
347
100
AcDbEntity
  8
0
370
    35
390
0
 62
     7
 48
0.084402
100
AcDbLine
 10
30.757599
 20
75.981026
 30
0.0
 11
27.381531
 21
75.981026
 31
0.0
210
0.0
220
0.0
230
1.0
  0
LINE
  5
348
100
AcDbEntity
  8
0
370
    35
390
0
 62
     7
 48
0.001084
100
AcDbLine
 10
27.381531
 20
75.970207
 30
0.0
 11
27.421463
 21
75.9533
 31
0.0
210
0.0
220
0.0
230
1.0
  0
LINE
  5
349
100
AcDbEntity
  8
0
370
    35
390
0
 62
     7
 48
0.000015
100
AcDbLine
 10
27.421463
 20
75.9533
 30
0.0
 11
27.422043
 21
75.953407
 31
0.0
210
0.0
220
0.0
230
1.0
  0
LINE
  5
34A
100
AcDbEntity
  8
0
370
    35
390
0
 62
     7
 48
0.000004
100
AcDbLine
 10
27.422043
 20
75.953407
 30
0.0
 11
27.42218
 21
75.953514
 31
0.0
210
0.0
220
0.0
230
1.0
  0
LINE
  5
34B
100
AcDbEntity
  8
0
370
    35
390
0
 62
     7
 48
0.000003
100
AcDbLine
 10
27.42218
 20
75.953514
 30
0.0
 11
27.422241
 21
75.953621
 31
0.0
210
0.0
220
0.0
230
1.0
  0
LINE
  5
34C
100
AcDbEntity
  8
0
370
    35
390
0
 62
     7
 48
0.000006
100
AcDbLine
 10
27.422241
 20
75.953621
 30
0.0
 11
27.422241
 21
75.95388
 31
0.0
210
0.0
220
0.0
230
1.0
  0
LINE
  5
34D
100
AcDbEntity
  8
0
370
    35
390
0
 62
     7
 48
0.00001
100
AcDbLine
 10
27.422241
 20
75.95388
 30
0.0
 11
27.422089
 21
75.954231
 31
0.0
210
0.0
220
0.0
230
1.0
  0
LINE
  5
34E
100
AcDbEntity
  8
0
370
    35
390
0
 62
     7
 48
0.00003
100
AcDbLine
 10
27.422089
 20
75.954231
 30
0.0
 11
27.421341
 21
75.955147
 31
0.0
210
0.0
220
0.0
230
1.0
  0
LINE
  5
34F
100
AcDbEntity
  8
0
370
    35
390
0
 62
     7
 48
0.000124
100
AcDbLine
 10
27.421341
 20
75.955147
 30
0.0
 11
27.417526
 21
75.958336
 31
0.0
210
0.0
220
0.0
230
1.0
  0
LINE
  5
350
100
AcDbEntity
  8
0
370
    35
390
0
 62
     7
 48
0.001064
100
AcDbLine
 10
27.417526
 20
75.958336
 30
0.0
 11
27.381531
 21
75.981026
 31
0.0
210
0.0
220
0.0
230
1.0
  0
LINE
  5
351
100
AcDbEntity
  8
0
370
    35
390
0
 62
     7
 48
0.004637
100
AcDbLine
 10
27.215103
 20
76.052101
 30
0.0
 11
27.381531
 21
75.970207
 31
0.0
210
0.0
220
0.0
230
1.0
  0
LINE
  5
352
100
AcDbEntity
  8
0
370
    35
390
0
 62
     7
 48
0.004769
100
AcDbLine
 10
27.215103
 20
76.052101
 30
0.0
 11
27.381531
 21
75.958885
 31
0.0
210
0.0
220
0.0
230
1.0
  0
LINE
  5
353
100
AcDbEntity
  8
0
370
    35
390
0
 62
     7
 48
0.000323
100
AcDbLine
 10
30.757599
 20
75.958885
 30
0.0
 11
30.744675
 21
75.958885
 31
0.0
210
0.0
220
0.0
230
1.0
  0
LINE
  5
354
100
AcDbEntity
  8
0
370
    35
390
0
 62
     7
 48
0.000605
100
AcDbLine
 10
27.405746
 20
75.958885
 30
0.0
 11
27.381531
 21
75.958885
 31
0.0
210
0.0
220
0.0
230
1.0
  0
LINE
  5
355
100
AcDbEntity
  8
0
370
    35
390
0
 62
     7
 48
0.001136
100
AcDbLine
 10
27.381531
 20
75.955269
 30
0.0
 11
27.422165
 21
75.934975
 31
0.0
210
0.0
220
0.0
230
1.0
  0
LINE
  5
356
100
AcDbEntity
  8
0
370
    35
390
0
 62
     7
 48
0.00118
100
AcDbLine
 10
27.422241
 20
75.93502
 30
0.0
 11
27.381531
 21
75.958885
 31
0.0
210
0.0
220
0.0
230
1.0
  0
LINE
  5
357
100
AcDbEntity
  8
0
370
    35
390
0
 62
     7
 48
0.004705
100
AcDbLine
 10
27.215103
 20
76.043159
 30
0.0
 11
27.381531
 21
75.955269
 31
0.0
210
0.0
220
0.0
230
1.0
  0
LINE
  5
358
100
AcDbEntity
  8
0
370
    35
390
0
 62
     7
 48
0.000052
100
AcDbLine
 10
27.422165
 20
75.934975
 30
0.0
 11
27.420197
 21
75.935677
 31
0.0
210
0.0
220
0.0
230
1.0
  0
LINE
  5
359
100
AcDbEntity
  8
0
370
    35
390
0
 62
     7
 48
0.062876
100
AcDbLine
 10
25.996353
 20
79.208183
 30
0.0
 11
25.996353
 21
76.693153
 31
0.0
210
0.0
220
0.0
230
1.0
  0
LINE
  5
35A
100
AcDbEntity
  8
0
370
    35
390
0
 62
     7
 48
0.022124
100
AcDbLine
 10
25.996353
 20
80.093147
 30
0.0
 11
25.996353
 21
79.208183
 31
0.0
210
0.0
220
0.0
230
1.0
  0
LINE
  5
35B
100
AcDbEntity
  8
0
370
    35
390
0
 62
     7
 48
0.043598
100
AcDbLine
 10
67.296356
 20
75.043159
 30
0.0
 11
67.296356
 21
76.787071
 31
0.0
210
0.0
220
0.0
230
1.0
  0
LINE
  5
35C
100
AcDbEntity
  8
0
370
    35
390
0
 62
     7
 48
0.123902
100
AcDbLine
 10
67.296356
 20
76.787071
 30
0.0
 11
67.296356
 21
81.743156
 31
0.0
210
0.0
220
0.0
230
1.0
  0
LINE
  5
35D
100
AcDbEntity
  8
0
370
    35
390
0
 62
     7
 48
0.147942
100
AcDbLine
 10
67.796356
 20
76.475456
 30
0.0
 11
67.796356
 21
82.39315
 31
0.0
210
0.0
220
0.0
230
1.0
  0
LINE
  5
35E
100
AcDbEntity
  8
0
370
    35
390
0
 62
     7
 48
0.052058
100
AcDbLine
 10
67.796356
 20
74.39315
 30
0.0
 11
67.796356
 21
76.475456
 31
0.0
210
0.0
220
0.0
230
1.0
  0
LINE
  5
35F
100
AcDbEntity
  8
0
370
    35
390
0
 62
     7
 48
0.147942
100
AcDbLine
 10
109.796356
 20
76.475456
 30
0.0
 11
109.796356
 21
82.39315
 31
0.0
210
0.0
220
0.0
230
1.0
  0
LINE
  5
360
100
AcDbEntity
  8
0
370
    35
390
0
 62
     7
 48
0.052058
100
AcDbLine
 10
109.796356
 20
74.39315
 30
0.0
 11
109.796356
 21
76.475456
 31
0.0
210
0.0
220
0.0
230
1.0
  0
LINE
  5
361
100
AcDbEntity
  8
0
370
    35
390
0
 62
     7
 48
0.068219
100
AcDbLine
 10
110.296356
 20
73.151314
 30
0.0
 11
110.296356
 21
75.880089
 31
0.0
210
0.0
220
0.0
230
1.0
  0
LINE
  5
362
100
AcDbEntity
  8
0
370
    35
390
0
 62
     7
 48
0.193872
100
AcDbLine
 10
110.296356
 20
75.880089
 30
0.0
 11
110.296356
 21
83.634987
 31
0.0
210
0.0
220
0.0
230
1.0
  0
LINE
  5
363
100
AcDbEntity
  8
0
370
    35
390
0
 62
     7
 48
0.201118
100
AcDbLine
 10
110.456009
 20
75.786171
 30
0.0
 11
110.456009
 21
83.830879
 31
0.0
210
0.0
220
0.0
230
1.0
  0
LINE
  5
364
100
AcDbEntity
  8
0
370
    35
390
0
 62
     7
 48
0.070768
100
AcDbLine
 10
110.456009
 20
72.955437
 30
0.0
 11
110.456009
 21
75.786171
 31
0.0
210
0.0
220
0.0
230
1.0
  0
LINE
  5
365
100
AcDbEntity
  8
0
370
    35
390
0
 62
     7
 48
0.221838
100
AcDbLine
 10
113.176178
 20
75.517586
 30
0.0
 11
113.176193
 21
84.391106
 31
0.0
210
0.0
220
0.0
230
1.0
  0
LINE
  5
366
100
AcDbEntity
  8
0
370
    35
390
0
 62
     7
 48
0.078059
100
AcDbLine
 10
113.176178
 20
72.39521
 30
0.0
 11
113.176178
 21
75.517586
 31
0.0
210
0.0
220
0.0
230
1.0
  0
LINE
  5
367
100
AcDbEntity
  8
0
370
    35
390
0
 62
     7
 48
0.200158
100
AcDbLine
 10
113.296356
 20
75.564552
 30
0.0
 11
113.296356
 21
83.570885
 31
0.0
210
0.0
220
0.0
230
1.0
  0
LINE
  5
368
100
AcDbEntity
  8
0
370
    35
390
0
 62
     7
 48
0.018057
100
AcDbLine
 10
113.296356
 20
83.570885
 30
0.0
 11
113.296356
 21
84.293159
 31
0.0
210
0.0
220
0.0
230
1.0
  0
LINE
  5
369
100
AcDbEntity
  8
0
370
    35
390
0
 62
     7
 48
0.076785
100
AcDbLine
 10
113.296356
 20
72.493156
 30
0.0
 11
113.296356
 21
75.564552
 31
0.0
210
0.0
220
0.0
230
1.0
  0
LINE
  5
36A
100
AcDbEntity
  8
0
370
    35
390
0
 62
     7
 48
0.281638
100
AcDbLine
 10
113.396347
 20
72.39315
 30
0.0
 11
113.396362
 21
83.658653
 31
0.0
210
0.0
220
0.0
230
1.0
  0
LINE
  5
36B
100
AcDbEntity
  8
0
370
    35
390
0
 62
     7
 48
0.018362
100
AcDbLine
 10
113.396362
 20
83.658653
 30
0.0
 11
113.396362
 21
84.39315
 31
0.0
210
0.0
220
0.0
230
1.0
  0
LINE
  5
36C
100
AcDbEntity
  8
0
370
    35
390
0
 62
     7
 48
0.281638
100
AcDbLine
 10
139.796371
 20
72.39315
 30
0.0
 11
139.796371
 21
83.658653
 31
0.0
210
0.0
220
0.0
230
1.0
  0
LINE
  5
36D
100
AcDbEntity
  8
0
370
    35
390
0
 62
     7
 48
0.018362
100
AcDbLine
 10
139.796371
 20
83.658653
 30
0.0
 11
139.796371
 21
84.39315
 31
0.0
210
0.0
220
0.0
230
1.0
  0
LINE
  5
36E
100
AcDbEntity
  8
0
370
    35
390
0
 62
     7
 48
0.281638
100
AcDbLine
 10
140.796371
 20
72.39315
 30
0.0
 11
140.796371
 21
83.658653
 31
0.0
210
0.0
220
0.0
230
1.0
  0
LINE
  5
36F
100
AcDbEntity
  8
0
370
    35
390
0
 62
     7
 48
0.018362
100
AcDbLine
 10
140.796371
 20
83.658653
 30
0.0
 11
140.796371
 21
84.39315
 31
0.0
210
0.0
220
0.0
230
1.0
  0
LINE
  5
370
100
AcDbEntity
  8
0
370
    35
390
0
 62
     7
 48
0.281638
100
AcDbLine
 10
142.296371
 20
72.39315
 30
0.0
 11
142.296371
 21
83.658653
 31
0.0
210
0.0
220
0.0
230
1.0
  0
LINE
  5
371
100
AcDbEntity
  8
0
370
    35
390
0
 62
     7
 48
0.018362
100
AcDbLine
 10
142.296371
 20
83.658653
 30
0.0
 11
142.296371
 21
84.39315
 31
0.0
210
0.0
220
0.0
230
1.0
  0
LINE
  5
372
100
AcDbEntity
  8
0
370
    35
390
0
 62
     7
 48
0.281638
100
AcDbLine
 10
142.796371
 20
72.39315
 30
0.0
 11
142.796371
 21
83.658653
 31
0.0
210
0.0
220
0.0
230
1.0
  0
LINE
  5
373
100
AcDbEntity
  8
0
370
    35
390
0
 62
     7
 48
0.018362
100
AcDbLine
 10
142.796371
 20
83.658653
 30
0.0
 11
142.796371
 21
84.39315
 31
0.0
210
0.0
220
0.0
230
1.0
  0
LINE
  5
374
100
AcDbEntity
  8
0
370
    35
390
0
 62
     7
 48
0.281638
100
AcDbLine
 10
217.896347
 20
72.39315
 30
0.0
 11
217.896378
 21
83.658653
 31
0.0
210
0.0
220
0.0
230
1.0
  0
LINE
  5
375
100
AcDbEntity
  8
0
370
    35
390
0
 62
     7
 48
0.018362
100
AcDbLine
 10
217.896378
 20
83.658653
 30
0.0
 11
217.896378
 21
84.39315
 31
0.0
210
0.0
220
0.0
230
1.0
  0
LINE
  5
376
100
AcDbEntity
  8
0
370
    35
390
0
 62
     7
 48
0.106771
100
AcDbLine
 10
217.996353
 20
76.257744
 30
0.0
 11
217.996353
 21
80.528572
 31
0.0
210
0.0
220
0.0
230
1.0
  0
LINE
  5
377
100
AcDbEntity
  8
0
370
    35
390
0
 62
     7
 48
0.090052
100
AcDbLine
 10
217.996353
 20
75.995232
 30
0.0
 11
217.996353
 21
72.39315
 31
0.0
210
0.0
220
0.0
230
1.0
  0
LINE
  5
378
100
AcDbEntity
  8
0
370
    35
390
0
 62
     7
 48
0.006563
100
AcDbLine
 10
217.996353
 20
75.995232
 30
0.0
 11
217.996353
 21
76.257744
 31
0.0
210
0.0
220
0.0
230
1.0
  0
LINE
  5
379
100
AcDbEntity
  8
0
370
    35
390
0
 62
     7
 48
0.006563
100
AcDbLine
 10
217.996353
 20
80.528572
 30
0.0
 11
217.996353
 21
80.791084
 31
0.0
210
0.0
220
0.0
230
1.0
  0
LINE
  5
37A
100
AcDbEntity
  8
0
370
    35
390
0
 62
     7
 48
0.011966
100
AcDbLine
 10
217.996353
 20
81.269707
 30
0.0
 11
217.996353
 21
80.791084
 31
0.0
210
0.0
220
0.0
230
1.0
  0
LINE
  5
37B
100
AcDbEntity
  8
0
370
    35
390
0
 62
     7
 48
0.078086
100
AcDbLine
 10
217.996353
 20
84.39315
 30
0.0
 11
217.996353
 21
81.269707
 31
0.0
210
0.0
220
0.0
230
1.0
  0
LINE
  5
37C
100
AcDbEntity
  8
0
370
    35
390
0
 62
     7
 48
0.0375
100
AcDbLine
 10
219.496353
 20
75.995232
 30
0.0
 11
217.996353
 21
75.995232
 31
0.0
210
0.0
220
0.0
230
1.0
  0
LINE
  5
37D
100
AcDbEntity
  8
0
370
    35
390
0
 62
     7
 48
0.090052
100
AcDbLine
 10
219.496353
 20
75.995232
 30
0.0
 11
219.496353
 21
72.39315
 31
0.0
210
0.0
220
0.0
230
1.0
  0
LINE
  5
37E
100
AcDbEntity
  8
0
370
    35
390
0
 62
     7
 48
0.001002
100
AcDbLine
 10
219.496353
 20
80.791084
 30
0.0
 11
219.53624
 21
80.787071
 31
0.0
210
0.0
220
0.0
230
1.0
  0
LINE
  5
37F
100
AcDbEntity
  8
0
370
    35
390
0
 62
     7
 48
0.001005
100
AcDbLine
 10
219.53624
 20
80.787071
 30
0.0
 11
219.574753
 21
80.775566
 31
0.0
210
0.0
220
0.0
230
1.0
  0
LINE
  5
380
100
AcDbEntity
  8
0
370
    35
390
0
 62
     7
 48
0.000545
100
AcDbLine
 10
219.574753
 20
80.775566
 30
0.0
 11
219.59462
 21
80.766563
 31
0.0
210
0.0
220
0.0
230
1.0
  0
LINE
  5
381
100
AcDbEntity
  8
0
370
    35
390
0
 62
     7
 48
0.000549
100
AcDbLine
 10
219.59462
 20
80.766563
 30
0.0
 11
219.613785
 21
80.755852
 31
0.0
210
0.0
220
0.0
230
1.0
  0
LINE
  5
382
100
AcDbEntity
  8
0
370
    35
390
0
 62
     7
 48
0.001099
100
AcDbLine
 10
219.613785
 20
80.755852
 30
0.0
 11
219.649551
 21
80.730263
 31
0.0
210
0.0
220
0.0
230
1.0
  0
LINE
  5
383
100
AcDbEntity
  8
0
370
    35
390
0
 62
     7
 48
0.001247
100
AcDbLine
 10
219.649551
 20
80.730263
 30
0.0
 11
219.685898
 21
80.696098
 31
0.0
210
0.0
220
0.0
230
1.0
  0
LINE
  5
384
100
AcDbEntity
  8
0
370
    35
390
0
 62
     7
 48
0.001252
100
AcDbLine
 10
219.685898
 20
80.696098
 30
0.0
 11
219.718307
 21
80.657921
 31
0.0
210
0.0
220
0.0
230
1.0
  0
LINE
  5
385
100
AcDbEntity
  8
0
370
    35
390
0
 62
     7
 48
0.001069
100
AcDbLine
 10
219.718307
 20
80.657921
 30
0.0
 11
219.743118
 21
80.623116
 31
0.0
210
0.0
220
0.0
230
1.0
  0
LINE
  5
386
100
AcDbEntity
  8
0
370
    35
390
0
 62
     7
 48
0.00107
100
AcDbLine
 10
219.743118
 20
80.623116
 30
0.0
 11
219.76564
 21
80.586723
 31
0.0
210
0.0
220
0.0
230
1.0
  0
LINE
  5
387
100
AcDbEntity
  8
0
370
    35
390
0
 62
     7
 48
0.001071
100
AcDbLine
 10
219.76564
 20
80.586723
 30
0.0
 11
219.786148
 21
80.54911
 31
0.0
210
0.0
220
0.0
230
1.0
  0
LINE
  5
388
100
AcDbEntity
  8
0
370
    35
390
0
 62
     7
 48
0.001072
100
AcDbLine
 10
219.786148
 20
80.54911
 30
0.0
 11
219.804855
 21
80.510536
 31
0.0
210
0.0
220
0.0
230
1.0
  0
LINE
  5
389
100
AcDbEntity
  8
0
370
    35
390
0
 62
     7
 48
0.002144
100
AcDbLine
 10
219.804855
 20
80.510536
 30
0.0
 11
219.83757
 21
80.431282
 31
0.0
210
0.0
220
0.0
230
1.0
  0
LINE
  5
38A
100
AcDbEntity
  8
0
370
    35
390
0
 62
     7
 48
0.001323
100
AcDbLine
 10
219.83757
 20
80.431282
 30
0.0
 11
219.855057
 21
80.381355
 31
0.0
210
0.0
220
0.0
230
1.0
  0
LINE
  5
38B
100
AcDbEntity
  8
0
370
    35
390
0
 62
     7
 48
0.001322
100
AcDbLine
 10
219.855057
 20
80.381355
 30
0.0
 11
219.870804
 21
80.330894
 31
0.0
210
0.0
220
0.0
230
1.0
  0
LINE
  5
38C
100
AcDbEntity
  8
0
370
    35
390
0
 62
     7
 48
0.001694
100
AcDbLine
 10
219.870804
 20
80.330894
 30
0.0
 11
219.888687
 21
80.265541
 31
0.0
210
0.0
220
0.0
230
1.0
  0
LINE
  5
38D
100
AcDbEntity
  8
0
370
    35
390
0
 62
     7
 48
0.001692
100
AcDbLine
 10
219.888687
 20
80.265541
 30
0.0
 11
219.904312
 21
80.199669
 31
0.0
210
0.0
220
0.0
230
1.0
  0
LINE
  5
38E
100
AcDbEntity
  8
0
370
    35
390
0
 62
     7
 48
0.003009
100
AcDbLine
 10
219.904312
 20
80.199669
 30
0.0
 11
219.927444
 21
80.081566
 31
0.0
210
0.0
220
0.0
230
1.0
  0
LINE
  5
38F
100
AcDbEntity
  8
0
370
    35
390
0
 62
     7
 48
0.002173
100
AcDbLine
 10
219.927444
 20
80.081566
 30
0.0
 11
219.940994
 21
79.995689
 31
0.0
210
0.0
220
0.0
230
1.0
  0
LINE
  5
390
100
AcDbEntity
  8
0
370
    35
390
0
 62
     7
 48
0.00217
100
AcDbLine
 10
219.940994
 20
79.995689
 30
0.0
 11
219.952286
 21
79.90963
 31
0.0
210
0.0
220
0.0
230
1.0
  0
LINE
  5
391
100
AcDbEntity
  8
0
370
    35
390
0
 62
     7
 48
0.004327
100
AcDbLine
 10
219.952286
 20
79.90963
 30
0.0
 11
219.969437
 21
79.737389
 31
0.0
210
0.0
220
0.0
230
1.0
  0
LINE
  5
392
100
AcDbEntity
  8
0
370
    35
390
0
 62
     7
 48
0.004317
100
AcDbLine
 10
219.969437
 20
79.737389
 30
0.0
 11
219.980881
 21
79.565086
 31
0.0
210
0.0
220
0.0
230
1.0
  0
LINE
  5
393
100
AcDbEntity
  8
0
370
    35
390
0
 62
     7
 48
0.003537
100
AcDbLine
 10
219.980881
 20
79.565086
 30
0.0
 11
219.987106
 21
79.423759
 31
0.0
210
0.0
220
0.0
230
1.0
  0
LINE
  5
394
100
AcDbEntity
  8
0
370
    35
390
0
 62
     7
 48
0.003529
100
AcDbLine
 10
219.987106
 20
79.423759
 30
0.0
 11
219.991226
 21
79.282677
 31
0.0
210
0.0
220
0.0
230
1.0
  0
LINE
  5
395
100
AcDbEntity
  8
0
370
    35
390
0
 62
     7
 48
0.004693
100
AcDbLine
 10
219.991226
 20
79.282677
 30
0.0
 11
219.99437
 21
79.094978
 31
0.0
210
0.0
220
0.0
230
1.0
  0
LINE
  5
396
100
AcDbEntity
  8
0
370
    35
390
0
 62
     7
 48
0.009363
100
AcDbLine
 10
219.99437
 20
79.094978
 30
0.0
 11
219.996262
 21
78.720482
 31
0.0
210
0.0
220
0.0
230
1.0
  0
LINE
  5
397
100
AcDbEntity
  8
0
370
    35
390
0
 62
     7
 48
0.008183
100
AcDbLine
 10
219.996262
 20
78.720482
 30
0.0
 11
219.996353
 21
78.39315
 31
0.0
210
0.0
220
0.0
230
1.0
  0
LINE
  5
398
100
AcDbEntity
  8
0
370
    35
390
0
 62
     7
 48
0.0375
100
AcDbLine
 10
219.496353
 20
80.791084
 30
0.0
 11
217.996353
 21
80.791084
 31
0.0
210
0.0
220
0.0
230
1.0
  0
LINE
  5
399
100
AcDbEntity
  8
0
370
    35
390
0
 62
     7
 48
0.001002
100
AcDbLine
 10
219.496353
 20
75.995232
 30
0.0
 11
219.53624
 21
75.999245
 31
0.0
210
0.0
220
0.0
230
1.0
  0
LINE
  5
39A
100
AcDbEntity
  8
0
370
    35
390
0
 62
     7
 48
0.001004
100
AcDbLine
 10
219.53624
 20
75.999245
 30
0.0
 11
219.574722
 21
76.01075
 31
0.0
210
0.0
220
0.0
230
1.0
  0
LINE
  5
39B
100
AcDbEntity
  8
0
370
    35
390
0
 62
     7
 48
0.000546
100
AcDbLine
 10
219.574722
 20
76.01075
 30
0.0
 11
219.59462
 21
76.019737
 31
0.0
210
0.0
220
0.0
230
1.0
  0
LINE
  5
39C
100
AcDbEntity
  8
0
370
    35
390
0
 62
     7
 48
0.000549
100
AcDbLine
 10
219.59462
 20
76.019737
 30
0.0
 11
219.613785
 21
76.030464
 31
0.0
210
0.0
220
0.0
230
1.0
  0
LINE
  5
39D
100
AcDbEntity
  8
0
370
    35
390
0
 62
     7
 48
0.001099
100
AcDbLine
 10
219.613785
 20
76.030464
 30
0.0
 11
219.649521
 21
76.056053
 31
0.0
210
0.0
220
0.0
230
1.0
  0
LINE
  5
39E
100
AcDbEntity
  8
0
370
    35
390
0
 62
     7
 48
0.001248
100
AcDbLine
 10
219.649521
 20
76.056053
 30
0.0
 11
219.685898
 21
76.090218
 31
0.0
210
0.0
220
0.0
230
1.0
  0
LINE
  5
39F
100
AcDbEntity
  8
0
370
    35
390
0
 62
     7
 48
0.001252
100
AcDbLine
 10
219.685898
 20
76.090218
 30
0.0
 11
219.718307
 21
76.12838
 31
0.0
210
0.0
220
0.0
230
1.0
  0
LINE
  5
3A0
100
AcDbEntity
  8
0
370
    35
390
0
 62
     7
 48
0.001068
100
AcDbLine
 10
219.718307
 20
76.12838
 30
0.0
 11
219.743088
 21
76.1632
 31
0.0
210
0.0
220
0.0
230
1.0
  0
LINE
  5
3A1
100
AcDbEntity
  8
0
370
    35
390
0
 62
     7
 48
0.00107
100
AcDbLine
 10
219.743088
 20
76.1632
 30
0.0
 11
219.76564
 21
76.199593
 31
0.0
210
0.0
220
0.0
230
1.0
  0
LINE
  5
3A2
100
AcDbEntity
  8
0
370
    35
390
0
 62
     7
 48
0.001071
100
AcDbLine
 10
219.76564
 20
76.199593
 30
0.0
 11
219.786148
 21
76.237206
 31
0.0
210
0.0
220
0.0
230
1.0
  0
LINE
  5
3A3
100
AcDbEntity
  8
0
370
    35
390
0
 62
     7
 48
0.001071
100
AcDbLine
 10
219.786148
 20
76.237206
 30
0.0
 11
219.804825
 21
76.27578
 31
0.0
210
0.0
220
0.0
230
1.0
  0
LINE
  5
3A4
100
AcDbEntity
  8
0
370
    35
390
0
 62
     7
 48
0.002144
100
AcDbLine
 10
219.804825
 20
76.27578
 30
0.0
 11
219.83754
 21
76.355034
 31
0.0
210
0.0
220
0.0
230
1.0
  0
LINE
  5
3A5
100
AcDbEntity
  8
0
370
    35
390
0
 62
     7
 48
0.001322
100
AcDbLine
 10
219.83754
 20
76.355034
 30
0.0
 11
219.855057
 21
76.404945
 31
0.0
210
0.0
220
0.0
230
1.0
  0
LINE
  5
3A6
100
AcDbEntity
  8
0
370
    35
390
0
 62
     7
 48
0.001322
100
AcDbLine
 10
219.855057
 20
76.404945
 30
0.0
 11
219.870773
 21
76.455421
 31
0.0
210
0.0
220
0.0
230
1.0
  0
LINE
  5
3A7
100
AcDbEntity
  8
0
370
    35
390
0
 62
     7
 48
0.001694
100
AcDbLine
 10
219.870773
 20
76.455421
 30
0.0
 11
219.888657
 21
76.520775
 31
0.0
210
0.0
220
0.0
230
1.0
  0
LINE
  5
3A8
100
AcDbEntity
  8
0
370
    35
390
0
 62
     7
 48
0.001692
100
AcDbLine
 10
219.888657
 20
76.520775
 30
0.0
 11
219.904312
 21
76.586632
 31
0.0
210
0.0
220
0.0
230
1.0
  0
LINE
  5
3A9
100
AcDbEntity
  8
0
370
    35
390
0
 62
     7
 48
0.003009
100
AcDbLine
 10
219.904312
 20
76.586632
 30
0.0
 11
219.927414
 21
76.70475
 31
0.0
210
0.0
220
0.0
230
1.0
  0
LINE
  5
3AA
100
AcDbEntity
  8
0
370
    35
390
0
 62
     7
 48
0.002173
100
AcDbLine
 10
219.927414
 20
76.70475
 30
0.0
 11
219.940964
 21
76.790627
 31
0.0
210
0.0
220
0.0
230
1.0
  0
LINE
  5
3AB
100
AcDbEntity
  8
0
370
    35
390
0
 62
     7
 48
0.00217
100
AcDbLine
 10
219.940964
 20
76.790627
 30
0.0
 11
219.952286
 21
76.876671
 31
0.0
210
0.0
220
0.0
230
1.0
  0
LINE
  5
3AC
100
AcDbEntity
  8
0
370
    35
390
0
 62
     7
 48
0.004328
100
AcDbLine
 10
219.952286
 20
76.876671
 30
0.0
 11
219.969406
 21
77.048927
 31
0.0
210
0.0
220
0.0
230
1.0
  0
LINE
  5
3AD
100
AcDbEntity
  8
0
370
    35
390
0
 62
     7
 48
0.004317
100
AcDbLine
 10
219.969406
 20
77.048927
 30
0.0
 11
219.98085
 21
77.221214
 31
0.0
210
0.0
220
0.0
230
1.0
  0
LINE
  5
3AE
100
AcDbEntity
  8
0
370
    35
390
0
 62
     7
 48
0.003535
100
AcDbLine
 10
219.98085
 20
77.221214
 30
0.0
 11
219.987106
 21
77.362495
 31
0.0
210
0.0
220
0.0
230
1.0
  0
LINE
  5
3AF
100
AcDbEntity
  8
0
370
    35
390
0
 62
     7
 48
0.003527
100
AcDbLine
 10
219.987106
 20
77.362495
 30
0.0
 11
219.991196
 21
77.503502
 31
0.0
210
0.0
220
0.0
230
1.0
  0
LINE
  5
3B0
100
AcDbEntity
  8
0
370
    35
390
0
 62
     7
 48
0.004691
100
AcDbLine
 10
219.991196
 20
77.503502
 30
0.0
 11
219.994339
 21
77.691109
 31
0.0
210
0.0
220
0.0
230
1.0
  0
LINE
  5
3B1
100
AcDbEntity
  8
0
370
    35
390
0
 62
     7
 48
0.009358
100
AcDbLine
 10
219.994339
 20
77.691109
 30
0.0
 11
219.996262
 21
78.065437
 31
0.0
210
0.0
220
0.0
230
1.0
  0
LINE
  5
3B2
100
AcDbEntity
  8
0
370
    35
390
0
 62
     7
 48
0.008193
100
AcDbLine
 10
219.996262
 20
78.065437
 30
0.0
 11
219.996353
 21
78.39315
 31
0.0
210
0.0
220
0.0
230
1.0
  0
LINE
  5
3B3
100
AcDbEntity
  8
0
370
    35
390
0
 62
     7
 48
0.011966
100
AcDbLine
 10
219.496353
 20
81.269707
 30
0.0
 11
219.496353
 21
80.791084
 31
0.0
210
0.0
220
0.0
230
1.0
  0
LINE
  5
3B4
100
AcDbEntity
  8
0
370
    35
390
0
 62
     7
 48
0.078086
100
AcDbLine
 10
219.496353
 20
84.39315
 30
0.0
 11
219.496353
 21
81.269707
 31
0.0
210
0.0
220
0.0
230
1.0
  0
LINE
  5
3B5
100
AcDbEntity
  8
0
370
    35
390
0
 62
     7
 48
0.071579
100
AcDbLine
 10
219.996353
 20
83.89315
 30
0.0
 11
219.996353
 21
81.030006
 31
0.0
210
0.0
220
0.0
230
1.0
  0
LINE
  5
3B6
100
AcDbEntity
  8
0
370
    35
390
0
 62
     7
 48
0.1375
100
AcDbLine
 10
219.996353
 20
78.39315
 30
0.0
 11
219.996353
 21
72.89315
 31
0.0
210
0.0
220
0.0
230
1.0
  0
LINE
  5
3B7
100
AcDbEntity
  8
0
370
    35
390
0
 62
     7
 48
0.065921
100
AcDbLine
 10
219.996353
 20
81.030006
 30
0.0
 11
219.996353
 21
78.39315
 31
0.0
210
0.0
220
0.0
230
1.0
  0
LINE
  5
3B8
100
AcDbEntity
  8
0
370
    35
390
0
 62
     7
 48
0.144244
100
AcDbLine
 10
220.196365
 20
80.262917
 30
0.0
 11
220.196335
 21
74.493156
 31
0.0
210
0.0
220
0.0
230
1.0
  0
LINE
  5
3B9
100
AcDbEntity
  8
0
370
    35
390
0
 62
     7
 48
0.050756
100
AcDbLine
 10
220.196365
 20
82.293159
 30
0.0
 11
220.196365
 21
80.262917
 31
0.0
210
0.0
220
0.0
230
1.0
  0
LINE
  5
3BA
100
AcDbEntity
  8
0
370
    35
390
0
 62
     7
 48
0.151641
100
AcDbLine
 10
220.496353
 20
76.427513
 30
0.0
 11
220.496353
 21
82.493156
 31
0.0
210
0.0
220
0.0
230
1.0
  0
LINE
  5
3BB
100
AcDbEntity
  8
0
370
    35
390
0
 62
     7
 48
0.151641
100
AcDbLine
 10
226.48262
 20
76.427513
 30
0.0
 11
226.482651
 21
82.493156
 31
0.0
210
0.0
220
0.0
230
1.0
  0
LINE
  5
3BC
100
AcDbEntity
  8
0
370
    35
390
0
 62
     7
 48
0.053359
100
AcDbLine
 10
220.496353
 20
74.293159
 30
0.0
 11
220.496353
 21
76.427513
 31
0.0
210
0.0
220
0.0
230
1.0
  0
LINE
  5
3BD
100
AcDbEntity
  8
0
370
    35
390
0
 62
     7
 48
0.053359
100
AcDbLine
 10
226.48262
 20
74.293159
 30
0.0
 11
226.48262
 21
76.427513
 31
0.0
210
0.0
220
0.0
230
1.0
  0
LINE
  5
3BE
100
AcDbEntity
  8
0
370
    35
390
0
 62
     7
 48
0.139738
100
AcDbLine
 10
227.735611
 20
76.58181
 30
0.0
 11
227.735641
 21
82.171318
 31
0.0
210
0.0
220
0.0
230
1.0
  0
LINE
  5
3BF
100
AcDbEntity
  8
0
370
    35
390
0
 62
     7
 48
0.04917
100
AcDbLine
 10
227.735611
 20
74.614998
 30
0.0
 11
227.735611
 21
76.58181
 31
0.0
210
0.0
220
0.0
230
1.0
  0
LINE
  5
3C0
100
AcDbEntity
  8
0
370
    35
390
0
 62
     7
 48
0.120113
100
AcDbLine
 10
228.700333
 20
76.836189
 30
0.0
 11
228.700363
 21
81.640724
 31
0.0
210
0.0
220
0.0
230
1.0
  0
LINE
  5
3C1
100
AcDbEntity
  8
0
370
    35
390
0
 62
     7
 48
0.042265
100
AcDbLine
 10
228.700333
 20
75.145592
 30
0.0
 11
228.700333
 21
76.836189
 31
0.0
210
0.0
220
0.0
230
1.0
  0
LINE
  5
3C2
100
AcDbEntity
  8
0
370
    35
390
0
 62
     7
 48
0.110957
100
AcDbLine
 10
229.664169
 20
76.954887
 30
0.0
 11
229.6642
 21
81.39315
 31
0.0
210
0.0
220
0.0
230
1.0
  0
LINE
  5
3C3
100
AcDbEntity
  8
0
370
    35
390
0
 62
     7
 48
0.039043
100
AcDbLine
 10
229.664169
 20
75.39315
 30
0.0
 11
229.664169
 21
76.954887
 31
0.0
210
0.0
220
0.0
230
1.0
  0
LINE
  5
3C4
100
AcDbEntity
  8
0
370
    35
390
0
 62
     7
 48
0.110957
100
AcDbLine
 10
237.496353
 20
76.954887
 30
0.0
 11
237.496353
 21
81.39315
 31
0.0
210
0.0
220
0.0
230
1.0
  0
LINE
  5
3C5
100
AcDbEntity
  8
0
370
    35
390
0
 62
     7
 48
0.039043
100
AcDbLine
 10
237.496353
 20
75.39315
 30
0.0
 11
237.496353
 21
76.954887
 31
0.0
210
0.0
220
0.0
230
1.0
  0
LINE
  5
3C6
100
AcDbEntity
  8
0
370
    35
390
0
 62
     7
 48
0.031234
100
AcDbLine
 10
244.496353
 20
75.993156
 30
0.0
 11
244.496353
 21
77.242531
 31
0.0
210
0.0
220
0.0
230
1.0
  0
LINE
  5
3C7
100
AcDbEntity
  8
0
370
    35
390
0
 62
     7
 48
0.088766
100
AcDbLine
 10
244.496353
 20
77.242531
 30
0.0
 11
244.496353
 21
80.793159
 31
0.0
210
0.0
220
0.0
230
1.0
  0
LINE
  5
3C8
100
AcDbEntity
  8
0
370
    35
390
0
 62
     7
100
AcDbLine
 10
33.596359
 20
76.39315
 30
0.0
 11
64.596359
 21
76.39315
 31
0.0
210
0.0
220
0.0
230
1.0
  0
LINE
  5
3C9
100
AcDbEntity
  8
0
370
    35
390
0
 62
     7
100
AcDbLine
 10
33.596359
 20
80.39315
 30
0.0
 11
64.596359
 21
80.39315
 31
0.0
210
0.0
220
0.0
230
1.0
  0
LINE
  5
3CA
100
AcDbEntity
  8
0
370
    35
390
0
 62
     7
 48
0.015
100
AcDbLine
 10
30.996353
 20
80.993156
 30
0.0
 11
31.596359
 21
80.993156
 31
0.0
210
0.0
220
0.0
230
1.0
  0
LINE
  5
3CB
100
AcDbEntity
  8
0
370
    35
390
0
 62
     7
 48
0.015
100
AcDbLine
 10
30.996353
 20
75.793159
 30
0.0
 11
31.596359
 21
75.793159
 31
0.0
210
0.0
220
0.0
230
1.0
  0
LINE
  5
3CC
100
AcDbEntity
  8
0
370
    35
390
0
 62
     7
 48
0.007071
100
AcDbLine
 10
64.596359
 20
81.418159
 30
0.0
 11
64.796356
 21
81.618156
 31
0.0
210
0.0
220
0.0
230
1.0
  0
LINE
  5
3CD
100
AcDbEntity
  8
0
370
    35
390
0
 62
     7
 48
0.007071
100
AcDbLine
 10
64.596359
 20
75.368156
 30
0.0
 11
64.796356
 21
75.168159
 31
0.0
210
0.0
220
0.0
230
1.0
  0
LINE
  5
3CE
100
AcDbEntity
  8
0
370
    35
390
0
 62
     7
 48
0.0325
100
AcDbLine
 10
64.796356
 20
81.618156
 30
0.0
 11
66.096359
 21
81.618156
 31
0.0
210
0.0
220
0.0
230
1.0
  0
LINE
  5
3CF
100
AcDbEntity
  8
0
370
    35
390
0
 62
     7
 48
0.0325
100
AcDbLine
 10
64.796356
 20
75.168159
 30
0.0
 11
66.096359
 21
75.168159
 31
0.0
210
0.0
220
0.0
230
1.0
  0
LINE
  5
3D0
100
AcDbEntity
  8
0
370
    35
390
0
 62
     7
 48
0.005307
100
AcDbLine
 10
30.996353
 20
80.593147
 30
0.0
 11
30.846268
 21
80.743248
 31
0.0
210
0.0
220
0.0
230
1.0
  0
LINE
  5
3D1
100
AcDbEntity
  8
0
370
    35
390
0
 62
     7
 48
0.005306
100
AcDbLine
 10
30.996353
 20
76.193153
 30
0.0
 11
30.846268
 21
76.043068
 31
0.0
210
0.0
220
0.0
230
1.0
  0
LINE
  5
3D2
100
AcDbEntity
  8
0
370
    35
390
0
 62
     7
 48
0.082844
100
AcDbLine
 10
27.422165
 20
80.851341
 30
0.0
 11
30.735931
 21
80.851341
 31
0.0
210
0.0
220
0.0
230
1.0
  0
LINE
  5
3D3
100
AcDbEntity
  8
0
370
    35
390
0
 62
     7
 48
0.082844
100
AcDbLine
 10
27.422165
 20
80.851341
 30
0.0
 11
30.735931
 21
80.851341
 31
0.0
210
0.0
220
0.0
230
1.0
  0
LINE
  5
3D4
100
AcDbEntity
  8
0
370
    35
390
0
 62
     7
 48
0.082871
100
AcDbLine
 10
27.421463
 20
80.833015
 30
0.0
 11
30.736298
 21
80.833015
 31
0.0
210
0.0
220
0.0
230
1.0
  0
LINE
  5
3D5
100
AcDbEntity
  8
0
370
    35
390
0
 62
     7
 48
0.08292
100
AcDbLine
 10
27.420197
 20
80.796486
 30
0.0
 11
30.736984
 21
80.796486
 31
0.0
210
0.0
220
0.0
230
1.0
  0
LINE
  5
3D6
100
AcDbEntity
  8
0
370
    35
390
0
 62
     7
 48
0.083003
100
AcDbLine
 10
27.418015
 20
80.742073
 30
0.0
 11
30.738144
 21
80.742073
 31
0.0
210
0.0
220
0.0
230
1.0
  0
LINE
  5
3D7
100
AcDbEntity
  8
0
370
    35
390
0
 62
     7
 48
0.083109
100
AcDbLine
 10
27.415253
 20
80.670158
 30
0.0
 11
30.739609
 21
80.670158
 31
0.0
210
0.0
220
0.0
230
1.0
  0
LINE
  5
3D8
100
AcDbEntity
  8
0
370
    35
390
0
 62
     7
 48
0.083239
100
AcDbLine
 10
27.411865
 20
80.581276
 30
0.0
 11
30.741425
 21
80.581276
 31
0.0
210
0.0
220
0.0
230
1.0
  0
LINE
  5
3D9
100
AcDbEntity
  8
0
370
    35
390
0
 62
     7
 48
0.083393
100
AcDbLine
 10
27.407852
 20
80.476128
 30
0.0
 11
30.743561
 21
80.476128
 31
0.0
210
0.0
220
0.0
230
1.0
  0
LINE
  5
3DA
100
AcDbEntity
  8
0
370
    35
390
0
 62
     7
 48
0.08357
100
AcDbLine
 10
27.403229
 20
80.355522
 30
0.0
 11
30.746017
 21
80.355522
 31
0.0
210
0.0
220
0.0
230
1.0
  0
LINE
  5
3DB
100
AcDbEntity
  8
0
370
    35
390
0
 62
     7
 48
0.083768
100
AcDbLine
 10
27.398071
 20
80.220345
 30
0.0
 11
30.748779
 21
80.220345
 31
0.0
210
0.0
220
0.0
230
1.0
  0
LINE
  5
3DC
100
AcDbEntity
  8
0
370
    35
390
0
 62
     7
 48
0.083986
100
AcDbLine
 10
27.39238
 20
80.071648
 30
0.0
 11
30.751816
 21
80.071648
 31
0.0
210
0.0
220
0.0
230
1.0
  0
LINE
  5
3DD
100
AcDbEntity
  8
0
370
    35
390
0
 62
     7
 48
0.084223
100
AcDbLine
 10
27.386185
 20
79.910561
 30
0.0
 11
30.755112
 21
79.910561
 31
0.0
210
0.0
220
0.0
230
1.0
  0
LINE
  5
3DE
100
AcDbEntity
  8
0
370
    35
390
0
 62
     7
 48
0.084223
100
AcDbLine
 10
27.386185
 20
76.875755
 30
0.0
 11
30.755112
 21
76.875755
 31
0.0
210
0.0
220
0.0
230
1.0
  0
LINE
  5
3DF
100
AcDbEntity
  8
0
370
    35
390
0
 62
     7
 48
0.083986
100
AcDbLine
 10
27.392365
 20
76.714668
 30
0.0
 11
30.751816
 21
76.714668
 31
0.0
210
0.0
220
0.0
230
1.0
  0
LINE
  5
3E0
100
AcDbEntity
  8
0
370
    35
390
0
 62
     7
 48
0.083768
100
AcDbLine
 10
27.398056
 20
76.565971
 30
0.0
 11
30.748779
 21
76.565971
 31
0.0
210
0.0
220
0.0
230
1.0
  0
LINE
  5
3E1
100
AcDbEntity
  8
0
370
    35
390
0
 62
     7
 48
0.08357
100
AcDbLine
 10
27.403229
 20
76.430794
 30
0.0
 11
30.746017
 21
76.430794
 31
0.0
210
0.0
220
0.0
230
1.0
  0
LINE
  5
3E2
100
AcDbEntity
  8
0
370
    35
390
0
 62
     7
 48
0.083393
100
AcDbLine
 10
27.407837
 20
76.310188
 30
0.0
 11
30.743561
 21
76.310188
 31
0.0
210
0.0
220
0.0
230
1.0
  0
LINE
  5
3E3
100
AcDbEntity
  8
0
370
    35
390
0
 62
     7
 48
0.083239
100
AcDbLine
 10
27.411865
 20
76.20504
 30
0.0
 11
30.741409
 21
76.20504
 31
0.0
210
0.0
220
0.0
230
1.0
  0
LINE
  5
3E4
100
AcDbEntity
  8
0
370
    35
390
0
 62
     7
 48
0.083109
100
AcDbLine
 10
27.415253
 20
76.116158
 30
0.0
 11
30.739609
 21
76.116158
 31
0.0
210
0.0
220
0.0
230
1.0
  0
LINE
  5
3E5
100
AcDbEntity
  8
0
370
    35
390
0
 62
     7
 48
0.083004
100
AcDbLine
 10
27.417999
 20
76.044243
 30
0.0
 11
30.738144
 21
76.044243
 31
0.0
210
0.0
220
0.0
230
1.0
  0
LINE
  5
3E6
100
AcDbEntity
  8
0
370
    35
390
0
 62
     7
 48
0.082919
100
AcDbLine
 10
27.420212
 20
75.989815
 30
0.0
 11
30.736954
 21
75.989815
 31
0.0
210
0.0
220
0.0
230
1.0
  0
LINE
  5
3E7
100
AcDbEntity
  8
0
370
    35
390
0
 62
     7
 48
0.082871
100
AcDbLine
 10
27.421463
 20
75.9533
 30
0.0
 11
30.736298
 21
75.9533
 31
0.0
210
0.0
220
0.0
230
1.0
  0
LINE
  5
3E8
100
AcDbEntity
  8
0
370
    35
390
0
 62
     7
 48
0.082844
100
AcDbLine
 10
27.422165
 20
75.934975
 30
0.0
 11
30.735916
 21
75.934975
 31
0.0
210
0.0
220
0.0
230
1.0
  0
LINE
  5
3E9
100
AcDbEntity
  8
0
370
    35
390
0
 62
     7
 48
0.082844
100
AcDbLine
 10
27.422165
 20
75.934975
 30
0.0
 11
30.735916
 21
75.934975
 31
0.0
210
0.0
220
0.0
230
1.0
  0
LINE
  5
3EA
100
AcDbEntity
  8
0
370
    35
390
0
 62
     7
 48
0.03
100
AcDbLine
 10
66.096359
 20
75.39315
 30
0.0
 11
67.296356
 21
75.39315
 31
0.0
210
0.0
220
0.0
230
1.0
  0
LINE
  5
3EB
100
AcDbEntity
  8
0
370
    35
390
0
 62
     7
 48
0.03
100
AcDbLine
 10
66.096359
 20
81.39315
 30
0.0
 11
67.296356
 21
81.39315
 31
0.0
210
0.0
220
0.0
230
1.0
  0
LINE
  5
3EC
100
AcDbEntity
  8
0
370
    35
390
0
 62
     7
 48
0.034542
100
AcDbLine
 10
25.996353
 20
76.693153
 30
0.0
 11
27.215469
 21
76.042961
 31
0.0
210
0.0
220
0.0
230
1.0
  0
LINE
  5
3ED
100
AcDbEntity
  8
0
370
    35
390
0
 62
     7
 48
0.034542
100
AcDbLine
 10
25.996353
 20
80.093147
 30
0.0
 11
27.215485
 21
80.743355
 31
0.0
210
0.0
220
0.0
230
1.0
  0
LINE
  5
3EE
100
AcDbEntity
  8
0
370
    35
390
0
 62
     7
 48
0.020501
100
AcDbLine
 10
67.296356
 20
81.743156
 30
0.0
 11
67.796356
 21
82.39315
 31
0.0
210
0.0
220
0.0
230
1.0
  0
LINE
  5
3EF
100
AcDbEntity
  8
0
370
    35
390
0
 62
     7
 48
0.020502
100
AcDbLine
 10
67.296356
 20
75.043159
 30
0.0
 11
67.796356
 21
74.39315
 31
0.0
210
0.0
220
0.0
230
1.0
  0
ARC
  5
3F0
100
AcDbEntity
  8
0
370
    35
390
0
 62
     7
100
AcDbCircle
 10
26.496353
 20
78.39315
 30
0.0
 40
1.5
210
0.0
220
0.0
230
1.0
100
AcDbArc
 50
180.000009
 51
250.528767
  0
ARC
  5
3F1
100
AcDbEntity
  8
0
370
    35
390
0
 62
     7
100
AcDbCircle
 10
26.496353
 20
78.39315
 30
0.0
 40
1.5
210
0.0
220
0.0
230
1.0
100
AcDbArc
 50
109.471219
 51
180.024433
  0
LINE
  5
3F2
100
AcDbEntity
  8
0
370
    35
390
0
 62
     7
100
AcDbLine
 10
67.796356
 20
82.39315
 30
0.0
 11
109.796356
 21
82.39315
 31
0.0
210
0.0
220
0.0
230
1.0
  0
LINE
  5
3F3
100
AcDbEntity
  8
0
370
    35
390
0
 62
     7
100
AcDbLine
 10
67.796356
 20
74.39315
 30
0.0
 11
109.796356
 21
74.39315
 31
0.0
210
0.0
220
0.0
230
1.0
  0
ARC
  5
3F4
100
AcDbEntity
  8
0
370
    35
390
0
 62
     7
100
AcDbCircle
 10
109.796356
 20
82.89315
 30
0.0
 40
0.5
210
0.0
220
0.0
230
1.0
100
AcDbArc
 50
269.999997
 51
360.0
  0
ARC
  5
3F5
100
AcDbEntity
  8
0
370
    35
390
0
 62
     7
100
AcDbCircle
 10
109.796356
 20
73.89315
 30
0.0
 40
0.5
210
0.0
220
0.0
230
1.0
100
AcDbArc
 50
0.0
 51
90.000003
  0
ARC
  5
3F6
100
AcDbEntity
  8
0
370
    35
390
0
 62
     7
100
AcDbCircle
 10
110.49646
 20
83.634911
 30
0.0
 40
0.200084
210
0.0
220
0.0
230
1.0
100
AcDbArc
 50
101.660078
 51
179.977315
  0
ARC
  5
3F7
100
AcDbEntity
  8
0
370
    35
390
0
 62
     7
100
AcDbCircle
 10
110.496445
 20
73.151405
 30
0.0
 40
0.200084
210
0.0
220
0.0
230
1.0
100
AcDbArc
 50
180.022685
 51
258.339908
  0
LINE
  5
3F8
100
AcDbEntity
  8
0
370
    35
390
0
 62
     7
 48
0.069432
100
AcDbLine
 10
110.456009
 20
83.830879
 30
0.0
 11
113.176193
 21
84.391106
 31
0.0
210
0.0
220
0.0
230
1.0
  0
LINE
  5
3F9
100
AcDbEntity
  8
0
370
    35
390
0
 62
     7
 48
0.069432
100
AcDbLine
 10
110.456009
 20
72.955437
 30
0.0
 11
113.176178
 21
72.39521
 31
0.0
210
0.0
220
0.0
230
1.0
  0
ARC
  5
3FA
100
AcDbEntity
  8
0
370
    35
390
0
 62
     7
100
AcDbCircle
 10
113.196365
 20
84.293159
 30
0.0
 40
0.1
210
0.0
220
0.0
230
1.0
100
AcDbArc
 50
0.000004
 51
101.637388
  0
ARC
  5
3FB
100
AcDbEntity
  8
0
370
    35
390
0
 62
     7
100
AcDbCircle
 10
113.19635
 20
72.493156
 30
0.0
 40
0.1
210
0.0
220
0.0
230
1.0
100
AcDbArc
 50
258.362619
 51
359.999983
  0
LINE
  5
3FC
100
AcDbEntity
  8
0
370
    35
390
0
 62
     7
 48
0.003535
100
AcDbLine
 10
113.296356
 20
72.493156
 30
0.0
 11
113.396347
 21
72.39315
 31
0.0
210
0.0
220
0.0
230
1.0
  0
LINE
  5
3FD
100
AcDbEntity
  8
0
370
    35
390
0
 62
     7
 48
0.003535
100
AcDbLine
 10
113.296356
 20
84.293159
 30
0.0
 11
113.396362
 21
84.39315
 31
0.0
210
0.0
220
0.0
230
1.0
  0
LINE
  5
3FE
100
AcDbEntity
  8
0
370
    35
390
0
 62
     7
100
AcDbLine
 10
113.396347
 20
72.39315
 30
0.0
 11
139.796371
 21
72.39315
 31
0.0
210
0.0
220
0.0
230
1.0
  0
LINE
  5
3FF
100
AcDbEntity
  8
0
370
    35
390
0
 62
     7
100
AcDbLine
 10
113.396362
 20
84.39315
 30
0.0
 11
139.796371
 21
84.39315
 31
0.0
210
0.0
220
0.0
230
1.0
  0
LINE
  5
400
100
AcDbEntity
  8
0
370
    35
390
0
 62
     7
 48
0.025
100
AcDbLine
 10
139.796371
 20
72.593147
 30
0.0
 11
140.796371
 21
72.593147
 31
0.0
210
0.0
220
0.0
230
1.0
  0
LINE
  5
401
100
AcDbEntity
  8
0
370
    35
390
0
 62
     7
 48
0.025
100
AcDbLine
 10
139.796371
 20
84.193153
 30
0.0
 11
140.796371
 21
84.193153
 31
0.0
210
0.0
220
0.0
230
1.0
  0
LINE
  5
402
100
AcDbEntity
  8
0
370
    35
390
0
 62
     7
 48
0.0375
100
AcDbLine
 10
140.796371
 20
72.39315
 30
0.0
 11
142.296371
 21
72.39315
 31
0.0
210
0.0
220
0.0
230
1.0
  0
LINE
  5
403
100
AcDbEntity
  8
0
370
    35
390
0
 62
     7
 48
0.0375
100
AcDbLine
 10
140.796371
 20
84.39315
 30
0.0
 11
142.296371
 21
84.39315
 31
0.0
210
0.0
220
0.0
230
1.0
  0
LINE
  5
404
100
AcDbEntity
  8
0
370
    35
390
0
 62
     7
 48
0.0125
100
AcDbLine
 10
142.296371
 20
72.593147
 30
0.0
 11
142.796371
 21
72.593147
 31
0.0
210
0.0
220
0.0
230
1.0
  0
LINE
  5
405
100
AcDbEntity
  8
0
370
    35
390
0
 62
     7
 48
0.0125
100
AcDbLine
 10
142.296371
 20
84.193153
 30
0.0
 11
142.796371
 21
84.193153
 31
0.0
210
0.0
220
0.0
230
1.0
  0
LINE
  5
406
100
AcDbEntity
  8
0
370
    35
390
0
 62
     7
100
AcDbLine
 10
142.796371
 20
72.39315
 30
0.0
 11
217.896347
 21
72.39315
 31
0.0
210
0.0
220
0.0
230
1.0
  0
LINE
  5
407
100
AcDbEntity
  8
0
370
    35
390
0
 62
     7
100
AcDbLine
 10
142.796371
 20
84.39315
 30
0.0
 11
217.896378
 21
84.39315
 31
0.0
210
0.0
220
0.0
230
1.0
  0
LINE
  5
408
100
AcDbEntity
  8
0
370
    35
390
0
 62
     7
 48
0.003536
100
AcDbLine
 10
217.996353
 20
72.493156
 30
0.0
 11
217.896347
 21
72.39315
 31
0.0
210
0.0
220
0.0
230
1.0
  0
LINE
  5
409
100
AcDbEntity
  8
0
370
    35
390
0
 62
     7
 48
0.003535
100
AcDbLine
 10
217.996353
 20
84.293159
 30
0.0
 11
217.896378
 21
84.39315
 31
0.0
210
0.0
220
0.0
230
1.0
  0
LINE
  5
40A
100
AcDbEntity
  8
0
370
    35
390
0
 62
     7
 48
0.0375
100
AcDbLine
 10
219.496353
 20
72.39315
 30
0.0
 11
217.996353
 21
72.39315
 31
0.0
210
0.0
220
0.0
230
1.0
  0
LINE
  5
40B
100
AcDbEntity
  8
0
370
    35
390
0
 62
     7
 48
0.0375
100
AcDbLine
 10
219.496353
 20
84.39315
 30
0.0
 11
217.996353
 21
84.39315
 31
0.0
210
0.0
220
0.0
230
1.0
  0
ARC
  5
40C
100
AcDbEntity
  8
0
370
    35
390
0
 62
     7
100
AcDbCircle
 10
219.496353
 20
83.89315
 30
0.0
 40
0.5
210
0.0
220
0.0
230
1.0
100
AcDbArc
 50
0.000001
 51
90.000003
  0
ARC
  5
40D
100
AcDbEntity
  8
0
370
    35
390
0
 62
     7
100
AcDbCircle
 10
219.496353
 20
72.89315
 30
0.0
 40
0.5
210
0.0
220
0.0
230
1.0
100
AcDbArc
 50
269.999997
 51
360.0
  0
LINE
  5
40E
100
AcDbEntity
  8
0
370
    35
390
0
 62
     7
 48
0.005
100
AcDbLine
 10
220.196335
 20
74.493156
 30
0.0
 11
219.996353
 21
74.493156
 31
0.0
210
0.0
220
0.0
230
1.0
  0
LINE
  5
40F
100
AcDbEntity
  8
0
370
    35
390
0
 62
     7
 48
0.005
100
AcDbLine
 10
220.196365
 20
82.293159
 30
0.0
 11
219.996353
 21
82.293159
 31
0.0
210
0.0
220
0.0
230
1.0
  0
LINE
  5
410
100
AcDbEntity
  8
0
370
    35
390
0
 62
     7
 48
0.0075
100
AcDbLine
 10
220.196365
 20
81.89315
 30
0.0
 11
220.496353
 21
81.89315
 31
0.0
210
0.0
220
0.0
230
1.0
  0
LINE
  5
411
100
AcDbEntity
  8
0
370
    35
390
0
 62
     7
 48
0.0075
100
AcDbLine
 10
220.196335
 20
74.89315
 30
0.0
 11
220.496353
 21
74.89315
 31
0.0
210
0.0
220
0.0
230
1.0
  0
LINE
  5
412
100
AcDbEntity
  8
0
370
    35
390
0
 62
     7
 48
0.149657
100
AcDbLine
 10
220.496353
 20
82.493156
 30
0.0
 11
226.482651
 21
82.493156
 31
0.0
210
0.0
220
0.0
230
1.0
  0
LINE
  5
413
100
AcDbEntity
  8
0
370
    35
390
0
 62
     7
 48
0.149657
100
AcDbLine
 10
220.496353
 20
74.293159
 30
0.0
 11
226.48262
 21
74.293159
 31
0.0
210
0.0
220
0.0
230
1.0
  0
ARC
  5
414
100
AcDbEntity
  8
0
370
    35
390
0
 62
     7
100
AcDbCircle
 10
226.482651
 20
79.89315
 30
0.0
 40
2.6
210
0.0
220
0.0
230
1.0
100
AcDbArc
 50
61.189206
 51
90.000003
  0
ARC
  5
415
100
AcDbEntity
  8
0
370
    35
390
0
 62
     7
100
AcDbCircle
 10
226.48262
 20
76.89315
 30
0.0
 40
2.6
210
0.0
220
0.0
230
1.0
100
AcDbArc
 50
269.999997
 51
298.810801
  0
LINE
  5
416
100
AcDbEntity
  8
0
370
    35
390
0
 62
     7
 48
0.027525
100
AcDbLine
 10
228.700363
 20
81.640724
 30
0.0
 11
227.735641
 21
82.171318
 31
0.0
210
0.0
220
0.0
230
1.0
  0
LINE
  5
417
100
AcDbEntity
  8
0
370
    35
390
0
 62
     7
 48
0.027525
100
AcDbLine
 10
228.700333
 20
75.145592
 30
0.0
 11
227.735611
 21
74.614998
 31
0.0
210
0.0
220
0.0
230
1.0
  0
ARC
  5
418
100
AcDbEntity
  8
0
370
    35
390
0
 62
     7
100
AcDbCircle
 10
229.6642
 20
83.39315
 30
0.0
 40
2.0
210
0.0
220
0.0
230
1.0
100
AcDbArc
 50
241.189201
 51
269.999997
  0
ARC
  5
419
100
AcDbEntity
  8
0
370
    35
390
0
 62
     7
100
AcDbCircle
 10
229.664169
 20
73.39315
 30
0.0
 40
2.0
210
0.0
220
0.0
230
1.0
100
AcDbArc
 50
90.000003
 51
118.810799
  0
LINE
  5
41A
100
AcDbEntity
  8
0
370
    35
390
0
 62
     7
 48
0.195804
100
AcDbLine
 10
229.6642
 20
81.39315
 30
0.0
 11
237.496353
 21
81.39315
 31
0.0
210
0.0
220
0.0
230
1.0
  0
LINE
  5
41B
100
AcDbEntity
  8
0
370
    35
390
0
 62
     7
 48
0.195805
100
AcDbLine
 10
229.664169
 20
75.39315
 30
0.0
 11
237.496353
 21
75.39315
 31
0.0
210
0.0
220
0.0
230
1.0
  0
LINE
  5
41C
100
AcDbEntity
  8
0
370
    35
390
0
 62
     7
 48
0.175
100
AcDbLine
 10
237.496353
 20
75.993156
 30
0.0
 11
244.496353
 21
75.993156
 31
0.0
210
0.0
220
0.0
230
1.0
  0
LINE
  5
41D
100
AcDbEntity
  8
0
370
    35
390
0
 62
     7
 48
0.175
100
AcDbLine
 10
237.496353
 20
80.793159
 30
0.0
 11
244.496353
 21
80.793159
 31
0.0
210
0.0
220
0.0
230
1.0
  0
ENDSEC
  0
SECTION
  2
OBJECTS
  0
DICTIONARY
  5
19
100
AcDbDictionary
280
     0
281
     1
  3
ACAD_GROUP
350
1A
  3
ACAD_MLINESTYLE
350
1B
  3
ACAD_LAYOUT
350
1E
  3
ACAD_PLOTSETTINGS
350
22
  3
ACAD_PLOTSTYLENAME
350
1F
  3
ACAD_WIPEOUT_VARS
350
23
  0
DICTIONARY
  5
1A
102
{ACAD_REACTORS
330
19
102
}
100
AcDbDictionary
280
     0
281
     1
  0
DICTIONARY
  5
1B
102
{ACAD_REACTORS
330
19
102
}
100
AcDbDictionary
280
     0
281
     1
  3
Standard
350
1C
  0
MLINESTYLE
  5
1C
102
{ACAD_REACTORS
330
1B
102
}
100
AcDbMlineStyle
  2
Standard
 70
     0
  3

 62
     0
 51
90.0
 52
90.0
 71
     2
 49
0.5
 62
   256
  6
ByLayer
 49
-0.5
 62
   256
  6
ByLayer
  0
ACDBDICTIONARYWDFLT
  5
1F
102
{ACAD_REACTORS
330
19
102
}
100
AcDbDictionary
281
     1
  3
Normal
350
1D
100
AcDbDictionaryWithDefault
340
1D
  0
ACDBPLACEHOLDER
  5
1D
102
{ACAD_REACTORS
330
1F
102
}
  0
LAYOUT
  5
20
102
{ACAD_REACTORS
330
1E
102
}
100
AcDbPlotSettings
  1

  2

  4

  6

 40
0.0
 41
0.0
 42
0.0
 43
0.0
 44
0.0
 45
0.0
 46
0.0
 47
0.0
 48
0.0
 49
0.0
140
0.0
141
0.0
142
1.0
143
1.0
 70
  1024
 72
     0
 73
     0
 74
     0
  7

 75
     0
147
1.0
148
0.0
149
0.0
100
AcDbLayout
  1
Model
 70
     0
 71
     0
 10
0.0
 20
0.0
 11
0.0
 21
0.0
 12
0.0
 22
0.0
 32
0.0
 14
0.0
 24
0.0
 34
0.0
 15
0.0
 25
0.0
 35
0.0
146
0.0
 13
0.0
 23
0.0
 33
0.0
 16
0.0
 26
0.0
 36
0.0
 17
0.0
 27
0.0
 37
0.0
 76
     0
330
A
331
0
345
0
346
0
  0
LAYOUT
  5
21
102
{ACAD_REACTORS
330
1E
102
}
100
AcDbPlotSettings
  1

  2

  4

  6

 40
0.0
 41
0.0
 42
0.0
 43
0.0
 44
0.0
 45
0.0
 46
0.0
 47
0.0
 48
0.0
 49
0.0
140
0.0
141
0.0
142
1.0
143
1.0
 70
     0
 72
     0
 73
     0
 74
     0
  7

 75
     0
147
1.0
148
0.0
149
0.0
100
AcDbLayout
  1
Layout1
 70
     0
 71
     0
 10
0.0
 20
0.0
 11
0.0
 21
0.0
 12
0.0
 22
0.0
 32
0.0
 14
0.0
 24
0.0
 34
0.0
 15
0.0
 25
0.0
 35
0.0
146
0.0
 13
0.0
 23
0.0
 33
0.0
 16
0.0
 26
0.0
 36
0.0
 17
0.0
 27
0.0
 37
0.0
 76
     0
330
B
331
0
345
0
346
0
  0
DICTIONARY
  5
1E
102
{ACAD_REACTORS
330
19
102
}
100
AcDbDictionary
280
     0
281
     1
  3
Layout1
350
21
  3
Model
350
20
  0
DICTIONARY
  5
22
102
{ACAD_REACTORS
330
19
102
}
100
AcDbDictionary
280
     0
281
     1
  0
WIPEOUTVARIABLES
  5
23
100
AcDbWipeoutVariables
 70
     1
  0
ENDSEC
  0
EOF
