  0
SECTION
  2
HEADER
  9
$ACADVER
  1
AC1015
  9
$ACADMAINTVER
 70
     6
  9
$DWGCODEPAGE
  3
ANSI_1252
  9
$INSBASE
 10
0.0
 20
0.0
 30
0.0
  9
$EXTMIN
 10
0.0
 20
0.0
 30
0.0
  9
$EXTMAX
 10
331.656677
 20
212.569
 30
2.0
  9
$LIMMIN
 10
0.0
 20
0.0
  9
$LIMMAX
 10
420.0
 20
297.0
  9
$ORTHOMODE
 70
     0
  9
$REGENMODE
 70
     1
  9
$FILLMODE
 70
     1
  9
$QTEXTMODE
 70
     0
  9
$MIRRTEXT
 70
     1
  9
$LTSCALE
 40
1.0
  9
$ATTMODE
 70
     1
  9
$TEXTSIZE
 40
2.5
  9
$TRACEWID
 40
1.0
  9
$TEXTSTYLE
  7
Standard
  9
$CLAYER
  8
0
  9
$CELTYPE
  6
ByLayer
  9
$CECOLOR
 62
   256
  9
$CELTSCALE
 40
1.0
  9
$DISPSILH
 70
     0
  9
$DIMSCALE
 40
1.0
  9
$DIMASZ
 40
2.5
  9
$DIMEXO
 40
0.625
  9
$DIMDLI
 40
3.75
  9
$DIMRND
 40
0.0
  9
$DIMDLE
 40
0.0
  9
$DIMEXE
 40
1.25
  9
$DIMTP
 40
0.0
  9
$DIMTM
 40
0.0
  9
$DIMTXT
 40
2.5
  9
$DIMCEN
 40
2.5
  9
$DIMTSZ
 40
0.0
  9
$DIMTOL
 70
     0
  9
$DIMLIM
 70
     0
  9
$DIMTIH
 70
     0
  9
$DIMTOH
 70
     0
  9
$DIMSE1
 70
     0
  9
$DIMSE2
 70
     0
  9
$DIMTAD
 70
     1
  9
$DIMZIN
 70
     8
  9
$DIMBLK
  1

  9
$DIMASO
 70
     1
  9
$DIMSHO
 70
     1
  9
$DIMPOST
  1

  9
$DIMAPOST
  1

  9
$DIMALT
 70
     0
  9
$DIMALTD
 70
     3
  9
$DIMALTF
 40
0.03937
  9
$DIMLFAC
 40
1.0
  9
$DIMTOFL
 70
     1
  9
$DIMTVP
 40
0.0
  9
$DIMTIX
 70
     0
  9
$DIMSOXD
 70
     0
  9
$DIMSAH
 70
     0
  9
$DIMBLK1
  1

  9
$DIMBLK2
  1

  9
$DIMSTYLE
  2

  9
$DIMCLRD
 70
     0
  9
$DIMCLRE
 70
     0
  9
$DIMCLRT
 70
     0
  9
$DIMTFAC
 40
1.0
  9
$DIMGAP
 40
0.625
  9
$DIMJUST
 70
     0
  9
$DIMSD1
 70
     0
  9
$DIMSD2
 70
     0
  9
$DIMTOLJ
 70
     0
  9
$DIMTZIN
 70
     8
  9
$DIMALTZ
 70
     0
  9
$DIMALTTZ
 70
     0
  9
$DIMUPT
 70
     0
  9
$DIMDEC
 70
     2
  9
$DIMTDEC
 70
     2
  9
$DIMALTU
 70
     2
  9
$DIMALTTD
 70
     3
  9
$DIMTXSTY
  7
Standard
  9
$DIMAUNIT
 70
     0
  9
$DIMADEC
 70
     0
  9
$DIMALTRND
 40
0.0
  9
$DIMAZIN
 70
     0
  9
$DIMDSEP
 70
    44
  9
$DIMATFIT
 70
     0
  9
$DIMFRAC
 70
     0
  9
$DIMLDRBLK
  1

  9
$DIMLUNIT
 70
     2
  9
$DIMLWD
 70
    -2
  9
$DIMLWE
 70
    -2
  9
$DIMTMOVE
 70
     0
  9
$LUNITS
 70
     2
  9
$LUPREC
 70
     4
  9
$SKETCHINC
 40
1.0
  9
$FILLETRAD
 40
2.5
  9
$AUNITS
 70
     0
  9
$AUPREC
 70
     0
  9
$MENU
  1
.
  9
$ELEVATION
 40
0.0
  9
$PELEVATION
 40
0.0
  9
$THICKNESS
 40
0.0
  9
$LIMCHECK
 70
     0
  9
$CHAMFERA
 40
2.5
  9
$CHAMFERB
 40
2.5
  9
$CHAMFERC
 40
0.0
  9
$CHAMFERD
 40
0.0
  9
$SKPOLY
 70
     0
  9
$TDCREATE
 40
0.000000000
  9
$TDUCREATE
 40
0.000000000
  9
$TDUPDATE
 40
0.000000000
  9
$TDUUPDATE
 40
0.000000000
  9
$TDINDWG
 40
0.0000000000
  9
$TDUSRTIMER
 40
0.0000000000
  9
$USRTIMER
 70
     1
  9
$ANGBASE
 50
0.0
  9
$ANGDIR
 70
     0
  9
$PDMODE
 70
     0
  9
$PDSIZE
 40
0.0
  9
$PLINEWID
 40
0.0
  9
$SPLFRAME
 70
     0
  9
$SPLINETYPE
 70
     6
  9
$SPLINESEGS
 70
     8
  9
$HANDSEED
  5
281
  9
$SURFTAB1
 70
     6
  9
$SURFTAB2
 70
     6
  9
$SURFTYPE
 70
     6
  9
$SURFU
 70
     6
  9
$SURFV
 70
     6
  9
$UCSBASE
  2

  9
$UCSNAME
  2

  9
$UCSORG
 10
0.0
 20
0.0
 30
0.0
  9
$UCSXDIR
 10
1.0
 20
0.0
 30
0.0
  9
$UCSYDIR
 10
0.0
 20
1.0
 30
0.0
  9
$UCSORTHOREF
  2

  9
$UCSORTHOVIEW
 70
     1
  9
$UCSORGTOP
 10
0.0
 20
0.0
 30
0.0
  9
$UCSORGBOTTOM
 10
0.0
 20
0.0
 30
0.0
  9
$UCSORGLEFT
 10
0.0
 20
0.0
 30
0.0
  9
$UCSORGRIGHT
 10
0.0
 20
0.0
 30
0.0
  9
$UCSORGFRONT
 10
0.0
 20
0.0
 30
0.0
  9
$UCSORGBACK
 10
0.0
 20
0.0
 30
0.0
  9
$PUCSBASE
  2

  9
$PUCSNAME
  2

  9
$PUCSORG
 10
0.0
 20
0.0
 30
0.0
  9
$PUCSXDIR
 10
1.0
 20
0.0
 30
0.0
  9
$PUCSYDIR
 10
0.0
 20
1.0
 30
0.0
  9
$PUCSORTHOREF
  2

  9
$PUCSORTHOVIEW
 70
     0
  9
$PUCSORGTOP
 10
0.0
 20
0.0
 30
0.0
  9
$PUCSORGBOTTOM
 10
0.0
 20
0.0
 30
0.0
  9
$PUCSORGLEFT
 10
0.0
 20
0.0
 30
0.0
  9
$PUCSORGRIGHT
 10
0.0
 20
0.0
 30
0.0
  9
$PUCSORGFRONT
 10
0.0
 20
0.0
 30
0.0
  9
$PUCSORGBACK
 10
0.0
 20
0.0
 30
0.0
  9
$USERI1
 70
     0
  9
$USERI2
 70
     0
  9
$USERI3
 70
     0
  9
$USERI4
 70
     0
  9
$USERI5
 70
     0
  9
$USERR1
 40
0.0
  9
$USERR2
 40
0.0
  9
$USERR3
 40
0.0
  9
$USERR4
 40
0.0
  9
$USERR5
 40
0.0
  9
$WORLDVIEW
 70
     1
  9
$SHADEDGE
 70
     3
  9
$SHADEDIF
 70
    70
  9
$TILEMODE
 70
     1
  9
$MAXACTVP
 70
    48
  9
$PINSBASE
 10
0.0
 20
0.0
 30
0.0
  9
$PLIMCHECK
 70
     0
  9
$PEXTMIN
 10
0.0
 20
0.0
 30
0.0
  9
$PEXTMAX
 10
331.656677
 20
212.569
 30
2.0
  9
$PLIMMIN
 10
0.0
 20
0.0
  9
$PLIMMAX
 10
420.0
 20
297.0
  9
$UNITMODE
 70
     0
  9
$VISRETAIN
 70
     0
  9
$PLINEGEN
 70
     0
  9
$PSLTSCALE
 70
     1
  9
$TREEDEPTH
 70
  3020
  9
$CMLSTYLE
  2
Standard
  9
$CMLJUST
 70
     0
  9
$CMLSCALE
 40
20.0
  9
$PROXYGRAPHICS
 70
     1
  9
$MEASUREMENT
 70
     1
  9
$CELWEIGHT
370
    -1
  9
$ENDCAPS
280
     0
  9
$JOINSTYLE
280
     0
  9
$LWDISPLAY
290
     0
  9
$INSUNITS
 70
     0
  9
$HYPERLINKBASE
  1

  9
$STYLESHEET
  1

  9
$XEDIT
290
     1
  9
$CEPSNTYPE
380
     0
  9
$PSTYLEMODE
290
     0
  9
$FINGERPRINTGUID
  2

  9
$VERSIONGUID
  2

  9
$EXTNAMES
290
     0
  9
$PSVPSCALE
 40
0.0
  0
ENDSEC
  0
SECTION
  2
CLASSES
  0
CLASS
  1
LWPOLYLINE
  2
AcDbPolyline
  3
AutoCAD 2000
 90
        0
280
     0
281
     1
  0
CLASS
  1
IMAGE
  2
AcDbRasterImage
  3
ISM
 90
      127
280
     0
281
     1
  0
CLASS
  1
OLE2FRAME
  2
AcDbOle2Frame
  3
AutoCAD 2000
 90
        0
280
     0
281
     1
  0
CLASS
  1
HATCH
  2
AcDbHatch
  3
AutoCAD 2000
 90
        0
280
     0
281
     1
  0
CLASS
  1
DICTIONARYVAR
  2
AcDbDictionaryVar
  3
AutoCAD 2000
 90
        0
280
     0
281
     0
  0
CLASS
  1
RASTERVARIABLES
  2
AcDbRasterVariables
  3
ISM
 90
        0
280
     0
281
     0
  0
CLASS
  1
IMAGEDEF
  2
AcDbRasterImageDef
  3
ISM
 90
        0
280
     0
281
     0
  0
CLASS
  1
IMAGEDEF_REACTOR
  2
AcDbRasterImageDefReactor
  3
ISM
 90
        1
280
     0
281
     0
  0
CLASS
  1
IDBUFFER
  2
AcDbIdBuffer
  3
AutoCAD 2000
 90
        0
280
     0
281
     0
  0
CLASS
  1
SPATIAL_FILTER
  2
AcDbSpatialFilter
  3
AutoCAD 2000
 90
        0
280
     0
281
     0
  0
CLASS
  1
XRECORD
  2
AcDbXrecord
  3
AutoCAD 2000
 90
        0
280
     0
281
     0
  0
CLASS
  1
SORTENTSTABLE
  2
AcDbSortentsTable
  3
AutoCAD 2000
 90
        0
280
     0
281
     0
  0
CLASS
  1
LAYER_INDEX
  2
AcDbLayerIndex
  3
AutoCAD 2000
 90
        0
280
     0
281
     0
  0
CLASS
  1
SPATIAL_INDEX
  2
AcDbSpatialIndex
  3
AutoCAD 2000
 90
        0
280
     0
281
     0
  0
CLASS
  1
OBJECT_PTR
  2
CAseDLPNTableRecord
  3
"ASE-LPNTableRecord"
 90
        1
280
     0
281
     0
  0
CLASS
  1
LAYOUT
  2
AcDbLayout
  3
AutoCAD 2000
 90
        0
280
     0
281
     0
  0
CLASS
  1
PLOTSETTINGS
  2
AcDbPlotSettings
  3
AutoCAD 2000
 90
        0
280
     0
281
     0
  0
CLASS
  1
ACDBDICTIONARYWDFLT
  2
AcDbDictionaryWithDefault
  3
AutoCAD 2000
 90
        0
280
     0
281
     0
  0
CLASS
  1
ACDBPLACEHOLDER
  2
AcDbPlaceHolder
  3
AutoCAD 2000
 90
        0
280
     0
281
     0
  0
CLASS
  1
VBA_PROJECT
  2
AcDbVbaProject
  3
acadvba
 90
        0
280
     0
281
     0
  0
CLASS
  1
WIPEOUT
  2
AcDbWipeout
  3
WipeOut|AutoCAD Express Tool|expresstools@autodesk.com
 90
      127
280
     0
281
     1
  0
CLASS
  1
WIPEOUTVARIABLES
  2
AcDbWipeoutVariables
  3
WipeOut|AutoCAD Express Tool|expresstools@autodesk.com
 90
        0
280
     0
281
     0
  0
CLASS
  1
RTEXT
  2
RText
  3
RText|AutoCAD Express Tool|expresstools@autodesk.com
 90
        0
280
     0
281
     1
  0
CLASS
  1
ARCALIGNEDTEXT
  2
AcDbArcAlignedText
  3
ATEXT|AutoCAD Express Tool|expresstools@autodesk.com
 90
        0
280
     0
281
     1
  0
ENDSEC
  0
SECTION
  2
TABLES
  0
TABLE
  2
VPORT
  5
7
100
AcDbSymbolTable
 70
     1
  0
VPORT
  5
15
100
AcDbSymbolTableRecord
100
AcDbViewportTableRecord
  2
*ACTIVE
 70
     0
 10
0.0
 20
0.0
 11
1.0
 21
1.0
 12
6.591288
 22
4.579184
 13
0.0
 23
0.0
 14
1.0
 24
1.0
 15
0.0
 25
0.0
 16
0.0
 26
0.0
 36
1.0
 17
0.0
 27
0.0
 37
0.0
 40
9.158369
 41
0.688564
 42
50.0
 43
0.0
 44
0.0
 50
0.0
 51
0.0
 71
     0
 72
   100
 73
     1
 74
     1
 75
     0
 76
     0
 77
     0
 78
     0
281
     0
 65
     0
110
0.0
120
0.0
130
0.0
111
1.0
121
0.0
131
0.0
112
0.0
122
1.0
132
0.0
345
0
346
0
 79
     0
146
0.0
  0
ENDTAB
  0
TABLE
  2
LTYPE
  5
4
100
AcDbSymbolTable
 70
     3
  0
LTYPE
  5
11
100
AcDbSymbolTableRecord
100
AcDbLinetypeTableRecord
  2
ByBlock
 70
    64
  3

 72
    65
 73
     0
 40
0.0
  0
LTYPE
  5
12
100
AcDbSymbolTableRecord
100
AcDbLinetypeTableRecord
  2
ByLayer
 70
    64
  3

 72
    65
 73
     0
 40
0.0
  0
LTYPE
  5
13
100
AcDbSymbolTableRecord
100
AcDbLinetypeTableRecord
  2
Continuous
 70
    64
  3
Solid line
 72
    65
 73
     0
 40
0.0
  0
ENDTAB
  0
TABLE
  2
LAYER
  5
2
100
AcDbSymbolTable
 70
     1
  0
LAYER
  5
14
100
AcDbSymbolTableRecord
100
AcDbLayerTableRecord
  2
0
 70
     0
 62
     7
  6
Continuous
290
     1
370
    -3
390
1D
  0
ENDTAB
  0
TABLE
  2
STYLE
  5
3
100
AcDbSymbolTable
 70
     1
  0
STYLE
  5
17
100
AcDbSymbolTableRecord
100
AcDbTextStyleTableRecord
  2
Standard
 70
     0
 40
0.0
 41
1.0
 50
0.0
 71
     0
 42
0.0
  3
txt
  4

  0
ENDTAB
  0
TABLE
  2
VIEW
  5
5
100
AcDbSymbolTable
 70
     0
  0
ENDTAB
  0
TABLE
  2
UCS
  5
6
100
AcDbSymbolTable
 70
     0
  0
ENDTAB
  0
TABLE
  2
APPID
  5
8
100
AcDbSymbolTable
 70
     1
  0
APPID
  5
16
100
AcDbSymbolTableRecord
100
AcDbRegAppTableRecord
  2
ACAD
 70
     0
  0
ENDTAB
  0
TABLE
  2
DIMSTYLE
  5
9
100
AcDbSymbolTable
 70
     1
100
AcDbDimStyleTable
 71
     0
  0
DIMSTYLE
105
18
100
AcDbSymbolTableRecord
100
AcDbDimStyleTableRecord
  2
Standard
 70
     0
  3

  4

 40
1.0
 41
0.18
 42
0.0625
 43
0.38
 44
0.18
 45
0.0
 46
0.0
 47
0.0
 48
0.0
 71
     0
 72
     0
 73
     1
 74
     1
 75
     0
 76
     0
 77
     0
 78
     0
 79
     0
140
0.18
141
0.09
142
0.0
143
25.4
144
1.0
145
0.0
146
1.0
147
0.09
148
0.0
170
     0
171
     2
172
     0
173
     0
174
     0
175
     0
176
     0
177
     0
178
     0
179
     0
271
     4
272
     4
273
     2
274
     2
275
     0
276
     0
277
     2
278
    46
279
     0
280
     0
281
     0
282
     0
283
     1
284
     0
285
     0
286
     0
288
     0
289
     3
340
17
341
0
342
0
343
0
344
0
371
    -2
372
    -2
  0
ENDTAB
  0
TABLE
  2
BLOCK_RECORD
  5
1
100
AcDbSymbolTable
 70
     0
  0
BLOCK_RECORD
  5
A
100
AcDbSymbolTableRecord
100
AcDbBlockTableRecord
  2
*MODEL_SPACE
340
20
  0
BLOCK_RECORD
  5
B
100
AcDbSymbolTableRecord
100
AcDbBlockTableRecord
  2
*PAPER_SPACE
340
21
  0
ENDTAB
  0
ENDSEC
  0
SECTION
  2
BLOCKS
  0
BLOCK
  5
D
100
AcDbEntity
  8
0
390
0
100
AcDbBlockBegin
  2
*MODEL_SPACE
 70
     0
 10
0.0
 20
0.0
 30
0.0
  3
*MODEL_SPACE
  1

  0
ENDBLK
  5
E
100
AcDbEntity
  8
0
390
0
100
AcDbBlockEnd
  0
BLOCK
  5
F
100
AcDbEntity
 67
     1
  8
0
390
0
100
AcDbBlockBegin
  2
*PAPER_SPACE
 70
     0
 10
0.0
 20
0.0
 30
0.0
  3
*PAPER_SPACE
  1

  0
ENDBLK
  5
10
100
AcDbEntity
 67
     1
  8
0
390
0
100
AcDbBlockEnd
  0
ENDSEC
  0
SECTION
  2
ENTITIES
  0
VIEWPORT
  5
280
100
AcDbEntity
 67
     1
  8
0
370
     0
390
0
 62
     0
 48
0.0
100
AcDbViewport
 10
0.0
 20
0.0
 30
0.0
 40
1000.0
 41
1000.0
 68
     1
 69
     1
 12
0.0
 22
0.0
 13
0.0
 23
0.0
 14
1.0
 24
1.0
 15
1.0
 25
1.0
 16
0.0
 26
0.0
 36
1.0
 17
0.0
 27
0.0
 37
0.0
 42
50.0
 43
0.0
 44
0.0
 45
1000.0
 50
0.0
 51
0.0
 72
   100
 90
        0
340
0
  1

281
     0
 71
     0
 74
     1
110
0.0
120
0.0
130
0.0
111
1.0
121
0.0
131
0.0
112
0.0
122
1.0
132
0.0
345
0
346
0
 79
     0
146
0.0
  0
LINE
  5
24
100
AcDbEntity
  8
0
370
    35
390
0
 62
     7
 48
0.122519
100
AcDbLine
 10
49.654266
 20
199.569
 30
0.0
 11
44.75351
 21
199.569
 31
0.0
210
0.0
220
0.0
230
1.0
  0
LINE
  5
25
100
AcDbEntity
  8
0
370
    35
390
0
 62
     7
 48
0.122519
100
AcDbLine
 10
49.654266
 20
205.569
 30
0.0
 11
44.75351
 21
205.569
 31
0.0
210
0.0
220
0.0
230
1.0
  0
LINE
  5
26
100
AcDbEntity
  8
0
370
    35
390
0
 62
     7
100
AcDbLine
 10
142.805252
 20
157.720917
 30
0.0
 11
194.095993
 21
157.720917
 31
0.0
210
0.0
220
0.0
230
1.0
  0
LINE
  5
27
100
AcDbEntity
  8
0
370
    35
390
0
 62
     7
100
AcDbLine
 10
142.805252
 20
163.572968
 30
0.0
 11
194.122025
 21
163.572968
 31
0.0
210
0.0
220
0.0
230
1.0
  0
LINE
  5
28
100
AcDbEntity
  8
0
370
    35
390
0
 62
     7
100
AcDbLine
 10
168.154251
 20
199.669037
 30
0.0
 11
194.122025
 21
199.669037
 31
0.0
210
0.0
220
0.0
230
1.0
  0
LINE
  5
29
100
AcDbEntity
  8
0
370
    35
390
0
 62
     7
100
AcDbLine
 10
168.154251
 20
205.469025
 30
0.0
 11
194.095993
 21
205.469025
 31
0.0
210
0.0
220
0.0
230
1.0
  0
LINE
  5
2A
100
AcDbEntity
  8
0
370
    35
390
0
 62
     7
100
AcDbLine
 10
82.752228
 20
163.572968
 30
0.0
 11
137.805252
 21
163.572968
 31
0.0
210
0.0
220
0.0
230
1.0
  0
LINE
  5
2B
100
AcDbEntity
  8
0
370
    35
390
0
 62
     7
 48
0.340865
100
AcDbLine
 10
268.522095
 20
119.669037
 30
0.0
 11
282.156677
 21
119.669037
 31
0.0
210
0.0
220
0.0
230
1.0
  0
LINE
  5
2C
100
AcDbEntity
  8
0
370
    35
390
0
 62
     7
100
AcDbLine
 10
82.726166
 20
157.720917
 30
0.0
 11
137.805252
 21
157.720917
 31
0.0
210
0.0
220
0.0
230
1.0
  0
LINE
  5
2D
100
AcDbEntity
  8
0
370
    35
390
0
 62
     7
 48
0.199999
100
AcDbLine
 10
296.156677
 20
118.569061
 30
0.0
 11
296.156677
 21
126.569031
 31
0.0
210
0.0
220
0.0
230
1.0
  0
LINE
  5
2E
100
AcDbEntity
  8
0
370
    35
390
0
 62
     7
 48
0.25
100
AcDbLine
 10
331.656677
 20
117.569061
 30
0.0
 11
331.656677
 21
127.569061
 31
0.0
210
0.0
220
0.0
230
1.0
  0
LINE
  5
2F
100
AcDbEntity
  8
0
370
    35
390
0
 62
     7
 48
0.295
100
AcDbLine
 10
325.456665
 20
116.669067
 30
0.0
 11
325.456665
 21
128.469055
 31
0.0
210
0.0
220
0.0
230
1.0
  0
LINE
  5
30
100
AcDbEntity
  8
0
370
    35
390
0
 62
     7
 48
0.175
100
AcDbLine
 10
282.156677
 20
119.069061
 30
0.0
 11
282.156677
 21
126.069061
 31
0.0
210
0.0
220
0.0
230
1.0
  0
LINE
  5
31
100
AcDbEntity
  8
0
370
    35
390
0
 62
     7
 48
0.325
100
AcDbLine
 10
301.156677
 20
116.069061
 30
0.0
 11
301.156677
 21
129.069061
 31
0.0
210
0.0
220
0.0
230
1.0
  0
LINE
  5
32
100
AcDbEntity
  8
0
370
    35
390
0
 62
     7
 48
0.325
100
AcDbLine
 10
320.656677
 20
116.069061
 30
0.0
 11
320.656677
 21
129.069061
 31
0.0
210
0.0
220
0.0
230
1.0
  0
LINE
  5
33
100
AcDbEntity
  8
0
370
    35
390
0
 62
     7
 48
0.4875
100
AcDbLine
 10
320.656677
 20
116.069061
 30
0.0
 11
301.156677
 21
116.069061
 31
0.0
210
0.0
220
0.0
230
1.0
  0
LINE
  5
34
100
AcDbEntity
  8
0
370
    35
390
0
 62
     7
 48
0.4875
100
AcDbLine
 10
320.656677
 20
129.069061
 30
0.0
 11
301.156677
 21
129.069061
 31
0.0
210
0.0
220
0.0
230
1.0
  0
LINE
  5
35
100
AcDbEntity
  8
0
370
    35
390
0
 62
     7
 48
0.12
100
AcDbLine
 10
325.456665
 20
116.669067
 30
0.0
 11
320.656677
 21
116.669067
 31
0.0
210
0.0
220
0.0
230
1.0
  0
LINE
  5
36
100
AcDbEntity
  8
0
370
    35
390
0
 62
     7
 48
0.12
100
AcDbLine
 10
325.456665
 20
128.469055
 30
0.0
 11
320.656677
 21
128.469055
 31
0.0
210
0.0
220
0.0
230
1.0
  0
LINE
  5
37
100
AcDbEntity
  8
0
370
    35
390
0
 62
     7
 48
0.155
100
AcDbLine
 10
331.656677
 20
117.569061
 30
0.0
 11
325.456665
 21
117.569061
 31
0.0
210
0.0
220
0.0
230
1.0
  0
LINE
  5
38
100
AcDbEntity
  8
0
370
    35
390
0
 62
     7
 48
0.155
100
AcDbLine
 10
331.656677
 20
127.569061
 30
0.0
 11
325.456665
 21
127.569061
 31
0.0
210
0.0
220
0.0
230
1.0
  0
LINE
  5
39
100
AcDbEntity
  8
0
370
    35
390
0
 62
     7
 48
0.350223
100
AcDbLine
 10
282.156738
 20
119.069031
 30
0.0
 11
296.156738
 21
118.569031
 31
0.0
210
0.0
220
0.0
230
1.0
  0
LINE
  5
3A
100
AcDbEntity
  8
0
370
    35
390
0
 62
     7
 48
0.133721
100
AcDbLine
 10
301.156738
 20
116.669037
 30
0.0
 11
296.156738
 21
118.569031
 31
0.0
210
0.0
220
0.0
230
1.0
  0
LINE
  5
3B
100
AcDbEntity
  8
0
370
    35
390
0
 62
     7
 48
0.350223
100
AcDbLine
 10
282.156677
 20
126.069031
 30
0.0
 11
296.156677
 21
126.569031
 31
0.0
210
0.0
220
0.0
230
1.0
  0
LINE
  5
3C
100
AcDbEntity
  8
0
370
    35
390
0
 62
     7
 48
0.133721
100
AcDbLine
 10
301.156738
 20
128.468964
 30
0.0
 11
296.156738
 21
126.56897
 31
0.0
210
0.0
220
0.0
230
1.0
  0
LINE
  5
3D
100
AcDbEntity
  8
0
370
    35
390
0
 62
     7
 48
0.1625
100
AcDbLine
 10
317.456665
 20
119.319061
 30
0.0
 11
317.456665
 21
125.819061
 31
0.0
210
0.0
220
0.0
230
1.0
  0
LINE
  5
3E
100
AcDbEntity
  8
0
370
    35
390
0
 62
     7
 48
0.1625
100
AcDbLine
 10
310.956665
 20
119.319061
 30
0.0
 11
310.956665
 21
125.819061
 31
0.0
210
0.0
220
0.0
230
1.0
  0
LINE
  5
3F
100
AcDbEntity
  8
0
370
    35
390
0
 62
     7
 48
0.1625
100
AcDbLine
 10
317.456665
 20
119.319061
 30
0.0
 11
310.956665
 21
119.319061
 31
0.0
210
0.0
220
0.0
230
1.0
  0
LINE
  5
40
100
AcDbEntity
  8
0
370
    35
390
0
 62
     7
 48
0.1625
100
AcDbLine
 10
317.456665
 20
125.819061
 30
0.0
 11
310.956665
 21
125.819061
 31
0.0
210
0.0
220
0.0
230
1.0
  0
LINE
  5
41
100
AcDbEntity
  8
0
370
    35
390
0
 62
     7
 48
0.051653
100
AcDbLine
 10
295.119629
 20
124.569061
 30
0.0
 11
295.638184
 21
122.569061
 31
0.0
210
0.0
220
0.0
230
1.0
  0
LINE
  5
42
100
AcDbEntity
  8
0
370
    35
390
0
 62
     7
 48
0.050232
100
AcDbLine
 10
294.615356
 20
118.624084
 30
0.0
 11
295.119568
 21
120.569061
 31
0.0
210
0.0
220
0.0
230
1.0
  0
LINE
  5
43
100
AcDbEntity
  8
0
370
    35
390
0
 62
     7
 48
0.051653
100
AcDbLine
 10
295.119629
 20
120.569061
 30
0.0
 11
294.601135
 21
122.569061
 31
0.0
210
0.0
220
0.0
230
1.0
  0
LINE
  5
44
100
AcDbEntity
  8
0
370
    35
390
0
 62
     7
 48
0.051653
100
AcDbLine
 10
294.601074
 20
122.569061
 30
0.0
 11
294.082581
 21
120.569061
 31
0.0
210
0.0
220
0.0
230
1.0
  0
LINE
  5
45
100
AcDbEntity
  8
0
370
    35
390
0
 62
     7
 48
0.050205
100
AcDbLine
 10
294.082581
 20
120.569061
 30
0.0
 11
294.586487
 21
118.625122
 31
0.0
210
0.0
220
0.0
230
1.0
  0
LINE
  5
46
100
AcDbEntity
  8
0
370
    35
390
0
 62
     7
 48
0.051653
100
AcDbLine
 10
293.564148
 20
122.569061
 30
0.0
 11
294.082703
 21
124.569031
 31
0.0
210
0.0
220
0.0
230
1.0
  0
LINE
  5
47
100
AcDbEntity
  8
0
370
    35
390
0
 62
     7
 48
0.049284
100
AcDbLine
 10
294.082642
 20
124.569061
 30
0.0
 11
293.587891
 21
126.477325
 31
0.0
210
0.0
220
0.0
230
1.0
  0
LINE
  5
48
100
AcDbEntity
  8
0
370
    35
390
0
 62
     7
 48
0.049239
100
AcDbLine
 10
293.539856
 20
126.475586
 30
0.0
 11
293.045593
 21
124.569061
 31
0.0
210
0.0
220
0.0
230
1.0
  0
LINE
  5
49
100
AcDbEntity
  8
0
370
    35
390
0
 62
     7
 48
0.051653
100
AcDbLine
 10
293.045593
 20
124.569061
 30
0.0
 11
293.564087
 21
122.569061
 31
0.0
210
0.0
220
0.0
230
1.0
  0
LINE
  5
4A
100
AcDbEntity
  8
0
370
    35
390
0
 62
     7
 48
0.048337
100
AcDbLine
 10
292.560364
 20
118.697479
 30
0.0
 11
293.045654
 21
120.569061
 31
0.0
210
0.0
220
0.0
230
1.0
  0
LINE
  5
4B
100
AcDbEntity
  8
0
370
    35
390
0
 62
     7
 48
0.051653
100
AcDbLine
 10
293.045593
 20
120.569061
 30
0.0
 11
292.527039
 21
122.569061
 31
0.0
210
0.0
220
0.0
230
1.0
  0
LINE
  5
4C
100
AcDbEntity
  8
0
370
    35
390
0
 62
     7
 48
0.051653
100
AcDbLine
 10
292.5271
 20
122.569061
 30
0.0
 11
292.008545
 21
120.569061
 31
0.0
210
0.0
220
0.0
230
1.0
  0
LINE
  5
4D
100
AcDbEntity
  8
0
370
    35
390
0
 62
     7
 48
0.048273
100
AcDbLine
 10
292.008545
 20
120.569061
 30
0.0
 11
292.493103
 21
118.699921
 31
0.0
210
0.0
220
0.0
230
1.0
  0
LINE
  5
4E
100
AcDbEntity
  8
0
370
    35
390
0
 62
     7
 48
0.051653
100
AcDbLine
 10
291.48999
 20
122.569061
 30
0.0
 11
292.008484
 21
124.569061
 31
0.0
210
0.0
220
0.0
230
1.0
  0
LINE
  5
4F
100
AcDbEntity
  8
0
370
    35
390
0
 62
     7
 48
0.05117
100
AcDbLine
 10
295.633301
 20
126.550354
 30
0.0
 11
295.119629
 21
124.569061
 31
0.0
210
0.0
220
0.0
230
1.0
  0
LINE
  5
50
100
AcDbEntity
  8
0
370
    35
390
0
 62
     7
 48
0.051653
100
AcDbLine
 10
295.638184
 20
122.569061
 30
0.0
 11
296.156677
 21
124.569061
 31
0.0
210
0.0
220
0.0
230
1.0
  0
LINE
  5
51
100
AcDbEntity
  8
0
370
    35
390
0
 62
     7
 48
0.051179
100
AcDbLine
 10
296.156738
 20
124.569061
 30
0.0
 11
295.643005
 21
126.55072
 31
0.0
210
0.0
220
0.0
230
1.0
  0
LINE
  5
52
100
AcDbEntity
  8
0
370
    35
390
0
 62
     7
 48
0.047388
100
AcDbLine
 10
292.008545
 20
124.569061
 30
0.0
 11
291.532837
 21
126.4039
 31
0.0
210
0.0
220
0.0
230
1.0
  0
LINE
  5
53
100
AcDbEntity
  8
0
370
    35
390
0
 62
     7
 48
0.047308
100
AcDbLine
 10
291.446411
 20
126.400848
 30
0.0
 11
290.971558
 21
124.569061
 31
0.0
210
0.0
220
0.0
230
1.0
  0
LINE
  5
54
100
AcDbEntity
  8
0
370
    35
390
0
 62
     7
 48
0.051653
100
AcDbLine
 10
290.971558
 20
124.569061
 30
0.0
 11
291.490112
 21
122.569061
 31
0.0
210
0.0
220
0.0
230
1.0
  0
LINE
  5
55
100
AcDbEntity
  8
0
370
    35
390
0
 62
     7
 48
0.046441
100
AcDbLine
 10
290.50531
 20
118.770905
 30
0.0
 11
290.971558
 21
120.569061
 31
0.0
210
0.0
220
0.0
230
1.0
  0
LINE
  5
56
100
AcDbEntity
  8
0
370
    35
390
0
 62
     7
 48
0.051653
100
AcDbLine
 10
290.971558
 20
120.569061
 30
0.0
 11
290.453003
 21
122.569061
 31
0.0
210
0.0
220
0.0
230
1.0
  0
LINE
  5
57
100
AcDbEntity
  8
0
370
    35
390
0
 62
     7
 48
0.051653
100
AcDbLine
 10
290.453003
 20
122.569061
 30
0.0
 11
289.934509
 21
120.569061
 31
0.0
210
0.0
220
0.0
230
1.0
  0
LINE
  5
58
100
AcDbEntity
  8
0
370
    35
390
0
 62
     7
 48
0.046342
100
AcDbLine
 10
289.934448
 20
120.569031
 30
0.0
 11
290.399658
 21
118.774658
 31
0.0
210
0.0
220
0.0
230
1.0
  0
LINE
  5
59
100
AcDbEntity
  8
0
370
    35
390
0
 62
     7
 48
0.051653
100
AcDbLine
 10
289.415955
 20
122.569031
 30
0.0
 11
289.934509
 21
124.569031
 31
0.0
210
0.0
220
0.0
230
1.0
  0
LINE
  5
5A
100
AcDbEntity
  8
0
370
    35
390
0
 62
     7
 48
0.045493
100
AcDbLine
 10
289.934509
 20
124.569061
 30
0.0
 11
289.477844
 21
126.330536
 31
0.0
210
0.0
220
0.0
230
1.0
  0
LINE
  5
5B
100
AcDbEntity
  8
0
370
    35
390
0
 62
     7
 48
0.045377
100
AcDbLine
 10
289.352905
 20
126.32605
 30
0.0
 11
288.8974
 21
124.569061
 31
0.0
210
0.0
220
0.0
230
1.0
  0
LINE
  5
5C
100
AcDbEntity
  8
0
370
    35
390
0
 62
     7
 48
0.051653
100
AcDbLine
 10
288.897461
 20
124.569061
 30
0.0
 11
289.415955
 21
122.569061
 31
0.0
210
0.0
220
0.0
230
1.0
  0
LINE
  5
5D
100
AcDbEntity
  8
0
370
    35
390
0
 62
     7
 48
0.044545
100
AcDbLine
 10
288.450317
 20
118.844269
 30
0.0
 11
288.897461
 21
120.569031
 31
0.0
210
0.0
220
0.0
230
1.0
  0
LINE
  5
5E
100
AcDbEntity
  8
0
370
    35
390
0
 62
     7
 48
0.301218
100
AcDbLine
 10
251.46257
 20
125.469025
 30
0.0
 11
263.511292
 21
125.469025
 31
0.0
210
0.0
220
0.0
230
1.0
  0
LINE
  5
5F
100
AcDbEntity
  8
0
370
    35
390
0
 62
     7
 48
0.195
100
AcDbLine
 10
251.46257
 20
126.469025
 30
0.0
 11
251.46257
 21
118.669037
 31
0.0
210
0.0
220
0.0
230
1.0
  0
LINE
  5
60
100
AcDbEntity
  8
0
370
    35
390
0
 62
     7
 48
0.012506
100
AcDbLine
 10
241.512558
 20
118.855896
 30
0.0
 11
242.012558
 21
118.871643
 31
0.0
210
0.0
220
0.0
230
1.0
  0
LINE
  5
61
100
AcDbEntity
  8
0
370
    35
390
0
 62
     7
 48
0.012506
100
AcDbLine
 10
241.512558
 20
126.282166
 30
0.0
 11
242.012558
 21
126.266418
 31
0.0
210
0.0
220
0.0
230
1.0
  0
LINE
  5
62
100
AcDbEntity
  8
0
370
    35
390
0
 62
     7
 48
0.208307
100
AcDbLine
 10
243.012558
 20
126.735168
 30
0.0
 11
243.012558
 21
118.402893
 31
0.0
210
0.0
220
0.0
230
1.0
  0
LINE
  5
63
100
AcDbEntity
  8
0
370
    35
390
0
 62
     7
 48
0.209882
100
AcDbLine
 10
242.012558
 20
126.766663
 30
0.0
 11
242.012558
 21
118.371399
 31
0.0
210
0.0
220
0.0
230
1.0
  0
LINE
  5
64
100
AcDbEntity
  8
0
370
    35
390
0
 62
     7
 48
0.028766
100
AcDbLine
 10
240.362503
 20
118.319427
 30
0.0
 11
241.512558
 21
118.355652
 31
0.0
210
0.0
220
0.0
230
1.0
  0
LINE
  5
65
100
AcDbEntity
  8
0
370
    35
390
0
 62
     7
 48
0.210669
100
AcDbLine
 10
241.512558
 20
126.78241
 30
0.0
 11
241.512558
 21
118.355652
 31
0.0
210
0.0
220
0.0
230
1.0
  0
LINE
  5
66
100
AcDbEntity
  8
0
370
    35
390
0
 62
     7
 48
0.028766
100
AcDbLine
 10
240.362503
 20
126.818634
 30
0.0
 11
241.512558
 21
126.78241
 31
0.0
210
0.0
220
0.0
230
1.0
  0
LINE
  5
67
100
AcDbEntity
  8
0
370
    35
390
0
 62
     7
 48
0.20752
100
AcDbLine
 10
243.512558
 20
126.719421
 30
0.0
 11
243.512558
 21
118.41864
 31
0.0
210
0.0
220
0.0
230
1.0
  0
LINE
  5
68
100
AcDbEntity
  8
0
370
    35
390
0
 62
     7
 48
0.205157
100
AcDbLine
 10
245.012558
 20
126.67218
 30
0.0
 11
245.012558
 21
118.465881
 31
0.0
210
0.0
220
0.0
230
1.0
  0
LINE
  5
69
100
AcDbEntity
  8
0
370
    35
390
0
 62
     7
 48
0.205945
100
AcDbLine
 10
244.512558
 20
126.687927
 30
0.0
 11
244.512558
 21
118.450134
 31
0.0
210
0.0
220
0.0
230
1.0
  0
LINE
  5
6A
100
AcDbEntity
  8
0
370
    35
390
0
 62
     7
100
AcDbLine
 10
128.262543
 20
119.669037
 30
0.0
 11
82.752228
 21
119.669037
 31
0.0
210
0.0
220
0.0
230
1.0
  0
LINE
  5
6B
100
AcDbEntity
  8
0
370
    35
390
0
 62
     7
 48
0.203583
100
AcDbLine
 10
246.012558
 20
126.640686
 30
0.0
 11
246.012558
 21
118.497375
 31
0.0
210
0.0
220
0.0
230
1.0
  0
LINE
  5
6C
100
AcDbEntity
  8
0
370
    35
390
0
 62
     7
 48
0.202795
100
AcDbLine
 10
246.512558
 20
126.624939
 30
0.0
 11
246.512558
 21
118.513123
 31
0.0
210
0.0
220
0.0
230
1.0
  0
LINE
  5
6D
100
AcDbEntity
  8
0
370
    35
390
0
 62
     7
 48
0.200433
100
AcDbLine
 10
248.012558
 20
126.577698
 30
0.0
 11
248.012558
 21
118.560364
 31
0.0
210
0.0
220
0.0
230
1.0
  0
LINE
  5
6E
100
AcDbEntity
  8
0
370
    35
390
0
 62
     7
 48
0.201221
100
AcDbLine
 10
247.512558
 20
126.593445
 30
0.0
 11
247.512558
 21
118.544617
 31
0.0
210
0.0
220
0.0
230
1.0
  0
LINE
  5
6F
100
AcDbEntity
  8
0
370
    35
390
0
 62
     7
 48
0.086293
100
AcDbLine
 10
248.012558
 20
118.560364
 30
0.0
 11
251.46257
 21
118.669037
 31
0.0
210
0.0
220
0.0
230
1.0
  0
LINE
  5
70
100
AcDbEntity
  8
0
370
    35
390
0
 62
     7
 48
0.025012
100
AcDbLine
 10
246.512558
 20
118.513123
 30
0.0
 11
247.512558
 21
118.544617
 31
0.0
210
0.0
220
0.0
230
1.0
  0
LINE
  5
71
100
AcDbEntity
  8
0
370
    35
390
0
 62
     7
 48
0.025012
100
AcDbLine
 10
245.012558
 20
118.465881
 30
0.0
 11
246.012558
 21
118.497375
 31
0.0
210
0.0
220
0.0
230
1.0
  0
LINE
  5
72
100
AcDbEntity
  8
0
370
    35
390
0
 62
     7
 48
0.025012
100
AcDbLine
 10
243.512558
 20
118.41864
 30
0.0
 11
244.512558
 21
118.450134
 31
0.0
210
0.0
220
0.0
230
1.0
  0
LINE
  5
73
100
AcDbEntity
  8
0
370
    35
390
0
 62
     7
 48
0.025012
100
AcDbLine
 10
242.012558
 20
118.371399
 30
0.0
 11
243.012558
 21
118.402893
 31
0.0
210
0.0
220
0.0
230
1.0
  0
LINE
  5
74
100
AcDbEntity
  8
0
370
    35
390
0
 62
     7
 48
0.025012
100
AcDbLine
 10
242.012558
 20
126.766663
 30
0.0
 11
243.012558
 21
126.735168
 31
0.0
210
0.0
220
0.0
230
1.0
  0
LINE
  5
75
100
AcDbEntity
  8
0
370
    35
390
0
 62
     7
 48
0.025012
100
AcDbLine
 10
243.512558
 20
126.719421
 30
0.0
 11
244.512558
 21
126.687927
 31
0.0
210
0.0
220
0.0
230
1.0
  0
LINE
  5
76
100
AcDbEntity
  8
0
370
    35
390
0
 62
     7
 48
0.025012
100
AcDbLine
 10
245.012558
 20
126.67218
 30
0.0
 11
246.012558
 21
126.640686
 31
0.0
210
0.0
220
0.0
230
1.0
  0
LINE
  5
77
100
AcDbEntity
  8
0
370
    35
390
0
 62
     7
 48
0.025012
100
AcDbLine
 10
246.512558
 20
126.624939
 30
0.0
 11
247.512558
 21
126.593445
 31
0.0
210
0.0
220
0.0
230
1.0
  0
LINE
  5
78
100
AcDbEntity
  8
0
370
    35
390
0
 62
     7
 48
0.086293
100
AcDbLine
 10
248.012558
 20
126.577698
 30
0.0
 11
251.46257
 21
126.469025
 31
0.0
210
0.0
220
0.0
230
1.0
  0
LINE
  5
79
100
AcDbEntity
  8
0
370
    35
390
0
 62
     7
 48
0.051653
100
AcDbLine
 10
288.8974
 20
120.569061
 30
0.0
 11
288.378906
 21
122.569061
 31
0.0
210
0.0
220
0.0
230
1.0
  0
LINE
  5
7A
100
AcDbEntity
  8
0
370
    35
390
0
 62
     7
 48
0.051653
100
AcDbLine
 10
288.378967
 20
122.569061
 30
0.0
 11
287.860413
 21
120.569061
 31
0.0
210
0.0
220
0.0
230
1.0
  0
LINE
  5
7B
100
AcDbEntity
  8
0
370
    35
390
0
 62
     7
 48
0.044412
100
AcDbLine
 10
287.860413
 20
120.569061
 30
0.0
 11
288.306213
 21
118.849426
 31
0.0
210
0.0
220
0.0
230
1.0
  0
LINE
  5
7C
100
AcDbEntity
  8
0
370
    35
390
0
 62
     7
 48
0.051653
100
AcDbLine
 10
287.341858
 20
122.569061
 30
0.0
 11
287.860413
 21
124.569061
 31
0.0
210
0.0
220
0.0
230
1.0
  0
LINE
  5
7D
100
AcDbEntity
  8
0
370
    35
390
0
 62
     7
 48
0.043596
100
AcDbLine
 10
287.860352
 20
124.569061
 30
0.0
 11
287.422729
 21
126.257111
 31
0.0
210
0.0
220
0.0
230
1.0
  0
LINE
  5
7E
100
AcDbEntity
  8
0
370
    35
390
0
 62
     7
 48
0.043447
100
AcDbLine
 10
287.259521
 20
126.251312
 30
0.0
 11
286.823364
 21
124.569061
 31
0.0
210
0.0
220
0.0
230
1.0
  0
LINE
  5
7F
100
AcDbEntity
  8
0
370
    35
390
0
 62
     7
 48
0.051653
100
AcDbLine
 10
286.823364
 20
124.569061
 30
0.0
 11
287.341797
 21
122.569061
 31
0.0
210
0.0
220
0.0
230
1.0
  0
LINE
  5
80
100
AcDbEntity
  8
0
370
    35
390
0
 62
     7
 48
0.042649
100
AcDbLine
 10
286.395203
 20
118.917694
 30
0.0
 11
286.823303
 21
120.569061
 31
0.0
210
0.0
220
0.0
230
1.0
  0
LINE
  5
81
100
AcDbEntity
  8
0
370
    35
390
0
 62
     7
 48
0.051653
100
AcDbLine
 10
286.823303
 20
120.569061
 30
0.0
 11
286.30481
 21
122.569061
 31
0.0
210
0.0
220
0.0
230
1.0
  0
LINE
  5
82
100
AcDbEntity
  8
0
370
    35
390
0
 62
     7
 48
0.051653
100
AcDbLine
 10
286.304871
 20
122.569061
 30
0.0
 11
285.786316
 21
120.569061
 31
0.0
210
0.0
220
0.0
230
1.0
  0
LINE
  5
83
100
AcDbEntity
  8
0
370
    35
390
0
 62
     7
 48
0.042481
100
AcDbLine
 10
285.786316
 20
120.569061
 30
0.0
 11
286.212769
 21
118.924194
 31
0.0
210
0.0
220
0.0
230
1.0
  0
LINE
  5
84
100
AcDbEntity
  8
0
370
    35
390
0
 62
     7
 48
0.051653
100
AcDbLine
 10
285.267822
 20
122.569061
 30
0.0
 11
285.786316
 21
124.569061
 31
0.0
210
0.0
220
0.0
230
1.0
  0
LINE
  5
85
100
AcDbEntity
  8
0
370
    35
390
0
 62
     7
 48
0.041702
100
AcDbLine
 10
285.786316
 20
124.569061
 30
0.0
 11
285.367676
 21
126.183746
 31
0.0
210
0.0
220
0.0
230
1.0
  0
LINE
  5
86
100
AcDbEntity
  8
0
370
    35
390
0
 62
     7
 48
0.041515
100
AcDbLine
 10
285.166016
 20
126.176514
 30
0.0
 11
284.749268
 21
124.569061
 31
0.0
210
0.0
220
0.0
230
1.0
  0
LINE
  5
87
100
AcDbEntity
  8
0
370
    35
390
0
 62
     7
 48
0.051653
100
AcDbLine
 10
284.749329
 20
124.569061
 30
0.0
 11
285.267822
 21
122.569061
 31
0.0
210
0.0
220
0.0
230
1.0
  0
LINE
  5
88
100
AcDbEntity
  8
0
370
    35
390
0
 62
     7
 48
0.040754
100
AcDbLine
 10
284.340149
 20
118.991058
 30
0.0
 11
284.749268
 21
120.569061
 31
0.0
210
0.0
220
0.0
230
1.0
  0
LINE
  5
89
100
AcDbEntity
  8
0
370
    35
390
0
 62
     7
 48
0.051653
100
AcDbLine
 10
284.749329
 20
120.569061
 30
0.0
 11
284.230774
 21
122.569061
 31
0.0
210
0.0
220
0.0
230
1.0
  0
LINE
  5
8A
100
AcDbEntity
  8
0
370
    35
390
0
 62
     7
 48
0.051653
100
AcDbLine
 10
284.230713
 20
122.569061
 30
0.0
 11
283.712219
 21
120.569061
 31
0.0
210
0.0
220
0.0
230
1.0
  0
LINE
  5
8B
100
AcDbEntity
  8
0
370
    35
390
0
 62
     7
 48
0.04055
100
AcDbLine
 10
283.712219
 20
120.569061
 30
0.0
 11
284.119263
 21
118.998962
 31
0.0
210
0.0
220
0.0
230
1.0
  0
LINE
  5
8C
100
AcDbEntity
  8
0
370
    35
390
0
 62
     7
 48
0.051653
100
AcDbLine
 10
283.193787
 20
122.569031
 30
0.0
 11
283.71228
 21
124.569031
 31
0.0
210
0.0
220
0.0
230
1.0
  0
LINE
  5
8D
100
AcDbEntity
  8
0
370
    35
390
0
 62
     7
 48
0.039806
100
AcDbLine
 10
283.71228
 20
124.569061
 30
0.0
 11
283.312683
 21
126.110352
 31
0.0
210
0.0
220
0.0
230
1.0
  0
LINE
  5
8E
100
AcDbEntity
  8
0
370
    35
390
0
 62
     7
 48
0.039585
100
AcDbLine
 10
283.072571
 20
126.101776
 30
0.0
 11
282.675171
 21
124.569061
 31
0.0
210
0.0
220
0.0
230
1.0
  0
LINE
  5
8F
100
AcDbEntity
  8
0
370
    35
390
0
 62
     7
 48
0.051653
100
AcDbLine
 10
282.675232
 20
124.569061
 30
0.0
 11
283.193787
 21
122.569092
 31
0.0
210
0.0
220
0.0
230
1.0
  0
LINE
  5
90
100
AcDbEntity
  8
0
370
    35
390
0
 62
     7
 48
0.1625
100
AcDbLine
 10
305.456665
 20
119.319061
 30
0.0
 11
305.456665
 21
125.819061
 31
0.0
210
0.0
220
0.0
230
1.0
  0
LINE
  5
91
100
AcDbEntity
  8
0
370
    35
390
0
 62
     7
 48
0.1625
100
AcDbLine
 10
306.956665
 20
119.319061
 30
0.0
 11
306.956665
 21
125.819061
 31
0.0
210
0.0
220
0.0
230
1.0
  0
LINE
  5
92
100
AcDbEntity
  8
0
370
    35
390
0
 62
     7
 48
0.1625
100
AcDbLine
 10
307.456665
 20
119.319061
 30
0.0
 11
307.456665
 21
125.819061
 31
0.0
210
0.0
220
0.0
230
1.0
  0
LINE
  5
93
100
AcDbEntity
  8
0
370
    35
390
0
 62
     7
 48
0.1625
100
AcDbLine
 10
308.956665
 20
119.319061
 30
0.0
 11
308.956665
 21
125.819061
 31
0.0
210
0.0
220
0.0
230
1.0
  0
LINE
  5
94
100
AcDbEntity
  8
0
370
    35
390
0
 62
     7
 48
0.1625
100
AcDbLine
 10
309.456665
 20
119.319061
 30
0.0
 11
309.456665
 21
125.819061
 31
0.0
210
0.0
220
0.0
230
1.0
  0
LINE
  5
95
100
AcDbEntity
  8
0
370
    35
390
0
 62
     7
 48
0.1625
100
AcDbLine
 10
304.956665
 20
119.319061
 30
0.0
 11
304.956665
 21
125.819061
 31
0.0
210
0.0
220
0.0
230
1.0
  0
LINE
  5
96
100
AcDbEntity
  8
0
370
    35
390
0
 62
     7
 48
0.0125
100
AcDbLine
 10
309.456665
 20
119.319061
 30
0.0
 11
308.956665
 21
119.319061
 31
0.0
210
0.0
220
0.0
230
1.0
  0
LINE
  5
97
100
AcDbEntity
  8
0
370
    35
390
0
 62
     7
 48
0.0125
100
AcDbLine
 10
309.456665
 20
125.819061
 30
0.0
 11
308.956665
 21
125.819061
 31
0.0
210
0.0
220
0.0
230
1.0
  0
LINE
  5
98
100
AcDbEntity
  8
0
370
    35
390
0
 62
     7
 48
0.0125
100
AcDbLine
 10
307.456665
 20
119.319061
 30
0.0
 11
306.956665
 21
119.319061
 31
0.0
210
0.0
220
0.0
230
1.0
  0
LINE
  5
99
100
AcDbEntity
  8
0
370
    35
390
0
 62
     7
 48
0.0125
100
AcDbLine
 10
307.456665
 20
125.819061
 30
0.0
 11
306.956665
 21
125.819061
 31
0.0
210
0.0
220
0.0
230
1.0
  0
LINE
  5
9A
100
AcDbEntity
  8
0
370
    35
390
0
 62
     7
 48
0.0125
100
AcDbLine
 10
305.456665
 20
119.319061
 30
0.0
 11
304.956665
 21
119.319061
 31
0.0
210
0.0
220
0.0
230
1.0
  0
LINE
  5
9B
100
AcDbEntity
  8
0
370
    35
390
0
 62
     7
 48
0.0125
100
AcDbLine
 10
305.456665
 20
125.819061
 30
0.0
 11
304.956665
 21
125.819061
 31
0.0
210
0.0
220
0.0
230
1.0
  0
LINE
  5
9C
100
AcDbEntity
  8
0
370
    35
390
0
 62
     7
 48
0.084085
100
AcDbLine
 10
316.456665
 20
122.569061
 30
0.0
 11
313.956665
 21
124.819061
 31
0.0
210
0.0
220
0.0
230
1.0
  0
LINE
  5
9D
100
AcDbEntity
  8
0
370
    35
390
0
 62
     7
 48
0.05
100
AcDbLine
 10
311.956665
 20
121.569061
 30
0.0
 11
311.956665
 21
123.569061
 31
0.0
210
0.0
220
0.0
230
1.0
  0
LINE
  5
9E
100
AcDbEntity
  8
0
370
    35
390
0
 62
     7
 48
0.084085
100
AcDbLine
 10
313.956726
 20
120.31897
 30
0.0
 11
316.456726
 21
122.56897
 31
0.0
210
0.0
220
0.0
230
1.0
  0
LINE
  5
9F
100
AcDbEntity
  8
0
370
    35
390
0
 62
     7
 48
0.03125
100
AcDbLine
 10
313.956665
 20
123.569061
 30
0.0
 11
313.956665
 21
124.819061
 31
0.0
210
0.0
220
0.0
230
1.0
  0
LINE
  5
A0
100
AcDbEntity
  8
0
370
    35
390
0
 62
     7
 48
0.05
100
AcDbLine
 10
313.956665
 20
121.569061
 30
0.0
 11
311.956665
 21
121.569061
 31
0.0
210
0.0
220
0.0
230
1.0
  0
LINE
  5
A1
100
AcDbEntity
  8
0
370
    35
390
0
 62
     7
 48
0.05
100
AcDbLine
 10
313.956665
 20
123.569061
 30
0.0
 11
311.956665
 21
123.569061
 31
0.0
210
0.0
220
0.0
230
1.0
  0
LINE
  5
A2
100
AcDbEntity
  8
0
370
    35
390
0
 62
     7
 48
0.03125
100
AcDbLine
 10
313.956665
 20
120.319061
 30
0.0
 11
313.956665
 21
121.569061
 31
0.0
210
0.0
220
0.0
230
1.0
  0
LINE
  5
A3
100
AcDbEntity
  8
0
370
    35
390
0
 62
     7
 48
0.012506
100
AcDbLine
 10
136.71254
 20
126.234924
 30
0.0
 11
136.21254
 21
126.219177
 31
0.0
210
0.0
220
0.0
230
1.0
  0
LINE
  5
A4
100
AcDbEntity
  8
0
370
    35
390
0
 62
     7
 48
0.012506
100
AcDbLine
 10
135.21254
 20
126.187683
 30
0.0
 11
134.71254
 21
126.171936
 31
0.0
210
0.0
220
0.0
230
1.0
  0
LINE
  5
A5
100
AcDbEntity
  8
0
370
    35
390
0
 62
     7
 48
0.012506
100
AcDbLine
 10
133.71254
 20
126.140442
 30
0.0
 11
133.21254
 21
126.124695
 31
0.0
210
0.0
220
0.0
230
1.0
  0
LINE
  5
A6
100
AcDbEntity
  8
0
370
    35
390
0
 62
     7
 48
0.012506
100
AcDbLine
 10
132.21254
 20
126.093201
 30
0.0
 11
131.71254
 21
126.077454
 31
0.0
210
0.0
220
0.0
230
1.0
  0
LINE
  5
A7
100
AcDbEntity
  8
0
370
    35
390
0
 62
     7
 48
0.012506
100
AcDbLine
 10
136.71254
 20
118.903137
 30
0.0
 11
136.21254
 21
118.918884
 31
0.0
210
0.0
220
0.0
230
1.0
  0
LINE
  5
A8
100
AcDbEntity
  8
0
370
    35
390
0
 62
     7
 48
0.012506
100
AcDbLine
 10
135.21254
 20
118.950378
 30
0.0
 11
134.71254
 21
118.966125
 31
0.0
210
0.0
220
0.0
230
1.0
  0
LINE
  5
A9
100
AcDbEntity
  8
0
370
    35
390
0
 62
     7
 48
0.012506
100
AcDbLine
 10
133.71254
 20
118.99762
 30
0.0
 11
133.21254
 21
119.013367
 31
0.0
210
0.0
220
0.0
230
1.0
  0
LINE
  5
AA
100
AcDbEntity
  8
0
370
    35
390
0
 62
     7
 48
0.012506
100
AcDbLine
 10
132.21254
 20
119.044861
 30
0.0
 11
131.71254
 21
119.060608
 31
0.0
210
0.0
220
0.0
230
1.0
  0
LINE
  5
AB
100
AcDbEntity
  8
0
370
    35
390
0
 62
     7
 48
0.086293
100
AcDbLine
 10
131.71254
 20
126.577698
 30
0.0
 11
128.262543
 21
126.469025
 31
0.0
210
0.0
220
0.0
230
1.0
  0
LINE
  5
AC
100
AcDbEntity
  8
0
370
    35
390
0
 62
     7
 48
0.025012
100
AcDbLine
 10
133.21254
 20
126.624939
 30
0.0
 11
132.21254
 21
126.593445
 31
0.0
210
0.0
220
0.0
230
1.0
  0
LINE
  5
AD
100
AcDbEntity
  8
0
370
    35
390
0
 62
     7
 48
0.025012
100
AcDbLine
 10
134.71254
 20
126.67218
 30
0.0
 11
133.71254
 21
126.640686
 31
0.0
210
0.0
220
0.0
230
1.0
  0
LINE
  5
AE
100
AcDbEntity
  8
0
370
    35
390
0
 62
     7
 48
0.025012
100
AcDbLine
 10
136.21254
 20
126.719421
 30
0.0
 11
135.21254
 21
126.687927
 31
0.0
210
0.0
220
0.0
230
1.0
  0
LINE
  5
AF
100
AcDbEntity
  8
0
370
    35
390
0
 62
     7
 48
0.025012
100
AcDbLine
 10
137.71254
 20
126.766663
 30
0.0
 11
136.71254
 21
126.735168
 31
0.0
210
0.0
220
0.0
230
1.0
  0
LINE
  5
B0
100
AcDbEntity
  8
0
370
    35
390
0
 62
     7
 48
0.025012
100
AcDbLine
 10
137.71254
 20
118.371399
 30
0.0
 11
136.71254
 21
118.402893
 31
0.0
210
0.0
220
0.0
230
1.0
  0
LINE
  5
B1
100
AcDbEntity
  8
0
370
    35
390
0
 62
     7
 48
0.025012
100
AcDbLine
 10
136.21254
 20
118.41864
 30
0.0
 11
135.21254
 21
118.450134
 31
0.0
210
0.0
220
0.0
230
1.0
  0
LINE
  5
B2
100
AcDbEntity
  8
0
370
    35
390
0
 62
     7
 48
0.025012
100
AcDbLine
 10
134.71254
 20
118.465881
 30
0.0
 11
133.71254
 21
118.497375
 31
0.0
210
0.0
220
0.0
230
1.0
  0
LINE
  5
B3
100
AcDbEntity
  8
0
370
    35
390
0
 62
     7
 48
0.025012
100
AcDbLine
 10
133.21254
 20
118.513123
 30
0.0
 11
132.21254
 21
118.544617
 31
0.0
210
0.0
220
0.0
230
1.0
  0
LINE
  5
B4
100
AcDbEntity
  8
0
370
    35
390
0
 62
     7
 48
0.086293
100
AcDbLine
 10
131.71254
 20
118.560364
 30
0.0
 11
128.262543
 21
118.669037
 31
0.0
210
0.0
220
0.0
230
1.0
  0
LINE
  5
B5
100
AcDbEntity
  8
0
370
    35
390
0
 62
     7
 48
0.201221
100
AcDbLine
 10
132.21254
 20
126.593445
 30
0.0
 11
132.21254
 21
118.544617
 31
0.0
210
0.0
220
0.0
230
1.0
  0
LINE
  5
B6
100
AcDbEntity
  8
0
370
    35
390
0
 62
     7
 48
0.200433
100
AcDbLine
 10
131.71254
 20
126.577698
 30
0.0
 11
131.71254
 21
118.560364
 31
0.0
210
0.0
220
0.0
230
1.0
  0
LINE
  5
B7
100
AcDbEntity
  8
0
370
    35
390
0
 62
     7
 48
0.202795
100
AcDbLine
 10
133.21254
 20
126.624939
 30
0.0
 11
133.21254
 21
118.513123
 31
0.0
210
0.0
220
0.0
230
1.0
  0
LINE
  5
B8
100
AcDbEntity
  8
0
370
    35
390
0
 62
     7
 48
0.203583
100
AcDbLine
 10
133.71254
 20
126.640686
 30
0.0
 11
133.71254
 21
118.497375
 31
0.0
210
0.0
220
0.0
230
1.0
  0
LINE
  5
B9
100
AcDbEntity
  8
0
370
    35
390
0
 62
     7
 48
0.205945
100
AcDbLine
 10
135.21254
 20
126.687927
 30
0.0
 11
135.21254
 21
118.450134
 31
0.0
210
0.0
220
0.0
230
1.0
  0
LINE
  5
BA
100
AcDbEntity
  8
0
370
    35
390
0
 62
     7
 48
0.205157
100
AcDbLine
 10
134.71254
 20
126.67218
 30
0.0
 11
134.71254
 21
118.465881
 31
0.0
210
0.0
220
0.0
230
1.0
  0
LINE
  5
BB
100
AcDbEntity
  8
0
370
    35
390
0
 62
     7
 48
0.20752
100
AcDbLine
 10
136.21254
 20
126.719421
 30
0.0
 11
136.21254
 21
118.41864
 31
0.0
210
0.0
220
0.0
230
1.0
  0
LINE
  5
BC
100
AcDbEntity
  8
0
370
    35
390
0
 62
     7
 48
0.028764
100
AcDbLine
 10
139.362534
 20
126.818634
 30
0.0
 11
138.21254
 21
126.78241
 31
0.0
210
0.0
220
0.0
230
1.0
  0
LINE
  5
BD
100
AcDbEntity
  8
0
370
    35
390
0
 62
     7
 48
0.210669
100
AcDbLine
 10
138.21254
 20
126.78241
 30
0.0
 11
138.21254
 21
118.355652
 31
0.0
210
0.0
220
0.0
230
1.0
  0
LINE
  5
BE
100
AcDbEntity
  8
0
370
    35
390
0
 62
     7
 48
0.028764
100
AcDbLine
 10
139.362534
 20
118.319427
 30
0.0
 11
138.21254
 21
118.355652
 31
0.0
210
0.0
220
0.0
230
1.0
  0
LINE
  5
BF
100
AcDbEntity
  8
0
370
    35
390
0
 62
     7
 48
0.209882
100
AcDbLine
 10
137.71254
 20
126.766663
 30
0.0
 11
137.71254
 21
118.371399
 31
0.0
210
0.0
220
0.0
230
1.0
  0
LINE
  5
C0
100
AcDbEntity
  8
0
370
    35
390
0
 62
     7
 48
0.208307
100
AcDbLine
 10
136.71254
 20
126.735168
 30
0.0
 11
136.71254
 21
118.402893
 31
0.0
210
0.0
220
0.0
230
1.0
  0
LINE
  5
C1
100
AcDbEntity
  8
0
370
    35
390
0
 62
     7
 48
0.012506
100
AcDbLine
 10
247.512558
 20
119.044861
 30
0.0
 11
248.012558
 21
119.060608
 31
0.0
210
0.0
220
0.0
230
1.0
  0
LINE
  5
C2
100
AcDbEntity
  8
0
370
    35
390
0
 62
     7
 48
0.012506
100
AcDbLine
 10
138.21254
 20
126.282166
 30
0.0
 11
137.71254
 21
126.266418
 31
0.0
210
0.0
220
0.0
230
1.0
  0
LINE
  5
C3
100
AcDbEntity
  8
0
370
    35
390
0
 62
     7
 48
0.012506
100
AcDbLine
 10
246.012558
 20
118.99762
 30
0.0
 11
246.512558
 21
119.013367
 31
0.0
210
0.0
220
0.0
230
1.0
  0
LINE
  5
C4
100
AcDbEntity
  8
0
370
    35
390
0
 62
     7
 48
0.012506
100
AcDbLine
 10
244.512558
 20
118.950378
 30
0.0
 11
245.012558
 21
118.966125
 31
0.0
210
0.0
220
0.0
230
1.0
  0
LINE
  5
C5
100
AcDbEntity
  8
0
370
    35
390
0
 62
     7
 48
0.012506
100
AcDbLine
 10
243.012558
 20
118.903137
 30
0.0
 11
243.512558
 21
118.918884
 31
0.0
210
0.0
220
0.0
230
1.0
  0
LINE
  5
C6
100
AcDbEntity
  8
0
370
    35
390
0
 62
     7
 48
0.012506
100
AcDbLine
 10
247.512558
 20
126.093201
 30
0.0
 11
248.012558
 21
126.077454
 31
0.0
210
0.0
220
0.0
230
1.0
  0
LINE
  5
C7
100
AcDbEntity
  8
0
370
    35
390
0
 62
     7
 48
0.020125
100
AcDbLine
 10
239.55751
 20
135.769043
 30
0.0
 11
240.362503
 21
135.769043
 31
0.0
210
0.0
220
0.0
230
1.0
  0
LINE
  5
C8
100
AcDbEntity
  8
0
370
    35
390
0
 62
     7
 48
0.02
100
AcDbLine
 10
239.562515
 20
135.764038
 30
0.0
 11
240.362503
 21
135.764038
 31
0.0
210
0.0
220
0.0
230
1.0
  0
LINE
  5
C9
100
AcDbEntity
  8
0
370
    35
390
0
 62
     7
 48
0.012506
100
AcDbLine
 10
246.012558
 20
126.140442
 30
0.0
 11
246.512558
 21
126.124695
 31
0.0
210
0.0
220
0.0
230
1.0
  0
LINE
  5
CA
100
AcDbEntity
  8
0
370
    35
390
0
 62
     7
 48
0.012506
100
AcDbLine
 10
244.512558
 20
126.187683
 30
0.0
 11
245.012558
 21
126.171936
 31
0.0
210
0.0
220
0.0
230
1.0
  0
LINE
  5
CB
100
AcDbEntity
  8
0
370
    35
390
0
 62
     7
 48
0.012506
100
AcDbLine
 10
138.21254
 20
118.855896
 30
0.0
 11
137.71254
 21
118.871643
 31
0.0
210
0.0
220
0.0
230
1.0
  0
LINE
  5
CC
100
AcDbEntity
  8
0
370
    35
390
0
 62
     7
 48
0.012506
100
AcDbLine
 10
243.012558
 20
126.234924
 30
0.0
 11
243.512558
 21
126.219177
 31
0.0
210
0.0
220
0.0
230
1.0
  0
LINE
  5
CD
100
AcDbEntity
  8
0
370
    35
390
0
 62
     7
100
AcDbLine
 10
140.167542
 20
136.569031
 30
0.0
 11
239.55751
 21
136.569031
 31
0.0
210
0.0
220
0.0
230
1.0
  0
LINE
  5
CE
100
AcDbEntity
  8
0
370
    35
390
0
 62
     7
 48
0.020125
100
AcDbLine
 10
239.55751
 20
136.569031
 30
0.0
 11
240.362503
 21
136.569031
 31
0.0
210
0.0
220
0.0
230
1.0
  0
LINE
  5
CF
100
AcDbEntity
  8
0
370
    35
390
0
 62
     7
 48
0.020125
100
AcDbLine
 10
139.362534
 20
136.569031
 30
0.0
 11
140.167542
 21
136.569031
 31
0.0
210
0.0
220
0.0
230
1.0
  0
LINE
  5
D0
100
AcDbEntity
  8
0
370
    35
390
0
 62
     7
 48
0.000125
100
AcDbLine
 10
239.55751
 20
135.764038
 30
0.0
 11
239.562515
 21
135.764038
 31
0.0
210
0.0
220
0.0
230
1.0
  0
LINE
  5
D1
100
AcDbEntity
  8
0
370
    35
390
0
 62
     7
 48
0.195
100
AcDbLine
 10
128.262543
 20
126.469025
 30
0.0
 11
128.262543
 21
118.669037
 31
0.0
210
0.0
220
0.0
230
1.0
  0
LINE
  5
D2
100
AcDbEntity
  8
0
370
    35
390
0
 62
     7
 48
0.020125
100
AcDbLine
 10
139.362534
 20
135.769043
 30
0.0
 11
140.167542
 21
135.769043
 31
0.0
210
0.0
220
0.0
230
1.0
  0
LINE
  5
D3
100
AcDbEntity
  8
0
370
    35
390
0
 62
     7
 48
0.020125
100
AcDbLine
 10
239.55751
 20
135.764038
 30
0.0
 11
239.55751
 21
136.569031
 31
0.0
210
0.0
220
0.0
230
1.0
  0
LINE
  5
D4
100
AcDbEntity
  8
0
370
    35
390
0
 62
     7
 48
0.02
100
AcDbLine
 10
139.362534
 20
135.769043
 30
0.0
 11
139.362534
 21
136.569031
 31
0.0
210
0.0
220
0.0
230
1.0
  0
LINE
  5
D5
100
AcDbEntity
  8
0
370
    35
390
0
 62
     7
 48
0.02
100
AcDbLine
 10
240.362503
 20
135.769043
 30
0.0
 11
240.362503
 21
136.569031
 31
0.0
210
0.0
220
0.0
230
1.0
  0
LINE
  5
D6
100
AcDbEntity
  8
0
370
    35
390
0
 62
     7
100
AcDbLine
 10
139.362534
 20
108.569031
 30
0.0
 11
240.362503
 21
108.569031
 31
0.0
210
0.0
220
0.0
230
1.0
  0
LINE
  5
D7
100
AcDbEntity
  8
0
370
    35
390
0
 62
     7
 48
0.175
100
AcDbLine
 10
132.362534
 20
135.764038
 30
0.0
 11
139.362534
 21
135.764038
 31
0.0
210
0.0
220
0.0
230
1.0
  0
LINE
  5
D8
100
AcDbEntity
  8
0
370
    35
390
0
 62
     7
 48
0.020125
100
AcDbLine
 10
239.55751
 20
109.369019
 30
0.0
 11
240.362503
 21
109.369019
 31
0.0
210
0.0
220
0.0
230
1.0
  0
LINE
  5
D9
100
AcDbEntity
  8
0
370
    35
390
0
 62
     7
 48
0.222375
100
AcDbLine
 10
139.362534
 20
135.764038
 30
0.0
 11
139.362534
 21
126.869019
 31
0.0
210
0.0
220
0.0
230
1.0
  0
LINE
  5
DA
100
AcDbEntity
  8
0
370
    35
390
0
 62
     7
 48
0.02
100
AcDbLine
 10
139.362534
 20
135.764038
 30
0.0
 11
140.162537
 21
135.764038
 31
0.0
210
0.0
220
0.0
230
1.0
  0
LINE
  5
DB
100
AcDbEntity
  8
0
370
    35
390
0
 62
     7
 48
0.122375
100
AcDbLine
 10
249.362503
 20
111.374023
 30
0.0
 11
249.362503
 21
116.269043
 31
0.0
210
0.0
220
0.0
230
1.0
  0
LINE
  5
DC
100
AcDbEntity
  8
0
370
    35
390
0
 62
     7
 48
0.175
100
AcDbLine
 10
139.362534
 20
126.869019
 30
0.0
 11
132.362534
 21
126.869019
 31
0.0
210
0.0
220
0.0
230
1.0
  0
LINE
  5
DD
100
AcDbEntity
  8
0
370
    35
390
0
 62
     7
 48
0.222375
100
AcDbLine
 10
240.362503
 20
118.269043
 30
0.0
 11
240.362503
 21
109.374023
 31
0.0
210
0.0
220
0.0
230
1.0
  0
LINE
  5
DE
100
AcDbEntity
  8
0
370
    35
390
0
 62
     7
 48
0.02
100
AcDbLine
 10
239.562515
 20
109.374023
 30
0.0
 11
240.362503
 21
109.374023
 31
0.0
210
0.0
220
0.0
230
1.0
  0
LINE
  5
DF
100
AcDbEntity
  8
0
370
    35
390
0
 62
     7
 48
0.175
100
AcDbLine
 10
247.362503
 20
109.374023
 30
0.0
 11
240.362503
 21
109.374023
 31
0.0
210
0.0
220
0.0
230
1.0
  0
LINE
  5
E0
100
AcDbEntity
  8
0
370
    35
390
0
 62
     7
 48
0.175
100
AcDbLine
 10
247.362503
 20
118.269043
 30
0.0
 11
240.362503
 21
118.269043
 31
0.0
210
0.0
220
0.0
230
1.0
  0
LINE
  5
E1
100
AcDbEntity
  8
0
370
    35
390
0
 62
     7
 48
0.122375
100
AcDbLine
 10
130.362534
 20
133.764038
 30
0.0
 11
130.362534
 21
128.869019
 31
0.0
210
0.0
220
0.0
230
1.0
  0
LINE
  5
E2
100
AcDbEntity
  8
0
370
    35
390
0
 62
     7
 48
0.437375
100
AcDbLine
 10
240.362503
 20
109.374023
 30
0.0
 11
240.362503
 21
126.869019
 31
0.0
210
0.0
220
0.0
230
1.0
  0
LINE
  5
E3
100
AcDbEntity
  8
0
370
    35
390
0
 62
     7
 48
0.025
100
AcDbLine
 10
139.362534
 20
118.269043
 30
0.0
 11
139.362534
 21
117.269043
 31
0.0
210
0.0
220
0.0
230
1.0
  0
LINE
  5
E4
100
AcDbEntity
  8
0
370
    35
390
0
 62
     7
 48
0.197375
100
AcDbLine
 10
139.362534
 20
117.269043
 30
0.0
 11
139.362534
 21
109.374023
 31
0.0
210
0.0
220
0.0
230
1.0
  0
LINE
  5
E5
100
AcDbEntity
  8
0
370
    35
390
0
 62
     7
 48
0.025
100
AcDbLine
 10
240.362503
 20
126.869019
 30
0.0
 11
240.362503
 21
127.869019
 31
0.0
210
0.0
220
0.0
230
1.0
  0
LINE
  5
E6
100
AcDbEntity
  8
0
370
    35
390
0
 62
     7
 48
0.197375
100
AcDbLine
 10
240.362503
 20
127.869019
 30
0.0
 11
240.362503
 21
135.764038
 31
0.0
210
0.0
220
0.0
230
1.0
  0
LINE
  5
E7
100
AcDbEntity
  8
0
370
    35
390
0
 62
     7
 48
0.000125
100
AcDbLine
 10
239.55751
 20
109.374023
 30
0.0
 11
239.562515
 21
109.374023
 31
0.0
210
0.0
220
0.0
230
1.0
  0
LINE
  5
E8
100
AcDbEntity
  8
0
370
    35
390
0
 62
     7
 48
0.340865
100
AcDbLine
 10
268.522095
 20
125.469025
 30
0.0
 11
282.156677
 21
125.469025
 31
0.0
210
0.0
220
0.0
230
1.0
  0
LINE
  5
E9
100
AcDbEntity
  8
0
370
    35
390
0
 62
     7
100
AcDbLine
 10
128.262543
 20
125.469025
 30
0.0
 11
82.726166
 21
125.469025
 31
0.0
210
0.0
220
0.0
230
1.0
  0
LINE
  5
EA
100
AcDbEntity
  8
0
370
    35
390
0
 62
     7
 48
0.301218
100
AcDbLine
 10
251.46257
 20
119.669037
 30
0.0
 11
263.511292
 21
119.669037
 31
0.0
210
0.0
220
0.0
230
1.0
  0
LINE
  5
EB
100
AcDbEntity
  8
0
370
    35
390
0
 62
     7
 48
0.020125
100
AcDbLine
 10
139.362534
 20
109.369019
 30
0.0
 11
140.167542
 21
109.369019
 31
0.0
210
0.0
220
0.0
230
1.0
  0
LINE
  5
EC
100
AcDbEntity
  8
0
370
    35
390
0
 62
     7
 48
0.02
100
AcDbLine
 10
140.162537
 20
109.374023
 30
0.0
 11
139.362534
 21
109.374023
 31
0.0
210
0.0
220
0.0
230
1.0
  0
LINE
  5
ED
100
AcDbEntity
  8
0
370
    35
390
0
 62
     7
 48
0.000125
100
AcDbLine
 10
140.162537
 20
109.374023
 30
0.0
 11
140.167542
 21
109.374023
 31
0.0
210
0.0
220
0.0
230
1.0
  0
LINE
  5
EE
100
AcDbEntity
  8
0
370
    35
390
0
 62
     7
 48
0.437375
100
AcDbLine
 10
139.362534
 20
135.764038
 30
0.0
 11
139.362534
 21
118.269043
 31
0.0
210
0.0
220
0.0
230
1.0
  0
LINE
  5
EF
100
AcDbEntity
  8
0
370
    35
390
0
 62
     7
 48
0.02
100
AcDbLine
 10
139.362534
 20
108.569031
 30
0.0
 11
139.362534
 21
109.369019
 31
0.0
210
0.0
220
0.0
230
1.0
  0
LINE
  5
F0
100
AcDbEntity
  8
0
370
    35
390
0
 62
     7
 48
0.02
100
AcDbLine
 10
240.362503
 20
108.569031
 30
0.0
 11
240.362503
 21
109.369019
 31
0.0
210
0.0
220
0.0
230
1.0
  0
LINE
  5
F1
100
AcDbEntity
  8
0
370
    35
390
0
 62
     7
 48
0.020125
100
AcDbLine
 10
239.55751
 20
108.569031
 30
0.0
 11
239.55751
 21
109.374023
 31
0.0
210
0.0
220
0.0
230
1.0
  0
LINE
  5
F2
100
AcDbEntity
  8
0
370
    35
390
0
 62
     7
 48
0.000125
100
AcDbLine
 10
140.162537
 20
135.764038
 30
0.0
 11
140.167542
 21
135.764038
 31
0.0
210
0.0
220
0.0
230
1.0
  0
LINE
  5
F3
100
AcDbEntity
  8
0
370
    35
390
0
 62
     7
 48
0.020125
100
AcDbLine
 10
140.167542
 20
135.764038
 30
0.0
 11
140.167542
 21
136.569031
 31
0.0
210
0.0
220
0.0
230
1.0
  0
LINE
  5
F4
100
AcDbEntity
  8
0
370
    35
390
0
 62
     7
 48
0.020125
100
AcDbLine
 10
140.167542
 20
108.569031
 30
0.0
 11
140.167542
 21
109.374023
 31
0.0
210
0.0
220
0.0
230
1.0
  0
LINE
  5
F5
100
AcDbEntity
  8
0
370
    35
390
0
 62
     7
 48
0.340865
100
AcDbLine
 10
268.522095
 20
59.669037
 30
0.0
 11
282.156677
 21
59.669037
 31
0.0
210
0.0
220
0.0
230
1.0
  0
LINE
  5
F6
100
AcDbEntity
  8
0
370
    35
390
0
 62
     7
 48
0.199999
100
AcDbLine
 10
296.156677
 20
58.569061
 30
0.0
 11
296.156677
 21
66.569031
 31
0.0
210
0.0
220
0.0
230
1.0
  0
LINE
  5
F7
100
AcDbEntity
  8
0
370
    35
390
0
 62
     7
 48
0.25
100
AcDbLine
 10
331.656677
 20
57.569061
 30
0.0
 11
331.656677
 21
67.569061
 31
0.0
210
0.0
220
0.0
230
1.0
  0
LINE
  5
F8
100
AcDbEntity
  8
0
370
    35
390
0
 62
     7
 48
0.295
100
AcDbLine
 10
325.456665
 20
56.669067
 30
0.0
 11
325.456665
 21
68.469055
 31
0.0
210
0.0
220
0.0
230
1.0
  0
LINE
  5
F9
100
AcDbEntity
  8
0
370
    35
390
0
 62
     7
 48
0.175
100
AcDbLine
 10
282.156677
 20
59.069061
 30
0.0
 11
282.156677
 21
66.069061
 31
0.0
210
0.0
220
0.0
230
1.0
  0
LINE
  5
FA
100
AcDbEntity
  8
0
370
    35
390
0
 62
     7
 48
0.325
100
AcDbLine
 10
301.156677
 20
56.069061
 30
0.0
 11
301.156677
 21
69.069061
 31
0.0
210
0.0
220
0.0
230
1.0
  0
LINE
  5
FB
100
AcDbEntity
  8
0
370
    35
390
0
 62
     7
 48
0.325
100
AcDbLine
 10
320.656677
 20
56.069061
 30
0.0
 11
320.656677
 21
69.069061
 31
0.0
210
0.0
220
0.0
230
1.0
  0
LINE
  5
FC
100
AcDbEntity
  8
0
370
    35
390
0
 62
     7
 48
0.4875
100
AcDbLine
 10
320.656677
 20
56.069061
 30
0.0
 11
301.156677
 21
56.069061
 31
0.0
210
0.0
220
0.0
230
1.0
  0
LINE
  5
FD
100
AcDbEntity
  8
0
370
    35
390
0
 62
     7
 48
0.4875
100
AcDbLine
 10
320.656677
 20
69.069061
 30
0.0
 11
301.156677
 21
69.069061
 31
0.0
210
0.0
220
0.0
230
1.0
  0
LINE
  5
FE
100
AcDbEntity
  8
0
370
    35
390
0
 62
     7
 48
0.12
100
AcDbLine
 10
325.456665
 20
56.669067
 30
0.0
 11
320.656677
 21
56.669067
 31
0.0
210
0.0
220
0.0
230
1.0
  0
LINE
  5
FF
100
AcDbEntity
  8
0
370
    35
390
0
 62
     7
 48
0.12
100
AcDbLine
 10
325.456665
 20
68.469055
 30
0.0
 11
320.656677
 21
68.469055
 31
0.0
210
0.0
220
0.0
230
1.0
  0
LINE
  5
100
100
AcDbEntity
  8
0
370
    35
390
0
 62
     7
 48
0.155
100
AcDbLine
 10
331.656677
 20
57.569061
 30
0.0
 11
325.456665
 21
57.569061
 31
0.0
210
0.0
220
0.0
230
1.0
  0
LINE
  5
101
100
AcDbEntity
  8
0
370
    35
390
0
 62
     7
 48
0.155
100
AcDbLine
 10
331.656677
 20
67.569061
 30
0.0
 11
325.456665
 21
67.569061
 31
0.0
210
0.0
220
0.0
230
1.0
  0
LINE
  5
102
100
AcDbEntity
  8
0
370
    35
390
0
 62
     7
 48
0.350223
100
AcDbLine
 10
282.156738
 20
59.069031
 30
0.0
 11
296.156738
 21
58.569031
 31
0.0
210
0.0
220
0.0
230
1.0
  0
LINE
  5
103
100
AcDbEntity
  8
0
370
    35
390
0
 62
     7
 48
0.133721
100
AcDbLine
 10
301.156738
 20
56.669037
 30
0.0
 11
296.156738
 21
58.569031
 31
0.0
210
0.0
220
0.0
230
1.0
  0
LINE
  5
104
100
AcDbEntity
  8
0
370
    35
390
0
 62
     7
 48
0.350223
100
AcDbLine
 10
282.156677
 20
66.069031
 30
0.0
 11
296.156677
 21
66.569031
 31
0.0
210
0.0
220
0.0
230
1.0
  0
LINE
  5
105
100
AcDbEntity
  8
0
370
    35
390
0
 62
     7
 48
0.133721
100
AcDbLine
 10
301.156738
 20
68.468964
 30
0.0
 11
296.156738
 21
66.56897
 31
0.0
210
0.0
220
0.0
230
1.0
  0
LINE
  5
106
100
AcDbEntity
  8
0
370
    35
390
0
 62
     7
 48
0.051653
100
AcDbLine
 10
295.119629
 20
64.569061
 30
0.0
 11
295.638184
 21
62.569061
 31
0.0
210
0.0
220
0.0
230
1.0
  0
LINE
  5
107
100
AcDbEntity
  8
0
370
    35
390
0
 62
     7
 48
0.050232
100
AcDbLine
 10
294.615356
 20
58.624084
 30
0.0
 11
295.119568
 21
60.569061
 31
0.0
210
0.0
220
0.0
230
1.0
  0
LINE
  5
108
100
AcDbEntity
  8
0
370
    35
390
0
 62
     7
 48
0.051653
100
AcDbLine
 10
295.119629
 20
60.569061
 30
0.0
 11
294.601135
 21
62.569061
 31
0.0
210
0.0
220
0.0
230
1.0
  0
LINE
  5
109
100
AcDbEntity
  8
0
370
    35
390
0
 62
     7
 48
0.051653
100
AcDbLine
 10
294.601074
 20
62.569061
 30
0.0
 11
294.082581
 21
60.569061
 31
0.0
210
0.0
220
0.0
230
1.0
  0
LINE
  5
10A
100
AcDbEntity
  8
0
370
    35
390
0
 62
     7
 48
0.050205
100
AcDbLine
 10
294.082581
 20
60.569061
 30
0.0
 11
294.586487
 21
58.625122
 31
0.0
210
0.0
220
0.0
230
1.0
  0
LINE
  5
10B
100
AcDbEntity
  8
0
370
    35
390
0
 62
     7
 48
0.051653
100
AcDbLine
 10
293.564148
 20
62.569061
 30
0.0
 11
294.082703
 21
64.569031
 31
0.0
210
0.0
220
0.0
230
1.0
  0
LINE
  5
10C
100
AcDbEntity
  8
0
370
    35
390
0
 62
     7
 48
0.049284
100
AcDbLine
 10
294.082642
 20
64.569061
 30
0.0
 11
293.587891
 21
66.477325
 31
0.0
210
0.0
220
0.0
230
1.0
  0
LINE
  5
10D
100
AcDbEntity
  8
0
370
    35
390
0
 62
     7
 48
0.049239
100
AcDbLine
 10
293.539856
 20
66.475586
 30
0.0
 11
293.045593
 21
64.569061
 31
0.0
210
0.0
220
0.0
230
1.0
  0
LINE
  5
10E
100
AcDbEntity
  8
0
370
    35
390
0
 62
     7
 48
0.051653
100
AcDbLine
 10
293.045593
 20
64.569061
 30
0.0
 11
293.564087
 21
62.569061
 31
0.0
210
0.0
220
0.0
230
1.0
  0
LINE
  5
10F
100
AcDbEntity
  8
0
370
    35
390
0
 62
     7
 48
0.048337
100
AcDbLine
 10
292.560364
 20
58.697479
 30
0.0
 11
293.045654
 21
60.569061
 31
0.0
210
0.0
220
0.0
230
1.0
  0
LINE
  5
110
100
AcDbEntity
  8
0
370
    35
390
0
 62
     7
 48
0.051653
100
AcDbLine
 10
293.045593
 20
60.569061
 30
0.0
 11
292.527039
 21
62.569061
 31
0.0
210
0.0
220
0.0
230
1.0
  0
LINE
  5
111
100
AcDbEntity
  8
0
370
    35
390
0
 62
     7
 48
0.051653
100
AcDbLine
 10
292.5271
 20
62.569061
 30
0.0
 11
292.008545
 21
60.569061
 31
0.0
210
0.0
220
0.0
230
1.0
  0
LINE
  5
112
100
AcDbEntity
  8
0
370
    35
390
0
 62
     7
 48
0.048273
100
AcDbLine
 10
292.008545
 20
60.569061
 30
0.0
 11
292.493103
 21
58.699921
 31
0.0
210
0.0
220
0.0
230
1.0
  0
LINE
  5
113
100
AcDbEntity
  8
0
370
    35
390
0
 62
     7
 48
0.051653
100
AcDbLine
 10
291.48999
 20
62.569061
 30
0.0
 11
292.008484
 21
64.569061
 31
0.0
210
0.0
220
0.0
230
1.0
  0
LINE
  5
114
100
AcDbEntity
  8
0
370
    35
390
0
 62
     7
 48
0.05117
100
AcDbLine
 10
295.633301
 20
66.550354
 30
0.0
 11
295.119629
 21
64.569061
 31
0.0
210
0.0
220
0.0
230
1.0
  0
LINE
  5
115
100
AcDbEntity
  8
0
370
    35
390
0
 62
     7
 48
0.051653
100
AcDbLine
 10
295.638184
 20
62.569061
 30
0.0
 11
296.156677
 21
64.569061
 31
0.0
210
0.0
220
0.0
230
1.0
  0
LINE
  5
116
100
AcDbEntity
  8
0
370
    35
390
0
 62
     7
 48
0.051179
100
AcDbLine
 10
296.156738
 20
64.569061
 30
0.0
 11
295.643005
 21
66.55072
 31
0.0
210
0.0
220
0.0
230
1.0
  0
LINE
  5
117
100
AcDbEntity
  8
0
370
    35
390
0
 62
     7
 48
0.047388
100
AcDbLine
 10
292.008545
 20
64.569061
 30
0.0
 11
291.532837
 21
66.4039
 31
0.0
210
0.0
220
0.0
230
1.0
  0
LINE
  5
118
100
AcDbEntity
  8
0
370
    35
390
0
 62
     7
 48
0.047308
100
AcDbLine
 10
291.446411
 20
66.400848
 30
0.0
 11
290.971558
 21
64.569061
 31
0.0
210
0.0
220
0.0
230
1.0
  0
LINE
  5
119
100
AcDbEntity
  8
0
370
    35
390
0
 62
     7
 48
0.051653
100
AcDbLine
 10
290.971558
 20
64.569061
 30
0.0
 11
291.490112
 21
62.569061
 31
0.0
210
0.0
220
0.0
230
1.0
  0
LINE
  5
11A
100
AcDbEntity
  8
0
370
    35
390
0
 62
     7
 48
0.046441
100
AcDbLine
 10
290.50531
 20
58.770905
 30
0.0
 11
290.971558
 21
60.569061
 31
0.0
210
0.0
220
0.0
230
1.0
  0
LINE
  5
11B
100
AcDbEntity
  8
0
370
    35
390
0
 62
     7
 48
0.051653
100
AcDbLine
 10
290.971558
 20
60.569061
 30
0.0
 11
290.453003
 21
62.569061
 31
0.0
210
0.0
220
0.0
230
1.0
  0
LINE
  5
11C
100
AcDbEntity
  8
0
370
    35
390
0
 62
     7
 48
0.051653
100
AcDbLine
 10
290.453003
 20
62.569061
 30
0.0
 11
289.934509
 21
60.569061
 31
0.0
210
0.0
220
0.0
230
1.0
  0
LINE
  5
11D
100
AcDbEntity
  8
0
370
    35
390
0
 62
     7
 48
0.046342
100
AcDbLine
 10
289.934448
 20
60.569031
 30
0.0
 11
290.399658
 21
58.774658
 31
0.0
210
0.0
220
0.0
230
1.0
  0
LINE
  5
11E
100
AcDbEntity
  8
0
370
    35
390
0
 62
     7
 48
0.051653
100
AcDbLine
 10
289.415955
 20
62.569031
 30
0.0
 11
289.934509
 21
64.569031
 31
0.0
210
0.0
220
0.0
230
1.0
  0
LINE
  5
11F
100
AcDbEntity
  8
0
370
    35
390
0
 62
     7
 48
0.045493
100
AcDbLine
 10
289.934509
 20
64.569061
 30
0.0
 11
289.477844
 21
66.330536
 31
0.0
210
0.0
220
0.0
230
1.0
  0
LINE
  5
120
100
AcDbEntity
  8
0
370
    35
390
0
 62
     7
 48
0.045377
100
AcDbLine
 10
289.352905
 20
66.32605
 30
0.0
 11
288.8974
 21
64.569061
 31
0.0
210
0.0
220
0.0
230
1.0
  0
LINE
  5
121
100
AcDbEntity
  8
0
370
    35
390
0
 62
     7
 48
0.051653
100
AcDbLine
 10
288.897461
 20
64.569061
 30
0.0
 11
289.415955
 21
62.569061
 31
0.0
210
0.0
220
0.0
230
1.0
  0
LINE
  5
122
100
AcDbEntity
  8
0
370
    35
390
0
 62
     7
 48
0.044545
100
AcDbLine
 10
288.450317
 20
58.844269
 30
0.0
 11
288.897461
 21
60.569031
 31
0.0
210
0.0
220
0.0
230
1.0
  0
LINE
  5
123
100
AcDbEntity
  8
0
370
    35
390
0
 62
     7
 48
0.301218
100
AcDbLine
 10
251.46257
 20
65.469025
 30
0.0
 11
263.511292
 21
65.469025
 31
0.0
210
0.0
220
0.0
230
1.0
  0
LINE
  5
124
100
AcDbEntity
  8
0
370
    35
390
0
 62
     7
 48
0.195
100
AcDbLine
 10
251.46257
 20
66.469025
 30
0.0
 11
251.46257
 21
58.669037
 31
0.0
210
0.0
220
0.0
230
1.0
  0
LINE
  5
125
100
AcDbEntity
  8
0
370
    35
390
0
 62
     7
 48
0.012506
100
AcDbLine
 10
241.512558
 20
58.855896
 30
0.0
 11
242.012558
 21
58.871643
 31
0.0
210
0.0
220
0.0
230
1.0
  0
LINE
  5
126
100
AcDbEntity
  8
0
370
    35
390
0
 62
     7
 48
0.012506
100
AcDbLine
 10
241.512558
 20
66.282166
 30
0.0
 11
242.012558
 21
66.266418
 31
0.0
210
0.0
220
0.0
230
1.0
  0
LINE
  5
127
100
AcDbEntity
  8
0
370
    35
390
0
 62
     7
 48
0.208307
100
AcDbLine
 10
243.012558
 20
66.735168
 30
0.0
 11
243.012558
 21
58.402893
 31
0.0
210
0.0
220
0.0
230
1.0
  0
LINE
  5
128
100
AcDbEntity
  8
0
370
    35
390
0
 62
     7
 48
0.209882
100
AcDbLine
 10
242.012558
 20
66.766663
 30
0.0
 11
242.012558
 21
58.371399
 31
0.0
210
0.0
220
0.0
230
1.0
  0
LINE
  5
129
100
AcDbEntity
  8
0
370
    35
390
0
 62
     7
 48
0.028766
100
AcDbLine
 10
240.362503
 20
58.319427
 30
0.0
 11
241.512558
 21
58.355652
 31
0.0
210
0.0
220
0.0
230
1.0
  0
LINE
  5
12A
100
AcDbEntity
  8
0
370
    35
390
0
 62
     7
 48
0.210669
100
AcDbLine
 10
241.512558
 20
66.78241
 30
0.0
 11
241.512558
 21
58.355652
 31
0.0
210
0.0
220
0.0
230
1.0
  0
LINE
  5
12B
100
AcDbEntity
  8
0
370
    35
390
0
 62
     7
 48
0.028766
100
AcDbLine
 10
240.362503
 20
66.818634
 30
0.0
 11
241.512558
 21
66.78241
 31
0.0
210
0.0
220
0.0
230
1.0
  0
LINE
  5
12C
100
AcDbEntity
  8
0
370
    35
390
0
 62
     7
 48
0.20752
100
AcDbLine
 10
243.512558
 20
66.719421
 30
0.0
 11
243.512558
 21
58.41864
 31
0.0
210
0.0
220
0.0
230
1.0
  0
LINE
  5
12D
100
AcDbEntity
  8
0
370
    35
390
0
 62
     7
 48
0.205157
100
AcDbLine
 10
245.012558
 20
66.67218
 30
0.0
 11
245.012558
 21
58.465881
 31
0.0
210
0.0
220
0.0
230
1.0
  0
LINE
  5
12E
100
AcDbEntity
  8
0
370
    35
390
0
 62
     7
 48
0.205945
100
AcDbLine
 10
244.512558
 20
66.687927
 30
0.0
 11
244.512558
 21
58.450134
 31
0.0
210
0.0
220
0.0
230
1.0
  0
LINE
  5
12F
100
AcDbEntity
  8
0
370
    35
390
0
 62
     7
 48
0.301219
100
AcDbLine
 10
128.262543
 20
59.669037
 30
0.0
 11
116.213776
 21
59.669037
 31
0.0
210
0.0
220
0.0
230
1.0
  0
LINE
  5
130
100
AcDbEntity
  8
0
370
    35
390
0
 62
     7
 48
0.203583
100
AcDbLine
 10
246.012558
 20
66.640686
 30
0.0
 11
246.012558
 21
58.497375
 31
0.0
210
0.0
220
0.0
230
1.0
  0
LINE
  5
131
100
AcDbEntity
  8
0
370
    35
390
0
 62
     7
 48
0.202795
100
AcDbLine
 10
246.512558
 20
66.624939
 30
0.0
 11
246.512558
 21
58.513123
 31
0.0
210
0.0
220
0.0
230
1.0
  0
LINE
  5
132
100
AcDbEntity
  8
0
370
    35
390
0
 62
     7
 48
0.200433
100
AcDbLine
 10
248.012558
 20
66.577698
 30
0.0
 11
248.012558
 21
58.560364
 31
0.0
210
0.0
220
0.0
230
1.0
  0
LINE
  5
133
100
AcDbEntity
  8
0
370
    35
390
0
 62
     7
 48
0.201221
100
AcDbLine
 10
247.512558
 20
66.593445
 30
0.0
 11
247.512558
 21
58.544617
 31
0.0
210
0.0
220
0.0
230
1.0
  0
LINE
  5
134
100
AcDbEntity
  8
0
370
    35
390
0
 62
     7
 48
0.086293
100
AcDbLine
 10
248.012558
 20
58.560364
 30
0.0
 11
251.46257
 21
58.669037
 31
0.0
210
0.0
220
0.0
230
1.0
  0
LINE
  5
135
100
AcDbEntity
  8
0
370
    35
390
0
 62
     7
 48
0.025012
100
AcDbLine
 10
246.512558
 20
58.513123
 30
0.0
 11
247.512558
 21
58.544617
 31
0.0
210
0.0
220
0.0
230
1.0
  0
LINE
  5
136
100
AcDbEntity
  8
0
370
    35
390
0
 62
     7
 48
0.025012
100
AcDbLine
 10
245.012558
 20
58.465881
 30
0.0
 11
246.012558
 21
58.497375
 31
0.0
210
0.0
220
0.0
230
1.0
  0
LINE
  5
137
100
AcDbEntity
  8
0
370
    35
390
0
 62
     7
 48
0.025012
100
AcDbLine
 10
243.512558
 20
58.41864
 30
0.0
 11
244.512558
 21
58.450134
 31
0.0
210
0.0
220
0.0
230
1.0
  0
LINE
  5
138
100
AcDbEntity
  8
0
370
    35
390
0
 62
     7
 48
0.025012
100
AcDbLine
 10
242.012558
 20
58.371399
 30
0.0
 11
243.012558
 21
58.402893
 31
0.0
210
0.0
220
0.0
230
1.0
  0
LINE
  5
139
100
AcDbEntity
  8
0
370
    35
390
0
 62
     7
 48
0.025012
100
AcDbLine
 10
242.012558
 20
66.766663
 30
0.0
 11
243.012558
 21
66.735168
 31
0.0
210
0.0
220
0.0
230
1.0
  0
LINE
  5
13A
100
AcDbEntity
  8
0
370
    35
390
0
 62
     7
 48
0.025012
100
AcDbLine
 10
243.512558
 20
66.719421
 30
0.0
 11
244.512558
 21
66.687927
 31
0.0
210
0.0
220
0.0
230
1.0
  0
LINE
  5
13B
100
AcDbEntity
  8
0
370
    35
390
0
 62
     7
 48
0.025012
100
AcDbLine
 10
245.012558
 20
66.67218
 30
0.0
 11
246.012558
 21
66.640686
 31
0.0
210
0.0
220
0.0
230
1.0
  0
LINE
  5
13C
100
AcDbEntity
  8
0
370
    35
390
0
 62
     7
 48
0.025012
100
AcDbLine
 10
246.512558
 20
66.624939
 30
0.0
 11
247.512558
 21
66.593445
 31
0.0
210
0.0
220
0.0
230
1.0
  0
LINE
  5
13D
100
AcDbEntity
  8
0
370
    35
390
0
 62
     7
 48
0.086293
100
AcDbLine
 10
248.012558
 20
66.577698
 30
0.0
 11
251.46257
 21
66.469025
 31
0.0
210
0.0
220
0.0
230
1.0
  0
LINE
  5
13E
100
AcDbEntity
  8
0
370
    35
390
0
 62
     7
 48
0.051653
100
AcDbLine
 10
288.8974
 20
60.569061
 30
0.0
 11
288.378906
 21
62.569061
 31
0.0
210
0.0
220
0.0
230
1.0
  0
LINE
  5
13F
100
AcDbEntity
  8
0
370
    35
390
0
 62
     7
 48
0.051653
100
AcDbLine
 10
288.378967
 20
62.569061
 30
0.0
 11
287.860413
 21
60.569061
 31
0.0
210
0.0
220
0.0
230
1.0
  0
LINE
  5
140
100
AcDbEntity
  8
0
370
    35
390
0
 62
     7
 48
0.044412
100
AcDbLine
 10
287.860413
 20
60.569061
 30
0.0
 11
288.306213
 21
58.849426
 31
0.0
210
0.0
220
0.0
230
1.0
  0
LINE
  5
141
100
AcDbEntity
  8
0
370
    35
390
0
 62
     7
 48
0.051653
100
AcDbLine
 10
287.341858
 20
62.569061
 30
0.0
 11
287.860413
 21
64.569061
 31
0.0
210
0.0
220
0.0
230
1.0
  0
LINE
  5
142
100
AcDbEntity
  8
0
370
    35
390
0
 62
     7
 48
0.043596
100
AcDbLine
 10
287.860352
 20
64.569061
 30
0.0
 11
287.422729
 21
66.257111
 31
0.0
210
0.0
220
0.0
230
1.0
  0
LINE
  5
143
100
AcDbEntity
  8
0
370
    35
390
0
 62
     7
 48
0.043447
100
AcDbLine
 10
287.259521
 20
66.251312
 30
0.0
 11
286.823364
 21
64.569061
 31
0.0
210
0.0
220
0.0
230
1.0
  0
LINE
  5
144
100
AcDbEntity
  8
0
370
    35
390
0
 62
     7
 48
0.051653
100
AcDbLine
 10
286.823364
 20
64.569061
 30
0.0
 11
287.341797
 21
62.569061
 31
0.0
210
0.0
220
0.0
230
1.0
  0
LINE
  5
145
100
AcDbEntity
  8
0
370
    35
390
0
 62
     7
 48
0.042649
100
AcDbLine
 10
286.395203
 20
58.917694
 30
0.0
 11
286.823303
 21
60.569061
 31
0.0
210
0.0
220
0.0
230
1.0
  0
LINE
  5
146
100
AcDbEntity
  8
0
370
    35
390
0
 62
     7
 48
0.051653
100
AcDbLine
 10
286.823303
 20
60.569061
 30
0.0
 11
286.30481
 21
62.569061
 31
0.0
210
0.0
220
0.0
230
1.0
  0
LINE
  5
147
100
AcDbEntity
  8
0
370
    35
390
0
 62
     7
 48
0.051653
100
AcDbLine
 10
286.304871
 20
62.569061
 30
0.0
 11
285.786316
 21
60.569061
 31
0.0
210
0.0
220
0.0
230
1.0
  0
LINE
  5
148
100
AcDbEntity
  8
0
370
    35
390
0
 62
     7
 48
0.042481
100
AcDbLine
 10
285.786316
 20
60.569061
 30
0.0
 11
286.212769
 21
58.924194
 31
0.0
210
0.0
220
0.0
230
1.0
  0
LINE
  5
149
100
AcDbEntity
  8
0
370
    35
390
0
 62
     7
 48
0.051653
100
AcDbLine
 10
285.267822
 20
62.569061
 30
0.0
 11
285.786316
 21
64.569061
 31
0.0
210
0.0
220
0.0
230
1.0
  0
LINE
  5
14A
100
AcDbEntity
  8
0
370
    35
390
0
 62
     7
 48
0.041702
100
AcDbLine
 10
285.786316
 20
64.569061
 30
0.0
 11
285.367676
 21
66.183746
 31
0.0
210
0.0
220
0.0
230
1.0
  0
LINE
  5
14B
100
AcDbEntity
  8
0
370
    35
390
0
 62
     7
 48
0.041515
100
AcDbLine
 10
285.166016
 20
66.176514
 30
0.0
 11
284.749268
 21
64.569061
 31
0.0
210
0.0
220
0.0
230
1.0
  0
LINE
  5
14C
100
AcDbEntity
  8
0
370
    35
390
0
 62
     7
 48
0.051653
100
AcDbLine
 10
284.749329
 20
64.569061
 30
0.0
 11
285.267822
 21
62.569061
 31
0.0
210
0.0
220
0.0
230
1.0
  0
LINE
  5
14D
100
AcDbEntity
  8
0
370
    35
390
0
 62
     7
 48
0.040754
100
AcDbLine
 10
284.340149
 20
58.991058
 30
0.0
 11
284.749268
 21
60.569061
 31
0.0
210
0.0
220
0.0
230
1.0
  0
LINE
  5
14E
100
AcDbEntity
  8
0
370
    35
390
0
 62
     7
 48
0.051653
100
AcDbLine
 10
284.749329
 20
60.569061
 30
0.0
 11
284.230774
 21
62.569061
 31
0.0
210
0.0
220
0.0
230
1.0
  0
LINE
  5
14F
100
AcDbEntity
  8
0
370
    35
390
0
 62
     7
 48
0.051653
100
AcDbLine
 10
284.230713
 20
62.569061
 30
0.0
 11
283.712219
 21
60.569061
 31
0.0
210
0.0
220
0.0
230
1.0
  0
LINE
  5
150
100
AcDbEntity
  8
0
370
    35
390
0
 62
     7
 48
0.04055
100
AcDbLine
 10
283.712219
 20
60.569061
 30
0.0
 11
284.119263
 21
58.998962
 31
0.0
210
0.0
220
0.0
230
1.0
  0
LINE
  5
151
100
AcDbEntity
  8
0
370
    35
390
0
 62
     7
 48
0.051653
100
AcDbLine
 10
283.193787
 20
62.569031
 30
0.0
 11
283.71228
 21
64.569031
 31
0.0
210
0.0
220
0.0
230
1.0
  0
LINE
  5
152
100
AcDbEntity
  8
0
370
    35
390
0
 62
     7
 48
0.039806
100
AcDbLine
 10
283.71228
 20
64.569061
 30
0.0
 11
283.312683
 21
66.110352
 31
0.0
210
0.0
220
0.0
230
1.0
  0
LINE
  5
153
100
AcDbEntity
  8
0
370
    35
390
0
 62
     7
 48
0.039585
100
AcDbLine
 10
283.072571
 20
66.101776
 30
0.0
 11
282.675171
 21
64.569061
 31
0.0
210
0.0
220
0.0
230
1.0
  0
LINE
  5
154
100
AcDbEntity
  8
0
370
    35
390
0
 62
     7
 48
0.051653
100
AcDbLine
 10
282.675232
 20
64.569061
 30
0.0
 11
283.193787
 21
62.569092
 31
0.0
210
0.0
220
0.0
230
1.0
  0
LINE
  5
155
100
AcDbEntity
  8
0
370
    35
390
0
 62
     7
 48
0.125
100
AcDbLine
 10
301.156677
 20
63.569031
 30
0.0
 11
306.156677
 21
63.569031
 31
0.0
210
0.0
220
0.0
230
1.0
  0
LINE
  5
156
100
AcDbEntity
  8
0
370
    35
390
0
 62
     7
 48
0.125
100
AcDbLine
 10
301.156677
 20
61.569031
 30
0.0
 11
306.156677
 21
61.569031
 31
0.0
210
0.0
220
0.0
230
1.0
  0
LINE
  5
157
100
AcDbEntity
  8
0
370
    35
390
0
 62
     7
 48
0.012506
100
AcDbLine
 10
136.71254
 20
66.234924
 30
0.0
 11
136.21254
 21
66.219177
 31
0.0
210
0.0
220
0.0
230
1.0
  0
LINE
  5
158
100
AcDbEntity
  8
0
370
    35
390
0
 62
     7
 48
0.012506
100
AcDbLine
 10
135.21254
 20
66.187683
 30
0.0
 11
134.71254
 21
66.171936
 31
0.0
210
0.0
220
0.0
230
1.0
  0
LINE
  5
159
100
AcDbEntity
  8
0
370
    35
390
0
 62
     7
 48
0.012506
100
AcDbLine
 10
133.71254
 20
66.140442
 30
0.0
 11
133.21254
 21
66.124695
 31
0.0
210
0.0
220
0.0
230
1.0
  0
LINE
  5
15A
100
AcDbEntity
  8
0
370
    35
390
0
 62
     7
 48
0.012506
100
AcDbLine
 10
132.21254
 20
66.093201
 30
0.0
 11
131.71254
 21
66.077454
 31
0.0
210
0.0
220
0.0
230
1.0
  0
LINE
  5
15B
100
AcDbEntity
  8
0
370
    35
390
0
 62
     7
 48
0.012506
100
AcDbLine
 10
136.71254
 20
58.903137
 30
0.0
 11
136.21254
 21
58.918884
 31
0.0
210
0.0
220
0.0
230
1.0
  0
LINE
  5
15C
100
AcDbEntity
  8
0
370
    35
390
0
 62
     7
 48
0.012506
100
AcDbLine
 10
135.21254
 20
58.950378
 30
0.0
 11
134.71254
 21
58.966125
 31
0.0
210
0.0
220
0.0
230
1.0
  0
LINE
  5
15D
100
AcDbEntity
  8
0
370
    35
390
0
 62
     7
 48
0.012506
100
AcDbLine
 10
133.71254
 20
58.99762
 30
0.0
 11
133.21254
 21
59.013367
 31
0.0
210
0.0
220
0.0
230
1.0
  0
LINE
  5
15E
100
AcDbEntity
  8
0
370
    35
390
0
 62
     7
 48
0.012506
100
AcDbLine
 10
132.21254
 20
59.044861
 30
0.0
 11
131.71254
 21
59.060608
 31
0.0
210
0.0
220
0.0
230
1.0
  0
LINE
  5
15F
100
AcDbEntity
  8
0
370
    35
390
0
 62
     7
 48
0.086293
100
AcDbLine
 10
131.71254
 20
66.577698
 30
0.0
 11
128.262543
 21
66.469025
 31
0.0
210
0.0
220
0.0
230
1.0
  0
LINE
  5
160
100
AcDbEntity
  8
0
370
    35
390
0
 62
     7
 48
0.025012
100
AcDbLine
 10
133.21254
 20
66.624939
 30
0.0
 11
132.21254
 21
66.593445
 31
0.0
210
0.0
220
0.0
230
1.0
  0
LINE
  5
161
100
AcDbEntity
  8
0
370
    35
390
0
 62
     7
 48
0.025012
100
AcDbLine
 10
134.71254
 20
66.67218
 30
0.0
 11
133.71254
 21
66.640686
 31
0.0
210
0.0
220
0.0
230
1.0
  0
LINE
  5
162
100
AcDbEntity
  8
0
370
    35
390
0
 62
     7
 48
0.025012
100
AcDbLine
 10
136.21254
 20
66.719421
 30
0.0
 11
135.21254
 21
66.687927
 31
0.0
210
0.0
220
0.0
230
1.0
  0
LINE
  5
163
100
AcDbEntity
  8
0
370
    35
390
0
 62
     7
 48
0.025012
100
AcDbLine
 10
137.71254
 20
66.766663
 30
0.0
 11
136.71254
 21
66.735168
 31
0.0
210
0.0
220
0.0
230
1.0
  0
LINE
  5
164
100
AcDbEntity
  8
0
370
    35
390
0
 62
     7
 48
0.025012
100
AcDbLine
 10
137.71254
 20
58.371399
 30
0.0
 11
136.71254
 21
58.402893
 31
0.0
210
0.0
220
0.0
230
1.0
  0
LINE
  5
165
100
AcDbEntity
  8
0
370
    35
390
0
 62
     7
 48
0.025012
100
AcDbLine
 10
136.21254
 20
58.41864
 30
0.0
 11
135.21254
 21
58.450134
 31
0.0
210
0.0
220
0.0
230
1.0
  0
LINE
  5
166
100
AcDbEntity
  8
0
370
    35
390
0
 62
     7
 48
0.025012
100
AcDbLine
 10
134.71254
 20
58.465881
 30
0.0
 11
133.71254
 21
58.497375
 31
0.0
210
0.0
220
0.0
230
1.0
  0
LINE
  5
167
100
AcDbEntity
  8
0
370
    35
390
0
 62
     7
 48
0.025012
100
AcDbLine
 10
133.21254
 20
58.513123
 30
0.0
 11
132.21254
 21
58.544617
 31
0.0
210
0.0
220
0.0
230
1.0
  0
LINE
  5
168
100
AcDbEntity
  8
0
370
    35
390
0
 62
     7
 48
0.086293
100
AcDbLine
 10
131.71254
 20
58.560364
 30
0.0
 11
128.262543
 21
58.669037
 31
0.0
210
0.0
220
0.0
230
1.0
  0
LINE
  5
169
100
AcDbEntity
  8
0
370
    35
390
0
 62
     7
 48
0.201221
100
AcDbLine
 10
132.21254
 20
66.593445
 30
0.0
 11
132.21254
 21
58.544617
 31
0.0
210
0.0
220
0.0
230
1.0
  0
LINE
  5
16A
100
AcDbEntity
  8
0
370
    35
390
0
 62
     7
 48
0.200433
100
AcDbLine
 10
131.71254
 20
66.577698
 30
0.0
 11
131.71254
 21
58.560364
 31
0.0
210
0.0
220
0.0
230
1.0
  0
LINE
  5
16B
100
AcDbEntity
  8
0
370
    35
390
0
 62
     7
 48
0.202795
100
AcDbLine
 10
133.21254
 20
66.624939
 30
0.0
 11
133.21254
 21
58.513123
 31
0.0
210
0.0
220
0.0
230
1.0
  0
LINE
  5
16C
100
AcDbEntity
  8
0
370
    35
390
0
 62
     7
 48
0.203583
100
AcDbLine
 10
133.71254
 20
66.640686
 30
0.0
 11
133.71254
 21
58.497375
 31
0.0
210
0.0
220
0.0
230
1.0
  0
LINE
  5
16D
100
AcDbEntity
  8
0
370
    35
390
0
 62
     7
 48
0.205945
100
AcDbLine
 10
135.21254
 20
66.687927
 30
0.0
 11
135.21254
 21
58.450134
 31
0.0
210
0.0
220
0.0
230
1.0
  0
LINE
  5
16E
100
AcDbEntity
  8
0
370
    35
390
0
 62
     7
 48
0.205157
100
AcDbLine
 10
134.71254
 20
66.67218
 30
0.0
 11
134.71254
 21
58.465881
 31
0.0
210
0.0
220
0.0
230
1.0
  0
LINE
  5
16F
100
AcDbEntity
  8
0
370
    35
390
0
 62
     7
 48
0.20752
100
AcDbLine
 10
136.21254
 20
66.719421
 30
0.0
 11
136.21254
 21
58.41864
 31
0.0
210
0.0
220
0.0
230
1.0
  0
LINE
  5
170
100
AcDbEntity
  8
0
370
    35
390
0
 62
     7
 48
0.028764
100
AcDbLine
 10
139.362534
 20
66.818634
 30
0.0
 11
138.21254
 21
66.78241
 31
0.0
210
0.0
220
0.0
230
1.0
  0
LINE
  5
171
100
AcDbEntity
  8
0
370
    35
390
0
 62
     7
 48
0.210669
100
AcDbLine
 10
138.21254
 20
66.78241
 30
0.0
 11
138.21254
 21
58.355652
 31
0.0
210
0.0
220
0.0
230
1.0
  0
LINE
  5
172
100
AcDbEntity
  8
0
370
    35
390
0
 62
     7
 48
0.028764
100
AcDbLine
 10
139.362534
 20
58.319427
 30
0.0
 11
138.21254
 21
58.355652
 31
0.0
210
0.0
220
0.0
230
1.0
  0
LINE
  5
173
100
AcDbEntity
  8
0
370
    35
390
0
 62
     7
 48
0.209882
100
AcDbLine
 10
137.71254
 20
66.766663
 30
0.0
 11
137.71254
 21
58.371399
 31
0.0
210
0.0
220
0.0
230
1.0
  0
LINE
  5
174
100
AcDbEntity
  8
0
370
    35
390
0
 62
     7
 48
0.208307
100
AcDbLine
 10
136.71254
 20
66.735168
 30
0.0
 11
136.71254
 21
58.402893
 31
0.0
210
0.0
220
0.0
230
1.0
  0
LINE
  5
175
100
AcDbEntity
  8
0
370
    35
390
0
 62
     7
 48
0.012506
100
AcDbLine
 10
247.512558
 20
59.044861
 30
0.0
 11
248.012558
 21
59.060608
 31
0.0
210
0.0
220
0.0
230
1.0
  0
LINE
  5
176
100
AcDbEntity
  8
0
370
    35
390
0
 62
     7
 48
0.012506
100
AcDbLine
 10
138.21254
 20
66.282166
 30
0.0
 11
137.71254
 21
66.266418
 31
0.0
210
0.0
220
0.0
230
1.0
  0
LINE
  5
177
100
AcDbEntity
  8
0
370
    35
390
0
 62
     7
 48
0.012506
100
AcDbLine
 10
246.012558
 20
58.99762
 30
0.0
 11
246.512558
 21
59.013367
 31
0.0
210
0.0
220
0.0
230
1.0
  0
LINE
  5
178
100
AcDbEntity
  8
0
370
    35
390
0
 62
     7
 48
0.012506
100
AcDbLine
 10
244.512558
 20
58.950378
 30
0.0
 11
245.012558
 21
58.966125
 31
0.0
210
0.0
220
0.0
230
1.0
  0
LINE
  5
179
100
AcDbEntity
  8
0
370
    35
390
0
 62
     7
 48
0.012506
100
AcDbLine
 10
243.012558
 20
58.903137
 30
0.0
 11
243.512558
 21
58.918884
 31
0.0
210
0.0
220
0.0
230
1.0
  0
LINE
  5
17A
100
AcDbEntity
  8
0
370
    35
390
0
 62
     7
 48
0.012506
100
AcDbLine
 10
247.512558
 20
66.093201
 30
0.0
 11
248.012558
 21
66.077454
 31
0.0
210
0.0
220
0.0
230
1.0
  0
LINE
  5
17B
100
AcDbEntity
  8
0
370
    35
390
0
 62
     7
 48
0.012506
100
AcDbLine
 10
246.012558
 20
66.140442
 30
0.0
 11
246.512558
 21
66.124695
 31
0.0
210
0.0
220
0.0
230
1.0
  0
LINE
  5
17C
100
AcDbEntity
  8
0
370
    35
390
0
 62
     7
 48
0.012506
100
AcDbLine
 10
244.512558
 20
66.187683
 30
0.0
 11
245.012558
 21
66.171936
 31
0.0
210
0.0
220
0.0
230
1.0
  0
LINE
  5
17D
100
AcDbEntity
  8
0
370
    35
390
0
 62
     7
 48
0.012506
100
AcDbLine
 10
138.21254
 20
58.855896
 30
0.0
 11
137.71254
 21
58.871643
 31
0.0
210
0.0
220
0.0
230
1.0
  0
LINE
  5
17E
100
AcDbEntity
  8
0
370
    35
390
0
 62
     7
 48
0.012506
100
AcDbLine
 10
243.012558
 20
66.234924
 30
0.0
 11
243.512558
 21
66.219177
 31
0.0
210
0.0
220
0.0
230
1.0
  0
LINE
  5
17F
100
AcDbEntity
  8
0
370
    35
390
0
 62
     7
 48
0.195
100
AcDbLine
 10
128.262543
 20
66.469025
 30
0.0
 11
128.262543
 21
58.669037
 31
0.0
210
0.0
220
0.0
230
1.0
  0
LINE
  5
180
100
AcDbEntity
  8
0
370
    35
390
0
 62
     7
 48
0.005
100
AcDbLine
 10
140.162537
 20
55.569031
 30
0.0
 11
140.162537
 21
55.369019
 31
0.0
210
0.0
220
0.0
230
1.0
  0
LINE
  5
181
100
AcDbEntity
  8
0
370
    35
390
0
 62
     7
 48
0.340865
100
AcDbLine
 10
268.522095
 20
65.469025
 30
0.0
 11
282.156677
 21
65.469025
 31
0.0
210
0.0
220
0.0
230
1.0
  0
LINE
  5
182
100
AcDbEntity
  8
0
370
    35
390
0
 62
     7
 48
0.301219
100
AcDbLine
 10
128.262543
 20
65.469025
 30
0.0
 11
116.213776
 21
65.469025
 31
0.0
210
0.0
220
0.0
230
1.0
  0
LINE
  5
183
100
AcDbEntity
  8
0
370
    35
390
0
 62
     7
 48
0.301218
100
AcDbLine
 10
251.46257
 20
59.669037
 30
0.0
 11
263.511292
 21
59.669037
 31
0.0
210
0.0
220
0.0
230
1.0
  0
LINE
  5
184
100
AcDbEntity
  8
0
370
    35
390
0
 62
     7
 48
0.000125
100
AcDbLine
 10
140.162537
 20
75.764038
 30
0.0
 11
140.167542
 21
75.764038
 31
0.0
210
0.0
220
0.0
230
1.0
  0
LINE
  5
185
100
AcDbEntity
  8
0
370
    35
390
0
 62
     7
 48
0.05
100
AcDbLine
 10
247.362503
 20
55.369019
 30
0.0
 11
249.362503
 21
55.369019
 31
0.0
210
0.0
220
0.0
230
1.0
  0
LINE
  5
186
100
AcDbEntity
  8
0
370
    35
390
0
 62
     7
 48
0.05
100
AcDbLine
 10
247.362503
 20
54.569031
 30
0.0
 11
249.362503
 21
54.569031
 31
0.0
210
0.0
220
0.0
230
1.0
  0
LINE
  5
187
100
AcDbEntity
  8
0
370
    35
390
0
 62
     7
 48
0.175
100
AcDbLine
 10
132.362534
 20
54.569031
 30
0.0
 11
139.362534
 21
54.569031
 31
0.0
210
0.0
220
0.0
230
1.0
  0
LINE
  5
188
100
AcDbEntity
  8
0
370
    35
390
0
 62
     7
 48
0.05
100
AcDbLine
 10
130.362534
 20
55.369019
 30
0.0
 11
132.362534
 21
55.369019
 31
0.0
210
0.0
220
0.0
230
1.0
  0
LINE
  5
189
100
AcDbEntity
  8
0
370
    35
390
0
 62
     7
 48
0.000125
100
AcDbLine
 10
240.362503
 20
68.569031
 30
0.0
 11
240.362503
 21
68.564026
 31
0.0
210
0.0
220
0.0
230
1.0
  0
LINE
  5
18A
100
AcDbEntity
  8
0
370
    35
390
0
 62
     7
 48
0.025
100
AcDbLine
 10
239.562515
 20
54.569031
 30
0.0
 11
239.562515
 21
55.569031
 31
0.0
210
0.0
220
0.0
230
1.0
  0
LINE
  5
18B
100
AcDbEntity
  8
0
370
    35
390
0
 62
     7
 48
0.025
100
AcDbLine
 10
240.362503
 20
55.569031
 30
0.0
 11
240.362503
 21
54.569031
 31
0.0
210
0.0
220
0.0
230
1.0
  0
LINE
  5
18C
100
AcDbEntity
  8
0
370
    35
390
0
 62
     7
 48
0.000125
100
AcDbLine
 10
239.55751
 20
69.369019
 30
0.0
 11
239.562515
 21
69.369019
 31
0.0
210
0.0
220
0.0
230
1.0
  0
LINE
  5
18D
100
AcDbEntity
  8
0
370
    35
390
0
 62
     7
 48
0.000125
100
AcDbLine
 10
239.55751
 20
68.569031
 30
0.0
 11
239.562515
 21
68.569031
 31
0.0
210
0.0
220
0.0
230
1.0
  0
LINE
  5
18E
100
AcDbEntity
  8
0
370
    35
390
0
 62
     7
 48
0.000125
100
AcDbLine
 10
239.562515
 20
68.564026
 30
0.0
 11
239.562515
 21
68.569031
 31
0.0
210
0.0
220
0.0
230
1.0
  0
LINE
  5
18F
100
AcDbEntity
  8
0
370
    35
390
0
 62
     7
 48
0.02
100
AcDbLine
 10
239.562515
 20
54.569031
 30
0.0
 11
240.362503
 21
54.569031
 31
0.0
210
0.0
220
0.0
230
1.0
  0
LINE
  5
190
100
AcDbEntity
  8
0
370
    35
390
0
 62
     7
 48
0.020125
100
AcDbLine
 10
139.362534
 20
55.569031
 30
0.0
 11
140.167542
 21
55.569031
 31
0.0
210
0.0
220
0.0
230
1.0
  0
LINE
  5
191
100
AcDbEntity
  8
0
370
    35
390
0
 62
     7
 48
0.02
100
AcDbLine
 10
239.55751
 20
68.569031
 30
0.0
 11
239.55751
 21
69.369019
 31
0.0
210
0.0
220
0.0
230
1.0
  0
LINE
  5
192
100
AcDbEntity
  8
0
370
    35
390
0
 62
     7
 48
0.000125
100
AcDbLine
 10
239.55751
 20
68.569031
 30
0.0
 11
239.55751
 21
68.564026
 31
0.0
210
0.0
220
0.0
230
1.0
  0
LINE
  5
193
100
AcDbEntity
  8
0
370
    35
390
0
 62
     7
 48
0.000125
100
AcDbLine
 10
140.162537
 20
69.369019
 30
0.0
 11
140.167542
 21
69.369019
 31
0.0
210
0.0
220
0.0
230
1.0
  0
LINE
  5
194
100
AcDbEntity
  8
0
370
    35
390
0
 62
     7
100
AcDbLine
 10
239.55751
 20
69.369019
 30
0.0
 11
140.167542
 21
69.369019
 31
0.0
210
0.0
220
0.0
230
1.0
  0
LINE
  5
195
100
AcDbEntity
  8
0
370
    35
390
0
 62
     7
100
AcDbLine
 10
140.167542
 20
55.569031
 30
0.0
 11
239.55751
 21
55.569031
 31
0.0
210
0.0
220
0.0
230
1.0
  0
LINE
  5
196
100
AcDbEntity
  8
0
370
    35
390
0
 62
     7
 48
0.324875
100
AcDbLine
 10
139.362534
 20
68.564026
 30
0.0
 11
139.362534
 21
55.569031
 31
0.0
210
0.0
220
0.0
230
1.0
  0
LINE
  5
197
100
AcDbEntity
  8
0
370
    35
390
0
 62
     7
 48
0.02
100
AcDbLine
 10
140.167542
 20
68.569031
 30
0.0
 11
140.167542
 21
69.369019
 31
0.0
210
0.0
220
0.0
230
1.0
  0
LINE
  5
198
100
AcDbEntity
  8
0
370
    35
390
0
 62
     7
 48
0.020125
100
AcDbLine
 10
140.167542
 20
68.564026
 30
0.0
 11
139.362534
 21
68.564026
 31
0.0
210
0.0
220
0.0
230
1.0
  0
LINE
  5
199
100
AcDbEntity
  8
0
370
    35
390
0
 62
     7
 48
0.000125
100
AcDbLine
 10
140.167542
 20
68.569031
 30
0.0
 11
140.167542
 21
68.564026
 31
0.0
210
0.0
220
0.0
230
1.0
  0
LINE
  5
19A
100
AcDbEntity
  8
0
370
    35
390
0
 62
     7
 48
0.020125
100
AcDbLine
 10
239.55751
 20
68.564026
 30
0.0
 11
240.362503
 21
68.564026
 31
0.0
210
0.0
220
0.0
230
1.0
  0
LINE
  5
19B
100
AcDbEntity
  8
0
370
    35
390
0
 62
     7
 48
0.324875
100
AcDbLine
 10
240.362503
 20
68.564026
 30
0.0
 11
240.362503
 21
55.569031
 31
0.0
210
0.0
220
0.0
230
1.0
  0
LINE
  5
19C
100
AcDbEntity
  8
0
370
    35
390
0
 62
     7
 48
0.020125
100
AcDbLine
 10
239.55751
 20
55.569031
 30
0.0
 11
240.362503
 21
55.569031
 31
0.0
210
0.0
220
0.0
230
1.0
  0
LINE
  5
19D
100
AcDbEntity
  8
0
370
    35
390
0
 62
     7
 48
0.000125
100
AcDbLine
 10
140.162537
 20
68.569031
 30
0.0
 11
140.167542
 21
68.569031
 31
0.0
210
0.0
220
0.0
230
1.0
  0
LINE
  5
19E
100
AcDbEntity
  8
0
370
    35
390
0
 62
     7
 48
0.175
100
AcDbLine
 10
139.362534
 20
55.369019
 30
0.0
 11
132.362534
 21
55.369019
 31
0.0
210
0.0
220
0.0
230
1.0
  0
LINE
  5
19F
100
AcDbEntity
  8
0
370
    35
390
0
 62
     7
 48
0.000125
100
AcDbLine
 10
139.362534
 20
68.569031
 30
0.0
 11
139.362534
 21
68.564026
 31
0.0
210
0.0
220
0.0
230
1.0
  0
LINE
  5
1A0
100
AcDbEntity
  8
0
370
    35
390
0
 62
     7
 48
0.005
100
AcDbLine
 10
139.362534
 20
55.569031
 30
0.0
 11
139.362534
 21
55.369019
 31
0.0
210
0.0
220
0.0
230
1.0
  0
LINE
  5
1A1
100
AcDbEntity
  8
0
370
    35
390
0
 62
     7
 48
0.02
100
AcDbLine
 10
140.162537
 20
54.569031
 30
0.0
 11
139.362534
 21
54.569031
 31
0.0
210
0.0
220
0.0
230
1.0
  0
LINE
  5
1A2
100
AcDbEntity
  8
0
370
    35
390
0
 62
     7
 48
0.020123
100
AcDbLine
 10
140.162537
 20
55.373932
 30
0.0
 11
140.162537
 21
54.569031
 31
0.0
210
0.0
220
0.0
230
1.0
  0
LINE
  5
1A3
100
AcDbEntity
  8
0
370
    35
390
0
 62
     7
 48
0.02
100
AcDbLine
 10
130.362534
 20
54.569031
 30
0.0
 11
130.362534
 21
55.369019
 31
0.0
210
0.0
220
0.0
230
1.0
  0
LINE
  5
1A4
100
AcDbEntity
  8
0
370
    35
390
0
 62
     7
 48
0.05
100
AcDbLine
 10
130.362534
 20
54.569031
 30
0.0
 11
132.362534
 21
54.569031
 31
0.0
210
0.0
220
0.0
230
1.0
  0
LINE
  5
1A5
100
AcDbEntity
  8
0
370
    35
390
0
 62
     7
 48
0.02
100
AcDbLine
 10
249.362503
 20
54.569031
 30
0.0
 11
249.362503
 21
55.369019
 31
0.0
210
0.0
220
0.0
230
1.0
  0
LINE
  5
1A6
100
AcDbEntity
  8
0
370
    35
390
0
 62
     7
 48
0.175
100
AcDbLine
 10
247.362503
 20
55.369019
 30
0.0
 11
240.362503
 21
55.369019
 31
0.0
210
0.0
220
0.0
230
1.0
  0
LINE
  5
1A7
100
AcDbEntity
  8
0
370
    35
390
0
 62
     7
 48
0.175
100
AcDbLine
 10
247.362503
 20
54.569031
 30
0.0
 11
240.362503
 21
54.569031
 31
0.0
210
0.0
220
0.0
230
1.0
  0
LINE
  5
1A8
100
AcDbEntity
  8
0
370
    35
390
0
 62
     7
 48
0.01
100
AcDbLine
 10
141.262543
 20
55.569031
 30
0.0
 11
141.262543
 21
55.169037
 31
0.0
210
0.0
220
0.0
230
1.0
  0
LINE
  5
1A9
100
AcDbEntity
  8
0
370
    35
390
0
 62
     7
 48
0.01
100
AcDbLine
 10
140.262543
 20
55.169037
 30
0.0
 11
140.262543
 21
55.569031
 31
0.0
210
0.0
220
0.0
230
1.0
  0
LINE
  5
1AA
100
AcDbEntity
  8
0
370
    35
390
0
 62
     7
 48
0.00125
100
AcDbLine
 10
141.312531
 20
54.169037
 30
0.0
 11
141.262543
 21
54.169037
 31
0.0
210
0.0
220
0.0
230
1.0
  0
LINE
  5
1AB
100
AcDbEntity
  8
0
370
    35
390
0
 62
     7
100
AcDbLine
 10
238.412521
 20
54.169037
 30
0.0
 11
141.312531
 21
54.169037
 31
0.0
210
0.0
220
0.0
230
1.0
  0
LINE
  5
1AC
100
AcDbEntity
  8
0
370
    35
390
0
 62
     7
 48
0.025
100
AcDbLine
 10
141.312531
 20
54.169037
 30
0.0
 11
141.312531
 21
55.169037
 31
0.0
210
0.0
220
0.0
230
1.0
  0
LINE
  5
1AD
100
AcDbEntity
  8
0
370
    35
390
0
 62
     7
 48
0.01
100
AcDbLine
 10
141.312531
 20
55.169037
 30
0.0
 11
141.312531
 21
55.569031
 31
0.0
210
0.0
220
0.0
230
1.0
  0
LINE
  5
1AE
100
AcDbEntity
  8
0
370
    35
390
0
 62
     7
 48
0.001251
100
AcDbLine
 10
238.412521
 20
54.169037
 30
0.0
 11
238.46257
 21
54.169037
 31
0.0
210
0.0
220
0.0
230
1.0
  0
LINE
  5
1AF
100
AcDbEntity
  8
0
370
    35
390
0
 62
     7
 48
0.01
100
AcDbLine
 10
238.412521
 20
55.169037
 30
0.0
 11
238.412521
 21
55.569031
 31
0.0
210
0.0
220
0.0
230
1.0
  0
LINE
  5
1B0
100
AcDbEntity
  8
0
370
    35
390
0
 62
     7
 48
0.025
100
AcDbLine
 10
238.412521
 20
54.169037
 30
0.0
 11
238.412521
 21
55.169037
 31
0.0
210
0.0
220
0.0
230
1.0
  0
LINE
  5
1B1
100
AcDbEntity
  8
0
370
    35
390
0
 62
     7
 48
0.01
100
AcDbLine
 10
238.46257
 20
55.169037
 30
0.0
 11
238.46257
 21
55.569031
 31
0.0
210
0.0
220
0.0
230
1.0
  0
LINE
  5
1B2
100
AcDbEntity
  8
0
370
    35
390
0
 62
     7
 48
0.01
100
AcDbLine
 10
239.46257
 20
55.169037
 30
0.0
 11
239.46257
 21
55.569031
 31
0.0
210
0.0
220
0.0
230
1.0
  0
LINE
  5
1B3
100
AcDbEntity
  8
0
370
    35
390
0
 62
     7
 48
0.00125
100
AcDbLine
 10
141.312531
 20
55.169037
 30
0.0
 11
141.262543
 21
55.169037
 31
0.0
210
0.0
220
0.0
230
1.0
  0
LINE
  5
1B4
100
AcDbEntity
  8
0
370
    35
390
0
 62
     7
 48
0.001251
100
AcDbLine
 10
238.46257
 20
55.169037
 30
0.0
 11
238.412521
 21
55.169037
 31
0.0
210
0.0
220
0.0
230
1.0
  0
LINE
  5
1B5
100
AcDbEntity
  8
0
370
    35
390
0
 62
     7
 48
0.0125
100
AcDbLine
 10
150.443298
 20
58.80542
 30
0.0
 11
150.796844
 21
58.451874
 31
0.0
210
0.0
220
0.0
230
1.0
  0
LINE
  5
1B6
100
AcDbEntity
  8
0
370
    35
390
0
 62
     7
 48
0.0125
100
AcDbLine
 10
150.726135
 20
59.088257
 30
0.0
 11
151.079697
 21
58.734711
 31
0.0
210
0.0
220
0.0
230
1.0
  0
LINE
  5
1B7
100
AcDbEntity
  8
0
370
    35
390
0
 62
     7
 48
0.0125
100
AcDbLine
 10
150.443298
 20
57.532623
 30
0.0
 11
150.796844
 21
57.8862
 31
0.0
210
0.0
220
0.0
230
1.0
  0
LINE
  5
1B8
100
AcDbEntity
  8
0
370
    35
390
0
 62
     7
 48
0.0125
100
AcDbLine
 10
150.726135
 20
57.249786
 30
0.0
 11
151.079697
 21
57.603333
 31
0.0
210
0.0
220
0.0
230
1.0
  0
LINE
  5
1B9
100
AcDbEntity
  8
0
370
    35
390
0
 62
     7
 48
0.0125
100
AcDbLine
 10
151.645386
 20
58.734711
 30
0.0
 11
151.998932
 21
59.088257
 31
0.0
210
0.0
220
0.0
230
1.0
  0
LINE
  5
1BA
100
AcDbEntity
  8
0
370
    35
390
0
 62
     7
 48
0.0125
100
AcDbLine
 10
151.928223
 20
58.451874
 30
0.0
 11
152.281769
 21
58.80542
 31
0.0
210
0.0
220
0.0
230
1.0
  0
LINE
  5
1BB
100
AcDbEntity
  8
0
370
    35
390
0
 62
     7
 48
0.0125
100
AcDbLine
 10
151.928223
 20
57.8862
 30
0.0
 11
152.281769
 21
57.532623
 31
0.0
210
0.0
220
0.0
230
1.0
  0
LINE
  5
1BC
100
AcDbEntity
  8
0
370
    35
390
0
 62
     7
 48
0.0125
100
AcDbLine
 10
151.645386
 20
57.603333
 30
0.0
 11
151.998932
 21
57.249786
 31
0.0
210
0.0
220
0.0
230
1.0
  0
LINE
  5
1BD
100
AcDbEntity
  8
0
370
    35
390
0
 62
     7
 48
0.01
100
AcDbLine
 10
151.998932
 20
59.088257
 30
0.0
 11
152.281769
 21
58.80542
 31
0.0
210
0.0
220
0.0
230
1.0
  0
LINE
  5
1BE
100
AcDbEntity
  8
0
370
    35
390
0
 62
     7
 48
0.01
100
AcDbLine
 10
150.443298
 20
57.532623
 30
0.0
 11
150.726135
 21
57.249786
 31
0.0
210
0.0
220
0.0
230
1.0
  0
LINE
  5
1BF
100
AcDbEntity
  8
0
370
    35
390
0
 62
     7
 48
0.01
100
AcDbLine
 10
150.443298
 20
58.80542
 30
0.0
 11
150.726135
 21
59.088257
 31
0.0
210
0.0
220
0.0
230
1.0
  0
LINE
  5
1C0
100
AcDbEntity
  8
0
370
    35
390
0
 62
     7
 48
0.01
100
AcDbLine
 10
151.998932
 20
57.249786
 30
0.0
 11
152.281769
 21
57.532623
 31
0.0
210
0.0
220
0.0
230
1.0
  0
LINE
  5
1C1
100
AcDbEntity
  8
0
370
    35
390
0
 62
     7
 48
0.012499
100
AcDbLine
 10
226.726151
 20
59.088257
 30
0.0
 11
227.079666
 21
58.734711
 31
0.0
210
0.0
220
0.0
230
1.0
  0
LINE
  5
1C2
100
AcDbEntity
  8
0
370
    35
390
0
 62
     7
 48
0.0125
100
AcDbLine
 10
226.443283
 20
58.80542
 30
0.0
 11
226.796829
 21
58.451874
 31
0.0
210
0.0
220
0.0
230
1.0
  0
LINE
  5
1C3
100
AcDbEntity
  8
0
370
    35
390
0
 62
     7
 48
0.0125
100
AcDbLine
 10
226.443283
 20
57.532623
 30
0.0
 11
226.796829
 21
57.8862
 31
0.0
210
0.0
220
0.0
230
1.0
  0
LINE
  5
1C4
100
AcDbEntity
  8
0
370
    35
390
0
 62
     7
 48
0.012499
100
AcDbLine
 10
226.726151
 20
57.249786
 30
0.0
 11
227.079666
 21
57.603333
 31
0.0
210
0.0
220
0.0
230
1.0
  0
LINE
  5
1C5
100
AcDbEntity
  8
0
370
    35
390
0
 62
     7
 48
0.0125
100
AcDbLine
 10
227.645401
 20
58.734711
 30
0.0
 11
227.998947
 21
59.088257
 31
0.0
210
0.0
220
0.0
230
1.0
  0
LINE
  5
1C6
100
AcDbEntity
  8
0
370
    35
390
0
 62
     7
 48
0.0125
100
AcDbLine
 10
227.928207
 20
58.451874
 30
0.0
 11
228.281784
 21
58.80542
 31
0.0
210
0.0
220
0.0
230
1.0
  0
LINE
  5
1C7
100
AcDbEntity
  8
0
370
    35
390
0
 62
     7
 48
0.012501
100
AcDbLine
 10
227.928207
 20
57.8862
 30
0.0
 11
228.281784
 21
57.532623
 31
0.0
210
0.0
220
0.0
230
1.0
  0
LINE
  5
1C8
100
AcDbEntity
  8
0
370
    35
390
0
 62
     7
 48
0.0125
100
AcDbLine
 10
227.645401
 20
57.603333
 30
0.0
 11
227.998947
 21
57.249786
 31
0.0
210
0.0
220
0.0
230
1.0
  0
LINE
  5
1C9
100
AcDbEntity
  8
0
370
    35
390
0
 62
     7
 48
0.01
100
AcDbLine
 10
227.998947
 20
59.088257
 30
0.0
 11
228.281784
 21
58.80542
 31
0.0
210
0.0
220
0.0
230
1.0
  0
LINE
  5
1CA
100
AcDbEntity
  8
0
370
    35
390
0
 62
     7
 48
0.01
100
AcDbLine
 10
226.443283
 20
57.532623
 30
0.0
 11
226.726151
 21
57.249786
 31
0.0
210
0.0
220
0.0
230
1.0
  0
LINE
  5
1CB
100
AcDbEntity
  8
0
370
    35
390
0
 62
     7
 48
0.01
100
AcDbLine
 10
226.443283
 20
58.80542
 30
0.0
 11
226.726151
 21
59.088257
 31
0.0
210
0.0
220
0.0
230
1.0
  0
LINE
  5
1CC
100
AcDbEntity
  8
0
370
    35
390
0
 62
     7
 48
0.01
100
AcDbLine
 10
227.998947
 20
57.249786
 30
0.0
 11
228.281784
 21
57.532623
 31
0.0
210
0.0
220
0.0
230
1.0
  0
LINE
  5
1CD
100
AcDbEntity
  8
0
370
    35
390
0
 62
     7
 48
0.025
100
AcDbLine
 10
70.904266
 20
192.669037
 30
0.0
 11
71.904266
 21
192.669037
 31
0.0
210
0.0
220
0.0
230
1.0
  0
LINE
  5
1CE
100
AcDbEntity
  8
0
370
    35
390
0
 62
     7
 48
0.035355
100
AcDbLine
 10
50.654266
 20
211.569
 30
0.0
 11
51.654266
 21
212.569
 31
0.0
210
0.0
220
0.0
230
1.0
  0
LINE
  5
1CF
100
AcDbEntity
  8
0
370
    35
390
0
 62
     7
 48
0.48125
100
AcDbLine
 10
51.654266
 20
212.569
 30
0.0
 11
70.904266
 21
212.569
 31
0.0
210
0.0
220
0.0
230
1.0
  0
LINE
  5
1D0
100
AcDbEntity
  8
0
370
    35
390
0
 62
     7
 48
0.035355
100
AcDbLine
 10
50.654266
 20
193.569
 30
0.0
 11
51.654266
 21
192.569
 31
0.0
210
0.0
220
0.0
230
1.0
  0
LINE
  5
1D1
100
AcDbEntity
  8
0
370
    35
390
0
 62
     7
100
AcDbLine
 10
70.904266
 20
212.569
 30
0.0
 11
70.904266
 21
192.569
 31
0.0
210
0.0
220
0.0
230
1.0
  0
LINE
  5
1D2
100
AcDbEntity
  8
0
370
    35
390
0
 62
     7
100
AcDbLine
 10
71.904266
 20
212.569
 30
0.0
 11
71.904266
 21
192.569
 31
0.0
210
0.0
220
0.0
230
1.0
  0
LINE
  5
1D3
100
AcDbEntity
  8
0
370
    35
390
0
 62
     7
 48
0.48125
100
AcDbLine
 10
51.654266
 20
192.569
 30
0.0
 11
70.904266
 21
192.569
 31
0.0
210
0.0
220
0.0
230
1.0
  0
LINE
  5
1D4
100
AcDbEntity
  8
0
370
    35
390
0
 62
     7
 48
0.025
100
AcDbLine
 10
70.904266
 20
212.469025
 30
0.0
 11
71.904266
 21
212.469025
 31
0.0
210
0.0
220
0.0
230
1.0
  0
LINE
  5
1D5
100
AcDbEntity
  8
0
370
    35
390
0
 62
     7
 48
0.325
100
AcDbLine
 10
71.904266
 20
192.569
 30
0.0
 11
84.904266
 21
192.569
 31
0.0
210
0.0
220
0.0
230
1.0
  0
LINE
  5
1D6
100
AcDbEntity
  8
0
370
    35
390
0
 62
     7
 48
0.325
100
AcDbLine
 10
71.904266
 20
212.569
 30
0.0
 11
84.904266
 21
212.569
 31
0.0
210
0.0
220
0.0
230
1.0
  0
LINE
  5
1D7
100
AcDbEntity
  8
0
370
    35
390
0
 62
     7
 48
0.2
100
AcDbLine
 10
84.904266
 20
192.669037
 30
0.0
 11
92.904266
 21
192.669037
 31
0.0
210
0.0
220
0.0
230
1.0
  0
LINE
  5
1D8
100
AcDbEntity
  8
0
370
    35
390
0
 62
     7
 48
0.2
100
AcDbLine
 10
84.904266
 20
212.469025
 30
0.0
 11
92.904266
 21
212.469025
 31
0.0
210
0.0
220
0.0
230
1.0
  0
LINE
  5
1D9
100
AcDbEntity
  8
0
370
    35
390
0
 62
     7
100
AcDbLine
 10
92.904266
 20
192.569
 30
0.0
 11
117.404266
 21
192.569
 31
0.0
210
0.0
220
0.0
230
1.0
  0
LINE
  5
1DA
100
AcDbEntity
  8
0
370
    35
390
0
 62
     7
100
AcDbLine
 10
84.904266
 20
212.569
 30
0.0
 11
84.904266
 21
192.569
 31
0.0
210
0.0
220
0.0
230
1.0
  0
LINE
  5
1DB
100
AcDbEntity
  8
0
370
    35
390
0
 62
     7
100
AcDbLine
 10
92.904266
 20
212.569
 30
0.0
 11
92.904266
 21
192.569
 31
0.0
210
0.0
220
0.0
230
1.0
  0
LINE
  5
1DC
100
AcDbEntity
  8
0
370
    35
390
0
 62
     7
100
AcDbLine
 10
92.904266
 20
212.569
 30
0.0
 11
117.404266
 21
212.569
 31
0.0
210
0.0
220
0.0
230
1.0
  0
LINE
  5
1DD
100
AcDbEntity
  8
0
370
    35
390
0
 62
     7
100
AcDbLine
 10
146.654251
 20
212.569
 30
0.0
 11
146.654251
 21
192.569
 31
0.0
210
0.0
220
0.0
230
1.0
  0
LINE
  5
1DE
100
AcDbEntity
  8
0
370
    35
390
0
 62
     7
 48
0.425
100
AcDbLine
 10
148.154251
 20
211.069
 30
0.0
 11
148.154251
 21
194.069
 31
0.0
210
0.0
220
0.0
230
1.0
  0
LINE
  5
1DF
100
AcDbEntity
  8
0
370
    35
390
0
 62
     7
 48
0.04005
100
AcDbLine
 10
148.154251
 20
194.069
 30
0.0
 11
146.654251
 21
193.5065
 31
0.0
210
0.0
220
0.0
230
1.0
  0
LINE
  5
1E0
100
AcDbEntity
  8
0
370
    35
390
0
 62
     7
 48
0.04005
100
AcDbLine
 10
148.154251
 20
211.069061
 30
0.0
 11
146.654251
 21
211.631561
 31
0.0
210
0.0
220
0.0
230
1.0
  0
LINE
  5
1E1
100
AcDbEntity
  8
0
370
    35
390
0
 62
     7
100
AcDbLine
 10
117.404266
 20
192.569
 30
0.0
 11
146.654251
 21
192.569
 31
0.0
210
0.0
220
0.0
230
1.0
  0
LINE
  5
1E2
100
AcDbEntity
  8
0
370
    35
390
0
 62
     7
100
AcDbLine
 10
117.404266
 20
212.569
 30
0.0
 11
146.654251
 21
212.569
 31
0.0
210
0.0
220
0.0
230
1.0
  0
LINE
  5
1E3
100
AcDbEntity
  8
0
370
    35
390
0
 62
     7
100
AcDbLine
 10
117.404266
 20
212.569
 30
0.0
 11
117.404266
 21
192.569
 31
0.0
210
0.0
220
0.0
230
1.0
  0
LINE
  5
1E4
100
AcDbEntity
  8
0
370
    35
390
0
 62
     7
 48
0.45
100
AcDbLine
 10
50.654266
 20
211.569
 30
0.0
 11
50.654266
 21
193.569
 31
0.0
210
0.0
220
0.0
230
1.0
  0
LINE
  5
1E5
100
AcDbEntity
  8
0
370
    35
390
0
 62
     7
 48
0.025
100
AcDbLine
 10
148.154251
 20
207.319
 30
0.0
 11
149.154251
 21
207.319
 31
0.0
210
0.0
220
0.0
230
1.0
  0
LINE
  5
1E6
100
AcDbEntity
  8
0
370
    35
390
0
 62
     7
 48
0.025
100
AcDbLine
 10
148.154251
 20
197.819
 30
0.0
 11
149.154251
 21
197.819
 31
0.0
210
0.0
220
0.0
230
1.0
  0
LINE
  5
1E7
100
AcDbEntity
  8
0
370
    35
390
0
 62
     7
 48
0.2
100
AcDbLine
 10
168.154251
 20
206.569
 30
0.0
 11
168.154251
 21
198.569
 31
0.0
210
0.0
220
0.0
230
1.0
  0
LINE
  5
1E8
100
AcDbEntity
  8
0
370
    35
390
0
 62
     7
 48
0.068804
100
AcDbLine
 10
149.154251
 20
207.319
 30
0.0
 11
151.904251
 21
207.21048
 31
0.0
210
0.0
220
0.0
230
1.0
  0
LINE
  5
1E9
100
AcDbEntity
  8
0
370
    35
390
0
 62
     7
 48
0.068804
100
AcDbLine
 10
149.154251
 20
197.819
 30
0.0
 11
151.904251
 21
197.927582
 31
0.0
210
0.0
220
0.0
230
1.0
  0
LINE
  5
1EA
100
AcDbEntity
  8
0
370
    35
390
0
 62
     7
 48
0.225
100
AcDbLine
 10
49.654266
 20
207.069
 30
0.0
 11
49.654266
 21
198.069
 31
0.0
210
0.0
220
0.0
230
1.0
  0
LINE
  5
1EB
100
AcDbEntity
  8
0
370
    35
390
0
 62
     7
 48
0.027951
100
AcDbLine
 10
49.654266
 20
207.069
 30
0.0
 11
50.654266
 21
207.569
 31
0.0
210
0.0
220
0.0
230
1.0
  0
LINE
  5
1EC
100
AcDbEntity
  8
0
370
    35
390
0
 62
     7
 48
0.027951
100
AcDbLine
 10
49.654266
 20
198.069
 30
0.0
 11
50.654266
 21
197.569
 31
0.0
210
0.0
220
0.0
230
1.0
  0
LINE
  5
1ED
100
AcDbEntity
  8
0
370
    35
390
0
 62
     7
 48
0.15
100
AcDbLine
 10
33.154266
 20
205.569
 30
0.0
 11
33.154266
 21
199.569
 31
0.0
210
0.0
220
0.0
230
1.0
  0
LINE
  5
1EE
100
AcDbEntity
  8
0
370
    35
390
0
 62
     7
 48
0.098125
100
AcDbLine
 10
33.729248
 20
206.069
 30
0.0
 11
37.654266
 21
206.069
 31
0.0
210
0.0
220
0.0
230
1.0
  0
LINE
  5
1EF
100
AcDbEntity
  8
0
370
    35
390
0
 62
     7
 48
0.1
100
AcDbLine
 10
33.654266
 20
206.069
 30
0.0
 11
37.654266
 21
206.069
 31
0.0
210
0.0
220
0.0
230
1.0
  0
LINE
  5
1F0
100
AcDbEntity
  8
0
370
    35
390
0
 62
     7
 48
0.1
100
AcDbLine
 10
33.654266
 20
199.069
 30
0.0
 11
37.654266
 21
199.069
 31
0.0
210
0.0
220
0.0
230
1.0
  0
LINE
  5
1F1
100
AcDbEntity
  8
0
370
    35
390
0
 62
     7
 48
0.175
100
AcDbLine
 10
37.654266
 20
206.069
 30
0.0
 11
37.654266
 21
199.069
 31
0.0
210
0.0
220
0.0
230
1.0
  0
LINE
  5
1F2
100
AcDbEntity
  8
0
370
    35
390
0
 62
     7
 48
0.175
100
AcDbLine
 10
33.654266
 20
206.069
 30
0.0
 11
33.654266
 21
199.069
 31
0.0
210
0.0
220
0.0
230
1.0
  0
LINE
  5
1F3
100
AcDbEntity
  8
0
370
    35
390
0
 62
     7
 48
0.017678
100
AcDbLine
 10
33.154266
 20
199.569061
 30
0.0
 11
33.654266
 21
199.069061
 31
0.0
210
0.0
220
0.0
230
1.0
  0
LINE
  5
1F4
100
AcDbEntity
  8
0
370
    35
390
0
 62
     7
 48
0.017678
100
AcDbLine
 10
33.154266
 20
205.569
 30
0.0
 11
33.654266
 21
206.069
 31
0.0
210
0.0
220
0.0
230
1.0
  0
LINE
  5
1F5
100
AcDbEntity
  8
0
370
    35
390
0
 62
     7
 48
0.017678
100
AcDbLine
 10
37.654266
 20
206.069
 30
0.0
 11
38.154266
 21
205.569
 31
0.0
210
0.0
220
0.0
230
1.0
  0
LINE
  5
1F6
100
AcDbEntity
  8
0
370
    35
390
0
 62
     7
 48
0.017678
100
AcDbLine
 10
37.654266
 20
199.069
 30
0.0
 11
38.154266
 21
199.569
 31
0.0
210
0.0
220
0.0
230
1.0
  0
LINE
  5
1F7
100
AcDbEntity
  8
0
370
    35
390
0
 62
     7
 48
0.075
100
AcDbLine
 10
27.154266
 20
204.069
 30
0.0
 11
27.154266
 21
201.069
 31
0.0
210
0.0
220
0.0
230
1.0
  0
LINE
  5
1F8
100
AcDbEntity
  8
0
370
    35
390
0
 62
     7
 48
0.152069
100
AcDbLine
 10
33.154266
 20
200.069
 30
0.0
 11
27.154266
 21
201.069
 31
0.0
210
0.0
220
0.0
230
1.0
  0
LINE
  5
1F9
100
AcDbEntity
  8
0
370
    35
390
0
 62
     7
 48
0.152069
100
AcDbLine
 10
33.154266
 20
205.069
 30
0.0
 11
27.154266
 21
204.069
 31
0.0
210
0.0
220
0.0
230
1.0
  0
LINE
  5
1FA
100
AcDbEntity
  8
0
370
    35
390
0
 62
     7
 48
0.1
100
AcDbLine
 10
33.654266
 20
205.569
 30
0.0
 11
37.654266
 21
205.569
 31
0.0
210
0.0
220
0.0
230
1.0
  0
LINE
  5
1FB
100
AcDbEntity
  8
0
370
    35
390
0
 62
     7
 48
0.1
100
AcDbLine
 10
33.654266
 20
205.069
 30
0.0
 11
37.654266
 21
205.069
 31
0.0
210
0.0
220
0.0
230
1.0
  0
LINE
  5
1FC
100
AcDbEntity
  8
0
370
    35
390
0
 62
     7
 48
0.1
100
AcDbLine
 10
33.654266
 20
204.569
 30
0.0
 11
37.654266
 21
204.569
 31
0.0
210
0.0
220
0.0
230
1.0
  0
LINE
  5
1FD
100
AcDbEntity
  8
0
370
    35
390
0
 62
     7
 48
0.1
100
AcDbLine
 10
33.654266
 20
204.069
 30
0.0
 11
37.654266
 21
204.069
 31
0.0
210
0.0
220
0.0
230
1.0
  0
LINE
  5
1FE
100
AcDbEntity
  8
0
370
    35
390
0
 62
     7
 48
0.1
100
AcDbLine
 10
33.654266
 20
203.569
 30
0.0
 11
37.654266
 21
203.569
 31
0.0
210
0.0
220
0.0
230
1.0
  0
LINE
  5
1FF
100
AcDbEntity
  8
0
370
    35
390
0
 62
     7
 48
0.1
100
AcDbLine
 10
33.654266
 20
203.069
 30
0.0
 11
37.654266
 21
203.069
 31
0.0
210
0.0
220
0.0
230
1.0
  0
LINE
  5
200
100
AcDbEntity
  8
0
370
    35
390
0
 62
     7
 48
0.1
100
AcDbLine
 10
33.654266
 20
202.569
 30
0.0
 11
37.654266
 21
202.569
 31
0.0
210
0.0
220
0.0
230
1.0
  0
LINE
  5
201
100
AcDbEntity
  8
0
370
    35
390
0
 62
     7
 48
0.1
100
AcDbLine
 10
33.654266
 20
202.069
 30
0.0
 11
37.654266
 21
202.069
 31
0.0
210
0.0
220
0.0
230
1.0
  0
LINE
  5
202
100
AcDbEntity
  8
0
370
    35
390
0
 62
     7
 48
0.1
100
AcDbLine
 10
33.654266
 20
201.569
 30
0.0
 11
37.654266
 21
201.569
 31
0.0
210
0.0
220
0.0
230
1.0
  0
LINE
  5
203
100
AcDbEntity
  8
0
370
    35
390
0
 62
     7
 48
0.1
100
AcDbLine
 10
33.654266
 20
201.069
 30
0.0
 11
37.654266
 21
201.069
 31
0.0
210
0.0
220
0.0
230
1.0
  0
LINE
  5
204
100
AcDbEntity
  8
0
370
    35
390
0
 62
     7
 48
0.1
100
AcDbLine
 10
33.654266
 20
200.569
 30
0.0
 11
37.654266
 21
200.569
 31
0.0
210
0.0
220
0.0
230
1.0
  0
LINE
  5
205
100
AcDbEntity
  8
0
370
    35
390
0
 62
     7
 48
0.1
100
AcDbLine
 10
33.654266
 20
200.069
 30
0.0
 11
37.654266
 21
200.069
 31
0.0
210
0.0
220
0.0
230
1.0
  0
LINE
  5
206
100
AcDbEntity
  8
0
370
    35
390
0
 62
     7
 48
0.1
100
AcDbLine
 10
33.654266
 20
199.569
 30
0.0
 11
37.654266
 21
199.569
 31
0.0
210
0.0
220
0.0
230
1.0
  0
LINE
  5
207
100
AcDbEntity
  8
0
370
    35
390
0
 62
     7
100
AcDbLine
 10
51.654266
 20
192.569
 30
0.0
 11
51.654266
 21
212.569
 31
0.0
210
0.0
220
0.0
230
1.0
  0
LINE
  5
208
100
AcDbEntity
  8
0
370
    35
390
0
 62
     7
 48
0.012509
100
AcDbLine
 10
151.904251
 20
207.21048
 30
0.0
 11
151.904251
 21
206.710114
 31
0.0
210
0.0
220
0.0
230
1.0
  0
LINE
  5
209
100
AcDbEntity
  8
0
370
    35
390
0
 62
     7
 48
0.012511
100
AcDbLine
 10
152.404251
 20
207.190765
 30
0.0
 11
152.404251
 21
206.690338
 31
0.0
210
0.0
220
0.0
230
1.0
  0
LINE
  5
20A
100
AcDbEntity
  8
0
370
    35
390
0
 62
     7
 48
0.012509
100
AcDbLine
 10
153.904251
 20
207.1315
 30
0.0
 11
153.904251
 21
206.631134
 31
0.0
210
0.0
220
0.0
230
1.0
  0
LINE
  5
20B
100
AcDbEntity
  8
0
370
    35
390
0
 62
     7
 48
0.012511
100
AcDbLine
 10
153.404251
 20
207.151276
 30
0.0
 11
153.404251
 21
206.650848
 31
0.0
210
0.0
220
0.0
230
1.0
  0
LINE
  5
20C
100
AcDbEntity
  8
0
370
    35
390
0
 62
     7
 48
0.012511
100
AcDbLine
 10
154.904251
 20
207.092072
 30
0.0
 11
154.904251
 21
206.591644
 31
0.0
210
0.0
220
0.0
230
1.0
  0
LINE
  5
20D
100
AcDbEntity
  8
0
370
    35
390
0
 62
     7
 48
0.012509
100
AcDbLine
 10
155.404251
 20
207.072296
 30
0.0
 11
155.404251
 21
206.57193
 31
0.0
210
0.0
220
0.0
230
1.0
  0
LINE
  5
20E
100
AcDbEntity
  8
0
370
    35
390
0
 62
     7
 48
0.012509
100
AcDbLine
 10
156.904251
 20
207.013092
 30
0.0
 11
156.904251
 21
206.512726
 31
0.0
210
0.0
220
0.0
230
1.0
  0
LINE
  5
20F
100
AcDbEntity
  8
0
370
    35
390
0
 62
     7
 48
0.012511
100
AcDbLine
 10
156.404251
 20
207.032867
 30
0.0
 11
156.404251
 21
206.53244
 31
0.0
210
0.0
220
0.0
230
1.0
  0
LINE
  5
210
100
AcDbEntity
  8
0
370
    35
390
0
 62
     7
 48
0.012511
100
AcDbLine
 10
157.904251
 20
206.973663
 30
0.0
 11
157.904251
 21
206.473236
 31
0.0
210
0.0
220
0.0
230
1.0
  0
LINE
  5
211
100
AcDbEntity
  8
0
370
    35
390
0
 62
     7
 48
0.012509
100
AcDbLine
 10
158.404251
 20
206.953888
 30
0.0
 11
158.404251
 21
206.453522
 31
0.0
210
0.0
220
0.0
230
1.0
  0
LINE
  5
212
100
AcDbEntity
  8
0
370
    35
390
0
 62
     7
 48
0.012509
100
AcDbLine
 10
159.904251
 20
206.894684
 30
0.0
 11
159.904251
 21
206.394318
 31
0.0
210
0.0
220
0.0
230
1.0
  0
LINE
  5
213
100
AcDbEntity
  8
0
370
    35
390
0
 62
     7
 48
0.012509
100
AcDbLine
 10
159.404251
 20
206.914398
 30
0.0
 11
159.404251
 21
206.414032
 31
0.0
210
0.0
220
0.0
230
1.0
  0
LINE
  5
214
100
AcDbEntity
  8
0
370
    35
390
0
 62
     7
 48
0.012509
100
AcDbLine
 10
162.404251
 20
206.79599
 30
0.0
 11
162.404251
 21
206.295624
 31
0.0
210
0.0
220
0.0
230
1.0
  0
LINE
  5
215
100
AcDbEntity
  8
0
370
    35
390
0
 62
     7
 48
0.012511
100
AcDbLine
 10
162.904251
 20
206.776276
 30
0.0
 11
162.904251
 21
206.275848
 31
0.0
210
0.0
220
0.0
230
1.0
  0
LINE
  5
216
100
AcDbEntity
  8
0
370
    35
390
0
 62
     7
 48
0.012511
100
AcDbLine
 10
164.404251
 20
206.717072
 30
0.0
 11
164.404251
 21
206.216644
 31
0.0
210
0.0
220
0.0
230
1.0
  0
LINE
  5
217
100
AcDbEntity
  8
0
370
    35
390
0
 62
     7
 48
0.012509
100
AcDbLine
 10
163.904251
 20
206.736786
 30
0.0
 11
163.904251
 21
206.23642
 31
0.0
210
0.0
220
0.0
230
1.0
  0
LINE
  5
218
100
AcDbEntity
  8
0
370
    35
390
0
 62
     7
 48
0.01251
100
AcDbLine
 10
151.904251
 20
198.427948
 30
0.0
 11
152.404251
 21
198.447723
 31
0.0
210
0.0
220
0.0
230
1.0
  0
LINE
  5
219
100
AcDbEntity
  8
0
370
    35
390
0
 62
     7
 48
0.01251
100
AcDbLine
 10
151.904251
 20
206.710114
 30
0.0
 11
152.404251
 21
206.690338
 31
0.0
210
0.0
220
0.0
230
1.0
  0
LINE
  5
21A
100
AcDbEntity
  8
0
370
    35
390
0
 62
     7
 48
0.219563
100
AcDbLine
 10
151.904251
 20
206.710114
 30
0.0
 11
151.904251
 21
197.927582
 31
0.0
210
0.0
220
0.0
230
1.0
  0
LINE
  5
21B
100
AcDbEntity
  8
0
370
    35
390
0
 62
     7
 48
0.218576
100
AcDbLine
 10
152.404251
 20
206.690338
 30
0.0
 11
152.404251
 21
197.947296
 31
0.0
210
0.0
220
0.0
230
1.0
  0
LINE
  5
21C
100
AcDbEntity
  8
0
370
    35
390
0
 62
     7
 48
0.216602
100
AcDbLine
 10
153.404251
 20
206.650848
 30
0.0
 11
153.404251
 21
197.986786
 31
0.0
210
0.0
220
0.0
230
1.0
  0
LINE
  5
21D
100
AcDbEntity
  8
0
370
    35
390
0
 62
     7
 48
0.215616
100
AcDbLine
 10
153.904251
 20
206.631134
 30
0.0
 11
153.904251
 21
198.0065
 31
0.0
210
0.0
220
0.0
230
1.0
  0
LINE
  5
21E
100
AcDbEntity
  8
0
370
    35
390
0
 62
     7
 48
0.213641
100
AcDbLine
 10
154.904251
 20
206.591644
 30
0.0
 11
154.904251
 21
198.04599
 31
0.0
210
0.0
220
0.0
230
1.0
  0
LINE
  5
21F
100
AcDbEntity
  8
0
370
    35
390
0
 62
     7
 48
0.212654
100
AcDbLine
 10
155.404251
 20
206.57193
 30
0.0
 11
155.404251
 21
198.065765
 31
0.0
210
0.0
220
0.0
230
1.0
  0
LINE
  5
220
100
AcDbEntity
  8
0
370
    35
390
0
 62
     7
 48
0.210681
100
AcDbLine
 10
156.404251
 20
206.53244
 30
0.0
 11
156.404251
 21
198.105194
 31
0.0
210
0.0
220
0.0
230
1.0
  0
LINE
  5
221
100
AcDbEntity
  8
0
370
    35
390
0
 62
     7
 48
0.209694
100
AcDbLine
 10
156.904251
 20
206.512726
 30
0.0
 11
156.904251
 21
198.124969
 31
0.0
210
0.0
220
0.0
230
1.0
  0
LINE
  5
222
100
AcDbEntity
  8
0
370
    35
390
0
 62
     7
 48
0.207721
100
AcDbLine
 10
157.904251
 20
206.473236
 30
0.0
 11
157.904251
 21
198.164398
 31
0.0
210
0.0
220
0.0
230
1.0
  0
LINE
  5
223
100
AcDbEntity
  8
0
370
    35
390
0
 62
     7
 48
0.206734
100
AcDbLine
 10
158.404251
 20
206.453522
 30
0.0
 11
158.404251
 21
198.184174
 31
0.0
210
0.0
220
0.0
230
1.0
  0
LINE
  5
224
100
AcDbEntity
  8
0
370
    35
390
0
 62
     7
 48
0.204759
100
AcDbLine
 10
159.404251
 20
206.414032
 30
0.0
 11
159.404251
 21
198.223663
 31
0.0
210
0.0
220
0.0
230
1.0
  0
LINE
  5
225
100
AcDbEntity
  8
0
370
    35
390
0
 62
     7
 48
0.203773
100
AcDbLine
 10
159.904251
 20
206.394318
 30
0.0
 11
159.904251
 21
198.243378
 31
0.0
210
0.0
220
0.0
230
1.0
  0
LINE
  5
226
100
AcDbEntity
  8
0
370
    35
390
0
 62
     7
 48
0.198839
100
AcDbLine
 10
162.404251
 20
206.295624
 30
0.0
 11
162.404251
 21
198.342072
 31
0.0
210
0.0
220
0.0
230
1.0
  0
LINE
  5
227
100
AcDbEntity
  8
0
370
    35
390
0
 62
     7
 48
0.197852
100
AcDbLine
 10
162.904251
 20
206.275848
 30
0.0
 11
162.904251
 21
198.361786
 31
0.0
210
0.0
220
0.0
230
1.0
  0
LINE
  5
228
100
AcDbEntity
  8
0
370
    35
390
0
 62
     7
 48
0.195879
100
AcDbLine
 10
163.904251
 20
206.23642
 30
0.0
 11
163.904251
 21
198.401276
 31
0.0
210
0.0
220
0.0
230
1.0
  0
LINE
  5
229
100
AcDbEntity
  8
0
370
    35
390
0
 62
     7
 48
0.194891
100
AcDbLine
 10
164.404251
 20
206.216644
 30
0.0
 11
164.404251
 21
198.42099
 31
0.0
210
0.0
220
0.0
230
1.0
  0
LINE
  5
22A
100
AcDbEntity
  8
0
370
    35
390
0
 62
     7
 48
0.01251
100
AcDbLine
 10
153.404251
 20
198.487152
 30
0.0
 11
153.904251
 21
198.506927
 31
0.0
210
0.0
220
0.0
230
1.0
  0
LINE
  5
22B
100
AcDbEntity
  8
0
370
    35
390
0
 62
     7
 48
0.01251
100
AcDbLine
 10
154.904251
 20
198.546417
 30
0.0
 11
155.404251
 21
198.566132
 31
0.0
210
0.0
220
0.0
230
1.0
  0
LINE
  5
22C
100
AcDbEntity
  8
0
370
    35
390
0
 62
     7
 48
0.01251
100
AcDbLine
 10
156.404251
 20
198.605621
 30
0.0
 11
156.904251
 21
198.625336
 31
0.0
210
0.0
220
0.0
230
1.0
  0
LINE
  5
22D
100
AcDbEntity
  8
0
370
    35
390
0
 62
     7
 48
0.01251
100
AcDbLine
 10
157.904251
 20
198.664825
 30
0.0
 11
158.404251
 21
198.68454
 31
0.0
210
0.0
220
0.0
230
1.0
  0
LINE
  5
22E
100
AcDbEntity
  8
0
370
    35
390
0
 62
     7
 48
0.01251
100
AcDbLine
 10
159.404251
 20
198.72403
 30
0.0
 11
159.904251
 21
198.743744
 31
0.0
210
0.0
220
0.0
230
1.0
  0
LINE
  5
22F
100
AcDbEntity
  8
0
370
    35
390
0
 62
     7
 48
0.01251
100
AcDbLine
 10
162.404251
 20
198.842438
 30
0.0
 11
162.904251
 21
198.862152
 31
0.0
210
0.0
220
0.0
230
1.0
  0
LINE
  5
230
100
AcDbEntity
  8
0
370
    35
390
0
 62
     7
 48
0.01251
100
AcDbLine
 10
163.904251
 20
198.901642
 30
0.0
 11
164.404251
 21
198.921417
 31
0.0
210
0.0
220
0.0
230
1.0
  0
LINE
  5
231
100
AcDbEntity
  8
0
370
    35
390
0
 62
     7
 48
0.01251
100
AcDbLine
 10
163.904251
 20
206.23642
 30
0.0
 11
164.404251
 21
206.216644
 31
0.0
210
0.0
220
0.0
230
1.0
  0
LINE
  5
232
100
AcDbEntity
  8
0
370
    35
390
0
 62
     7
 48
0.01251
100
AcDbLine
 10
162.404251
 20
206.295624
 30
0.0
 11
162.904251
 21
206.275848
 31
0.0
210
0.0
220
0.0
230
1.0
  0
LINE
  5
233
100
AcDbEntity
  8
0
370
    35
390
0
 62
     7
 48
0.01251
100
AcDbLine
 10
159.404251
 20
206.414032
 30
0.0
 11
159.904251
 21
206.394318
 31
0.0
210
0.0
220
0.0
230
1.0
  0
LINE
  5
234
100
AcDbEntity
  8
0
370
    35
390
0
 62
     7
 48
0.01251
100
AcDbLine
 10
157.904251
 20
206.473236
 30
0.0
 11
158.404251
 21
206.453522
 31
0.0
210
0.0
220
0.0
230
1.0
  0
LINE
  5
235
100
AcDbEntity
  8
0
370
    35
390
0
 62
     7
 48
0.01251
100
AcDbLine
 10
156.404251
 20
206.53244
 30
0.0
 11
156.904251
 21
206.512726
 31
0.0
210
0.0
220
0.0
230
1.0
  0
LINE
  5
236
100
AcDbEntity
  8
0
370
    35
390
0
 62
     7
 48
0.01251
100
AcDbLine
 10
154.904251
 20
206.591644
 30
0.0
 11
155.404251
 21
206.57193
 31
0.0
210
0.0
220
0.0
230
1.0
  0
LINE
  5
237
100
AcDbEntity
  8
0
370
    35
390
0
 62
     7
 48
0.01251
100
AcDbLine
 10
153.404251
 20
206.650848
 30
0.0
 11
153.904251
 21
206.631134
 31
0.0
210
0.0
220
0.0
230
1.0
  0
LINE
  5
238
100
AcDbEntity
  8
0
370
    35
390
0
 62
     7
 48
0.025019
100
AcDbLine
 10
152.404251
 20
197.947296
 30
0.0
 11
153.404251
 21
197.986786
 31
0.0
210
0.0
220
0.0
230
1.0
  0
LINE
  5
239
100
AcDbEntity
  8
0
370
    35
390
0
 62
     7
 48
0.025019
100
AcDbLine
 10
153.904251
 20
198.0065
 30
0.0
 11
154.904251
 21
198.04599
 31
0.0
210
0.0
220
0.0
230
1.0
  0
LINE
  5
23A
100
AcDbEntity
  8
0
370
    35
390
0
 62
     7
 48
0.025019
100
AcDbLine
 10
155.404251
 20
198.065765
 30
0.0
 11
156.404251
 21
198.105194
 31
0.0
210
0.0
220
0.0
230
1.0
  0
LINE
  5
23B
100
AcDbEntity
  8
0
370
    35
390
0
 62
     7
 48
0.025019
100
AcDbLine
 10
156.904251
 20
198.124969
 30
0.0
 11
157.904251
 21
198.164398
 31
0.0
210
0.0
220
0.0
230
1.0
  0
LINE
  5
23C
100
AcDbEntity
  8
0
370
    35
390
0
 62
     7
 48
0.025019
100
AcDbLine
 10
158.404251
 20
198.184174
 30
0.0
 11
159.404251
 21
198.223663
 31
0.0
210
0.0
220
0.0
230
1.0
  0
LINE
  5
23D
100
AcDbEntity
  8
0
370
    35
390
0
 62
     7
 48
0.062549
100
AcDbLine
 10
159.904251
 20
198.243378
 30
0.0
 11
162.404251
 21
198.342072
 31
0.0
210
0.0
220
0.0
230
1.0
  0
LINE
  5
23E
100
AcDbEntity
  8
0
370
    35
390
0
 62
     7
 48
0.025019
100
AcDbLine
 10
162.904251
 20
198.361786
 30
0.0
 11
163.904251
 21
198.401276
 31
0.0
210
0.0
220
0.0
230
1.0
  0
LINE
  5
23F
100
AcDbEntity
  8
0
370
    35
390
0
 62
     7
 48
0.093823
100
AcDbLine
 10
164.404251
 20
198.42099
 30
0.0
 11
168.154251
 21
198.569
 31
0.0
210
0.0
220
0.0
230
1.0
  0
LINE
  5
240
100
AcDbEntity
  8
0
370
    35
390
0
 62
     7
 48
0.093823
100
AcDbLine
 10
164.404251
 20
206.717072
 30
0.0
 11
168.154251
 21
206.569
 31
0.0
210
0.0
220
0.0
230
1.0
  0
LINE
  5
241
100
AcDbEntity
  8
0
370
    35
390
0
 62
     7
 48
0.025019
100
AcDbLine
 10
162.904251
 20
206.776276
 30
0.0
 11
163.904251
 21
206.736786
 31
0.0
210
0.0
220
0.0
230
1.0
  0
LINE
  5
242
100
AcDbEntity
  8
0
370
    35
390
0
 62
     7
 48
0.062549
100
AcDbLine
 10
159.904251
 20
206.894684
 30
0.0
 11
162.404251
 21
206.79599
 31
0.0
210
0.0
220
0.0
230
1.0
  0
LINE
  5
243
100
AcDbEntity
  8
0
370
    35
390
0
 62
     7
 48
0.025019
100
AcDbLine
 10
158.404251
 20
206.953888
 30
0.0
 11
159.404251
 21
206.914398
 31
0.0
210
0.0
220
0.0
230
1.0
  0
LINE
  5
244
100
AcDbEntity
  8
0
370
    35
390
0
 62
     7
 48
0.025019
100
AcDbLine
 10
156.904251
 20
207.013092
 30
0.0
 11
157.904251
 21
206.973663
 31
0.0
210
0.0
220
0.0
230
1.0
  0
LINE
  5
245
100
AcDbEntity
  8
0
370
    35
390
0
 62
     7
 48
0.025019
100
AcDbLine
 10
155.404251
 20
207.072296
 30
0.0
 11
156.404251
 21
207.032867
 31
0.0
210
0.0
220
0.0
230
1.0
  0
LINE
  5
246
100
AcDbEntity
  8
0
370
    35
390
0
 62
     7
 48
0.025019
100
AcDbLine
 10
153.904251
 20
207.1315
 30
0.0
 11
154.904251
 21
207.092072
 31
0.0
210
0.0
220
0.0
230
1.0
  0
LINE
  5
247
100
AcDbEntity
  8
0
370
    35
390
0
 62
     7
 48
0.025019
100
AcDbLine
 10
152.404251
 20
207.190765
 30
0.0
 11
153.404251
 21
207.151276
 31
0.0
210
0.0
220
0.0
230
1.0
  0
LINE
  5
248
100
AcDbEntity
  8
0
370
    35
390
0
 62
     7
 48
0.15
100
AcDbLine
 10
38.154266
 20
205.569
 30
0.0
 11
38.154266
 21
199.569
 31
0.0
210
0.0
220
0.0
230
1.0
  0
LINE
  5
249
100
AcDbEntity
  8
0
370
    35
390
0
 62
     7
 48
0.2875
100
AcDbLine
 10
38.154266
 20
205.569
 30
0.0
 11
49.654266
 21
205.569
 31
0.0
210
0.0
220
0.0
230
1.0
  0
LINE
  5
24A
100
AcDbEntity
  8
0
370
    35
390
0
 62
     7
 48
0.2875
100
AcDbLine
 10
38.154266
 20
199.569
 30
0.0
 11
49.654266
 21
199.569
 31
0.0
210
0.0
220
0.0
230
1.0
  0
ARC
  5
24B
100
AcDbEntity
  8
0
370
    35
390
0
 62
     7
100
AcDbCircle
 10
194.122025
 20
181.621002
 30
0.0
 40
18.048027
210
0.0
220
0.0
230
1.0
100
AcDbArc
 50
269.999997
 51
90.000003
  0
ARC
  5
24C
100
AcDbEntity
  8
0
370
    35
390
0
 62
     7
100
AcDbCircle
 10
194.095993
 20
181.59494
 30
0.0
 40
23.874069
210
0.0
220
0.0
230
1.0
100
AcDbArc
 50
269.999997
 51
90.000003
  0
ARC
  5
24D
100
AcDbEntity
  8
0
370
    35
390
0
 62
     7
100
AcDbCircle
 10
82.726166
 20
141.59494
 30
0.0
 40
16.125931
210
0.0
220
0.0
230
1.0
100
AcDbArc
 50
89.999996
 51
269.999997
  0
ARC
  5
24E
100
AcDbEntity
  8
0
370
    35
390
0
 62
     7
100
AcDbCircle
 10
137.529205
 20
162.096954
 30
0.0
 40
1.476042
210
0.0
220
0.0
230
1.0
100
AcDbArc
 50
280.778828
 51
79.221179
  0
ARC
  5
24F
100
AcDbEntity
  8
0
370
    35
390
0
 62
     7
100
AcDbCircle
 10
138.081299
 20
159.19693
 30
0.0
 40
1.476042
210
0.0
220
0.0
230
1.0
100
AcDbArc
 50
100.77884
 51
259.221139
  0
ARC
  5
250
100
AcDbEntity
  8
0
370
    35
390
0
 62
     7
100
AcDbCircle
 10
137.529205
 20
159.19693
 30
0.0
 40
1.476042
210
0.0
220
0.0
230
1.0
100
AcDbArc
 50
280.778828
 51
79.221179
  0
ARC
  5
251
100
AcDbEntity
  8
0
370
    35
390
0
 62
     7
100
AcDbCircle
 10
82.752228
 20
141.621002
 30
0.0
 40
21.951973
210
0.0
220
0.0
230
1.0
100
AcDbArc
 50
90.000003
 51
269.999997
  0
ARC
  5
252
100
AcDbEntity
  8
0
370
    35
390
0
 62
     7
100
AcDbCircle
 10
268.246033
 20
124.019043
 30
0.0
 40
1.476042
210
0.0
220
0.0
230
1.0
100
AcDbArc
 50
280.778828
 51
79.221144
  0
ARC
  5
253
100
AcDbEntity
  8
0
370
    35
390
0
 62
     7
100
AcDbCircle
 10
268.798157
 20
124.019043
 30
0.0
 40
1.476042
210
0.0
220
0.0
230
1.0
100
AcDbArc
 50
100.77882
 51
259.221167
  0
ARC
  5
254
100
AcDbEntity
  8
0
370
    35
390
0
 62
     7
100
AcDbCircle
 10
268.798157
 20
121.119019
 30
0.0
 40
1.476042
210
0.0
220
0.0
230
1.0
100
AcDbArc
 50
100.77882
 51
259.221167
  0
ARC
  5
255
100
AcDbEntity
  8
0
370
    35
390
0
 62
     7
100
AcDbCircle
 10
263.235291
 20
121.119019
 30
0.0
 40
1.476042
210
0.0
220
0.0
230
1.0
100
AcDbArc
 50
280.778828
 51
79.221179
  0
ARC
  5
256
100
AcDbEntity
  8
0
370
    35
390
0
 62
     7
100
AcDbCircle
 10
263.787354
 20
121.119019
 30
0.0
 40
1.476042
210
0.0
220
0.0
230
1.0
100
AcDbArc
 50
100.77884
 51
259.221139
  0
ARC
  5
257
100
AcDbEntity
  8
0
370
    35
390
0
 62
     7
100
AcDbCircle
 10
328.156677
 20
127.469055
 30
0.0
 40
1.0
210
0.0
220
0.0
230
1.0
100
AcDbArc
 50
5.73902
 51
174.260966
  0
ARC
  5
258
100
AcDbEntity
  8
0
370
    35
390
0
 62
     7
100
AcDbCircle
 10
328.156677
 20
117.669067
 30
0.0
 40
1.0
210
0.0
220
0.0
230
1.0
100
AcDbArc
 50
185.739048
 51
354.260985
  0
CIRCLE
  5
259
100
AcDbEntity
  8
0
370
    35
390
0
 62
     7
100
AcDbCircle
 10
244.862503
 20
113.874023
 30
0.0
 40
2.1
210
0.0
220
0.0
230
1.0
  0
CIRCLE
  5
25A
100
AcDbEntity
  8
0
370
    35
390
0
 62
     7
100
AcDbCircle
 10
134.862534
 20
131.264038
 30
0.0
 40
2.1
210
0.0
220
0.0
230
1.0
  0
ARC
  5
25B
100
AcDbEntity
  8
0
370
    35
390
0
 62
     7
100
AcDbCircle
 10
143.081299
 20
159.19693
 30
0.0
 40
1.476042
210
0.0
220
0.0
230
1.0
100
AcDbArc
 50
100.77882
 51
259.221167
  0
ARC
  5
25C
100
AcDbEntity
  8
0
370
    35
390
0
 62
     7
100
AcDbCircle
 10
143.081299
 20
162.096954
 30
0.0
 40
1.476042
210
0.0
220
0.0
230
1.0
100
AcDbArc
 50
100.77882
 51
259.221167
  0
ARC
  5
25D
100
AcDbEntity
  8
0
370
    35
390
0
 62
     7
100
AcDbCircle
 10
142.529205
 20
162.096954
 30
0.0
 40
1.476042
210
0.0
220
0.0
230
1.0
100
AcDbArc
 50
280.778828
 51
79.221144
  0
ARC
  5
25E
100
AcDbEntity
  8
0
370
    35
390
0
 62
     7
100
AcDbCircle
 10
132.362534
 20
133.764038
 30
0.0
 40
2.0
210
0.0
220
0.0
230
1.0
100
AcDbArc
 50
90.000003
 51
180.000009
  0
ARC
  5
25F
100
AcDbEntity
  8
0
370
    35
390
0
 62
     7
100
AcDbCircle
 10
263.235291
 20
124.019043
 30
0.0
 40
1.476042
210
0.0
220
0.0
230
1.0
100
AcDbArc
 50
280.778828
 51
79.221179
  0
ARC
  5
260
100
AcDbEntity
  8
0
370
    35
390
0
 62
     7
100
AcDbCircle
 10
247.362503
 20
111.374023
 30
0.0
 40
2.0
210
0.0
220
0.0
230
1.0
100
AcDbArc
 50
269.999997
 51
360.0
  0
ARC
  5
261
100
AcDbEntity
  8
0
370
    35
390
0
 62
     7
100
AcDbCircle
 10
247.362503
 20
116.269043
 30
0.0
 40
2.0
210
0.0
220
0.0
230
1.0
100
AcDbArc
 50
0.0
 51
90.000003
  0
ARC
  5
262
100
AcDbEntity
  8
0
370
    35
390
0
 62
     7
100
AcDbCircle
 10
132.362534
 20
128.869019
 30
0.0
 40
2.0
210
0.0
220
0.0
230
1.0
100
AcDbArc
 50
180.000009
 51
269.999997
  0
ARC
  5
263
100
AcDbEntity
  8
0
370
    35
390
0
 62
     7
100
AcDbCircle
 10
268.246033
 20
64.019043
 30
0.0
 40
1.476042
210
0.0
220
0.0
230
1.0
100
AcDbArc
 50
280.778828
 51
79.221144
  0
ARC
  5
264
100
AcDbEntity
  8
0
370
    35
390
0
 62
     7
100
AcDbCircle
 10
268.798157
 20
64.019043
 30
0.0
 40
1.476042
210
0.0
220
0.0
230
1.0
100
AcDbArc
 50
100.77882
 51
259.221167
  0
ARC
  5
265
100
AcDbEntity
  8
0
370
    35
390
0
 62
     7
100
AcDbCircle
 10
268.798157
 20
61.119019
 30
0.0
 40
1.476042
210
0.0
220
0.0
230
1.0
100
AcDbArc
 50
100.77882
 51
259.221167
  0
ARC
  5
266
100
AcDbEntity
  8
0
370
    35
390
0
 62
     7
100
AcDbCircle
 10
263.235291
 20
61.119019
 30
0.0
 40
1.476042
210
0.0
220
0.0
230
1.0
100
AcDbArc
 50
280.778828
 51
79.221179
  0
ARC
  5
267
100
AcDbEntity
  8
0
370
    35
390
0
 62
     7
100
AcDbCircle
 10
263.787354
 20
61.119019
 30
0.0
 40
1.476042
210
0.0
220
0.0
230
1.0
100
AcDbArc
 50
100.77884
 51
259.221139
  0
ARC
  5
268
100
AcDbEntity
  8
0
370
    35
390
0
 62
     7
100
AcDbCircle
 10
306.156677
 20
62.569031
 30
0.0
 40
1.0
210
0.0
220
0.0
230
1.0
100
AcDbArc
 50
269.999997
 51
90.000003
  0
CIRCLE
  5
269
100
AcDbEntity
  8
0
370
    35
390
0
 62
     7
100
AcDbCircle
 10
328.156677
 20
62.569031
 30
0.0
 40
1.0
210
0.0
220
0.0
230
1.0
  0
ARC
  5
26A
100
AcDbEntity
  8
0
370
    35
390
0
 62
     7
100
AcDbCircle
 10
116.489838
 20
61.119019
 30
0.0
 40
1.476042
210
0.0
220
0.0
230
1.0
100
AcDbArc
 50
100.77882
 51
259.221167
  0
ARC
  5
26B
100
AcDbEntity
  8
0
370
    35
390
0
 62
     7
100
AcDbCircle
 10
116.489838
 20
64.019043
 30
0.0
 40
1.476042
210
0.0
220
0.0
230
1.0
100
AcDbArc
 50
100.77882
 51
259.221167
  0
ARC
  5
26C
100
AcDbEntity
  8
0
370
    35
390
0
 62
     7
100
AcDbCircle
 10
115.937744
 20
64.019043
 30
0.0
 40
1.476042
210
0.0
220
0.0
230
1.0
100
AcDbArc
 50
280.778828
 51
79.221144
  0
ARC
  5
26D
100
AcDbEntity
  8
0
370
    35
390
0
 62
     7
100
AcDbCircle
 10
263.235291
 20
64.019043
 30
0.0
 40
1.476042
210
0.0
220
0.0
230
1.0
100
AcDbArc
 50
280.778828
 51
79.221179
  0
CIRCLE
  5
26E
100
AcDbEntity
  8
0
370
    35
390
0
 62
     7
100
AcDbCircle
 10
227.362503
 20
58.169037
 30
0.0
 40
1.95
210
0.0
220
0.0
230
1.0
  0
ARC
  5
26F
100
AcDbEntity
  8
0
370
    35
390
0
 62
     7
100
AcDbCircle
 10
239.562515
 20
68.569031
 30
0.0
 40
0.8
210
0.0
220
0.0
230
1.0
100
AcDbArc
 50
0.0
 51
90.000003
  0
CIRCLE
  5
270
100
AcDbEntity
  8
0
370
    35
390
0
 62
     7
100
AcDbCircle
 10
151.362534
 20
58.169037
 30
0.0
 40
1.95
210
0.0
220
0.0
230
1.0
  0
ARC
  5
271
100
AcDbEntity
  8
0
370
    35
390
0
 62
     7
100
AcDbCircle
 10
140.162537
 20
68.569031
 30
0.0
 40
0.8
210
0.0
220
0.0
230
1.0
100
AcDbArc
 50
90.000003
 51
180.000009
  0
ARC
  5
272
100
AcDbEntity
  8
0
370
    35
390
0
 62
     7
100
AcDbCircle
 10
139.362534
 20
55.369019
 30
0.0
 40
0.8
210
0.0
220
0.0
230
1.0
100
AcDbArc
 50
269.999997
 51
360.0
  0
ARC
  5
273
100
AcDbEntity
  8
0
370
    35
390
0
 62
     7
100
AcDbCircle
 10
238.46257
 20
55.169037
 30
0.0
 40
1.0
210
0.0
220
0.0
230
1.0
100
AcDbArc
 50
269.999997
 51
360.0
  0
ARC
  5
274
100
AcDbEntity
  8
0
370
    35
390
0
 62
     7
100
AcDbCircle
 10
141.262543
 20
55.169037
 30
0.0
 40
1.0
210
0.0
220
0.0
230
1.0
100
AcDbArc
 50
180.000009
 51
269.999997
  0
CIRCLE
  5
275
100
AcDbEntity
  8
0
370
    35
390
0
 62
     7
100
AcDbCircle
 10
151.362534
 20
58.169037
 30
0.0
 40
2.0
210
0.0
220
0.0
230
1.0
  0
ARC
  5
276
100
AcDbEntity
  8
0
370
    35
390
0
 62
     7
100
AcDbCircle
 10
152.21106
 20
58.169037
 30
0.0
 40
0.4
210
0.0
220
0.0
230
1.0
100
AcDbArc
 50
135.0
 51
224.999986
  0
ARC
  5
277
100
AcDbEntity
  8
0
370
    35
390
0
 62
     7
100
AcDbCircle
 10
151.362534
 20
59.017548
 30
0.0
 40
0.4
210
0.0
220
0.0
230
1.0
100
AcDbArc
 50
225.0
 51
314.999992
  0
ARC
  5
278
100
AcDbEntity
  8
0
370
    35
390
0
 62
     7
100
AcDbCircle
 10
150.514008
 20
58.169037
 30
0.0
 40
0.4
210
0.0
220
0.0
230
1.0
100
AcDbArc
 50
314.999992
 51
44.999998
  0
ARC
  5
279
100
AcDbEntity
  8
0
370
    35
390
0
 62
     7
100
AcDbCircle
 10
151.362534
 20
57.320496
 30
0.0
 40
0.4
210
0.0
220
0.0
230
1.0
100
AcDbArc
 50
45.000001
 51
135.0
  0
CIRCLE
  5
27A
100
AcDbEntity
  8
0
370
    35
390
0
 62
     7
100
AcDbCircle
 10
227.362503
 20
58.169037
 30
0.0
 40
2.0
210
0.0
220
0.0
230
1.0
  0
ARC
  5
27B
100
AcDbEntity
  8
0
370
    35
390
0
 62
     7
100
AcDbCircle
 10
228.211044
 20
58.169037
 30
0.0
 40
0.4
210
0.0
220
0.0
230
1.0
100
AcDbArc
 50
135.0
 51
224.999986
  0
ARC
  5
27C
100
AcDbEntity
  8
0
370
    35
390
0
 62
     7
100
AcDbCircle
 10
227.362503
 20
59.017548
 30
0.0
 40
0.4
210
0.0
220
0.0
230
1.0
100
AcDbArc
 50
225.0
 51
314.999992
  0
ARC
  5
27D
100
AcDbEntity
  8
0
370
    35
390
0
 62
     7
100
AcDbCircle
 10
226.513992
 20
58.169037
 30
0.0
 40
0.4
210
0.0
220
0.0
230
1.0
100
AcDbArc
 50
314.999992
 51
44.999998
  0
ARC
  5
27E
100
AcDbEntity
  8
0
370
    35
390
0
 62
     7
100
AcDbCircle
 10
227.362503
 20
57.320496
 30
0.0
 40
0.4
210
0.0
220
0.0
230
1.0
100
AcDbArc
 50
45.000001
 51
135.0
  0
ARC
  5
27F
100
AcDbEntity
  8
0
370
    35
390
0
 62
     7
100
AcDbCircle
 10
27.374237
 20
202.569
 30
0.0
 40
1.22
210
0.0
220
0.0
230
1.0
100
AcDbArc
 50
100.388843
 51
259.611143
  0
ENDSEC
  0
SECTION
  2
OBJECTS
  0
DICTIONARY
  5
19
100
AcDbDictionary
280
     0
281
     1
  3
ACAD_GROUP
350
1A
  3
ACAD_MLINESTYLE
350
1B
  3
ACAD_LAYOUT
350
1E
  3
ACAD_PLOTSETTINGS
350
22
  3
ACAD_PLOTSTYLENAME
350
1F
  3
ACAD_WIPEOUT_VARS
350
23
  0
DICTIONARY
  5
1A
102
{ACAD_REACTORS
330
19
102
}
100
AcDbDictionary
280
     0
281
     1
  0
DICTIONARY
  5
1B
102
{ACAD_REACTORS
330
19
102
}
100
AcDbDictionary
280
     0
281
     1
  3
Standard
350
1C
  0
MLINESTYLE
  5
1C
102
{ACAD_REACTORS
330
1B
102
}
100
AcDbMlineStyle
  2
Standard
 70
     0
  3

 62
     0
 51
90.0
 52
90.0
 71
     2
 49
0.5
 62
   256
  6
ByLayer
 49
-0.5
 62
   256
  6
ByLayer
  0
ACDBDICTIONARYWDFLT
  5
1F
102
{ACAD_REACTORS
330
19
102
}
100
AcDbDictionary
281
     1
  3
Normal
350
1D
100
AcDbDictionaryWithDefault
340
1D
  0
ACDBPLACEHOLDER
  5
1D
102
{ACAD_REACTORS
330
1F
102
}
  0
LAYOUT
  5
20
102
{ACAD_REACTORS
330
1E
102
}
100
AcDbPlotSettings
  1

  2

  4

  6

 40
0.0
 41
0.0
 42
0.0
 43
0.0
 44
0.0
 45
0.0
 46
0.0
 47
0.0
 48
0.0
 49
0.0
140
0.0
141
0.0
142
1.0
143
1.0
 70
  1024
 72
     0
 73
     0
 74
     0
  7

 75
     0
147
1.0
148
0.0
149
0.0
100
AcDbLayout
  1
Model
 70
     0
 71
     0
 10
0.0
 20
0.0
 11
0.0
 21
0.0
 12
0.0
 22
0.0
 32
0.0
 14
0.0
 24
0.0
 34
0.0
 15
0.0
 25
0.0
 35
0.0
146
0.0
 13
0.0
 23
0.0
 33
0.0
 16
0.0
 26
0.0
 36
0.0
 17
0.0
 27
0.0
 37
0.0
 76
     0
330
A
331
0
345
0
346
0
  0
LAYOUT
  5
21
102
{ACAD_REACTORS
330
1E
102
}
100
AcDbPlotSettings
  1

  2

  4

  6

 40
0.0
 41
0.0
 42
0.0
 43
0.0
 44
0.0
 45
0.0
 46
0.0
 47
0.0
 48
0.0
 49
0.0
140
0.0
141
0.0
142
1.0
143
1.0
 70
     0
 72
     0
 73
     0
 74
     0
  7

 75
     0
147
1.0
148
0.0
149
0.0
100
AcDbLayout
  1
Layout1
 70
     0
 71
     0
 10
0.0
 20
0.0
 11
0.0
 21
0.0
 12
0.0
 22
0.0
 32
0.0
 14
0.0
 24
0.0
 34
0.0
 15
0.0
 25
0.0
 35
0.0
146
0.0
 13
0.0
 23
0.0
 33
0.0
 16
0.0
 26
0.0
 36
0.0
 17
0.0
 27
0.0
 37
0.0
 76
     0
330
B
331
0
345
0
346
0
  0
DICTIONARY
  5
1E
102
{ACAD_REACTORS
330
19
102
}
100
AcDbDictionary
280
     0
281
     1
  3
Layout1
350
21
  3
Model
350
20
  0
DICTIONARY
  5
22
102
{ACAD_REACTORS
330
19
102
}
100
AcDbDictionary
280
     0
281
     1
  0
WIPEOUTVARIABLES
  5
23
100
AcDbWipeoutVariables
 70
     1
  0
ENDSEC
  0
EOF
